999
DXF file: N:\Master\master\M3_ProE_files\Lenexa\MADAM DXF\49813.dxf
999
Pro/ENGINEER 2010280 by Parametric Technology Corporation
  0
SECTION
  2
HEADER
  9
$ACADVER
  1
AC1021
  9
$DWGCODEPAGE
  3
ANSI_1252
  9
$EXTMAX
 10
17.0
 20
11.0
 30
0.0
  9
$EXTMIN
 10
0.0
 20
-0.0
 30
0.0
  9
$LIMMIN
 10
0.0
 20
-0.0
  9
$LIMMAX
 10
17.0
 20
11.0
  9
$VIEWCTR
 10
8.5
 20
5.5
  9
$VIEWSIZE
 40
11.0
  9
$CLAYER
  8
0
  9
$LTSCALE
 40
0.935
  9
$CELTYPE
  6
BYLAYER
  9
$DIMSCALE
 40
1.0
  9
$DIMASZ
 40
0.125
  9
$DIMEXO
 40
0.10625
  9
$DIMDLI
 40
0.646
  9
$DIMEXE
 40
0.306
  9
$DIMCEN
 40
0.153
  9
$DIMLFAC
 40
1.0
  9
$DIMBLK
  1
_FILLED
  9
$DIMTXT
 40
0.125
  9
$DIMTOL
 70
1
  9
$DIMLIM
 70
0
  9
$DIMTFAC
 40
1.0
  9
$DIMTP
 40
0.01
  9
$DIMTM
 40
0.01
  9
$PDMODE
 70
3
  9
$PDSIZE
 40
0.3125
  9
$HANDSEED
  5
553
  9
$TILEMODE
 70
1
  9
$MEASUREMENT
 70
0
  9
$INSUNITS
 70
1
  0
ENDSEC
  0
SECTION
  2
CLASSES
  0
CLASS
  1
ACDBDICTIONARYWDFLT
  2
AcDbDictionaryWithDefault
  3
AutoCAD 2000
 90
0
 91
1
280
0
281
0
  0
CLASS
  1
ACDBPLACEHOLDER
  2
AcDbPlaceHolder
  3
AutoCAD 2000
 90
0
 91
1
280
0
281
0
  0
CLASS
  1
LAYOUT
  2
AcDbLayout
  3
AutoCAD 2000
 90
0
 91
0
280
0
281
0
  0
ENDSEC
  0
SECTION
  2
TABLES
  0
TABLE
  2
VPORT
  5
8
100
AcDbSymbolTable
 70
2
  0
VPORT
  5
1F4
100
AcDbSymbolTableRecord
100
AcDbViewportTableRecord
  2
*ACTIVE
 70
0
 10
0.0
 20
0.0
 11
1.0
 21
1.0
 12
8.5
 22
5.5
 13
0.0
 23
0.0
 14
1.0
 24
1.0
 15
0.0
 25
0.0
 16
0.0
 26
0.0
 36
1.0
 17
0.0
 27
0.0
 37
0.0
 40
11.0
 41
1.5454545455
 42
50.0
 43
0.0
 44
0.0
 50
0.0
 51
0.0
 71
0
 72
100
 73
1
 74
1
 75
0
 76
0
 77
0
 78
0
  0
ENDTAB
  0
TABLE
  2
LTYPE
  5
5
100
AcDbSymbolTable
 70
6
  0
LTYPE
  5
14
100
AcDbSymbolTableRecord
100
AcDbLinetypeTableRecord
  2
BYBLOCK
 70
0
  3

 72
65
 73
0
 40
0.0
  0
LTYPE
  5
15
100
AcDbSymbolTableRecord
100
AcDbLinetypeTableRecord
  2
BYLAYER
 70
0
  3

 72
65
 73
0
 40
0.0
  0
LTYPE
  5
16
100
AcDbSymbolTableRecord
100
AcDbLinetypeTableRecord
  2
CONTINUOUS
 70
64
  3
Solid line
 72
65
 73
0
 40
0.0
  0
LTYPE
  5
1F5
100
AcDbSymbolTableRecord
100
AcDbLinetypeTableRecord
  2
CENTER
 70
64
  3
____ _ ____ _ ____ _ ____ _ ____ _ ____ _ ____
 72
65
 73
4
 40
0.6
 49
0.375
 74
0
 49
-0.075
 74
0
 49
0.075
 74
0
 49
-0.075
 74
0
  0
LTYPE
  5
1F6
100
AcDbSymbolTableRecord
100
AcDbLinetypeTableRecord
  2
HIDDEN
 70
64
  3
- - - - - - - - - - - - - - - - - - - -
 72
65
 73
2
 40
0.2
 49
0.1
 74
0
 49
-0.1
 74
0
  0
LTYPE
  5
1F7
100
AcDbSymbolTableRecord
100
AcDbLinetypeTableRecord
  2
PHANTOM
 70
64
  3
_____ _ _ _____ _ _ _____ _ _ _____
 72
65
 73
6
 40
0.8
 49
0.45
 74
0
 49
-0.05
 74
0
 49
0.1
 74
0
 49
-0.05
 74
0
 49
0.1
 74
0
 49
-0.05
 74
0
  0
LTYPE
  5
1F8
100
AcDbSymbolTableRecord
100
AcDbLinetypeTableRecord
  2
DOT
 70
64
  3
. . . . . . . . . . . . . . . . . . . .
 72
65
 73
2
 40
0.2
 49
0.1
 74
0
 49
-0.1
 74
0
  0
LTYPE
  5
1F9
100
AcDbSymbolTableRecord
100
AcDbLinetypeTableRecord
  2
DASHED
 70
64
  3
- - - - - - - - - - - - - - - - - - - -
 72
65
 73
2
 40
0.2
 49
0.1
 74
0
 49
-0.1
 74
0
  0
ENDTAB
  0
TABLE
  2
LAYER
  5
2
100
AcDbSymbolTable
 70
36
  0
LAYER
  5
10
100
AcDbSymbolTableRecord
100
AcDbLayerTableRecord
  2
0
 70
0
 62
7
  6
CONTINUOUS
370
-3
390
F
  0
LAYER
  5
1FA
100
AcDbSymbolTableRecord
100
AcDbLayerTableRecord
  2
DEFAULT_1
 70
0
 62
7
  6
CENTER
370
-3
390
F
  0
LAYER
  5
1FB
100
AcDbSymbolTableRecord
100
AcDbLayerTableRecord
  2
DEFAULT_2
 70
0
 62
8
  6
HIDDEN
370
-3
390
F
  0
LAYER
  5
1FC
100
AcDbSymbolTableRecord
100
AcDbLayerTableRecord
  2
DEFAULT_3
 70
0
 62
7
  6
PHANTOM
370
-3
390
F
  0
LAYER
  5
1FD
100
AcDbSymbolTableRecord
100
AcDbLayerTableRecord
  2
01_ALL_DTM_PLN
 70
0
 62
7
  6
CONTINUOUS
370
-3
390
F
  0
LAYER
  5
1FE
100
AcDbSymbolTableRecord
100
AcDbLayerTableRecord
  2
01__ASM_ALL_DTM_PLN
 70
0
 62
7
  6
CONTINUOUS
370
-3
390
F
  0
LAYER
  5
1FF
100
AcDbSymbolTableRecord
100
AcDbLayerTableRecord
  2
01__ASM_DEF_DTM_PLN
 70
0
 62
7
  6
CONTINUOUS
370
-3
390
F
  0
LAYER
  5
200
100
AcDbSymbolTableRecord
100
AcDbLayerTableRecord
  2
01___PRT_ALL_DTM_PLN
 70
0
 62
7
  6
CONTINUOUS
370
-3
390
F
  0
LAYER
  5
201
100
AcDbSymbolTableRecord
100
AcDbLayerTableRecord
  2
01___PRT_DEF_DTM_PLN
 70
0
 62
7
  6
CONTINUOUS
370
-3
390
F
  0
LAYER
  5
202
100
AcDbSymbolTableRecord
100
AcDbLayerTableRecord
  2
02_ALL_AXES
 70
0
 62
7
  6
CONTINUOUS
370
-3
390
F
  0
LAYER
  5
203
100
AcDbSymbolTableRecord
100
AcDbLayerTableRecord
  2
02__ASM_ALL_AXES
 70
0
 62
7
  6
CONTINUOUS
370
-3
390
F
  0
LAYER
  5
204
100
AcDbSymbolTableRecord
100
AcDbLayerTableRecord
  2
02___PRT_ALL_AXES
 70
0
 62
7
  6
CONTINUOUS
370
-3
390
F
  0
LAYER
  5
205
100
AcDbSymbolTableRecord
100
AcDbLayerTableRecord
  2
03_ALL_CURVES
 70
0
 62
7
  6
CONTINUOUS
370
-3
390
F
  0
LAYER
  5
206
100
AcDbSymbolTableRecord
100
AcDbLayerTableRecord
  2
03__ASM_ALL_CURVES
 70
0
 62
7
  6
CONTINUOUS
370
-3
390
F
  0
LAYER
  5
207
100
AcDbSymbolTableRecord
100
AcDbLayerTableRecord
  2
03___PRT_ALL_CURVES
 70
0
 62
7
  6
CONTINUOUS
370
-3
390
F
  0
LAYER
  5
208
100
AcDbSymbolTableRecord
100
AcDbLayerTableRecord
  2
04_ALL_DTM_PNT
 70
0
 62
7
  6
CONTINUOUS
370
-3
390
F
  0
LAYER
  5
209
100
AcDbSymbolTableRecord
100
AcDbLayerTableRecord
  2
04__ASM_ALL_DTM_PNT
 70
0
 62
7
  6
CONTINUOUS
370
-3
390
F
  0
LAYER
  5
20A
100
AcDbSymbolTableRecord
100
AcDbLayerTableRecord
  2
04___PRT_ALL_DTM_PNT
 70
0
 62
7
  6
CONTINUOUS
370
-3
390
F
  0
LAYER
  5
20B
100
AcDbSymbolTableRecord
100
AcDbLayerTableRecord
  2
05_ALL_DTM_CSYS
 70
0
 62
7
  6
CONTINUOUS
370
-3
390
F
  0
LAYER
  5
20C
100
AcDbSymbolTableRecord
100
AcDbLayerTableRecord
  2
05__ASM_ALL_DTM_CSYS
 70
0
 62
7
  6
CONTINUOUS
370
-3
390
F
  0
LAYER
  5
20D
100
AcDbSymbolTableRecord
100
AcDbLayerTableRecord
  2
05__ASM_DEF_DTM_CSYS
 70
0
 62
7
  6
CONTINUOUS
370
-3
390
F
  0
LAYER
  5
20E
100
AcDbSymbolTableRecord
100
AcDbLayerTableRecord
  2
05___PRT_ALL_DTM_CSYS
 70
0
 62
7
  6
CONTINUOUS
370
-3
390
F
  0
LAYER
  5
20F
100
AcDbSymbolTableRecord
100
AcDbLayerTableRecord
  2
05___PRT_DEF_DTM_CSYS
 70
0
 62
7
  6
CONTINUOUS
370
-3
390
F
  0
LAYER
  5
210
100
AcDbSymbolTableRecord
100
AcDbLayerTableRecord
  2
06_ALL_SURFS
 70
0
 62
7
  6
CONTINUOUS
370
-3
390
F
  0
LAYER
  5
211
100
AcDbSymbolTableRecord
100
AcDbLayerTableRecord
  2
06__ASM_ALL_SURFS
 70
0
 62
7
  6
CONTINUOUS
370
-3
390
F
  0
LAYER
  5
212
100
AcDbSymbolTableRecord
100
AcDbLayerTableRecord
  2
06___PRT_ALL_SURFS
 70
0
 62
7
  6
CONTINUOUS
370
-3
390
F
  0
LAYER
  5
213
100
AcDbSymbolTableRecord
100
AcDbLayerTableRecord
  2
07__ASM_ALL_SKELETONS
 70
0
 62
7
  6
CONTINUOUS
370
-3
390
F
  0
LAYER
  5
214
100
AcDbSymbolTableRecord
100
AcDbLayerTableRecord
  2
904PLANES
 70
0
 62
7
  6
CONTINUOUS
370
-3
390
F
  0
LAYER
  5
215
100
AcDbSymbolTableRecord
100
AcDbLayerTableRecord
  2
90517DTMS
 70
0
 62
7
  6
CONTINUOUS
370
-3
390
F
  0
LAYER
  5
216
100
AcDbSymbolTableRecord
100
AcDbLayerTableRecord
  2
AXIS
 70
0
 62
7
  6
CONTINUOUS
370
-3
390
F
  0
LAYER
  5
217
100
AcDbSymbolTableRecord
100
AcDbLayerTableRecord
  2
BAFFLE_DTMS
 70
0
 62
7
  6
CONTINUOUS
370
-3
390
F
  0
LAYER
  5
218
100
AcDbSymbolTableRecord
100
AcDbLayerTableRecord
  2
BD_ANGLE
 70
0
 62
7
  6
CONTINUOUS
370
-3
390
F
  0
LAYER
  5
219
100
AcDbSymbolTableRecord
100
AcDbLayerTableRecord
  2
CONDUIT_DTMS
 70
0
 62
7
  6
CONTINUOUS
370
-3
390
F
  0
LAYER
  5
21A
100
AcDbSymbolTableRecord
100
AcDbLayerTableRecord
  2
CS
 70
0
 62
7
  6
CONTINUOUS
370
-3
390
F
  0
LAYER
  5
21B
100
AcDbSymbolTableRecord
100
AcDbLayerTableRecord
  2
CSYS
 70
0
 62
7
  6
CONTINUOUS
370
-3
390
F
  0
LAYER
  5
21C
100
AcDbSymbolTableRecord
100
AcDbLayerTableRecord
  2
CURVE
 70
0
 62
7
  6
CONTINUOUS
370
-3
390
F
  0
LAYER
  5
21D
100
AcDbSymbolTableRecord
100
AcDbLayerTableRecord
  2
CURVES
 70
0
 62
7
  6
CONTINUOUS
370
-3
390
F
  0
LAYER
  5
21E
100
AcDbSymbolTableRecord
100
AcDbLayerTableRecord
  2
DATUMS
 70
0
 62
7
  6
CONTINUOUS
370
-3
390
F
  0
LAYER
  5
21F
100
AcDbSymbolTableRecord
100
AcDbLayerTableRecord
  2
DEF_DTMS
 70
0
 62
7
  6
CONTINUOUS
370
-3
390
F
  0
LAYER
  5
220
100
AcDbSymbolTableRecord
100
AcDbLayerTableRecord
  2
G90581DTMS
 70
0
 62
7
  6
CONTINUOUS
370
-3
390
F
  0
LAYER
  5
221
100
AcDbSymbolTableRecord
100
AcDbLayerTableRecord
  2
GENPLANES
 70
0
 62
7
  6
CONTINUOUS
370
-3
390
F
  0
LAYER
  5
222
100
AcDbSymbolTableRecord
100
AcDbLayerTableRecord
  2
HEAD
 70
0
 62
7
  6
CONTINUOUS
370
-3
390
F
  0
LAYER
  5
223
100
AcDbSymbolTableRecord
100
AcDbLayerTableRecord
  2
HOOD_LOC_DTM
 70
0
 62
7
  6
CONTINUOUS
370
-3
390
F
  0
LAYER
  5
224
100
AcDbSymbolTableRecord
100
AcDbLayerTableRecord
  2
HUB_DTMS
 70
0
 62
7
  6
CONTINUOUS
370
-3
390
F
  0
LAYER
  5
225
100
AcDbSymbolTableRecord
100
AcDbLayerTableRecord
  2
IGES_ITEMS
 70
0
 62
7
  6
CONTINUOUS
370
-3
390
F
  0
LAYER
  5
226
100
AcDbSymbolTableRecord
100
AcDbLayerTableRecord
  2
IGS_ITEMS
 70
0
 62
7
  6
CONTINUOUS
370
-3
390
F
  0
LAYER
  5
227
100
AcDbSymbolTableRecord
100
AcDbLayerTableRecord
  2
INTFCLR_47
 70
0
 62
7
  6
CONTINUOUS
370
-3
390
F
  0
LAYER
  5
228
100
AcDbSymbolTableRecord
100
AcDbLayerTableRecord
  2
INTF_1
 70
0
 62
7
  6
CONTINUOUS
370
-3
390
F
  0
LAYER
  5
229
100
AcDbSymbolTableRecord
100
AcDbLayerTableRecord
  2
J_BOX_ANGLE
 70
0
 62
7
  6
CONTINUOUS
370
-3
390
F
  0
LAYER
  5
22A
100
AcDbSymbolTableRecord
100
AcDbLayerTableRecord
  2
LAY0001
 70
0
 62
7
  6
CONTINUOUS
370
-3
390
F
  0
LAYER
  5
22B
100
AcDbSymbolTableRecord
100
AcDbLayerTableRecord
  2
LAY0002
 70
0
 62
7
  6
CONTINUOUS
370
-3
390
F
  0
LAYER
  5
22C
100
AcDbSymbolTableRecord
100
AcDbLayerTableRecord
  2
MTR_HOLE_ANG_DTM
 70
0
 62
7
  6
CONTINUOUS
370
-3
390
F
  0
LAYER
  5
22D
100
AcDbSymbolTableRecord
100
AcDbLayerTableRecord
  2
PARTDTMS
 70
0
 62
7
  6
CONTINUOUS
370
-3
390
F
  0
LAYER
  5
22E
100
AcDbSymbolTableRecord
100
AcDbLayerTableRecord
  2
PLANE
 70
0
 62
7
  6
CONTINUOUS
370
-3
390
F
  0
LAYER
  5
22F
100
AcDbSymbolTableRecord
100
AcDbLayerTableRecord
  2
PLANES
 70
0
 62
7
  6
CONTINUOUS
370
-3
390
F
  0
LAYER
  5
230
100
AcDbSymbolTableRecord
100
AcDbLayerTableRecord
  2
POINT
 70
0
 62
7
  6
CONTINUOUS
370
-3
390
F
  0
LAYER
  5
231
100
AcDbSymbolTableRecord
100
AcDbLayerTableRecord
  2
ROUND
 70
0
 62
7
  6
CONTINUOUS
370
-3
390
F
  0
LAYER
  5
232
100
AcDbSymbolTableRecord
100
AcDbLayerTableRecord
  2
STANDOFF_DTMS
 70
0
 62
7
  6
CONTINUOUS
370
-3
390
F
  0
LAYER
  5
233
100
AcDbSymbolTableRecord
100
AcDbLayerTableRecord
  2
STIFF_ANGLE
 70
0
 62
7
  6
CONTINUOUS
370
-3
390
F
  0
LAYER
  5
234
100
AcDbSymbolTableRecord
100
AcDbLayerTableRecord
  2
SURFACE
 70
0
 62
7
  6
CONTINUOUS
370
-3
390
F
  0
LAYER
  5
235
100
AcDbSymbolTableRecord
100
AcDbLayerTableRecord
  2
TOP_SURFACE
 70
0
 62
7
  6
CONTINUOUS
370
-3
390
F
  0
LAYER
  5
236
100
AcDbSymbolTableRecord
100
AcDbLayerTableRecord
  2
WITNESS
 70
0
 62
7
  6
CONTINUOUS
370
-3
390
F
  0
LAYER
  5
237
100
AcDbSymbolTableRecord
100
AcDbLayerTableRecord
  2
XSEC_DATUMS
 70
0
 62
7
  6
CONTINUOUS
370
-3
390
F
  0
ENDTAB
  0
TABLE
  2
STYLE
  5
3
100
AcDbSymbolTable
 70
1
  0
STYLE
  5
11
100
AcDbSymbolTableRecord
100
AcDbTextStyleTableRecord
  2
STANDARD
 70
0
 40
0.0
 41
0.8
 50
0.0
 71
0
 42
0.2
  3
txt
  4

  0
STYLE
  5
238
100
AcDbSymbolTableRecord
100
AcDbTextStyleTableRecord
  2
TEXTSTYLE_1
 70
0
 40
0.0
 41
0.8
 50
0.0
 71
0
 42
0.2
  3
gdt
  4

  0
ENDTAB
  0
TABLE
  2
VIEW
  5
6
100
AcDbSymbolTable
 70
0
  0
ENDTAB
  0
TABLE
  2
UCS
  5
7
100
AcDbSymbolTable
 70
0
  0
ENDTAB
  0
TABLE
  2
APPID
  5
9
100
AcDbSymbolTable
 70
1
  0
APPID
  5
239
100
AcDbSymbolTableRecord
100
AcDbRegAppTableRecord
  2
ACAD
 70
0
  0
ENDTAB
  0
TABLE
  2
BLOCK_RECORD
  5
1
100
AcDbSymbolTable
 70
0
  0
BLOCK_RECORD
  5
23A
100
AcDbSymbolTableRecord
100
AcDbBlockTableRecord
  2
*Model_Space
  0
BLOCK_RECORD
  5
23B
100
AcDbSymbolTableRecord
100
AcDbBlockTableRecord
  2
*Paper_Space
  0
ENDTAB
  0
TABLE
  2
DIMSTYLE
  5
A
100
AcDbSymbolTable
 70
1
100
AcDbDimStyleTable
 71
0
  0
DIMSTYLE
105
23C
100
AcDbSymbolTableRecord
100
AcDbDimStyleTableRecord
  2
STANDARD
 70
0
  3

  4

 40
1.0
 41
0.125
 42
0.0625
 43
0.38
 44
0.18
 45
0.0
 46
0.0
 47
0.01
 48
0.01
140
0.125
141
0.09
142
0.0
143
25.4
144
1.0
145
0.0
146
1.0
147
0.09
 71
1.0
 72
0.0
 73
1
 74
1
 75
0
 76
0
 77
0
 78
4
170
0
171
2
172
0
173
0
174
0
175
0
176
0
177
0
178
0
270
2
271
2
272
2
273
2
274
2
275
0
280
0
281
0
282
0
283
1
284
4
285
0
286
0
287
3
288
0
340
11
  0
ENDTAB
  0
ENDSEC
  0
SECTION
  2
BLOCKS
  0
BLOCK
  5
20
100
AcDbEntity
  8
0
100
AcDbBlockBegin
  2
*Model_Space
 70
0
 10
0.0
 20
0.0
 30
0.0
  3
*Model_Space
  1

  0
ENDBLK
  5
21
100
AcDbEntity
  8
0
100
AcDbBlockEnd
  0
BLOCK
  5
1C
100
AcDbEntity
  8
0
100
AcDbBlockBegin
  2
*Paper_Space
 70
0
 10
0.0
 20
0.0
 30
0.0
  3
*Paper_Space
  1

  0
ENDBLK
  5
1D
100
AcDbEntity
  8
0
100
AcDbBlockEnd
  0
ENDSEC
  0
SECTION
  2
ENTITIES
  0
MTEXT
  5
23D
100
AcDbEntity
  8
0
100
AcDbMText
 62
2
  6
CONTINUOUS
  7
STANDARD
 71
1
 72
1
 10
33.1950494933
 20
-32.0198954948
 30
0.0
 11
1.0
 21
0.0
 31
0.0
 44
0.9
  1
49813
 40
5.0
 41
20.0
  0
LINE
  5
23E
100
AcDbEntity
  8
0
100
AcDbLine
 62
3
  6
CONTINUOUS
 10
-19.4040456293
 20
0.6656429059
 11
-19.5155868049
 21
-2.5284784483
  0
LINE
  5
23F
100
AcDbEntity
  8
0
100
AcDbLine
 62
3
  6
CONTINUOUS
 10
-17.2843169972
 20
-6.8784784483
 11
-17.2843169972
 21
-8.2184784483
  0
LINE
  5
240
100
AcDbEntity
  8
0
100
AcDbLine
 62
7
  6
CONTINUOUS
 10
-17.2043169972
 20
-6.8784784483
 11
-17.2043169972
 21
-8.2184784483
  0
LINE
  5
241
100
AcDbEntity
  8
0
100
AcDbLine
 62
3
  6
CONTINUOUS
 10
-17.1243169972
 20
-6.7184784483
 11
-17.1243169972
 21
-8.2184784483
  0
LINE
  5
242
100
AcDbEntity
  8
0
100
AcDbLine
 62
7
  6
CONTINUOUS
 10
-15.1649706193
 20
4.0810215517
 11
-15.1649706193
 21
4.0110215517
  0
LINE
  5
243
100
AcDbEntity
  8
0
100
AcDbLine
 62
3
  6
CONTINUOUS
 10
-14.2926012685
 20
-3.0284784483
 11
-14.2926012685
 21
-6.7184784483
  0
LINE
  5
244
100
AcDbEntity
  8
0
100
AcDbLine
 62
7
  6
CONTINUOUS
 10
-14.2593471603
 20
4.2265215517
 11
-14.2593471603
 21
4.1510215517
  0
LINE
  5
245
100
AcDbEntity
  8
0
100
AcDbLine
 62
7
  6
CONTINUOUS
 10
-14.1721914175
 20
4.3010215517
 11
-14.1721914175
 21
4.1510215517
  0
LINE
  5
246
100
AcDbEntity
  8
0
100
AcDbLine
 62
3
  6
CONTINUOUS
 10
-14.1024577887
 20
4.3010215517
 11
-14.1024577887
 21
4.1510215517
  0
LINE
  5
247
100
AcDbEntity
  8
0
100
AcDbLine
 62
7
  6
CONTINUOUS
 10
-14.8110471048
 20
4.6810215517
 11
-14.7920327458
 21
5.2255215517
  0
LINE
  5
248
100
AcDbEntity
  8
0
100
AcDbLine
 62
7
  6
CONTINUOUS
 10
-14.7700135468
 20
5.8560689113
 11
-14.3504491745
 21
17.8708205451
  0
LINE
  5
249
100
AcDbEntity
  8
0
100
AcDbLine
 62
7
  6
CONTINUOUS
 10
-14.9428819885
 20
5.7065040706
 11
-14.9334161383
 21
5.72315431
  0
LINE
  5
24A
100
AcDbEntity
  8
0
100
AcDbLine
 62
7
  6
CONTINUOUS
 10
-17.2843169972
 20
-8.2184784483
 11
-17.2043169972
 21
-8.2184784483
  0
LINE
  5
24B
100
AcDbEntity
  8
0
100
AcDbLine
 62
7
  6
CONTINUOUS
 10
9.0356830028
 20
-8.2184784483
 11
8.9556830028
 21
-8.2184784483
  0
LINE
  5
24C
100
AcDbEntity
  8
0
100
AcDbLine
 62
3
  6
CONTINUOUS
 10
8.8756830028
 20
-8.2184784483
 11
-17.1243169972
 21
-8.2184784483
  0
LINE
  5
24D
100
AcDbEntity
  8
0
100
AcDbLine
 62
7
  6
CONTINUOUS
 10
-14.9428819885
 20
5.2755390328
 11
-14.9334161383
 21
5.2588887934
  0
LINE
  5
24E
100
AcDbEntity
  8
0
100
AcDbLine
 62
3
  6
CONTINUOUS
 10
-10.9704006959
 20
-6.7184784483
 11
-10.9704006959
 21
-3.0284784483
  0
LINE
  5
24F
100
AcDbEntity
  8
0
100
AcDbLine
 62
7
  6
CONTINUOUS
 10
-10.9367823555
 20
-6.7184784483
 11
-10.9367823555
 21
-3.0284784483
  0
LINE
  5
250
100
AcDbEntity
  8
0
100
AcDbLine
 62
3
  6
CONTINUOUS
 10
-17.1243169972
 20
-6.7184784483
 11
8.8756830028
 21
-6.7184784483
  0
LINE
  5
251
100
AcDbEntity
  8
0
100
AcDbLine
 62
7
  6
CONTINUOUS
 10
7.1656830028
 20
-6.6684784483
 11
8.7856830028
 21
-6.6684784483
  0
LINE
  5
252
100
AcDbEntity
  8
0
100
AcDbLine
 62
7
  6
CONTINUOUS
 10
-11.3721615044
 20
-6.1984784483
 11
-11.3368061653
 21
-6.1984784483
  0
LINE
  5
253
100
AcDbEntity
  8
0
100
AcDbLine
 62
7
  6
CONTINUOUS
 10
3.1235275099
 20
-6.1984784483
 11
3.0881721709
 21
-6.1984784483
  0
LINE
  5
254
100
AcDbEntity
  8
0
100
AcDbLine
 62
7
  6
CONTINUOUS
 10
-11.4944658755
 20
-6.1549847992
 11
-11.3876471429
 21
-6.1549847992
  0
LINE
  5
255
100
AcDbEntity
  8
0
100
AcDbLine
 62
7
  6
CONTINUOUS
 10
3.245831881
 20
-6.1549847992
 11
3.1390131484
 21
-6.1549847992
  0
LINE
  5
256
100
AcDbEntity
  8
0
100
AcDbLine
 62
7
  6
CONTINUOUS
 10
-11.361883354
 20
-6.0467316237
 11
-11.2550646214
 21
-6.0467316237
  0
LINE
  5
257
100
AcDbEntity
  8
0
100
AcDbLine
 62
7
  6
CONTINUOUS
 10
3.1132493596
 20
-6.0467316237
 11
3.006430627
 21
-6.0467316237
  0
LINE
  5
258
100
AcDbEntity
  8
0
100
AcDbLine
 62
7
  6
CONTINUOUS
 10
-11.361883354
 20
-5.8302252728
 11
-11.2550646214
 21
-5.8302252728
  0
LINE
  5
259
100
AcDbEntity
  8
0
100
AcDbLine
 62
7
  6
CONTINUOUS
 10
3.1132493596
 20
-5.8302252728
 11
3.006430627
 21
-5.8302252728
  0
LINE
  5
25A
100
AcDbEntity
  8
0
100
AcDbLine
 62
7
  6
CONTINUOUS
 10
-11.4944658755
 20
-5.7219720973
 11
-11.3876471429
 21
-5.7219720973
  0
LINE
  5
25B
100
AcDbEntity
  8
0
100
AcDbLine
 62
7
  6
CONTINUOUS
 10
3.245831881
 20
-5.7219720973
 11
3.1390131484
 21
-5.7219720973
  0
LINE
  5
25C
100
AcDbEntity
  8
0
100
AcDbLine
 62
7
  6
CONTINUOUS
 10
-11.3721615044
 20
-5.6784784483
 11
-11.3368061653
 21
-5.6784784483
  0
LINE
  5
25D
100
AcDbEntity
  8
0
100
AcDbLine
 62
7
  6
CONTINUOUS
 10
3.1235275099
 20
-5.6784784483
 11
3.0881721709
 21
-5.6784784483
  0
LINE
  5
25E
100
AcDbEntity
  8
0
100
AcDbLine
 62
3
  6
CONTINUOUS
 10
-19.7114192083
 20
-3.0284784483
 11
11.4627852138
 21
-3.0284784483
  0
LINE
  5
25F
100
AcDbEntity
  8
0
100
AcDbLine
 62
3
  6
CONTINUOUS
 10
-19.7114192083
 20
-2.5284784483
 11
11.4627852138
 21
-2.5284784483
  0
LINE
  5
260
100
AcDbEntity
  8
0
100
AcDbLine
 62
3
  6
CONTINUOUS
 10
-3.7456275742
 20
4.3010215517
 11
-3.7456275742
 21
4.1510215517
  0
LINE
  5
261
100
AcDbEntity
  8
0
100
AcDbLine
 62
7
  6
CONTINUOUS
 10
-3.7395266722
 20
4.3010215517
 11
-3.7395266722
 21
4.1510215517
  0
LINE
  5
262
100
AcDbEntity
  8
0
100
AcDbLine
 62
7
  6
CONTINUOUS
 10
-2.7433319741
 20
4.3010215517
 11
-2.7433319741
 21
4.1510215517
  0
LINE
  5
263
100
AcDbEntity
  8
0
100
AcDbLine
 62
7
  6
CONTINUOUS
 10
-2.6831147436
 20
4.0810215517
 11
-2.6831147436
 21
4.0110215517
  0
LINE
  5
264
100
AcDbEntity
  8
0
100
AcDbLine
 62
3
  6
CONTINUOUS
 10
7.8874026709
 20
3.8215215517
 11
-16.1360366654
 21
3.8215215517
  0
LINE
  5
265
100
AcDbEntity
  8
0
100
AcDbLine
 62
3
  6
CONTINUOUS
 10
-2.6831174691
 20
4.0110215517
 11
-3.7334257702
 21
4.0110215517
  0
LINE
  5
266
100
AcDbEntity
  8
0
100
AcDbLine
 62
3
  6
CONTINUOUS
 10
5.9932910519
 20
4.0110215517
 11
6.9163338993
 21
4.0110215517
  0
LINE
  5
267
100
AcDbEntity
  8
0
100
AcDbLine
 62
3
  6
CONTINUOUS
 10
-14.2419250464
 20
4.0110215517
 11
-15.1649678938
 21
4.0110215517
  0
LINE
  5
268
100
AcDbEntity
  8
0
100
AcDbLine
 62
7
  6
CONTINUOUS
 10
-2.6831174691
 20
4.0810215517
 11
-3.7334257702
 21
4.0810215517
  0
LINE
  5
269
100
AcDbEntity
  8
0
100
AcDbLine
 62
7
  6
CONTINUOUS
 10
6.0804467947
 20
4.0810215517
 11
6.9163338993
 21
4.0810215517
  0
LINE
  5
26A
100
AcDbEntity
  8
0
100
AcDbLine
 62
7
  6
CONTINUOUS
 10
-14.2419250464
 20
4.0810215517
 11
-15.1649678938
 21
4.0810215517
  0
LINE
  5
26B
100
AcDbEntity
  8
0
100
AcDbLine
 62
7
  6
CONTINUOUS
 10
6.0107131658
 20
4.2265215517
 11
6.0318879498
 21
4.2265215517
  0
LINE
  5
26C
100
AcDbEntity
  8
0
100
AcDbLine
 62
7
  6
CONTINUOUS
 10
-14.2157692889
 20
4.2265215517
 11
-14.2805219443
 21
4.2265215517
  0
LINE
  5
26D
100
AcDbEntity
  8
0
100
AcDbLine
 62
7
  6
CONTINUOUS
 10
-16.0643159247
 20
4.3010215517
 11
7.8156819302
 21
4.3010215517
  0
LINE
  5
26E
100
AcDbEntity
  8
0
100
AcDbLine
 62
7
  6
CONTINUOUS
 10
-16.0643169972
 20
4.6810215517
 11
7.8156830028
 21
4.6810215517
  0
LINE
  5
26F
100
AcDbEntity
  8
0
100
AcDbLine
 62
7
  6
CONTINUOUS
 10
-14.7985431873
 20
5.2255215517
 11
-14.7686573463
 21
5.2255215517
  0
LINE
  5
270
100
AcDbEntity
  8
0
100
AcDbLine
 62
7
  6
CONTINUOUS
 10
6.5499091928
 20
5.2255215517
 11
6.5433987514
 21
5.2255215517
  0
LINE
  5
271
100
AcDbEntity
  8
0
100
AcDbLine
 62
7
  6
CONTINUOUS
 10
-14.9202738878
 20
5.2387194841
 11
-14.8020661056
 21
5.2387194841
  0
LINE
  5
272
100
AcDbEntity
  8
0
100
AcDbLine
 62
7
  6
CONTINUOUS
 10
6.6716398933
 20
5.2387194841
 11
6.5570795255
 21
5.2387194841
  0
LINE
  5
273
100
AcDbEntity
  8
0
100
AcDbLine
 62
7
  6
CONTINUOUS
 10
-3.1797931574
 20
5.2387194841
 11
-3.1901349983
 21
5.2387194841
  0
LINE
  5
274
100
AcDbEntity
  8
0
100
AcDbLine
 62
7
  6
CONTINUOUS
 10
-14.901230358
 20
5.3648705179
 11
-14.7830225758
 21
5.3648705179
  0
LINE
  5
275
100
AcDbEntity
  8
0
100
AcDbLine
 62
7
  6
CONTINUOUS
 10
6.6906834231
 20
5.3648705179
 11
6.572475641
 21
5.3648705179
  0
LINE
  5
276
100
AcDbEntity
  8
0
100
AcDbLine
 62
7
  6
CONTINUOUS
 10
-3.3974616989
 20
5.3648705179
 11
-3.4078035398
 21
5.3648705179
  0
LINE
  5
277
100
AcDbEntity
  8
0
100
AcDbLine
 62
7
  6
CONTINUOUS
 10
-14.901230358
 20
5.6171725855
 11
-14.7830225758
 21
5.6171725855
  0
LINE
  5
278
100
AcDbEntity
  8
0
100
AcDbLine
 62
7
  6
CONTINUOUS
 10
6.6906834231
 20
5.6171725855
 11
6.572475641
 21
5.6171725855
  0
LINE
  5
279
100
AcDbEntity
  8
0
100
AcDbLine
 62
7
  6
CONTINUOUS
 10
-3.3974616989
 20
5.6171725855
 11
-3.4078035398
 21
5.6171725855
  0
LINE
  5
27A
100
AcDbEntity
  8
0
100
AcDbLine
 62
7
  6
CONTINUOUS
 10
-14.9202738878
 20
5.7433236194
 11
-14.8020661056
 21
5.7433236194
  0
LINE
  5
27B
100
AcDbEntity
  8
0
100
AcDbLine
 62
7
  6
CONTINUOUS
 10
6.6716398933
 20
5.7433236194
 11
6.557040144
 21
5.7433236194
  0
LINE
  5
27C
100
AcDbEntity
  8
0
100
AcDbLine
 62
7
  6
CONTINUOUS
 10
-3.1797931574
 20
5.7433236194
 11
-3.1901349983
 21
5.7433236194
  0
LINE
  5
27D
100
AcDbEntity
  8
0
100
AcDbLine
 62
7
  6
CONTINUOUS
 10
-14.7985431873
 20
5.7565215517
 11
-14.7686573463
 21
5.7565215517
  0
LINE
  5
27E
100
AcDbEntity
  8
0
100
AcDbLine
 62
7
  6
CONTINUOUS
 10
6.5499091928
 20
5.7565215517
 11
6.5417576202
 21
5.7565215517
  0
LINE
  5
27F
100
AcDbEntity
  8
0
100
AcDbLine
 62
3
  6
CONTINUOUS
 10
5.9356830028
 20
4.3010215517
 11
5.9356830028
 21
4.0715215517
  0
LINE
  5
280
100
AcDbEntity
  8
0
100
AcDbLine
 62
3
  6
CONTINUOUS
 10
5.9409795369
 20
4.3010215517
 11
5.9409795369
 21
4.1510215517
  0
LINE
  5
281
100
AcDbEntity
  8
0
100
AcDbLine
 62
7
  6
CONTINUOUS
 10
6.6942479941
 20
5.7065040706
 11
6.6847821438
 21
5.72315431
  0
LINE
  5
282
100
AcDbEntity
  8
0
100
AcDbLine
 62
7
  6
CONTINUOUS
 10
6.5624131104
 20
4.6810215517
 11
6.1018151801
 21
17.8708205451
  0
LINE
  5
283
100
AcDbEntity
  8
0
100
AcDbLine
 62
7
  6
CONTINUOUS
 10
6.0107131658
 20
4.3010215517
 11
6.0107131658
 21
4.1510215517
  0
LINE
  5
284
100
AcDbEntity
  8
0
100
AcDbLine
 62
3
  6
CONTINUOUS
 10
6.043967274
 20
-3.0284784483
 11
6.043967274
 21
-6.7184784483
  0
LINE
  5
285
100
AcDbEntity
  8
0
100
AcDbLine
 62
7
  6
CONTINUOUS
 10
6.9163366248
 20
4.0810215517
 11
6.9163366248
 21
4.0110215517
  0
LINE
  5
286
100
AcDbEntity
  8
0
100
AcDbLine
 62
7
  6
CONTINUOUS
 10
7.1656830028
 20
-6.7184784483
 11
7.1656830028
 21
-6.6684784483
  0
LINE
  5
287
100
AcDbEntity
  8
0
100
AcDbLine
 62
7
  6
CONTINUOUS
 10
6.5675840976
 20
5.2801816649
 11
6.5574646346
 21
5.2400728078
  0
LINE
  5
288
100
AcDbEntity
  8
0
100
AcDbLine
 62
7
  6
CONTINUOUS
 10
6.6942479941
 20
5.2755390328
 11
6.6847821438
 21
5.2588887934
  0
LINE
  5
289
100
AcDbEntity
  8
0
100
AcDbLine
 62
7
  6
CONTINUOUS
 10
6.5675845353
 20
5.7018597036
 11
6.5574646346
 21
5.7419702956
  0
LINE
  5
28A
100
AcDbEntity
  8
0
100
AcDbLine
 62
7
  6
CONTINUOUS
 10
8.7856830028
 20
-6.7184784483
 11
8.7856830028
 21
-6.6684784483
  0
LINE
  5
28B
100
AcDbEntity
  8
0
100
AcDbLine
 62
3
  6
CONTINUOUS
 10
8.8756830028
 20
-6.7184784483
 11
8.8756830028
 21
-8.2184784483
  0
LINE
  5
28C
100
AcDbEntity
  8
0
100
AcDbLine
 62
7
  6
CONTINUOUS
 10
8.9556830028
 20
-6.8784784483
 11
8.9556830028
 21
-8.2184784483
  0
LINE
  5
28D
100
AcDbEntity
  8
0
100
AcDbLine
 62
3
  6
CONTINUOUS
 10
9.0356830028
 20
-6.8784784483
 11
9.0356830028
 21
-8.2184784483
  0
LINE
  5
28E
100
AcDbEntity
  8
0
100
AcDbLine
 62
3
  6
CONTINUOUS
 10
11.1554116349
 20
0.6656429059
 11
11.2669528104
 21
-2.5284784483
  0
LINE
  5
28F
100
AcDbEntity
  8
0
100
AcDbLine
 62
7
  6
CONTINUOUS
 10
-12.3516675205
 20
19.8010215517
 11
4.103033526
 21
19.8010215517
  0
LINE
  5
290
100
AcDbEntity
  8
0
100
AcDbLine
 62
7
  6
CONTINUOUS
 10
53.5061242109
 20
-8.2184784483
 11
53.4261242109
 21
-8.2184784483
  0
LINE
  5
291
100
AcDbEntity
  8
0
100
AcDbLine
 62
3
  6
CONTINUOUS
 10
53.3461242109
 20
-8.2184784483
 11
27.3461242109
 21
-8.2184784483
  0
LINE
  5
292
100
AcDbEntity
  8
0
100
AcDbLine
 62
7
  6
CONTINUOUS
 10
27.1861242109
 20
-8.2184784483
 11
27.2661242109
 21
-8.2184784483
  0
LINE
  5
293
100
AcDbEntity
  8
0
100
AcDbLine
 62
3
  6
CONTINUOUS
 10
25.0663955789
 20
0.6656429059
 11
24.9548544033
 21
-2.5284784483
  0
LINE
  5
294
100
AcDbEntity
  8
0
100
AcDbLine
 62
3
  6
CONTINUOUS
 10
53.3461242109
 20
-6.7184784483
 11
27.3461242109
 21
-6.7184784483
  0
LINE
  5
295
100
AcDbEntity
  8
0
100
AcDbLine
 62
7
  6
CONTINUOUS
 10
27.4361242109
 20
-6.6684784483
 11
30.1861242109
 21
-6.6684784483
  0
LINE
  5
296
100
AcDbEntity
  8
0
100
AcDbLine
 62
3
  6
CONTINUOUS
 10
27.1861242109
 20
-6.8784784483
 11
27.1861242109
 21
-8.2184784483
  0
LINE
  5
297
100
AcDbEntity
  8
0
100
AcDbLine
 62
7
  6
CONTINUOUS
 10
27.2661242109
 20
-6.8784784483
 11
27.2661242109
 21
-8.2184784483
  0
LINE
  5
298
100
AcDbEntity
  8
0
100
AcDbLine
 62
3
  6
CONTINUOUS
 10
27.3461242109
 20
-6.7184784483
 11
27.3461242109
 21
-8.2184784483
  0
LINE
  5
299
100
AcDbEntity
  8
0
100
AcDbLine
 62
7
  6
CONTINUOUS
 10
27.4361242109
 20
-6.7184784483
 11
27.4361242109
 21
-6.6684784483
  0
LINE
  5
29A
100
AcDbEntity
  8
0
100
AcDbLine
 62
7
  6
CONTINUOUS
 10
47.5939687181
 20
-6.1984784483
 11
47.558613379
 21
-6.1984784483
  0
LINE
  5
29B
100
AcDbEntity
  8
0
100
AcDbLine
 62
7
  6
CONTINUOUS
 10
33.0982797038
 20
-6.1984784483
 11
33.1336350428
 21
-6.1984784483
  0
LINE
  5
29C
100
AcDbEntity
  8
0
100
AcDbLine
 62
7
  6
CONTINUOUS
 10
47.7162730892
 20
-6.1549847992
 11
47.6094543566
 21
-6.1549847992
  0
LINE
  5
29D
100
AcDbEntity
  8
0
100
AcDbLine
 62
7
  6
CONTINUOUS
 10
32.9759753327
 20
-6.1549847992
 11
33.0827940653
 21
-6.1549847992
  0
LINE
  5
29E
100
AcDbEntity
  8
0
100
AcDbLine
 62
7
  6
CONTINUOUS
 10
47.5836905677
 20
-6.0467316237
 11
47.4768718351
 21
-6.0467316237
  0
LINE
  5
29F
100
AcDbEntity
  8
0
100
AcDbLine
 62
7
  6
CONTINUOUS
 10
33.1085578542
 20
-6.0467316237
 11
33.2153765867
 21
-6.0467316237
  0
LINE
  5
2A0
100
AcDbEntity
  8
0
100
AcDbLine
 62
7
  6
CONTINUOUS
 10
47.5836905677
 20
-5.8302252728
 11
47.4768718351
 21
-5.8302252728
  0
LINE
  5
2A1
100
AcDbEntity
  8
0
100
AcDbLine
 62
7
  6
CONTINUOUS
 10
33.1085578542
 20
-5.8302252728
 11
33.2153765867
 21
-5.8302252728
  0
LINE
  5
2A2
100
AcDbEntity
  8
0
100
AcDbLine
 62
7
  6
CONTINUOUS
 10
33.2999491494
 20
-5.8289784483
 11
33.3055826536
 21
-5.8289784483
  0
LINE
  5
2A3
100
AcDbEntity
  8
0
100
AcDbLine
 62
7
  6
CONTINUOUS
 10
47.7162730892
 20
-5.7219720973
 11
47.6094543566
 21
-5.7219720973
  0
LINE
  5
2A4
100
AcDbEntity
  8
0
100
AcDbLine
 62
7
  6
CONTINUOUS
 10
32.9759753327
 20
-5.7219720973
 11
33.0827940653
 21
-5.7219720973
  0
LINE
  5
2A5
100
AcDbEntity
  8
0
100
AcDbLine
 62
7
  6
CONTINUOUS
 10
47.5939687181
 20
-5.6784784483
 11
47.558613379
 21
-5.6784784483
  0
LINE
  5
2A6
100
AcDbEntity
  8
0
100
AcDbLine
 62
7
  6
CONTINUOUS
 10
33.0982797038
 20
-5.6784784483
 11
33.1336350428
 21
-5.6784784483
  0
LINE
  5
2A7
100
AcDbEntity
  8
0
100
AcDbLine
 62
7
  6
CONTINUOUS
 10
29.3054705889
 20
4.0810215517
 11
29.3054705889
 21
4.0110215517
  0
LINE
  5
2A8
100
AcDbEntity
  8
0
100
AcDbLine
 62
7
  6
CONTINUOUS
 10
30.1861242109
 20
-6.7184784483
 11
30.1861242109
 21
-6.6684784483
  0
LINE
  5
2A9
100
AcDbEntity
  8
0
100
AcDbLine
 62
7
  6
CONTINUOUS
 10
30.2110940479
 20
4.2265215517
 11
30.2110940479
 21
4.1510215517
  0
LINE
  5
2AA
100
AcDbEntity
  8
0
100
AcDbLine
 62
3
  6
CONTINUOUS
 10
30.2344084822
 20
-3.0284784483
 11
30.2344084822
 21
-6.7184784483
  0
LINE
  5
2AB
100
AcDbEntity
  8
0
100
AcDbLine
 62
7
  6
CONTINUOUS
 10
30.2982497906
 20
4.3010215517
 11
30.2982497906
 21
4.1510215517
  0
LINE
  5
2AC
100
AcDbEntity
  8
0
100
AcDbLine
 62
3
  6
CONTINUOUS
 10
30.3679834195
 20
4.3010215517
 11
30.3679834195
 21
4.1510215517
  0
LINE
  5
2AD
100
AcDbEntity
  8
0
100
AcDbLine
 62
7
  6
CONTINUOUS
 10
29.6593941034
 20
4.6810215517
 11
29.6784084623
 21
5.2255215517
  0
LINE
  5
2AE
100
AcDbEntity
  8
0
100
AcDbLine
 62
7
  6
CONTINUOUS
 10
29.7004276613
 20
5.8560689113
 11
30.1199920336
 21
17.8708205451
  0
LINE
  5
2AF
100
AcDbEntity
  8
0
100
AcDbLine
 62
3
  6
CONTINUOUS
 10
24.7590102262
 20
-3.0284784483
 11
55.9332381957
 21
-3.0284784483
  0
LINE
  5
2B0
100
AcDbEntity
  8
0
100
AcDbLine
 62
3
  6
CONTINUOUS
 10
24.7590102262
 20
-2.5284784483
 11
55.9332381957
 21
-2.5284784483
  0
LINE
  5
2B1
100
AcDbEntity
  8
0
100
AcDbLine
 62
7
  6
CONTINUOUS
 10
29.5275592197
 20
5.2755390328
 11
29.5370250699
 21
5.2588887934
  0
LINE
  5
2B2
100
AcDbEntity
  8
0
100
AcDbLine
 62
7
  6
CONTINUOUS
 10
29.5275592197
 20
5.7065040706
 11
29.5370250699
 21
5.72315431
  0
LINE
  5
2B3
100
AcDbEntity
  8
0
100
AcDbLine
 62
3
  6
CONTINUOUS
 10
52.3578448274
 20
3.8215215517
 11
28.3344035945
 21
3.8215215517
  0
LINE
  5
2B4
100
AcDbEntity
  8
0
100
AcDbLine
 62
3
  6
CONTINUOUS
 10
30.2285161618
 20
4.0110215517
 11
29.3054733144
 21
4.0110215517
  0
LINE
  5
2B5
100
AcDbEntity
  8
0
100
AcDbLine
 62
3
  6
CONTINUOUS
 10
40.7370154379
 20
4.0110215517
 11
41.787323739
 21
4.0110215517
  0
LINE
  5
2B6
100
AcDbEntity
  8
0
100
AcDbLine
 62
3
  6
CONTINUOUS
 10
50.4637322601
 20
4.0110215517
 11
51.3867751075
 21
4.0110215517
  0
LINE
  5
2B7
100
AcDbEntity
  8
0
100
AcDbLine
 62
7
  6
CONTINUOUS
 10
30.2285161618
 20
4.0810215517
 11
29.3054733144
 21
4.0810215517
  0
LINE
  5
2B8
100
AcDbEntity
  8
0
100
AcDbLine
 62
7
  6
CONTINUOUS
 10
40.7370154379
 20
4.0810215517
 11
41.787323739
 21
4.0810215517
  0
LINE
  5
2B9
100
AcDbEntity
  8
0
100
AcDbLine
 62
7
  6
CONTINUOUS
 10
50.5508880029
 20
4.0810215517
 11
51.3867751075
 21
4.0810215517
  0
LINE
  5
2BA
100
AcDbEntity
  8
0
100
AcDbLine
 62
7
  6
CONTINUOUS
 10
30.2546719193
 20
4.2265215517
 11
30.1899192639
 21
4.2265215517
  0
LINE
  5
2BB
100
AcDbEntity
  8
0
100
AcDbLine
 62
7
  6
CONTINUOUS
 10
50.481154374
 20
4.2265215517
 11
50.502329158
 21
4.2265215517
  0
LINE
  5
2BC
100
AcDbEntity
  8
0
100
AcDbLine
 62
7
  6
CONTINUOUS
 10
28.4061242109
 20
4.3010215517
 11
52.2861242109
 21
4.3010215517
  0
LINE
  5
2BD
100
AcDbEntity
  8
0
100
AcDbLine
 62
7
  6
CONTINUOUS
 10
28.4061242109
 20
4.6810215517
 11
52.2861242109
 21
4.6810215517
  0
LINE
  5
2BE
100
AcDbEntity
  8
0
100
AcDbLine
 62
7
  6
CONTINUOUS
 10
51.020350401
 20
5.2255215517
 11
51.0138399595
 21
5.2255215517
  0
LINE
  5
2BF
100
AcDbEntity
  8
0
100
AcDbLine
 62
7
  6
CONTINUOUS
 10
29.6718980209
 20
5.2255215517
 11
29.7017838618
 21
5.2255215517
  0
LINE
  5
2C0
100
AcDbEntity
  8
0
100
AcDbLine
 62
7
  6
CONTINUOUS
 10
51.1420811015
 20
5.2387194841
 11
51.0275207337
 21
5.2387194841
  0
LINE
  5
2C1
100
AcDbEntity
  8
0
100
AcDbLine
 62
7
  6
CONTINUOUS
 10
41.2906480508
 20
5.2387194841
 11
41.2803062099
 21
5.2387194841
  0
LINE
  5
2C2
100
AcDbEntity
  8
0
100
AcDbLine
 62
7
  6
CONTINUOUS
 10
29.5501673204
 20
5.2387194841
 11
29.6683751025
 21
5.2387194841
  0
LINE
  5
2C3
100
AcDbEntity
  8
0
100
AcDbLine
 62
7
  6
CONTINUOUS
 10
51.1611246313
 20
5.3648705179
 11
51.0429168491
 21
5.3648705179
  0
LINE
  5
2C4
100
AcDbEntity
  8
0
100
AcDbLine
 62
7
  6
CONTINUOUS
 10
41.0729795093
 20
5.3648705179
 11
41.0626376684
 21
5.3648705179
  0
LINE
  5
2C5
100
AcDbEntity
  8
0
100
AcDbLine
 62
7
  6
CONTINUOUS
 10
29.5692108502
 20
5.3648705179
 11
29.6874186323
 21
5.3648705179
  0
LINE
  5
2C6
100
AcDbEntity
  8
0
100
AcDbLine
 62
7
  6
CONTINUOUS
 10
51.1611246313
 20
5.6171725855
 11
51.0429168491
 21
5.6171725855
  0
LINE
  5
2C7
100
AcDbEntity
  8
0
100
AcDbLine
 62
7
  6
CONTINUOUS
 10
41.0729795093
 20
5.6171725855
 11
41.0626376684
 21
5.6171725855
  0
LINE
  5
2C8
100
AcDbEntity
  8
0
100
AcDbLine
 62
7
  6
CONTINUOUS
 10
29.5692108502
 20
5.6171725855
 11
29.6874186323
 21
5.6171725855
  0
LINE
  5
2C9
100
AcDbEntity
  8
0
100
AcDbLine
 62
7
  6
CONTINUOUS
 10
51.1420811015
 20
5.7433236194
 11
51.0274813522
 21
5.7433236194
  0
LINE
  5
2CA
100
AcDbEntity
  8
0
100
AcDbLine
 62
7
  6
CONTINUOUS
 10
41.2906480508
 20
5.7433236194
 11
41.2803062099
 21
5.7433236194
  0
LINE
  5
2CB
100
AcDbEntity
  8
0
100
AcDbLine
 62
7
  6
CONTINUOUS
 10
29.5501673204
 20
5.7433236194
 11
29.6683751025
 21
5.7433236194
  0
LINE
  5
2CC
100
AcDbEntity
  8
0
100
AcDbLine
 62
7
  6
CONTINUOUS
 10
51.020350401
 20
5.7565215517
 11
51.0121988284
 21
5.7565215517
  0
LINE
  5
2CD
100
AcDbEntity
  8
0
100
AcDbLine
 62
7
  6
CONTINUOUS
 10
29.6718980209
 20
5.7565215517
 11
29.7017838618
 21
5.7565215517
  0
LINE
  5
2CE
100
AcDbEntity
  8
0
100
AcDbLine
 62
3
  6
CONTINUOUS
 10
40.7248136339
 20
4.3010215517
 11
40.7248136339
 21
4.1510215517
  0
LINE
  5
2CF
100
AcDbEntity
  8
0
100
AcDbLine
 62
7
  6
CONTINUOUS
 10
40.7309145359
 20
4.3010215517
 11
40.7309145359
 21
4.1510215517
  0
LINE
  5
2D0
100
AcDbEntity
  8
0
100
AcDbLine
 62
7
  6
CONTINUOUS
 10
41.727109234
 20
4.3010215517
 11
41.727109234
 21
4.1510215517
  0
LINE
  5
2D1
100
AcDbEntity
  8
0
100
AcDbLine
 62
7
  6
CONTINUOUS
 10
41.7873264646
 20
4.0810215517
 11
41.7873264646
 21
4.0110215517
  0
LINE
  5
2D2
100
AcDbEntity
  8
0
100
AcDbLine
 62
3
  6
CONTINUOUS
 10
47.8802202949
 20
-6.7184784483
 11
47.8802202949
 21
-3.0284784483
  0
LINE
  5
2D3
100
AcDbEntity
  8
0
100
AcDbLine
 62
7
  6
CONTINUOUS
 10
51.1646892022
 20
5.7065040706
 11
51.155223352
 21
5.72315431
  0
LINE
  5
2D4
100
AcDbEntity
  8
0
100
AcDbLine
 62
7
  6
CONTINUOUS
 10
51.0328543185
 20
4.6810215517
 11
50.5722563882
 21
17.8708205451
  0
LINE
  5
2D5
100
AcDbEntity
  8
0
100
AcDbLine
 62
3
  6
CONTINUOUS
 10
50.4061242109
 20
4.3010215517
 11
50.4061242109
 21
4.0715215517
  0
LINE
  5
2D6
100
AcDbEntity
  8
0
100
AcDbLine
 62
3
  6
CONTINUOUS
 10
50.4114207451
 20
4.3010215517
 11
50.4114207451
 21
4.1510215517
  0
LINE
  5
2D7
100
AcDbEntity
  8
0
100
AcDbLine
 62
3
  6
CONTINUOUS
 10
50.4578399397
 20
-3.0284784483
 11
50.4578399397
 21
-6.7184784483
  0
LINE
  5
2D8
100
AcDbEntity
  8
0
100
AcDbLine
 62
7
  6
CONTINUOUS
 10
50.481154374
 20
4.3010215517
 11
50.481154374
 21
4.1510215517
  0
LINE
  5
2D9
100
AcDbEntity
  8
0
100
AcDbLine
 62
7
  6
CONTINUOUS
 10
51.386777833
 20
4.0810215517
 11
51.386777833
 21
4.0110215517
  0
LINE
  5
2DA
100
AcDbEntity
  8
0
100
AcDbLine
 62
7
  6
CONTINUOUS
 10
51.0380253058
 20
5.2801816649
 11
51.0279058428
 21
5.2400728078
  0
LINE
  5
2DB
100
AcDbEntity
  8
0
100
AcDbLine
 62
7
  6
CONTINUOUS
 10
51.1646892022
 20
5.2755390328
 11
51.155223352
 21
5.2588887934
  0
LINE
  5
2DC
100
AcDbEntity
  8
0
100
AcDbLine
 62
7
  6
CONTINUOUS
 10
51.0380257435
 20
5.7018597036
 11
51.0279058428
 21
5.7419702956
  0
LINE
  5
2DD
100
AcDbEntity
  8
0
100
AcDbLine
 62
7
  6
CONTINUOUS
 10
32.1187736877
 20
19.8010215517
 11
48.5734747342
 21
19.8010215517
  0
LINE
  5
2DE
100
AcDbEntity
  8
0
100
AcDbLine
 62
3
  6
CONTINUOUS
 10
53.3461242109
 20
-6.7184784483
 11
53.3461242109
 21
-8.2184784483
  0
LINE
  5
2DF
100
AcDbEntity
  8
0
100
AcDbLine
 62
7
  6
CONTINUOUS
 10
53.4261242109
 20
-6.8784784483
 11
53.4261242109
 21
-8.2184784483
  0
LINE
  5
2E0
100
AcDbEntity
  8
0
100
AcDbLine
 62
3
  6
CONTINUOUS
 10
53.5061242109
 20
-6.8784784483
 11
53.5061242109
 21
-8.2184784483
  0
LINE
  5
2E1
100
AcDbEntity
  8
0
100
AcDbLine
 62
3
  6
CONTINUOUS
 10
55.625852843
 20
0.6656429059
 11
55.7373940186
 21
-2.5284784483
  0
LINE
  5
2E2
100
AcDbEntity
  8
0
100
AcDbLine
 62
3
  6
CONTINUOUS
 10
-17.2843169972
 20
-20.8615136527
 11
-17.2843169972
 21
-46.8615136527
  0
LINE
  5
2E3
100
AcDbEntity
  8
0
100
AcDbLine
 62
7
  6
CONTINUOUS
 10
-17.2043169972
 20
-20.8615136527
 11
-17.2043169972
 21
-46.8615136527
  0
LINE
  5
2E4
100
AcDbEntity
  8
0
100
AcDbLine
 62
7
  6
CONTINUOUS
 10
-17.1243169972
 20
-20.7015136527
 11
-17.1243169972
 21
-20.8615136527
  0
LINE
  5
2E5
100
AcDbEntity
  8
0
100
AcDbLine
 62
7
  6
CONTINUOUS
 10
-17.1243169972
 20
-46.8615136527
 11
-17.1243169972
 21
-47.0215136527
  0
LINE
  5
2E6
100
AcDbEntity
  8
0
100
AcDbLine
 62
7
  6
CONTINUOUS
 10
-10.5965312034
 20
-40.4129746834
 11
-10.7047843789
 21
-40.2254746834
  0
LINE
  5
2E7
100
AcDbEntity
  8
0
100
AcDbLine
 62
7
  6
CONTINUOUS
 10
-10.7047843789
 20
-27.497552622
 11
-10.5965312034
 21
-27.310052622
  0
LINE
  5
2E8
100
AcDbEntity
  8
0
100
AcDbLine
 62
7
  6
CONTINUOUS
 10
-10.271771677
 20
-27.497552622
 11
-10.3800248524
 21
-27.685052622
  0
LINE
  5
2E9
100
AcDbEntity
  8
0
100
AcDbLine
 62
3
  6
CONTINUOUS
 10
-17.1243169972
 20
-47.0215136527
 11
8.8756830028
 21
-47.0215136527
  0
LINE
  5
2EA
100
AcDbEntity
  8
0
100
AcDbLine
 62
7
  6
CONTINUOUS
 10
-17.1243169972
 20
-46.9415136527
 11
8.8756830028
 21
-46.9415136527
  0
LINE
  5
2EB
100
AcDbEntity
  8
0
100
AcDbLine
 62
7
  6
CONTINUOUS
 10
8.8756830028
 20
-46.8615136527
 11
9.0356830028
 21
-46.8615136527
  0
LINE
  5
2EC
100
AcDbEntity
  8
0
100
AcDbLine
 62
7
  6
CONTINUOUS
 10
-17.1243169972
 20
-46.8615136527
 11
-17.2843169972
 21
-46.8615136527
  0
LINE
  5
2ED
100
AcDbEntity
  8
0
100
AcDbLine
 62
7
  6
CONTINUOUS
 10
-10.3800248524
 20
-40.0379746834
 11
-10.271771677
 21
-40.2254746834
  0
LINE
  5
2EE
100
AcDbEntity
  8
0
100
AcDbLine
 62
7
  6
CONTINUOUS
 10
-9.5358710316
 20
-39.3523145116
 11
-9.6441242071
 21
-39.1648145116
  0
LINE
  5
2EF
100
AcDbEntity
  8
0
100
AcDbLine
 62
7
  6
CONTINUOUS
 10
-9.3193646807
 20
-38.9773145116
 11
-9.2111115052
 21
-39.1648145116
  0
LINE
  5
2F0
100
AcDbEntity
  8
0
100
AcDbLine
 62
7
  6
CONTINUOUS
 10
-9.6441242071
 20
-28.5582127938
 11
-9.5358710316
 21
-28.3707127938
  0
LINE
  5
2F1
100
AcDbEntity
  8
0
100
AcDbLine
 62
7
  6
CONTINUOUS
 10
-9.2111115052
 20
-28.5582127938
 11
-9.3193646807
 21
-28.7457127938
  0
LINE
  5
2F2
100
AcDbEntity
  8
0
100
AcDbLine
 62
7
  6
CONTINUOUS
 10
-6.3334460732
 20
-33.9175496197
 11
-6.2774101062
 21
-33.7084205438
  0
LINE
  5
2F3
100
AcDbEntity
  8
0
100
AcDbLine
 62
7
  6
CONTINUOUS
 10
-5.9151879213
 20
-33.8054776857
 11
-5.9712238883
 21
-34.0146067616
  0
LINE
  5
2F4
100
AcDbEntity
  8
0
100
AcDbLine
 62
7
  6
CONTINUOUS
 10
-10.7047843789
 20
-40.2254746834
 11
-10.5965312034
 21
-40.0379746834
  0
LINE
  5
2F5
100
AcDbEntity
  8
0
100
AcDbLine
 62
7
  6
CONTINUOUS
 10
-10.271771677
 20
-40.2254746834
 11
-10.3800248524
 21
-40.4129746834
  0
LINE
  5
2F6
100
AcDbEntity
  8
0
100
AcDbLine
 62
7
  6
CONTINUOUS
 10
-9.6441242071
 20
-39.1648145116
 11
-9.5358710316
 21
-38.9773145116
  0
LINE
  5
2F7
100
AcDbEntity
  8
0
100
AcDbLine
 62
7
  6
CONTINUOUS
 10
2.3478972089
 20
-40.4129746834
 11
2.131390858
 21
-40.4129746834
  0
LINE
  5
2F8
100
AcDbEntity
  8
0
100
AcDbLine
 62
7
  6
CONTINUOUS
 10
-10.3800248524
 20
-40.4129746834
 11
-10.5965312034
 21
-40.4129746834
  0
LINE
  5
2F9
100
AcDbEntity
  8
0
100
AcDbLine
 62
7
  6
CONTINUOUS
 10
-10.5965312034
 20
-27.685052622
 11
-10.7047843789
 21
-27.497552622
  0
LINE
  5
2FA
100
AcDbEntity
  8
0
100
AcDbLine
 62
7
  6
CONTINUOUS
 10
-10.3800248524
 20
-27.310052622
 11
-10.271771677
 21
-27.497552622
  0
LINE
  5
2FB
100
AcDbEntity
  8
0
100
AcDbLine
 62
7
  6
CONTINUOUS
 10
-9.5358710316
 20
-28.7457127938
 11
-9.6441242071
 21
-28.5582127938
  0
LINE
  5
2FC
100
AcDbEntity
  8
0
100
AcDbLine
 62
7
  6
CONTINUOUS
 10
-9.3193646807
 20
-28.3707127938
 11
-9.2111115052
 21
-28.5582127938
  0
LINE
  5
2FD
100
AcDbEntity
  8
0
100
AcDbLine
 62
7
  6
CONTINUOUS
 10
-4.3841397326
 20
-32.8591909173
 11
-4.3841397326
 21
-33.0813169933
  0
LINE
  5
2FE
100
AcDbEntity
  8
0
100
AcDbLine
 62
7
  6
CONTINUOUS
 10
-4.3435200994
 20
-32.6815136527
 11
-4.3435200994
 21
-32.4729483583
  0
LINE
  5
2FF
100
AcDbEntity
  8
0
100
AcDbLine
 62
7
  6
CONTINUOUS
 10
-4.3186300085
 20
-32.9247006414
 11
-4.3186300085
 21
-33.1300709771
  0
LINE
  5
300
100
AcDbEntity
  8
0
100
AcDbLine
 62
7
  6
CONTINUOUS
 10
-4.2793169972
 20
-32.9000689851
 11
-4.2793169972
 21
-32.6815136527
  0
LINE
  5
301
100
AcDbEntity
  8
0
100
AcDbLine
 62
7
  6
CONTINUOUS
 10
-4.2183169972
 20
-33.3350136527
 11
-4.2183169972
 21
-33.5280136527
  0
LINE
  5
302
100
AcDbEntity
  8
WITNESS
100
AcDbLine
 62
4
  6
CONTINUOUS
 10
-4.1248169972
 20
-30.8615136527
 11
-4.1248169972
 21
-30.6115136527
  0
LINE
  5
303
100
AcDbEntity
  8
0
100
AcDbLine
 62
7
  6
CONTINUOUS
 10
-4.1243169972
 20
-32.6815136527
 11
-4.1243169972
 21
-32.4729483583
  0
LINE
  5
304
100
AcDbEntity
  8
WITNESS
100
AcDbLine
 62
4
  6
CONTINUOUS
 10
-4.1238169972
 20
-30.8615136527
 11
-4.1238169972
 21
-30.6115136527
  0
LINE
  5
305
100
AcDbEntity
  8
0
100
AcDbLine
 62
7
  6
CONTINUOUS
 10
-4.0303169972
 20
-33.3350136527
 11
-4.0303169972
 21
-33.5280136527
  0
LINE
  5
306
100
AcDbEntity
  8
0
100
AcDbLine
 62
7
  6
CONTINUOUS
 10
-3.9693169972
 20
-32.9000689851
 11
-3.9693169972
 21
-32.6815136527
  0
LINE
  5
307
100
AcDbEntity
  8
0
100
AcDbLine
 62
7
  6
CONTINUOUS
 10
-3.9300039859
 20
-32.9247006414
 11
-3.9300039859
 21
-33.1300709771
  0
LINE
  5
308
100
AcDbEntity
  8
0
100
AcDbLine
 62
7
  6
CONTINUOUS
 10
-3.9051138951
 20
-32.6815136527
 11
-3.9051138951
 21
-32.4729483583
  0
LINE
  5
309
100
AcDbEntity
  8
0
100
AcDbLine
 62
7
  6
CONTINUOUS
 10
-3.8644942618
 20
-32.8591909173
 11
-3.8644942618
 21
-33.0813169933
  0
LINE
  5
30A
100
AcDbEntity
  8
0
100
AcDbLine
 62
7
  6
CONTINUOUS
 10
-3.1875039859
 20
-34.058326664
 11
-3.1875039859
 21
-33.6647006414
  0
LINE
  5
30B
100
AcDbEntity
  8
0
100
AcDbLine
 62
7
  6
CONTINUOUS
 10
-4.3334460732
 20
-31.9175496197
 11
-4.2774101062
 21
-31.7084205438
  0
LINE
  5
30C
100
AcDbEntity
  8
0
100
AcDbLine
 62
7
  6
CONTINUOUS
 10
-3.9151879213
 20
-31.8054776857
 11
-3.9712238883
 21
-32.0146067616
  0
LINE
  5
30D
100
AcDbEntity
  8
0
100
AcDbLine
 62
7
  6
CONTINUOUS
 10
-4.3334460732
 20
-35.9175496197
 11
-4.2774101062
 21
-35.7084205438
  0
LINE
  5
30E
100
AcDbEntity
  8
0
100
AcDbLine
 62
7
  6
CONTINUOUS
 10
-9.2111115052
 20
-39.1648145116
 11
-9.3193646807
 21
-39.3523145116
  0
LINE
  5
30F
100
AcDbEntity
  8
0
100
AcDbLine
 62
7
  6
CONTINUOUS
 10
-10.5965312034
 20
-40.0379746834
 11
-10.3800248524
 21
-40.0379746834
  0
LINE
  5
310
100
AcDbEntity
  8
0
100
AcDbLine
 62
7
  6
CONTINUOUS
 10
2.131390858
 20
-40.0379746834
 11
2.3478972089
 21
-40.0379746834
  0
LINE
  5
311
100
AcDbEntity
  8
0
100
AcDbLine
 62
7
  6
CONTINUOUS
 10
1.2872370371
 20
-39.3523145116
 11
1.0707306862
 21
-39.3523145116
  0
LINE
  5
312
100
AcDbEntity
  8
0
100
AcDbLine
 62
7
  6
CONTINUOUS
 10
-9.3193646807
 20
-39.3523145116
 11
-9.5358710316
 21
-39.3523145116
  0
LINE
  5
313
100
AcDbEntity
  8
0
100
AcDbLine
 62
7
  6
CONTINUOUS
 10
-9.5358710316
 20
-38.9773145116
 11
-9.3193646807
 21
-38.9773145116
  0
LINE
  5
314
100
AcDbEntity
  8
0
100
AcDbLine
 62
7
  6
CONTINUOUS
 10
1.0707306862
 20
-38.9773145116
 11
1.2872370371
 21
-38.9773145116
  0
LINE
  5
315
100
AcDbEntity
  8
0
100
AcDbLine
 62
7
  6
CONTINUOUS
 10
-4.1803529642
 20
-36.0706427286
 11
-4.3334460732
 21
-35.9175496197
  0
LINE
  5
316
100
AcDbEntity
  8
0
100
AcDbLine
 62
7
  6
CONTINUOUS
 10
-6.1803529642
 20
-34.0706427286
 11
-6.3334460732
 21
-33.9175496197
  0
LINE
  5
317
100
AcDbEntity
  8
0
100
AcDbLine
 62
7
  6
CONTINUOUS
 10
-6.0682810302
 20
-33.6523845768
 11
-5.9151879213
 21
-33.8054776857
  0
LINE
  5
318
100
AcDbEntity
  8
0
100
AcDbLine
 62
7
  6
CONTINUOUS
 10
-4.0682810302
 20
-35.6523845768
 11
-3.9151879213
 21
-35.8054776857
  0
LINE
  5
319
100
AcDbEntity
  8
0
100
AcDbLine
 62
7
  6
CONTINUOUS
 10
-3.1219942618
 20
-33.5991909173
 11
-3.1219942618
 21
-33.7065136527
  0
LINE
  5
31A
100
AcDbEntity
  8
0
100
AcDbLine
 62
7
  6
CONTINUOUS
 10
-3.1219942618
 20
-34.0165136527
 11
-3.1219942618
 21
-34.1238363881
  0
LINE
  5
31B
100
AcDbEntity
  8
0
100
AcDbLine
 62
7
  6
CONTINUOUS
 10
-2.9443169972
 20
-33.6423105505
 11
-2.9443169972
 21
-34.0807167549
  0
LINE
  5
31C
100
AcDbEntity
  8
0
100
AcDbLine
 62
7
  6
CONTINUOUS
 10
-3.9151879213
 20
-35.8054776857
 11
-3.9712238883
 21
-36.0146067616
  0
LINE
  5
31D
100
AcDbEntity
  8
0
100
AcDbLine
 62
7
  6
CONTINUOUS
 10
-2.3334460732
 20
-33.9175496197
 11
-2.2774101062
 21
-33.7084205438
  0
LINE
  5
31E
100
AcDbEntity
  8
0
100
AcDbLine
 62
7
  6
CONTINUOUS
 10
-1.9151879213
 20
-33.8054776857
 11
-1.9712238883
 21
-34.0146067616
  0
LINE
  5
31F
100
AcDbEntity
  8
0
100
AcDbLine
 62
7
  6
CONTINUOUS
 10
-3.8644942618
 20
-32.8591909173
 11
-3.9300039859
 21
-32.9247006414
  0
LINE
  5
320
100
AcDbEntity
  8
0
100
AcDbLine
 62
7
  6
CONTINUOUS
 10
-5.6925917384
 20
-35.2954381054
 11
-4.7690688382
 21
-34.3719152052
  0
LINE
  5
321
100
AcDbEntity
  8
0
100
AcDbLine
 62
7
  6
CONTINUOUS
 10
-2.6903925445
 20
-32.2932389115
 11
-3.6139154447
 21
-33.2167618118
  0
LINE
  5
322
100
AcDbEntity
  8
0
100
AcDbLine
 62
7
  6
CONTINUOUS
 10
-5.9411044662
 20
-35.5501240114
 11
-5.6896400967
 21
-35.2986596419
  0
LINE
  5
323
100
AcDbEntity
  8
0
100
AcDbLine
 62
7
  6
CONTINUOUS
 10
-2.4357066385
 20
-32.0447261838
 11
-2.687171008
 21
-32.2961905533
  0
LINE
  5
324
100
AcDbEntity
  8
0
100
AcDbLine
 62
7
  6
CONTINUOUS
 10
-5.812927356
 20
-35.6783011216
 11
-5.5614629865
 21
-35.4268367521
  0
LINE
  5
325
100
AcDbEntity
  8
0
100
AcDbLine
 62
7
  6
CONTINUOUS
 10
-2.3075295283
 20
-32.172903294
 11
-2.5589938978
 21
-32.4243676635
  0
LINE
  5
326
100
AcDbEntity
  8
0
100
AcDbLine
 62
7
  6
CONTINUOUS
 10
-5.55824145
 20
-35.4297883939
 11
-4.6347185497
 21
-34.5062654936
  0
LINE
  5
327
100
AcDbEntity
  8
0
100
AcDbLine
 62
7
  6
CONTINUOUS
 10
-2.5560422561
 20
-32.4275892
 11
-3.4795651563
 21
-33.3511121002
  0
LINE
  5
328
100
AcDbEntity
  8
0
100
AcDbLine
 62
7
  6
CONTINUOUS
 10
-2.6903925445
 20
-35.4297883939
 11
-3.6139154447
 21
-34.5062654936
  0
LINE
  5
329
100
AcDbEntity
  8
0
100
AcDbLine
 62
7
  6
CONTINUOUS
 10
-5.6925917384
 20
-32.4275892
 11
-4.7690688382
 21
-33.3511121002
  0
LINE
  5
32A
100
AcDbEntity
  8
0
100
AcDbLine
 62
7
  6
CONTINUOUS
 10
-2.4357066385
 20
-35.6783011216
 11
-2.687171008
 21
-35.4268367521
  0
LINE
  5
32B
100
AcDbEntity
  8
0
100
AcDbLine
 62
7
  6
CONTINUOUS
 10
-5.9411044662
 20
-32.172903294
 11
-5.6896400967
 21
-32.4243676635
  0
LINE
  5
32C
100
AcDbEntity
  8
0
100
AcDbLine
 62
7
  6
CONTINUOUS
 10
-2.3075295283
 20
-35.5501240114
 11
-2.5589938978
 21
-35.2986596419
  0
LINE
  5
32D
100
AcDbEntity
  8
0
100
AcDbLine
 62
7
  6
CONTINUOUS
 10
-5.812927356
 20
-32.0447261838
 11
-5.5614629865
 21
-32.2961905533
  0
LINE
  5
32E
100
AcDbEntity
  8
0
100
AcDbLine
 62
7
  6
CONTINUOUS
 10
-2.5560422561
 20
-35.2954381054
 11
-3.4795651563
 21
-34.3719152052
  0
LINE
  5
32F
100
AcDbEntity
  8
0
100
AcDbLine
 62
7
  6
CONTINUOUS
 10
-5.55824145
 20
-32.2932389115
 11
-4.6347185497
 21
-33.2167618118
  0
LINE
  5
330
100
AcDbEntity
  8
0
100
AcDbLine
 62
7
  6
CONTINUOUS
 10
-3.1219942618
 20
-34.1238363881
 11
-3.1875039859
 21
-34.058326664
  0
LINE
  5
331
100
AcDbEntity
  8
0
100
AcDbLine
 62
7
  6
CONTINUOUS
 10
-4.3186300085
 20
-32.9247006414
 11
-4.3841397326
 21
-32.8591909173
  0
LINE
  5
332
100
AcDbEntity
  8
0
100
AcDbLine
 62
7
  6
CONTINUOUS
 10
-2.1803529642
 20
-34.0706427286
 11
-2.3334460732
 21
-33.9175496197
  0
LINE
  5
333
100
AcDbEntity
  8
0
100
AcDbLine
 62
7
  6
CONTINUOUS
 10
-4.1803529642
 20
-32.0706427286
 11
-4.3334460732
 21
-31.9175496197
  0
LINE
  5
334
100
AcDbEntity
  8
0
100
AcDbLine
 62
7
  6
CONTINUOUS
 10
1.0707306862
 20
-39.3523145116
 11
0.9624775107
 21
-39.1648145116
  0
LINE
  5
335
100
AcDbEntity
  8
0
100
AcDbLine
 62
7
  6
CONTINUOUS
 10
1.2872370371
 20
-38.9773145116
 11
1.3954902126
 21
-39.1648145116
  0
LINE
  5
336
100
AcDbEntity
  8
0
100
AcDbLine
 62
7
  6
CONTINUOUS
 10
2.131390858
 20
-40.4129746834
 11
2.0231376825
 21
-40.2254746834
  0
LINE
  5
337
100
AcDbEntity
  8
0
100
AcDbLine
 62
7
  6
CONTINUOUS
 10
0.9624775107
 20
-28.5582127938
 11
1.0707306862
 21
-28.3707127938
  0
LINE
  5
338
100
AcDbEntity
  8
0
100
AcDbLine
 62
7
  6
CONTINUOUS
 10
1.3954902126
 20
-28.5582127938
 11
1.2872370371
 21
-28.7457127938
  0
LINE
  5
339
100
AcDbEntity
  8
0
100
AcDbLine
 62
7
  6
CONTINUOUS
 10
2.0231376825
 20
-27.497552622
 11
2.131390858
 21
-27.310052622
  0
LINE
  5
33A
100
AcDbEntity
  8
0
100
AcDbLine
 62
7
  6
CONTINUOUS
 10
2.4561503844
 20
-27.497552622
 11
2.3478972089
 21
-27.685052622
  0
LINE
  5
33B
100
AcDbEntity
  8
0
100
AcDbLine
 62
7
  6
CONTINUOUS
 10
-3.1875039859
 20
-33.6647006414
 11
-3.1219942618
 21
-33.5991909173
  0
LINE
  5
33C
100
AcDbEntity
  8
0
100
AcDbLine
 62
7
  6
CONTINUOUS
 10
-4.0682810302
 20
-31.6523845768
 11
-3.9151879213
 21
-31.8054776857
  0
LINE
  5
33D
100
AcDbEntity
  8
0
100
AcDbLine
 62
7
  6
CONTINUOUS
 10
-2.0682810302
 20
-33.6523845768
 11
-1.9151879213
 21
-33.8054776857
  0
LINE
  5
33E
100
AcDbEntity
  8
0
100
AcDbLine
 62
7
  6
CONTINUOUS
 10
2.3478972089
 20
-40.0379746834
 11
2.4561503844
 21
-40.2254746834
  0
LINE
  5
33F
100
AcDbEntity
  8
0
100
AcDbLine
 62
7
  6
CONTINUOUS
 10
-3.9712238883
 20
-36.0146067616
 11
-4.1803529642
 21
-36.0706427286
  0
LINE
  5
340
100
AcDbEntity
  8
0
100
AcDbLine
 62
7
  6
CONTINUOUS
 10
-4.2774101062
 20
-35.7084205438
 11
-4.0682810302
 21
-35.6523845768
  0
LINE
  5
341
100
AcDbEntity
  8
0
100
AcDbLine
 62
7
  6
CONTINUOUS
 10
-1.9712238883
 20
-34.0146067616
 11
-2.1803529642
 21
-34.0706427286
  0
LINE
  5
342
100
AcDbEntity
  8
0
100
AcDbLine
 62
7
  6
CONTINUOUS
 10
-3.1219942618
 20
-34.1238363881
 11
-3.3449573475
 21
-34.1238363881
  0
LINE
  5
343
100
AcDbEntity
  8
0
100
AcDbLine
 62
7
  6
CONTINUOUS
 10
-2.9443169972
 20
-34.0807167549
 11
-2.7357517028
 21
-34.0807167549
  0
LINE
  5
344
100
AcDbEntity
  8
0
100
AcDbLine
 62
7
  6
CONTINUOUS
 10
-3.1875039859
 20
-34.058326664
 11
-3.3935430427
 21
-34.058326664
  0
LINE
  5
345
100
AcDbEntity
  8
0
100
AcDbLine
 62
7
  6
CONTINUOUS
 10
-3.1632707795
 20
-34.0165136527
 11
-2.9443169972
 21
-34.0165136527
  0
LINE
  5
346
100
AcDbEntity
  8
0
100
AcDbLine
 62
7
  6
CONTINUOUS
 10
-2.9443169972
 20
-33.8615136527
 11
-2.7357517028
 21
-33.8615136527
  0
LINE
  5
347
100
AcDbEntity
  8
0
100
AcDbLine
 62
7
  6
CONTINUOUS
 10
-3.1632707795
 20
-33.7065136527
 11
-2.9443169972
 21
-33.7065136527
  0
LINE
  5
348
100
AcDbEntity
  8
0
100
AcDbLine
 62
7
  6
CONTINUOUS
 10
-3.1875039859
 20
-33.6647006414
 11
-3.3935430427
 21
-33.6647006414
  0
LINE
  5
349
100
AcDbEntity
  8
0
100
AcDbLine
 62
7
  6
CONTINUOUS
 10
-2.9443169972
 20
-33.6423105505
 11
-2.7357517028
 21
-33.6423105505
  0
LINE
  5
34A
100
AcDbEntity
  8
0
100
AcDbLine
 62
7
  6
CONTINUOUS
 10
-3.1219942618
 20
-33.5991909173
 11
-3.3449573475
 21
-33.5991909173
  0
LINE
  5
34B
100
AcDbEntity
  8
0
100
AcDbLine
 62
7
  6
CONTINUOUS
 10
-4.2183169972
 20
-33.5280136527
 11
-4.0303169972
 21
-33.5280136527
  0
LINE
  5
34C
100
AcDbEntity
  8
0
100
AcDbLine
 62
7
  6
CONTINUOUS
 10
-4.2183169972
 20
-33.3400136527
 11
-4.0303169972
 21
-33.3400136527
  0
LINE
  5
34D
100
AcDbEntity
  8
0
100
AcDbLine
 62
7
  6
CONTINUOUS
 10
-4.0303169972
 20
-33.3350136527
 11
-4.2183169972
 21
-33.3350136527
  0
LINE
  5
34E
100
AcDbEntity
  8
0
100
AcDbLine
 62
7
  6
CONTINUOUS
 10
-3.9300039859
 20
-32.9247006414
 11
-4.3186300085
 21
-32.9247006414
  0
LINE
  5
34F
100
AcDbEntity
  8
0
100
AcDbLine
 62
7
  6
CONTINUOUS
 10
-4.3841397326
 20
-32.8591909173
 11
-4.2793169972
 21
-32.8591909173
  0
LINE
  5
350
100
AcDbEntity
  8
0
100
AcDbLine
 62
7
  6
CONTINUOUS
 10
-3.9693169972
 20
-32.8591909173
 11
-3.8644942618
 21
-32.8591909173
  0
LINE
  5
351
100
AcDbEntity
  8
0
100
AcDbLine
 62
7
  6
CONTINUOUS
 10
0.9624775107
 20
-39.1648145116
 11
1.0707306862
 21
-38.9773145116
  0
LINE
  5
352
100
AcDbEntity
  8
0
100
AcDbLine
 62
7
  6
CONTINUOUS
 10
-2.2774101062
 20
-33.7084205438
 11
-2.0682810302
 21
-33.6523845768
  0
LINE
  5
353
100
AcDbEntity
  8
0
100
AcDbLine
 62
7
  6
CONTINUOUS
 10
-5.9712238883
 20
-34.0146067616
 11
-6.1803529642
 21
-34.0706427286
  0
LINE
  5
354
100
AcDbEntity
  8
0
100
AcDbLine
 62
7
  6
CONTINUOUS
 10
-6.2774101062
 20
-33.7084205438
 11
-6.0682810302
 21
-33.6523845768
  0
LINE
  5
355
100
AcDbEntity
  8
0
100
AcDbLine
 62
7
  6
CONTINUOUS
 10
-4.3435200994
 20
-32.6815136527
 11
-3.9051138951
 21
-32.6815136527
  0
LINE
  5
356
100
AcDbEntity
  8
0
100
AcDbLine
 62
7
  6
CONTINUOUS
 10
1.0707306862
 20
-28.7457127938
 11
0.9624775107
 21
-28.5582127938
  0
LINE
  5
357
100
AcDbEntity
  8
0
100
AcDbLine
 62
7
  6
CONTINUOUS
 10
1.2872370371
 20
-28.3707127938
 11
1.3954902126
 21
-28.5582127938
  0
LINE
  5
358
100
AcDbEntity
  8
0
100
AcDbLine
 62
7
  6
CONTINUOUS
 10
1.3954902126
 20
-39.1648145116
 11
1.2872370371
 21
-39.3523145116
  0
LINE
  5
359
100
AcDbEntity
  8
0
100
AcDbLine
 62
7
  6
CONTINUOUS
 10
2.0231376825
 20
-40.2254746834
 11
2.131390858
 21
-40.0379746834
  0
LINE
  5
35A
100
AcDbEntity
  8
0
100
AcDbLine
 62
7
  6
CONTINUOUS
 10
2.4561503844
 20
-40.2254746834
 11
2.3478972089
 21
-40.4129746834
  0
LINE
  5
35B
100
AcDbEntity
  8
0
100
AcDbLine
 62
7
  6
CONTINUOUS
 10
-3.9712238883
 20
-32.0146067616
 11
-4.1803529642
 21
-32.0706427286
  0
LINE
  5
35C
100
AcDbEntity
  8
0
100
AcDbLine
 62
7
  6
CONTINUOUS
 10
-4.2774101062
 20
-31.7084205438
 11
-4.0682810302
 21
-31.6523845768
  0
LINE
  5
35D
100
AcDbEntity
  8
WITNESS
100
AcDbLine
 62
4
  6
CONTINUOUS
 10
-4.1238169972
 20
-30.8615136527
 11
-4.1248169972
 21
-30.8615136527
  0
LINE
  5
35E
100
AcDbEntity
  8
WITNESS
100
AcDbLine
 62
4
  6
CONTINUOUS
 10
-4.1248169972
 20
-30.6115136527
 11
-4.1238169972
 21
-30.6115136527
  0
LINE
  5
35F
100
AcDbEntity
  8
0
100
AcDbLine
 62
7
  6
CONTINUOUS
 10
2.131390858
 20
-27.685052622
 11
2.0231376825
 21
-27.497552622
  0
LINE
  5
360
100
AcDbEntity
  8
0
100
AcDbLine
 62
7
  6
CONTINUOUS
 10
2.3478972089
 20
-27.310052622
 11
2.4561503844
 21
-27.497552622
  0
LINE
  5
361
100
AcDbEntity
  8
0
100
AcDbLine
 62
7
  6
CONTINUOUS
 10
1.2872370371
 20
-28.7457127938
 11
1.0707306862
 21
-28.7457127938
  0
LINE
  5
362
100
AcDbEntity
  8
0
100
AcDbLine
 62
7
  6
CONTINUOUS
 10
-9.3193646807
 20
-28.7457127938
 11
-9.5358710316
 21
-28.7457127938
  0
LINE
  5
363
100
AcDbEntity
  8
0
100
AcDbLine
 62
7
  6
CONTINUOUS
 10
-9.5358710316
 20
-28.3707127938
 11
-9.3193646807
 21
-28.3707127938
  0
LINE
  5
364
100
AcDbEntity
  8
0
100
AcDbLine
 62
7
  6
CONTINUOUS
 10
1.0707306862
 20
-28.3707127938
 11
1.2872370371
 21
-28.3707127938
  0
LINE
  5
365
100
AcDbEntity
  8
0
100
AcDbLine
 62
7
  6
CONTINUOUS
 10
2.3478972089
 20
-27.685052622
 11
2.131390858
 21
-27.685052622
  0
LINE
  5
366
100
AcDbEntity
  8
0
100
AcDbLine
 62
7
  6
CONTINUOUS
 10
-10.3800248524
 20
-27.685052622
 11
-10.5965312034
 21
-27.685052622
  0
LINE
  5
367
100
AcDbEntity
  8
0
100
AcDbLine
 62
7
  6
CONTINUOUS
 10
-10.5965312034
 20
-27.310052622
 11
-10.3800248524
 21
-27.310052622
  0
LINE
  5
368
100
AcDbEntity
  8
0
100
AcDbLine
 62
7
  6
CONTINUOUS
 10
2.131390858
 20
-27.310052622
 11
2.3478972089
 21
-27.310052622
  0
LINE
  5
369
100
AcDbEntity
  8
0
100
AcDbLine
 62
7
  6
CONTINUOUS
 10
8.8756830028
 20
-20.7015136527
 11
8.8756830028
 21
-20.8615136527
  0
LINE
  5
36A
100
AcDbEntity
  8
0
100
AcDbLine
 62
7
  6
CONTINUOUS
 10
8.8756830028
 20
-46.8615136527
 11
8.8756830028
 21
-47.0215136527
  0
LINE
  5
36B
100
AcDbEntity
  8
0
100
AcDbLine
 62
7
  6
CONTINUOUS
 10
8.9556830028
 20
-46.8615136527
 11
8.9556830028
 21
-20.8615136527
  0
LINE
  5
36C
100
AcDbEntity
  8
0
100
AcDbLine
 62
3
  6
CONTINUOUS
 10
9.0356830028
 20
-46.8615136527
 11
9.0356830028
 21
-20.8615136527
  0
LINE
  5
36D
100
AcDbEntity
  8
0
100
AcDbLine
 62
7
  6
CONTINUOUS
 10
8.8756830028
 20
-20.8615136527
 11
9.0356830028
 21
-20.8615136527
  0
LINE
  5
36E
100
AcDbEntity
  8
0
100
AcDbLine
 62
7
  6
CONTINUOUS
 10
-17.1243169972
 20
-20.8615136527
 11
-17.2843169972
 21
-20.8615136527
  0
LINE
  5
36F
100
AcDbEntity
  8
0
100
AcDbLine
 62
7
  6
CONTINUOUS
 10
8.8756830028
 20
-20.7815136527
 11
-17.1243169972
 21
-20.7815136527
  0
LINE
  5
370
100
AcDbEntity
  8
0
100
AcDbLine
 62
3
  6
CONTINUOUS
 10
8.8756830028
 20
-20.7015136527
 11
-17.1243169972
 21
-20.7015136527
  0
ARC
  5
371
100
AcDbEntity
  8
0
100
AcDbCircle
 62
7
  6
CONTINUOUS
 10
-13.3210481557
 20
-11.991098646
 40
19.9875453884
100
AcDbArc
 50
59.545015217
 51
60.2661993323
  0
ARC
  5
372
100
AcDbEntity
  8
0
100
AcDbCircle
 62
3
  6
CONTINUOUS
 10
-16.136037625
 20
0.5515215517
 40
3.27
100
AcDbArc
 50
90.0
 51
178.0
  0
ARC
  5
373
100
AcDbEntity
  8
0
100
AcDbCircle
 62
7
  6
CONTINUOUS
 10
-11.4598599346
 20
-5.9236954563
 40
0.3048797336
100
AcDbArc
 50
20.080993756
 51
22.2042644921
  0
ARC
  5
374
100
AcDbEntity
  8
0
100
AcDbCircle
 62
7
  6
CONTINUOUS
 10
-11.4772903926
 20
-5.9160933038
 40
0.285411313
100
AcDbArc
 50
22.1511848446
 51
28.700684686
  0
ARC
  5
375
100
AcDbEntity
  8
0
100
AcDbCircle
 62
7
  6
CONTINUOUS
 10
-11.4605887765
 20
-5.9072890234
 40
0.2665337025
100
AcDbArc
 50
28.764764739
 51
29.8240318455
  0
ARC
  5
376
100
AcDbEntity
  8
0
100
AcDbCircle
 62
3
  6
CONTINUOUS
 10
-19.711430982
 20
-2.7784784483
 40
0.25
100
AcDbArc
 50
90.0
 51
270.0
  0
ARC
  5
377
100
AcDbEntity
  8
0
100
AcDbCircle
 62
3
  6
CONTINUOUS
 10
-14.4343169972
 20
4.0715215517
 40
0.25
100
AcDbArc
 50
270.0
 51
348.3937995549
  0
ARC
  5
378
100
AcDbEntity
  8
0
100
AcDbCircle
 62
7
  6
CONTINUOUS
 10
-16.0643169972
 20
4.4910215517
 40
0.19
100
AcDbArc
 50
90.0
 51
270.0
  0
ARC
  5
379
100
AcDbEntity
  8
0
100
AcDbCircle
 62
3
  6
CONTINUOUS
 10
-17.1243169972
 20
-6.8784784483
 40
0.16
100
AcDbArc
 50
90.0
 51
180.0
  0
CIRCLE
  5
37A
100
AcDbEntity
  8
0
100
AcDbCircle
 62
3
  6
CONTINUOUS
 10
-10.6243169972
 20
-7.4684784483
 40
0.155
  0
ARC
  5
37B
100
AcDbEntity
  8
0
100
AcDbCircle
 62
7
  6
CONTINUOUS
 10
-14.7142565599
 20
5.2630322152
 40
0.0946667533
100
AcDbArc
 50
194.9549823135
 51
195.5809413869
  0
ARC
  5
37C
100
AcDbEntity
  8
0
100
AcDbCircle
 62
7
  6
CONTINUOUS
 10
-17.1243169972
 20
-6.8784784483
 40
0.08
100
AcDbArc
 50
90.0
 51
180.0
  0
ARC
  5
37D
100
AcDbEntity
  8
0
100
AcDbCircle
 62
7
  6
CONTINUOUS
 10
-13.321048144
 20
22.9731417272
 40
19.9875453633
100
AcDbArc
 50
299.73380067
 51
300.4549847863
  0
ARC
  5
37E
100
AcDbEntity
  8
0
100
AcDbCircle
 62
7
  6
CONTINUOUS
 10
-13.487398467
 20
5.4910215517
 40
10.080380142
100
AcDbArc
 50
359.2829528846
 51
0.7170471154
  0
ARC
  5
37F
100
AcDbEntity
  8
0
100
AcDbCircle
 62
7
  6
CONTINUOUS
 10
-12.3516675205
 20
17.8010215517
 40
2.0
100
AcDbArc
 50
90.0
 51
178.0
  0
ARC
  5
380
100
AcDbEntity
  8
0
100
AcDbCircle
 62
7
  6
CONTINUOUS
 10
-14.7165284416
 20
5.7196302888
 40
0.0923119537
100
AcDbArc
 50
164.2194481333
 51
164.967088425
  0
ARC
  5
381
100
AcDbEntity
  8
0
100
AcDbCircle
 62
3
  6
CONTINUOUS
 10
7.8874036305
 20
0.5515215517
 40
3.27
100
AcDbArc
 50
2.0
 51
90.0
  0
ARC
  5
382
100
AcDbEntity
  8
0
100
AcDbCircle
 62
7
  6
CONTINUOUS
 10
-3.2413495385
 20
4.5892232431
 40
0.362705607
100
AcDbArc
 50
232.8081664403
 51
269.9873964578
  0
ARC
  5
383
100
AcDbEntity
  8
0
100
AcDbCircle
 62
7
  6
CONTINUOUS
 10
-3.2358439839
 20
4.5892232462
 40
0.362705607
100
AcDbArc
 50
270.0126034292
 51
307.191833175
  0
ARC
  5
384
100
AcDbEntity
  8
0
100
AcDbCircle
 62
7
  6
CONTINUOUS
 10
-3.2356844152
 20
4.5892232431
 40
0.362705607
100
AcDbArc
 50
232.8081664408
 51
269.9873964583
  0
ARC
  5
385
100
AcDbEntity
  8
0
100
AcDbCircle
 62
7
  6
CONTINUOUS
 10
-3.1923377671
 20
5.4910213557
 40
0.2663860781
100
AcDbArc
 50
331.2814097921
 51
28.6785068331
  0
ARC
  5
386
100
AcDbEntity
  8
0
100
AcDbCircle
 62
3
  6
CONTINUOUS
 10
11.4627969876
 20
-2.7784784483
 40
0.25
100
AcDbArc
 50
270.0
 51
90.0
  0
ARC
  5
387
100
AcDbEntity
  8
0
100
AcDbCircle
 62
3
  6
CONTINUOUS
 10
6.1856830028
 20
4.0715215517
 40
0.25
100
AcDbArc
 50
180.0
 51
270.0
  0
ARC
  5
388
100
AcDbEntity
  8
0
100
AcDbCircle
 62
7
  6
CONTINUOUS
 10
7.8156830028
 20
4.4910215517
 40
0.19
100
AcDbArc
 50
270.0
 51
90.0
  0
ARC
  5
389
100
AcDbEntity
  8
0
100
AcDbCircle
 62
3
  6
CONTINUOUS
 10
8.8756830028
 20
-6.8784784483
 40
0.16
100
AcDbArc
 50
0.0
 51
90.0
  0
CIRCLE
  5
38A
100
AcDbEntity
  8
0
100
AcDbCircle
 62
3
  6
CONTINUOUS
 10
2.3756830028
 20
-7.4684784483
 40
0.155
  0
ARC
  5
38B
100
AcDbEntity
  8
0
100
AcDbCircle
 62
3
  6
CONTINUOUS
 10
5.9932966341
 20
4.1500291256
 40
0.1390072079
100
AcDbArc
 50
247.9619100511
 51
269.9976991422
  0
ARC
  5
38C
100
AcDbEntity
  8
0
100
AcDbCircle
 62
7
  6
CONTINUOUS
 10
6.4536104928
 20
5.2662471158
 40
0.1071016012
100
AcDbArc
 50
345.0417155814
 51
345.8545794518
  0
ARC
  5
38D
100
AcDbEntity
  8
0
100
AcDbCircle
 62
7
  6
CONTINUOUS
 10
6.4656225654
 20
5.2630322152
 40
0.0946667533
100
AcDbArc
 50
344.4190586131
 51
345.0450176863
  0
ARC
  5
38E
100
AcDbEntity
  8
0
100
AcDbCircle
 62
7
  6
CONTINUOUS
 10
8.8756830028
 20
-6.8784784483
 40
0.08
100
AcDbArc
 50
0.0
 51
90.0
  0
ARC
  5
38F
100
AcDbEntity
  8
0
100
AcDbCircle
 62
7
  6
CONTINUOUS
 10
4.103033526
 20
17.8010215517
 40
2.0
100
AcDbArc
 50
2.0
 51
90.0
  0
ARC
  5
390
100
AcDbEntity
  8
0
100
AcDbCircle
 62
7
  6
CONTINUOUS
 10
-3.191111074
 20
5.4916466484
 40
0.2650084666
100
AcDbArc
 50
28.6871760438
 51
29.9053452165
  0
ARC
  5
391
100
AcDbEntity
  8
0
100
AcDbCircle
 62
7
  6
CONTINUOUS
 10
6.4545136131
 20
5.7160258641
 40
0.1061697494
100
AcDbArc
 50
14.1443532703
 51
15.038541377
  0
ARC
  5
392
100
AcDbEntity
  8
0
100
AcDbCircle
 62
7
  6
CONTINUOUS
 10
6.4678944472
 20
5.7196302888
 40
0.0923119537
100
AcDbArc
 50
15.0329115748
 51
15.7805518671
  0
ARC
  5
393
100
AcDbEntity
  8
0
100
AcDbCircle
 62
7
  6
CONTINUOUS
 10
31.1493930523
 20
-11.9910986461
 40
19.9875453886
100
AcDbArc
 50
59.5450152169
 51
60.2661993322
  0
ARC
  5
394
100
AcDbEntity
  8
0
100
AcDbCircle
 62
3
  6
CONTINUOUS
 10
28.3344035832
 20
0.5515215517
 40
3.27
100
AcDbArc
 50
90.0
 51
178.0
  0
ARC
  5
395
100
AcDbEntity
  8
0
100
AcDbCircle
 62
7
  6
CONTINUOUS
 10
33.0105812736
 20
-5.9236954563
 40
0.3048797336
100
AcDbArc
 50
20.0809937559
 51
22.2042644922
  0
ARC
  5
396
100
AcDbEntity
  8
0
100
AcDbCircle
 62
7
  6
CONTINUOUS
 10
32.9875008915
 20
-5.9186294219
 40
0.2916005583
100
AcDbArc
 50
22.1941406045
 51
26.8570041919
  0
ARC
  5
397
100
AcDbEntity
  8
0
100
AcDbCircle
 62
7
  6
CONTINUOUS
 10
33.0030054297
 20
-5.9110059
 40
0.2743244215
100
AcDbArc
 50
26.8994425022
 51
28.7571092295
  0
ARC
  5
398
100
AcDbEntity
  8
0
100
AcDbCircle
 62
7
  6
CONTINUOUS
 10
33.0042873438
 20
-5.9666025717
 40
0.2728865638
100
AcDbArc
 50
330.4633562192
 51
333.091803032
  0
ARC
  5
399
100
AcDbEntity
  8
0
100
AcDbCircle
 62
7
  6
CONTINUOUS
 10
33.0098524317
 20
-5.9072890234
 40
0.2665337025
100
AcDbArc
 50
28.7647647389
 51
29.8240318455
  0
ARC
  5
39A
100
AcDbEntity
  8
0
100
AcDbCircle
 62
3
  6
CONTINUOUS
 10
24.7590102262
 20
-2.7784784483
 40
0.25
100
AcDbArc
 50
90.0
 51
270.0
  0
ARC
  5
39B
100
AcDbEntity
  8
0
100
AcDbCircle
 62
3
  6
CONTINUOUS
 10
30.0361242109
 20
4.0715215517
 40
0.25
100
AcDbArc
 50
270.0
 51
348.3937995549
  0
ARC
  5
39C
100
AcDbEntity
  8
0
100
AcDbCircle
 62
7
  6
CONTINUOUS
 10
28.4061242109
 20
4.4910215517
 40
0.19
100
AcDbArc
 50
90.0
 51
270.0
  0
ARC
  5
39D
100
AcDbEntity
  8
0
100
AcDbCircle
 62
3
  6
CONTINUOUS
 10
27.3461242109
 20
-6.8784784483
 40
0.16
100
AcDbArc
 50
90.0
 51
180.0
  0
CIRCLE
  5
39E
100
AcDbEntity
  8
0
100
AcDbCircle
 62
3
  6
CONTINUOUS
 10
33.8461242109
 20
-7.4684784483
 40
0.155
  0
ARC
  5
39F
100
AcDbEntity
  8
0
100
AcDbCircle
 62
7
  6
CONTINUOUS
 10
29.7561846484
 20
5.2630322152
 40
0.0946667535
100
AcDbArc
 50
194.9549823142
 51
195.5809413864
  0
ARC
  5
3A0
100
AcDbEntity
  8
0
100
AcDbCircle
 62
7
  6
CONTINUOUS
 10
27.3461242109
 20
-6.8784784483
 40
0.08
100
AcDbArc
 50
90.0
 51
180.0
  0
ARC
  5
3A1
100
AcDbEntity
  8
0
100
AcDbCircle
 62
7
  6
CONTINUOUS
 10
31.1493930641
 20
22.9731417274
 40
19.9875453635
100
AcDbArc
 50
299.73380067
 51
300.4549847863
  0
ARC
  5
3A2
100
AcDbEntity
  8
0
100
AcDbCircle
 62
7
  6
CONTINUOUS
 10
30.9830427411
 20
5.4910215517
 40
10.0803801421
100
AcDbArc
 50
359.2829528846
 51
0.7170471154
  0
ARC
  5
3A3
100
AcDbEntity
  8
0
100
AcDbCircle
 62
7
  6
CONTINUOUS
 10
32.1187736877
 20
17.8010215517
 40
2.0
100
AcDbArc
 50
90.0
 51
178.0
  0
ARC
  5
3A4
100
AcDbEntity
  8
0
100
AcDbCircle
 62
7
  6
CONTINUOUS
 10
29.7539127665
 20
5.7196302889
 40
0.0923119536
100
AcDbArc
 50
164.2194481328
 51
164.9670884255
  0
ARC
  5
3A5
100
AcDbEntity
  8
0
100
AcDbCircle
 62
3
  6
CONTINUOUS
 10
52.3578448387
 20
0.5515215517
 40
3.27
100
AcDbArc
 50
2.0
 51
90.0
  0
ARC
  5
3A6
100
AcDbEntity
  8
0
100
AcDbCircle
 62
7
  6
CONTINUOUS
 10
41.2290916697
 20
4.5892232431
 40
0.362705607
100
AcDbArc
 50
232.808166441
 51
269.9873964585
  0
ARC
  5
3A7
100
AcDbEntity
  8
0
100
AcDbCircle
 62
7
  6
CONTINUOUS
 10
41.2345972243
 20
4.5892232462
 40
0.362705607
100
AcDbArc
 50
270.0126034292
 51
307.191833175
  0
ARC
  5
3A8
100
AcDbEntity
  8
0
100
AcDbCircle
 62
7
  6
CONTINUOUS
 10
41.234756793
 20
4.5892232431
 40
0.362705607
100
AcDbArc
 50
232.8081664401
 51
269.9873964576
  0
ARC
  5
3A9
100
AcDbEntity
  8
0
100
AcDbCircle
 62
7
  6
CONTINUOUS
 10
47.6834278742
 20
-5.9525805272
 40
0.3067672141
100
AcDbArc
 50
200.0875265377
 51
202.1977317104
  0
ARC
  5
3AA
100
AcDbEntity
  8
0
100
AcDbCircle
 62
7
  6
CONTINUOUS
 10
47.6990976063
 20
-5.9608635927
 40
0.285411313
100
AcDbArc
 50
202.1511848446
 51
208.7006846859
  0
ARC
  5
3AB
100
AcDbEntity
  8
0
100
AcDbCircle
 62
7
  6
CONTINUOUS
 10
41.2781034411
 20
5.4910213557
 40
0.2663860781
100
AcDbArc
 50
331.2814097921
 51
28.6785068331
  0
ARC
  5
3AC
100
AcDbEntity
  8
0
100
AcDbCircle
 62
7
  6
CONTINUOUS
 10
47.6816976351
 20
-5.970059682
 40
0.2657329784
100
AcDbArc
 50
208.7631687666
 51
209.8256278179
  0
ARC
  5
3AD
100
AcDbEntity
  8
0
100
AcDbCircle
 62
3
  6
CONTINUOUS
 10
55.9332381957
 20
-2.7784784483
 40
0.25
100
AcDbArc
 50
270.0
 51
90.0
  0
ARC
  5
3AE
100
AcDbEntity
  8
0
100
AcDbCircle
 62
3
  6
CONTINUOUS
 10
50.6561242109
 20
4.0715215517
 40
0.25
100
AcDbArc
 50
180.0
 51
270.0
  0
ARC
  5
3AF
100
AcDbEntity
  8
0
100
AcDbCircle
 62
7
  6
CONTINUOUS
 10
52.2861242109
 20
4.4910215517
 40
0.19
100
AcDbArc
 50
270.0
 51
90.0
  0
ARC
  5
3B0
100
AcDbEntity
  8
0
100
AcDbCircle
 62
3
  6
CONTINUOUS
 10
53.3461242109
 20
-6.8784784483
 40
0.16
100
AcDbArc
 50
0.0
 51
90.0
  0
CIRCLE
  5
3B1
100
AcDbEntity
  8
0
100
AcDbCircle
 62
3
  6
CONTINUOUS
 10
46.8461242109
 20
-7.4684784483
 40
0.155
  0
ARC
  5
3B2
100
AcDbEntity
  8
0
100
AcDbCircle
 62
3
  6
CONTINUOUS
 10
50.4637378423
 20
4.1500291256
 40
0.1390072079
100
AcDbArc
 50
247.9619100511
 51
269.9976991422
  0
ARC
  5
3B3
100
AcDbEntity
  8
0
100
AcDbCircle
 62
7
  6
CONTINUOUS
 10
50.9240517009
 20
5.2662471158
 40
0.1071016012
100
AcDbArc
 50
345.0417155818
 51
345.8545794519
  0
ARC
  5
3B4
100
AcDbEntity
  8
0
100
AcDbCircle
 62
7
  6
CONTINUOUS
 10
50.9360637741
 20
5.263032215
 40
0.0946667528
100
AcDbArc
 50
344.4190586114
 51
345.0450176884
  0
ARC
  5
3B5
100
AcDbEntity
  8
0
100
AcDbCircle
 62
7
  6
CONTINUOUS
 10
53.3461242109
 20
-6.8784784483
 40
0.08
100
AcDbArc
 50
0.0
 51
90.0
  0
ARC
  5
3B6
100
AcDbEntity
  8
0
100
AcDbCircle
 62
7
  6
CONTINUOUS
 10
48.5734747342
 20
17.8010215517
 40
2.0
100
AcDbArc
 50
2.0
 51
90.0
  0
ARC
  5
3B7
100
AcDbEntity
  8
0
100
AcDbCircle
 62
7
  6
CONTINUOUS
 10
41.2793301343
 20
5.4916466485
 40
0.2650084664
100
AcDbArc
 50
28.6871760436
 51
29.9053452168
  0
ARC
  5
3B8
100
AcDbEntity
  8
0
100
AcDbCircle
 62
7
  6
CONTINUOUS
 10
50.9249548213
 20
5.7160258641
 40
0.1061697494
100
AcDbArc
 50
14.1443532702
 51
15.038541377
  0
ARC
  5
3B9
100
AcDbEntity
  8
0
100
AcDbCircle
 62
7
  6
CONTINUOUS
 10
50.9383356551
 20
5.7196302888
 40
0.0923119539
100
AcDbArc
 50
15.0329115752
 51
15.7805518654
  0
ARC
  5
3BA
100
AcDbEntity
  8
0
100
AcDbCircle
 62
7
  6
CONTINUOUS
 10
-9.0584578561
 20
-35.4028071289
 40
5.5178645301
100
AcDbArc
 50
9.3508632523
 51
10.1741660841
  0
ARC
  5
3BB
100
AcDbEntity
  8
0
100
AcDbCircle
 62
7
  6
CONTINUOUS
 10
-5.6370997201
 20
-38.6299485639
 40
5.3497282195
100
AcDbArc
 50
79.8128959132
 51
80.6620747504
  0
ARC
  5
3BC
100
AcDbEntity
  8
0
100
AcDbCircle
 62
7
  6
CONTINUOUS
 10
-5.5193502233
 20
-35.6857166131
 40
2.6772101553
100
AcDbArc
 50
35.6899274564
 51
37.4354929354
  0
ARC
  5
3BD
100
AcDbEntity
  8
0
100
AcDbCircle
 62
7
  6
CONTINUOUS
 10
-5.9132678336
 20
-35.2043639617
 40
2.6164023351
100
AcDbArc
 50
52.4482822205
 51
54.2366177025
  0
CIRCLE
  5
3BE
100
AcDbEntity
  8
0
100
AcDbCircle
 62
7
  6
CONTINUOUS
 10
-10.4882780279
 20
-40.2254746834
 40
0.625
  0
CIRCLE
  5
3BF
100
AcDbEntity
  8
0
100
AcDbCircle
 62
7
  6
CONTINUOUS
 10
-9.4276178561
 20
-39.1648145116
 40
0.625
  0
CIRCLE
  5
3C0
100
AcDbEntity
  8
0
100
AcDbCircle
 62
7
  6
CONTINUOUS
 10
-10.4882780279
 20
-40.2254746834
 40
0.26
  0
CIRCLE
  5
3C1
100
AcDbEntity
  8
0
100
AcDbCircle
 62
7
  6
CONTINUOUS
 10
-9.4276178561
 20
-39.1648145116
 40
0.26
  0
CIRCLE
  5
3C2
100
AcDbEntity
  8
0
100
AcDbCircle
 62
7
  6
CONTINUOUS
 10
-10.4882780279
 20
-40.2254746834
 40
0.187
  0
CIRCLE
  5
3C3
100
AcDbEntity
  8
0
100
AcDbCircle
 62
7
  6
CONTINUOUS
 10
-9.4276178561
 20
-39.1648145116
 40
0.187
  0
ARC
  5
3C4
100
AcDbEntity
  8
0
100
AcDbCircle
 62
7
  6
CONTINUOUS
 10
-4.7416404593
 20
-35.7638574027
 40
0.125
100
AcDbArc
 50
252.0214013097
 51
351.0107006548
  0
ARC
  5
3C5
100
AcDbEntity
  8
0
100
AcDbCircle
 62
7
  6
CONTINUOUS
 10
-6.0266607472
 20
-34.4788371148
 40
0.125
100
AcDbArc
 50
98.9892993452
 51
197.9785986903
  0
ARC
  5
3C6
100
AcDbEntity
  8
0
100
AcDbCircle
 62
7
  6
CONTINUOUS
 10
-5.6656104734
 20
-28.9273727939
 40
5.51786453
100
AcDbArc
 50
279.3508632523
 51
280.1741660841
  0
ARC
  5
3C7
100
AcDbEntity
  8
0
100
AcDbCircle
 62
7
  6
CONTINUOUS
 10
-8.8927519084
 20
-32.3487309298
 40
5.3497282195
100
AcDbArc
 50
349.8128959132
 51
350.6620747504
  0
ARC
  5
3C8
100
AcDbEntity
  8
0
100
AcDbCircle
 62
7
  6
CONTINUOUS
 10
-5.4751923983
 20
-32.0700606184
 40
2.6222396616
100
AcDbArc
 50
322.5462092989
 51
324.3283703093
  0
CIRCLE
  5
3C9
100
AcDbEntity
  8
0
100
AcDbCircle
 62
7
  6
CONTINUOUS
 10
-10.4882780279
 20
-27.497552622
 40
0.625
  0
CIRCLE
  5
3CA
100
AcDbEntity
  8
0
100
AcDbCircle
 62
7
  6
CONTINUOUS
 10
-9.4276178561
 20
-28.5582127938
 40
0.625
  0
ARC
  5
3CB
100
AcDbEntity
  8
0
100
AcDbCircle
 62
7
  6
CONTINUOUS
 10
-6.1243169972
 20
-33.8615136527
 40
0.5
100
AcDbArc
 50
278.9892993452
 51
81.0107006548
  0
CIRCLE
  5
3CC
100
AcDbEntity
  8
0
100
AcDbCircle
 62
7
  6
CONTINUOUS
 10
-6.1243169972
 20
-33.8615136527
 40
0.2655
  0
CIRCLE
  5
3CD
100
AcDbEntity
  8
0
100
AcDbCircle
 62
7
  6
CONTINUOUS
 10
-9.4276178561
 20
-28.5582127938
 40
0.26
  0
CIRCLE
  5
3CE
100
AcDbEntity
  8
0
100
AcDbCircle
 62
7
  6
CONTINUOUS
 10
-10.4882780279
 20
-27.497552622
 40
0.26
  0
CIRCLE
  5
3CF
100
AcDbEntity
  8
0
100
AcDbCircle
 62
7
  6
CONTINUOUS
 10
-6.1243169972
 20
-33.8615136527
 40
0.187
  0
CIRCLE
  5
3D0
100
AcDbEntity
  8
0
100
AcDbCircle
 62
7
  6
CONTINUOUS
 10
-9.4276178561
 20
-28.5582127938
 40
0.187
  0
CIRCLE
  5
3D1
100
AcDbEntity
  8
0
100
AcDbCircle
 62
7
  6
CONTINUOUS
 10
-10.4882780279
 20
-27.497552622
 40
0.187
  0
ARC
  5
3D2
100
AcDbEntity
  8
0
100
AcDbCircle
 62
7
  6
CONTINUOUS
 10
-4.7416404593
 20
-31.9591699027
 40
0.125
100
AcDbArc
 50
8.9892993452
 51
107.9785986903
  0
ARC
  5
3D3
100
AcDbEntity
  8
0
100
AcDbCircle
 62
7
  6
CONTINUOUS
 10
-6.0266607472
 20
-33.2441901906
 40
0.125
100
AcDbArc
 50
162.0214013097
 51
261.0107006548
  0
ARC
  5
3D4
100
AcDbEntity
  8
0
100
AcDbCircle
 62
7
  6
CONTINUOUS
 10
-2.583023521
 20
-38.7956545115
 40
5.51786453
100
AcDbArc
 50
99.3508632523
 51
100.1741660841
  0
ARC
  5
3D5
100
AcDbEntity
  8
0
100
AcDbCircle
 62
7
  6
CONTINUOUS
 10
0.644117914
 20
-35.3742963756
 40
5.3497282195
100
AcDbArc
 50
169.8128959132
 51
170.6620747504
  0
ARC
  5
3D6
100
AcDbEntity
  8
0
100
AcDbCircle
 62
7
  6
CONTINUOUS
 10
-2.3026162543
 20
-35.2483693368
 40
2.6712504132
100
AcDbArc
 50
125.7817434522
 51
127.5333566247
  0
CIRCLE
  5
3D7
100
AcDbEntity
  8
0
100
AcDbCircle
 62
7
  6
CONTINUOUS
 10
2.2396440335
 20
-40.2254746834
 40
0.625
  0
CIRCLE
  5
3D8
100
AcDbEntity
  8
0
100
AcDbCircle
 62
7
  6
CONTINUOUS
 10
1.1789838617
 20
-39.1648145116
 40
0.625
  0
CIRCLE
  5
3D9
100
AcDbEntity
  8
0
100
AcDbCircle
 62
7
  6
CONTINUOUS
 10
0.1881830028
 20
-41.3309827603
 40
0.55
  0
CIRCLE
  5
3DA
100
AcDbEntity
  8
0
100
AcDbCircle
 62
7
  6
CONTINUOUS
 10
0.1881830028
 20
-41.3309827603
 40
0.5
  0
ARC
  5
3DB
100
AcDbEntity
  8
0
100
AcDbCircle
 62
7
  6
CONTINUOUS
 10
-4.1243169972
 20
-35.8615136527
 40
0.5
100
AcDbArc
 50
8.9892993452
 51
171.0107006548
  0
CIRCLE
  5
3DC
100
AcDbEntity
  8
AXIS
100
AcDbCircle
 62
7
  6
CONTINUOUS
 10
0.1881830028
 20
-41.3309827603
 40
0.47
  0
CIRCLE
  5
3DD
100
AcDbEntity
  8
0
100
AcDbCircle
 62
7
  6
CONTINUOUS
 10
0.1881830028
 20
-41.3309827603
 40
0.46
  0
CIRCLE
  5
3DE
100
AcDbEntity
  8
0
100
AcDbCircle
 62
7
  6
CONTINUOUS
 10
0.1881830028
 20
-41.3309827603
 40
0.41
  0
CIRCLE
  5
3DF
100
AcDbEntity
  8
0
100
AcDbCircle
 62
7
  6
CONTINUOUS
 10
-4.1243169972
 20
-35.8615136527
 40
0.2655
  0
CIRCLE
  5
3E0
100
AcDbEntity
  8
0
100
AcDbCircle
 62
7
  6
CONTINUOUS
 10
1.1789838617
 20
-39.1648145116
 40
0.26
  0
CIRCLE
  5
3E1
100
AcDbEntity
  8
0
100
AcDbCircle
 62
7
  6
CONTINUOUS
 10
2.2396440335
 20
-40.2254746834
 40
0.26
  0
CIRCLE
  5
3E2
100
AcDbEntity
  8
0
100
AcDbCircle
 62
7
  6
CONTINUOUS
 10
-4.1243169972
 20
-35.8615136527
 40
0.187
  0
CIRCLE
  5
3E3
100
AcDbEntity
  8
0
100
AcDbCircle
 62
7
  6
CONTINUOUS
 10
1.1789838617
 20
-39.1648145116
 40
0.187
  0
CIRCLE
  5
3E4
100
AcDbEntity
  8
0
100
AcDbCircle
 62
7
  6
CONTINUOUS
 10
2.2396440335
 20
-40.2254746834
 40
0.187
  0
ARC
  5
3E5
100
AcDbEntity
  8
0
100
AcDbCircle
 62
7
  6
CONTINUOUS
 10
-2.2219732472
 20
-34.4788371148
 40
0.125
100
AcDbArc
 50
342.0214013097
 51
81.0107006548
  0
ARC
  5
3E6
100
AcDbEntity
  8
0
100
AcDbCircle
 62
7
  6
CONTINUOUS
 10
-3.5069935351
 20
-35.7638574027
 40
0.125
100
AcDbArc
 50
188.9892993452
 51
287.9785986903
  0
ARC
  5
3E7
100
AcDbEntity
  8
0
100
AcDbCircle
 62
3
  6
CONTINUOUS
 10
-4.1243169972
 20
-33.8615136527
 40
15.8371139848
100
AcDbArc
 50
56.2077710156
 51
123.79576697
  0
ARC
  5
3E8
100
AcDbEntity
  8
0
100
AcDbCircle
 62
3
  6
CONTINUOUS
 10
-4.1243169972
 20
-33.8615136527
 40
15.8371139848
100
AcDbArc
 50
146.2109157839
 51
213.79576697
  0
ARC
  5
3E9
100
AcDbEntity
  8
0
100
AcDbCircle
 62
3
  6
CONTINUOUS
 10
-4.1243169972
 20
-33.8615136527
 40
15.8371139848
100
AcDbArc
 50
236.2077710156
 51
303.79576697
  0
ARC
  5
3EA
100
AcDbEntity
  8
0
100
AcDbCircle
 62
3
  6
CONTINUOUS
 10
-4.1243169972
 20
-33.8615136527
 40
15.8371139848
100
AcDbArc
 50
326.2109157839
 51
33.79576697
  0
ARC
  5
3EB
100
AcDbEntity
  8
0
100
AcDbCircle
 62
7
  6
CONTINUOUS
 10
-4.1243169972
 20
-33.8615136527
 40
15.3370383779
100
AcDbArc
 50
149.1079350937
 51
210.8848048893
  0
ARC
  5
3EC
100
AcDbEntity
  8
0
100
AcDbCircle
 62
7
  6
CONTINUOUS
 10
-4.1243169972
 20
-33.8615136527
 40
15.3370383779
100
AcDbArc
 50
239.1151951107
 51
300.8920649063
  0
ARC
  5
3ED
100
AcDbEntity
  8
0
100
AcDbCircle
 62
7
  6
CONTINUOUS
 10
-4.1243169972
 20
-33.8615136527
 40
15.3370383779
100
AcDbArc
 50
329.1079350937
 51
30.8848048893
  0
ARC
  5
3EE
100
AcDbEntity
  8
0
100
AcDbCircle
 62
7
  6
CONTINUOUS
 10
-4.1243169972
 20
-33.8615136527
 40
15.3370383779
100
AcDbArc
 50
59.1151951107
 51
120.8920649063
  0
CIRCLE
  5
3EF
100
AcDbEntity
  8
0
100
AcDbCircle
 62
7
  6
CONTINUOUS
 10
-4.1243169972
 20
-33.8615136527
 40
6.0252176293
  0
CIRCLE
  5
3F0
100
AcDbEntity
  8
0
100
AcDbCircle
 62
7
  6
CONTINUOUS
 10
-4.1243169972
 20
-33.8615136527
 40
5.7094754065
  0
CIRCLE
  5
3F1
100
AcDbEntity
  8
0
100
AcDbCircle
 62
7
  6
CONTINUOUS
 10
-4.1243169972
 20
-33.8615136527
 40
4.9201651492
  0
CIRCLE
  5
3F2
100
AcDbEntity
  8
0
100
AcDbCircle
 62
7
  6
CONTINUOUS
 10
-4.1243169972
 20
-33.8615136527
 40
2.5
  0
CIRCLE
  5
3F3
100
AcDbEntity
  8
0
100
AcDbCircle
 62
7
  6
CONTINUOUS
 10
-4.1243169972
 20
-33.8615136527
 40
2.4803470828
  0
ARC
  5
3F4
100
AcDbEntity
  8
0
100
AcDbCircle
 62
7
  6
CONTINUOUS
 10
-4.1243169972
 20
-33.8615136527
 40
2.125
100
AcDbArc
 50
47.4445050567
 51
72.0214013097
  0
ARC
  5
3F5
100
AcDbEntity
  8
0
100
AcDbCircle
 62
7
  6
CONTINUOUS
 10
-4.1243169972
 20
-33.8615136527
 40
2.125
100
AcDbArc
 50
197.9785986903
 51
222.5554949433
  0
ARC
  5
3F6
100
AcDbEntity
  8
0
100
AcDbCircle
 62
7
  6
CONTINUOUS
 10
-4.1243169972
 20
-33.8615136527
 40
2.125
100
AcDbArc
 50
107.9785986903
 51
132.5554949433
  0
ARC
  5
3F7
100
AcDbEntity
  8
0
100
AcDbCircle
 62
7
  6
CONTINUOUS
 10
-4.1243169972
 20
-33.8615136527
 40
2.125
100
AcDbArc
 50
137.4445050567
 51
162.0214013097
  0
ARC
  5
3F8
100
AcDbEntity
  8
0
100
AcDbCircle
 62
7
  6
CONTINUOUS
 10
-4.1243169972
 20
-33.8615136527
 40
2.125
100
AcDbArc
 50
317.4445050567
 51
342.0214013097
  0
ARC
  5
3F9
100
AcDbEntity
  8
0
100
AcDbCircle
 62
7
  6
CONTINUOUS
 10
-4.1243169972
 20
-33.8615136527
 40
2.125
100
AcDbArc
 50
287.9785986903
 51
312.5554949433
  0
ARC
  5
3FA
100
AcDbEntity
  8
0
100
AcDbCircle
 62
7
  6
CONTINUOUS
 10
-4.1243169972
 20
-33.8615136527
 40
2.125
100
AcDbArc
 50
227.4445050567
 51
252.0214013097
  0
ARC
  5
3FB
100
AcDbEntity
  8
0
100
AcDbCircle
 62
7
  6
CONTINUOUS
 10
-4.1243169972
 20
-33.8615136527
 40
2.125
100
AcDbArc
 50
17.9785986903
 51
42.5554949433
  0
ARC
  5
3FC
100
AcDbEntity
  8
0
100
AcDbCircle
 62
7
  6
CONTINUOUS
 10
-4.1243169972
 20
-33.8615136527
 40
0.8223227354
100
AcDbArc
 50
51.6339889503
 51
71.5811014335
  0
ARC
  5
3FD
100
AcDbEntity
  8
0
100
AcDbCircle
 62
7
  6
CONTINUOUS
 10
-4.1243169972
 20
-33.8615136527
 40
0.8223227354
100
AcDbArc
 50
108.4188985665
 51
128.3660110497
  0
ARC
  5
3FE
100
AcDbEntity
  8
0
100
AcDbCircle
 62
7
  6
CONTINUOUS
 10
-4.1243169972
 20
-33.8615136527
 40
0.8223227354
100
AcDbArc
 50
321.6339889503
 51
341.3974090266
  0
ARC
  5
3FF
100
AcDbEntity
  8
0
100
AcDbCircle
 62
7
  6
CONTINUOUS
 10
-4.1243169972
 20
-33.8615136527
 40
0.8223227354
100
AcDbArc
 50
18.6025909734
 51
38.3660110497
  0
ARC
  5
400
100
AcDbEntity
  8
0
100
AcDbCircle
 62
7
  6
CONTINUOUS
 10
-4.1243169972
 20
-33.8615136527
 40
0.8223227354
100
AcDbArc
 50
231.6339889503
 51
308.3660110497
  0
ARC
  5
401
100
AcDbEntity
  8
0
100
AcDbCircle
 62
7
  6
CONTINUOUS
 10
-4.1243169972
 20
-33.8615136527
 40
0.8223227354
100
AcDbArc
 50
141.6339889503
 51
218.3660110497
  0
ARC
  5
402
100
AcDbEntity
  8
0
100
AcDbCircle
 62
7
  6
CONTINUOUS
 10
-4.1243169972
 20
-33.8615136527
 40
0.7568130113
100
AcDbArc
 50
75.1225948166
 51
104.8774051834
  0
ARC
  5
403
100
AcDbEntity
  8
0
100
AcDbCircle
 62
7
  6
CONTINUOUS
 10
-4.1243169972
 20
-33.8615136527
 40
0.7568130113
100
AcDbArc
 50
344.9266740395
 51
15.0733259605
  0
ARC
  5
404
100
AcDbEntity
  8
0
100
AcDbCircle
 62
7
  6
CONTINUOUS
 10
-4.1243169972
 20
-33.8615136527
 40
0.7536685445
100
AcDbArc
 50
131.2529323231
 51
138.7470676769
  0
ARC
  5
405
100
AcDbEntity
  8
0
100
AcDbCircle
 62
7
  6
CONTINUOUS
 10
-4.1243169972
 20
-33.8615136527
 40
0.7536685445
100
AcDbArc
 50
221.2529323231
 51
228.7470676769
  0
ARC
  5
406
100
AcDbEntity
  8
0
100
AcDbCircle
 62
7
  6
CONTINUOUS
 10
-4.1243169972
 20
-33.8615136527
 40
0.7536685445
100
AcDbArc
 50
311.2529323231
 51
318.7470676769
  0
ARC
  5
407
100
AcDbEntity
  8
0
100
AcDbCircle
 62
7
  6
CONTINUOUS
 10
-4.1243169972
 20
-33.8615136527
 40
0.7536685445
100
AcDbArc
 50
41.2529323231
 51
48.7470676769
  0
CIRCLE
  5
408
100
AcDbEntity
  8
0
100
AcDbCircle
 62
7
  6
CONTINUOUS
 10
-4.1243169972
 20
-33.8615136527
 40
0.75
  0
ARC
  5
409
100
AcDbEntity
  8
0
100
AcDbCircle
 62
7
  6
CONTINUOUS
 10
-4.1243169972
 20
-33.8615136527
 40
0.43725
100
AcDbArc
 50
102.4143532811
 51
77.5856467189
  0
ARC
  5
40A
100
AcDbEntity
  8
0
100
AcDbCircle
 62
7
  6
CONTINUOUS
 10
-4.1243169972
 20
-33.8615136527
 40
0.4072627199
100
AcDbArc
 50
103.3451444325
 51
76.6548555675
  0
ARC
  5
40B
100
AcDbEntity
  8
0
100
AcDbCircle
 62
7
  6
CONTINUOUS
 10
-4.1243169972
 20
-33.2215136527
 40
0.78
100
AcDbArc
 50
73.6783348578
 51
106.3216651422
  0
ARC
  5
40C
100
AcDbEntity
  8
0
100
AcDbCircle
 62
7
  6
CONTINUOUS
 10
-3.4843169972
 20
-33.8615136527
 40
0.78
100
AcDbArc
 50
343.6783348578
 51
16.3216651422
  0
ARC
  5
40D
100
AcDbEntity
  8
0
100
AcDbCircle
 62
7
  6
CONTINUOUS
 10
-4.1243169972
 20
-31.8615136527
 40
0.5
100
AcDbArc
 50
188.9892993452
 51
351.0107006548
  0
ARC
  5
40E
100
AcDbEntity
  8
0
100
AcDbCircle
 62
7
  6
CONTINUOUS
 10
-4.0174266962
 20
-32.856156926
 40
0.3993281503
100
AcDbArc
 50
73.6649142478
 51
78.6576625914
  0
CIRCLE
  5
40F
100
AcDbEntity
  8
0
100
AcDbCircle
 62
7
  6
CONTINUOUS
 10
-4.1243169972
 20
-31.8615136527
 40
0.2655
  0
CIRCLE
  5
410
100
AcDbEntity
  8
0
100
AcDbCircle
 62
7
  6
CONTINUOUS
 10
-4.1243169972
 20
-31.8615136527
 40
0.187
  0
ARC
  5
411
100
AcDbEntity
  8
0
100
AcDbCircle
 62
7
  6
CONTINUOUS
 10
-3.5069935351
 20
-31.9591699027
 40
0.125
100
AcDbArc
 50
72.0214013097
 51
171.0107006548
  0
ARC
  5
412
100
AcDbEntity
  8
0
100
AcDbCircle
 62
7
  6
CONTINUOUS
 10
-2.1243169972
 20
-33.8615136527
 40
0.5
100
AcDbArc
 50
98.9892993452
 51
261.0107006548
  0
ARC
  5
413
100
AcDbEntity
  8
0
100
AcDbCircle
 62
7
  6
CONTINUOUS
 10
-3.1189602705
 20
-33.9684039538
 40
0.3993281503
100
AcDbArc
 50
343.6649142479
 51
348.6576625913
  0
CIRCLE
  5
414
100
AcDbEntity
  8
0
100
AcDbCircle
 62
7
  6
CONTINUOUS
 10
-2.1243169972
 20
-33.8615136527
 40
0.2655
  0
CIRCLE
  5
415
100
AcDbEntity
  8
0
100
AcDbCircle
 62
7
  6
CONTINUOUS
 10
-2.1243169972
 20
-33.8615136527
 40
0.187
  0
ARC
  5
416
100
AcDbEntity
  8
0
100
AcDbCircle
 62
7
  6
CONTINUOUS
 10
-2.2219732472
 20
-33.2441901906
 40
0.125
100
AcDbArc
 50
278.9892993452
 51
17.9785986903
  0
ARC
  5
417
100
AcDbEntity
  8
0
100
AcDbCircle
 62
7
  6
CONTINUOUS
 10
-2.6115342743
 20
-29.0930787415
 40
5.3497282195
100
AcDbArc
 50
259.8128959132
 51
260.6620747504
  0
ARC
  5
418
100
AcDbEntity
  8
0
100
AcDbCircle
 62
7
  6
CONTINUOUS
 10
0.8098238616
 20
-32.3202201765
 40
5.5178645301
100
AcDbArc
 50
189.3508632523
 51
190.1741660841
  0
CIRCLE
  5
419
100
AcDbEntity
  8
0
100
AcDbCircle
 62
7
  6
CONTINUOUS
 10
2.2396440335
 20
-27.497552622
 40
0.625
  0
CIRCLE
  5
41A
100
AcDbEntity
  8
0
100
AcDbCircle
 62
7
  6
CONTINUOUS
 10
1.1789838617
 20
-28.5582127938
 40
0.625
  0
CIRCLE
  5
41B
100
AcDbEntity
  8
0
100
AcDbCircle
 62
7
  6
CONTINUOUS
 10
2.2396440335
 20
-27.497552622
 40
0.26
  0
CIRCLE
  5
41C
100
AcDbEntity
  8
0
100
AcDbCircle
 62
7
  6
CONTINUOUS
 10
1.1789838617
 20
-28.5582127938
 40
0.26
  0
CIRCLE
  5
41D
100
AcDbEntity
  8
0
100
AcDbCircle
 62
7
  6
CONTINUOUS
 10
2.2396440335
 20
-27.497552622
 40
0.187
  0
CIRCLE
  5
41E
100
AcDbEntity
  8
0
100
AcDbCircle
 62
7
  6
CONTINUOUS
 10
1.1789838617
 20
-28.5582127938
 40
0.187
  0
SPLINE
  5
41F
100
AcDbEntity
  8
0
100
AcDbSpline
 62
7
  6
CONTINUOUS
 70
0
 71
3
 72
39
 73
35
 74
0
 42
0.0000001
 43
0.0000001
 44
0.0000000001
 40
0.0
 40
0.0
 40
0.0
 40
0.0
 40
0.0944469041
 40
0.1880733952
 40
0.2799780329
 40
0.3693598567
 40
0.4554117181
 40
0.5373558771
 40
0.6144574644
 40
0.6860281519
 40
0.7195385912
 40
0.7514327915
 40
0.7816391265
 40
0.8100940513
 40
0.8367363105
 40
0.8493592049
 40
0.8615081143
 40
0.8843607208
 40
0.9052493104
 40
0.9241338628
 40
0.9328159719
 40
0.9409873767
 40
0.9486457286
 40
0.9557892206
 40
0.9624171764
 40
0.9685310043
 40
0.9741335792
 40
0.9792295581
 40
0.9838261611
 40
0.9879343943
 40
0.991571392
 40
0.9947640784
 40
0.9975531082
 40
1.0
 40
1.0
 40
1.0
 40
1.0
 10
6.551835198
 20
5.4910215517
 30
0.0
 10
6.551835198
 20
5.5026119788
 30
0.0
 10
6.5517394676
 20
5.5256922687
 30
0.0
 10
6.5513100882
 20
5.5600485921
 30
0.0
 10
6.5505985384
 20
5.5937785605
 30
0.0
 10
6.5496117776
 20
5.6265716708
 30
0.0
 10
6.5483590892
 20
5.6581324851
 30
0.0
 10
6.5468523013
 20
5.688173465
 30
0.0
 10
6.5451054443
 20
5.7164211936
 30
0.0
 10
6.5434294767
 20
5.738716447
 30
0.0
 10
6.5419680207
 20
5.7554624415
 30
0.0
 10
6.5408466948
 20
5.7671421827
 30
0.0
 10
6.539678393
 20
5.7781936668
 30
0.0
 10
6.538466057
 20
5.7885918073
 30
0.0
 10
6.5374033265
 20
5.7968343816
 30
0.0
 10
6.5365295932
 20
5.8030831295
 30
0.0
 10
6.5356764007
 20
5.8088649773
 30
0.0
 10
6.5345940447
 20
5.8156382057
 30
0.0
 10
6.5332356149
 20
5.8232030877
 30
0.0
 10
6.532048998
 20
5.8290306481
 30
0.0
 10
6.5310787401
 20
5.8333078795
 30
0.0
 10
6.5303654931
 20
5.8362303244
 30
0.0
 10
6.5296466005
 20
5.8389565681
 30
0.0
 10
6.5289224583
 20
5.8414849811
 30
0.0
 10
6.5281934521
 20
5.8438141401
 30
0.0
 10
6.5274600966
 20
5.8459429169
 30
0.0
 10
6.5267228558
 20
5.8478703899
 30
0.0
 10
6.5259821693
 20
5.8495957345
 30
0.0
 10
6.5252384436
 20
5.8511182326
 30
0.0
 10
6.5244919117
 20
5.8524373805
 30
0.0
 10
6.5237425677
 20
5.8535529755
 30
0.0
 10
6.5229897375
 20
5.8544654535
 30
0.0
 10
6.5222325815
 20
5.8551749267
 30
0.0
 10
6.521692244
 20
5.8555315682
 30
0.0
 10
6.5214243127
 20
5.8556671444
 30
0.0
  0
SPLINE
  5
420
100
AcDbEntity
  8
0
100
AcDbSpline
 62
7
  6
CONTINUOUS
 70
0
 71
3
 72
15
 73
11
 74
0
 42
0.0000001
 43
0.0000001
 44
0.0000000001
 40
0.0
 40
0.0
 40
0.0
 40
0.0
 40
0.1042619458
 40
0.2166105586
 40
0.3360398107
 40
0.4614755216
 40
0.5917807883
 40
0.725775244
 40
0.862287569
 40
1.0
 40
1.0
 40
1.0
 40
1.0
 10
6.542982772
 20
5.2383765398
 30
0.0
 10
6.5437148172
 20
5.2471340766
 30
0.0
 10
6.545086472
 20
5.2653410291
 30
0.0
 10
6.5468380475
 20
5.293611761
 30
0.0
 10
6.5483490644
 20
5.3236834346
 30
0.0
 10
6.5496053156
 20
5.3552815162
 30
0.0
 10
6.5505949232
 20
5.3881172801
 30
0.0
 10
6.5513085469
 20
5.4218940142
 30
0.0
 10
6.5517391869
 20
5.4562998818
 30
0.0
 10
6.551835198
 20
5.4794139822
 30
0.0
 10
6.551835198
 20
5.4910215517
 30
0.0
  0
SPLINE
  5
421
100
AcDbEntity
  8
0
100
AcDbSpline
 62
7
  6
CONTINUOUS
 70
0
 71
3
 72
30
 73
26
 74
0
 42
0.0000001
 43
0.0000001
 44
0.0000000001
 40
0.0
 40
0.0
 40
0.0
 40
0.0
 40
0.1118197709
 40
0.2174481838
 40
0.3167206201
 40
0.4094990815
 40
0.4956532874
 40
0.5750593918
 40
0.6476216079
 40
0.7132704412
 40
0.7719516744
 40
0.7986713589
 40
0.8236460641
 40
0.8468830059
 40
0.8683932621
 40
0.8881931169
 40
0.906306004
 40
0.9227653701
 40
0.9376198677
 40
0.9509416124
 40
0.9628328466
 40
0.9734387412
 40
0.9829650653
 40
0.9916960691
 40
1.0
 40
1.0
 40
1.0
 40
1.0
 10
6.0510631204
 20
4.3002825933
 30
0.0
 10
6.0507300413
 20
4.2973956269
 30
0.0
 10
6.0500562931
 20
4.2917844956
 30
0.0
 10
6.0489881803
 20
4.2836225751
 30
0.0
 10
6.0478924623
 20
4.2759638733
 30
0.0
 10
6.0467712042
 20
4.2688207321
 30
0.0
 10
6.045626422
 20
4.2622046817
 30
0.0
 10
6.0444599322
 20
4.2561265696
 30
0.0
 10
6.04327389
 20
4.2505960546
 30
0.0
 10
6.0420705938
 20
4.245621796
 30
0.0
 10
6.0410254457
 20
4.241836765
 30
0.0
 10
6.040174629
 20
4.2390970315
 30
0.0
 10
6.0395533732
 20
4.2372511541
 30
0.0
 10
6.0389291804
 20
4.235549765
 30
0.0
 10
6.0383022923
 20
4.2339934252
 30
0.0
 10
6.0376729754
 20
4.2325826561
 30
0.0
 10
6.0370414645
 20
4.2313179338
 30
0.0
 10
6.0364079364
 20
4.2301996464
 30
0.0
 10
6.035772405
 20
4.2292280322
 30
0.0
 10
6.0351348276
 20
4.2284030437
 30
0.0
 10
6.0344947514
 20
4.2277245381
 30
0.0
 10
6.0338512326
 20
4.2271926238
 30
0.0
 10
6.0332025857
 20
4.2268083238
 30
0.0
 10
6.0325480129
 20
4.2265745265
 30
0.0
 10
6.0321037631
 20
4.2265215517
 30
0.0
 10
6.0318879498
 20
4.2265215517
 30
0.0
  0
SPLINE
  5
422
100
AcDbEntity
  8
0
100
AcDbSpline
 62
7
  6
CONTINUOUS
 70
0
 71
3
 72
30
 73
26
 74
0
 42
0.0000001
 43
0.0000001
 44
0.0000000001
 40
0.0
 40
0.0
 40
0.0
 40
0.0
 40
0.1118197709
 40
0.2174481838
 40
0.3167206201
 40
0.4094990815
 40
0.4956532874
 40
0.5750593918
 40
0.6476216079
 40
0.7132704412
 40
0.7719516744
 40
0.7986713589
 40
0.8236460641
 40
0.8468830059
 40
0.8683932621
 40
0.8881931169
 40
0.906306004
 40
0.9227653701
 40
0.9376198677
 40
0.9509416124
 40
0.9628328466
 40
0.9734387412
 40
0.9829650653
 40
0.9916960691
 40
1.0
 40
1.0
 40
1.0
 40
1.0
 10
-14.2996971148
 20
4.3002825933
 30
0.0
 10
-14.2993640358
 20
4.2973956269
 30
0.0
 10
-14.2986902875
 20
4.2917844956
 30
0.0
 10
-14.2976221748
 20
4.2836225751
 30
0.0
 10
-14.2965264568
 20
4.2759638733
 30
0.0
 10
-14.2954051987
 20
4.2688207321
 30
0.0
 10
-14.2942604165
 20
4.2622046817
 30
0.0
 10
-14.2930939266
 20
4.2561265696
 30
0.0
 10
-14.2919078845
 20
4.2505960546
 30
0.0
 10
-14.2907045883
 20
4.245621796
 30
0.0
 10
-14.2896594402
 20
4.241836765
 30
0.0
 10
-14.2888086234
 20
4.2390970315
 30
0.0
 10
-14.2881873676
 20
4.2372511541
 30
0.0
 10
-14.2875631749
 20
4.235549765
 30
0.0
 10
-14.2869362867
 20
4.2339934252
 30
0.0
 10
-14.2863069698
 20
4.2325826561
 30
0.0
 10
-14.285675459
 20
4.2313179338
 30
0.0
 10
-14.2850419309
 20
4.2301996464
 30
0.0
 10
-14.2844063994
 20
4.2292280322
 30
0.0
 10
-14.2837688221
 20
4.2284030437
 30
0.0
 10
-14.2831287459
 20
4.2277245381
 30
0.0
 10
-14.2824852271
 20
4.2271926238
 30
0.0
 10
-14.2818365802
 20
4.2268083238
 30
0.0
 10
-14.2811820074
 20
4.2265745265
 30
0.0
 10
-14.2807377576
 20
4.2265215517
 30
0.0
 10
-14.2805219443
 20
4.2265215517
 30
0.0
  0
SPLINE
  5
423
100
AcDbEntity
  8
0
100
AcDbSpline
 62
7
  6
CONTINUOUS
 70
0
 71
3
 72
30
 73
26
 74
0
 42
0.0000001
 43
0.0000001
 44
0.0000000001
 40
0.0
 40
0.0
 40
0.0
 40
0.0
 40
0.0083039309
 40
0.0170349347
 40
0.0265612588
 40
0.0371671534
 40
0.0490583876
 40
0.0623801323
 40
0.0772346299
 40
0.093693996
 40
0.1118068831
 40
0.1316067379
 40
0.1531169941
 40
0.1763539359
 40
0.2013286411
 40
0.2280483256
 40
0.2867295588
 40
0.3523783921
 40
0.4249406082
 40
0.5043467126
 40
0.5905009185
 40
0.6832793799
 40
0.7825518162
 40
0.8881802291
 40
1.0
 40
1.0
 40
1.0
 40
1.0
 10
-14.2157692889
 20
4.2265215517
 30
0.0
 10
-14.2155534756
 20
4.2265215517
 30
0.0
 10
-14.2151092258
 20
4.2265745265
 30
0.0
 10
-14.214454653
 20
4.2268083238
 30
0.0
 10
-14.2138060061
 20
4.2271926238
 30
0.0
 10
-14.2131624873
 20
4.2277245381
 30
0.0
 10
-14.2125224111
 20
4.2284030437
 30
0.0
 10
-14.2118848337
 20
4.2292280322
 30
0.0
 10
-14.2112493023
 20
4.2301996464
 30
0.0
 10
-14.2106157742
 20
4.2313179338
 30
0.0
 10
-14.2099842633
 20
4.2325826561
 30
0.0
 10
-14.2093549464
 20
4.2339934252
 30
0.0
 10
-14.2087280583
 20
4.235549765
 30
0.0
 10
-14.2081038656
 20
4.2372511541
 30
0.0
 10
-14.2074826097
 20
4.2390970315
 30
0.0
 10
-14.206631793
 20
4.241836765
 30
0.0
 10
-14.2055866449
 20
4.245621796
 30
0.0
 10
-14.2043833487
 20
4.2505960546
 30
0.0
 10
-14.2031973065
 20
4.2561265696
 30
0.0
 10
-14.2020308167
 20
4.2622046817
 30
0.0
 10
-14.2008860345
 20
4.2688207321
 30
0.0
 10
-14.1997647764
 20
4.2759638733
 30
0.0
 10
-14.1986690584
 20
4.2836225751
 30
0.0
 10
-14.1976009457
 20
4.2917844956
 30
0.0
 10
-14.1969271974
 20
4.2973956269
 30
0.0
 10
-14.1965941184
 20
4.3002825933
 30
0.0
  0
SPLINE
  5
424
100
AcDbEntity
  8
0
100
AcDbSpline
 62
7
  6
CONTINUOUS
 70
0
 71
3
 72
30
 73
26
 74
0
 42
0.0000001
 43
0.0000001
 44
0.0000000001
 40
0.0
 40
0.0
 40
0.0
 40
0.0
 40
0.0083039309
 40
0.0170349347
 40
0.0265612588
 40
0.0371671534
 40
0.0490583876
 40
0.0623801323
 40
0.0772346299
 40
0.093693996
 40
0.1118068831
 40
0.1316067379
 40
0.1531169941
 40
0.1763539359
 40
0.2013286411
 40
0.2280483256
 40
0.2867295588
 40
0.3523783921
 40
0.4249406082
 40
0.5043467126
 40
0.5905009185
 40
0.6832793799
 40
0.7825518162
 40
0.8881802291
 40
1.0
 40
1.0
 40
1.0
 40
1.0
 10
-14.2805219443
 20
4.2265215517
 30
0.0
 10
-14.280306131
 20
4.2265215517
 30
0.0
 10
-14.2798618812
 20
4.2265745265
 30
0.0
 10
-14.2792073084
 20
4.2268083238
 30
0.0
 10
-14.2785586614
 20
4.2271926238
 30
0.0
 10
-14.2779151427
 20
4.2277245381
 30
0.0
 10
-14.2772750665
 20
4.2284030437
 30
0.0
 10
-14.2766374891
 20
4.2292280322
 30
0.0
 10
-14.2760019577
 20
4.2301996464
 30
0.0
 10
-14.2753684296
 20
4.2313179338
 30
0.0
 10
-14.2747369187
 20
4.2325826561
 30
0.0
 10
-14.2741076018
 20
4.2339934252
 30
0.0
 10
-14.2734807137
 20
4.235549765
 30
0.0
 10
-14.2728565209
 20
4.2372511541
 30
0.0
 10
-14.2722352651
 20
4.2390970315
 30
0.0
 10
-14.2713844484
 20
4.241836765
 30
0.0
 10
-14.2703393003
 20
4.245621796
 30
0.0
 10
-14.2691360041
 20
4.2505960546
 30
0.0
 10
-14.2679499619
 20
4.2561265696
 30
0.0
 10
-14.2667834721
 20
4.2622046817
 30
0.0
 10
-14.2656386899
 20
4.2688207321
 30
0.0
 10
-14.2645174318
 20
4.2759638733
 30
0.0
 10
-14.2634217137
 20
4.2836225751
 30
0.0
 10
-14.262353601
 20
4.2917844956
 30
0.0
 10
-14.2616798528
 20
4.2973956269
 30
0.0
 10
-14.2613467737
 20
4.3002825933
 30
0.0
  0
SPLINE
  5
425
100
AcDbEntity
  8
0
100
AcDbSpline
 62
7
  6
CONTINUOUS
 70
0
 71
3
 72
31
 73
27
 74
0
 42
0.0000001
 43
0.0000001
 44
0.0000000001
 40
0.0
 40
0.0
 40
0.0
 40
0.0
 40
0.1116414507
 40
0.2173878493
 40
0.317022788
 40
0.4103360405
 40
0.4971304849
 40
0.5772414629
 40
0.6505147082
 40
0.7168139925
 40
0.7760456616
 40
0.8029897004
 40
0.8281430284
 40
0.8515032953
 40
0.8730752737
 40
0.892868707
 40
0.9108993175
 40
0.9271913795
 40
0.9417817208
 40
0.9547271654
 40
0.9661168711
 40
0.9760849005
 40
0.9848331276
 40
0.9926608628
 40
0.9963630396
 40
1.0
 40
1.0
 40
1.0
 40
1.0
 10
-14.7904364371
 20
5.7570690668
 30
0.0
 10
-14.7900812899
 20
5.7608965689
 30
0.0
 10
-14.7893583078
 20
5.7683466052
 30
0.0
 10
-14.788199636
 20
5.7792005746
 30
0.0
 10
-14.7869982859
 20
5.7894147902
 30
0.0
 10
-14.7857570155
 20
5.7989666054
 30
0.0
 10
-14.7844784739
 20
5.8078348804
 30
0.0
 10
-14.7831659888
 20
5.8160001107
 30
0.0
 10
-14.7818227967
 20
5.8234444315
 30
0.0
 10
-14.7804517531
 20
5.8301514599
 30
0.0
 10
-14.7792546797
 20
5.835264124
 30
0.0
 10
-14.7782765083
 20
5.8389706389
 30
0.0
 10
-14.7775611111
 20
5.8414685244
 30
0.0
 10
-14.7768409854
 20
5.8437719771
 30
0.0
 10
-14.7761165938
 20
5.8458798998
 30
0.0
 10
-14.7753883901
 20
5.8477914001
 30
0.0
 10
-14.7746568
 20
5.849505674
 30
0.0
 10
-14.7739222084
 20
5.8510220163
 30
0.0
 10
-14.7731848936
 20
5.8523399076
 30
0.0
 10
-14.77244478
 20
5.8534591233
 30
0.0
 10
-14.7717015918
 20
5.8543799632
 30
0.0
 10
-14.7709537901
 20
5.8551027678
 30
0.0
 10
-14.7701991405
 20
5.8556269171
 30
0.0
 10
-14.7695484998
 20
5.8558992734
 30
0.0
 10
-14.7690355999
 20
5.8560042522
 30
0.0
 10
-14.7687825711
 20
5.8560215517
 30
0.0
 10
-14.7686573463
 20
5.8560215517
 30
0.0
  0
SPLINE
  5
426
100
AcDbEntity
  8
0
100
AcDbSpline
 62
7
  6
CONTINUOUS
 70
0
 71
3
 72
31
 73
27
 74
0
 42
0.0000001
 43
0.0000001
 44
0.0000000001
 40
0.0
 40
0.0
 40
0.0
 40
0.0
 40
0.0036369604
 40
0.0073391372
 40
0.0151668724
 40
0.0239150995
 40
0.0338831289
 40
0.0452728346
 40
0.0582182792
 40
0.0728086205
 40
0.0891006825
 40
0.107131293
 40
0.1269247263
 40
0.1484967047
 40
0.1718569716
 40
0.1970102996
 40
0.2239543384
 40
0.2831860075
 40
0.3494852918
 40
0.4227585371
 40
0.5028695151
 40
0.5896639595
 40
0.682977212
 40
0.7826121507
 40
0.8883585493
 40
1.0
 40
1.0
 40
1.0
 40
1.0
 10
-14.7686573463
 20
5.1260215517
 30
0.0
 10
-14.7687825711
 20
5.1260215517
 30
0.0
 10
-14.7690355999
 20
5.1260388512
 30
0.0
 10
-14.7695484998
 20
5.12614383
 30
0.0
 10
-14.7701991405
 20
5.1264161864
 30
0.0
 10
-14.7709537901
 20
5.1269403356
 30
0.0
 10
-14.7717015918
 20
5.1276631402
 30
0.0
 10
-14.77244478
 20
5.1285839802
 30
0.0
 10
-14.7731848936
 20
5.1297031958
 30
0.0
 10
-14.7739222084
 20
5.1310210872
 30
0.0
 10
-14.7746568
 20
5.1325374294
 30
0.0
 10
-14.7753883901
 20
5.1342517034
 30
0.0
 10
-14.7761165938
 20
5.1361632036
 30
0.0
 10
-14.7768409854
 20
5.1382711263
 30
0.0
 10
-14.7775611111
 20
5.1405745791
 30
0.0
 10
-14.7782765083
 20
5.1430724646
 30
0.0
 10
-14.7792546797
 20
5.1467789795
 30
0.0
 10
-14.7804517531
 20
5.1518916436
 30
0.0
 10
-14.7818227967
 20
5.1585986719
 30
0.0
 10
-14.7831659888
 20
5.1660429927
 30
0.0
 10
-14.7844784739
 20
5.174208223
 30
0.0
 10
-14.7857570155
 20
5.183076498
 30
0.0
 10
-14.7869982859
 20
5.1926283133
 30
0.0
 10
-14.788199636
 20
5.2028425289
 30
0.0
 10
-14.7893583078
 20
5.2136964982
 30
0.0
 10
-14.7900812899
 20
5.2211465346
 30
0.0
 10
-14.7904364371
 20
5.2249740367
 30
0.0
  0
SPLINE
  5
427
100
AcDbEntity
  8
0
100
AcDbSpline
 62
7
  6
CONTINUOUS
 70
0
 71
3
 72
43
 73
39
 74
0
 42
0.0000001
 43
0.0000001
 44
0.0000000001
 40
0.0
 40
0.0
 40
0.0
 40
0.0
 40
0.0010588047
 40
0.0021381806
 40
0.0044300818
 40
0.0070097635
 40
0.0099681803
 40
0.0133654661
 40
0.0172409072
 40
0.0193666687
 40
0.0216206256
 40
0.0265193544
 40
0.0319479151
 40
0.0379129104
 40
0.0444184858
 40
0.0514670622
 40
0.0590590919
 40
0.0671930476
 40
0.0758666307
 40
0.0850770226
 40
0.1050946059
 40
0.1272122427
 40
0.1513835814
 40
0.1775589826
 40
0.2056818957
 40
0.2356869432
 40
0.2675071477
 40
0.3010693457
 40
0.3362936073
 40
0.3730990073
 40
0.4113987898
 40
0.4511010337
 40
0.5343371571
 40
0.6220183601
 40
0.7133077846
 40
0.8073306109
 40
0.9032181743
 40
1.0
 40
1.0
 40
1.0
 40
1.0
 10
-14.7686573463
 20
5.8560215517
 30
0.0
 10
-14.7685268969
 20
5.8560215517
 30
0.0
 10
-14.768263089
 20
5.8560027529
 30
0.0
 10
-14.7677278285
 20
5.8558885627
 30
0.0
 10
-14.767048683
 20
5.8555918202
 30
0.0
 10
-14.7662632221
 20
5.8550227461
 30
0.0
 10
-14.7654851789
 20
5.8542387476
 30
0.0
 10
-14.7647120545
 20
5.853240231
 30
0.0
 10
-14.7640909804
 20
5.8522613332
 30
0.0
 10
-14.7635923718
 20
5.8513747245
 30
0.0
 10
-14.7630648953
 20
5.8503603318
 30
0.0
 10
-14.7624114283
 20
5.8489538726
 30
0.0
 10
-14.7616509062
 20
5.8470956514
 30
0.0
 10
-14.760894209
 20
5.8450237998
 30
0.0
 10
-14.7601418135
 20
5.8427393246
 30
0.0
 10
-14.7593942697
 20
5.8402432847
 30
0.0
 10
-14.758652076
 20
5.8375370688
 30
0.0
 10
-14.7579156508
 20
5.8346223484
 30
0.0
 10
-14.7571854516
 20
5.8315009454
 30
0.0
 10
-14.7561930475
 20
5.8269378156
 30
0.0
 10
-14.7549807038
 20
5.8207282971
 30
0.0
 10
-14.753594599
 20
5.8126769627
 30
0.0
 10
-14.7522431779
 20
5.8038514563
 30
0.0
 10
-14.7509301702
 20
5.7942728815
 30
0.0
 10
-14.7496590419
 20
5.7839641282
 30
0.0
 10
-14.748432715
 20
5.7729499463
 30
0.0
 10
-14.7472545235
 20
5.7612568021
 30
0.0
 10
-14.7461273985
 20
5.7489128012
 30
0.0
 10
-14.7450539098
 20
5.7359476368
 30
0.0
 10
-14.7440369477
 20
5.7223925281
 30
0.0
 10
-14.743078934
 20
5.7082801076
 30
0.0
 10
-14.741863995
 20
5.688451915
 30
0.0
 10
-14.7405191382
 20
5.662536867
 30
0.0
 10
-14.7391961977
 20
5.6302583706
 30
0.0
 10
-14.7381534209
 20
5.5966400047
 30
0.0
 10
-14.7374009904
 20
5.5620026268
 30
0.0
 10
-14.7369467659
 20
5.5266833605
 30
0.0
 10
-14.7368455002
 20
5.5029455049
 30
0.0
 10
-14.7368455002
 20
5.4910215517
 30
0.0
  0
SPLINE
  5
428
100
AcDbEntity
  8
0
100
AcDbSpline
 62
7
  6
CONTINUOUS
 70
0
 71
3
 72
43
 73
39
 74
0
 42
0.0000001
 43
0.0000001
 44
0.0000000001
 40
0.0
 40
0.0
 40
0.0
 40
0.0
 40
0.0967818257
 40
0.1926693891
 40
0.2866922154
 40
0.37798164
 40
0.4656628429
 40
0.5488989663
 40
0.5886012102
 40
0.6269009927
 40
0.6637063927
 40
0.6989306543
 40
0.7324928523
 40
0.7643130568
 40
0.7943181043
 40
0.8224410174
 40
0.8486164186
 40
0.8727877573
 40
0.8949053941
 40
0.9149229774
 40
0.9241333693
 40
0.9328069524
 40
0.9409409081
 40
0.9485329378
 40
0.9555815142
 40
0.9620870896
 40
0.9680520849
 40
0.9734806456
 40
0.9783793744
 40
0.9806333313
 40
0.9827590928
 40
0.9866345339
 40
0.9900318197
 40
0.9929902365
 40
0.9955699182
 40
0.9978618194
 40
0.9989411953
 40
1.0
 40
1.0
 40
1.0
 40
1.0
 10
-14.7368455002
 20
5.4910215517
 30
0.0
 10
-14.7368455002
 20
5.4790975985
 30
0.0
 10
-14.7369467659
 20
5.455359743
 30
0.0
 10
-14.7374009904
 20
5.4200404766
 30
0.0
 10
-14.7381534209
 20
5.3854030988
 30
0.0
 10
-14.7391961977
 20
5.3517847329
 30
0.0
 10
-14.7405191382
 20
5.3195062365
 30
0.0
 10
-14.741863995
 20
5.2935911884
 30
0.0
 10
-14.743078934
 20
5.2737629959
 30
0.0
 10
-14.7440369477
 20
5.2596505753
 30
0.0
 10
-14.7450539098
 20
5.2460954666
 30
0.0
 10
-14.7461273985
 20
5.2331303023
 30
0.0
 10
-14.7472545235
 20
5.2207863013
 30
0.0
 10
-14.748432715
 20
5.2090931571
 30
0.0
 10
-14.7496590419
 20
5.1980789752
 30
0.0
 10
-14.7509301702
 20
5.1877702219
 30
0.0
 10
-14.7522431779
 20
5.1781916471
 30
0.0
 10
-14.753594599
 20
5.1693661407
 30
0.0
 10
-14.7549807038
 20
5.1613148063
 30
0.0
 10
-14.7561930475
 20
5.1551052878
 30
0.0
 10
-14.7571854516
 20
5.1505421581
 30
0.0
 10
-14.7579156508
 20
5.1474207551
 30
0.0
 10
-14.758652076
 20
5.1445060346
 30
0.0
 10
-14.7593942697
 20
5.1417998188
 30
0.0
 10
-14.7601418135
 20
5.1393037788
 30
0.0
 10
-14.760894209
 20
5.1370193037
 30
0.0
 10
-14.7616509062
 20
5.134947452
 30
0.0
 10
-14.7624114283
 20
5.1330892309
 30
0.0
 10
-14.7630648953
 20
5.1316827716
 30
0.0
 10
-14.7635923718
 20
5.1306683789
 30
0.0
 10
-14.7640909804
 20
5.1297817702
 30
0.0
 10
-14.7647120545
 20
5.1288028724
 30
0.0
 10
-14.7654851789
 20
5.1278043559
 30
0.0
 10
-14.7662632221
 20
5.1270203573
 30
0.0
 10
-14.767048683
 20
5.1264512833
 30
0.0
 10
-14.7677278285
 20
5.1261545407
 30
0.0
 10
-14.768263089
 20
5.1260403505
 30
0.0
 10
-14.7685268969
 20
5.1260215517
 30
0.0
 10
-14.7686573463
 20
5.1260215517
 30
0.0
  0
SPLINE
  5
429
100
AcDbEntity
  8
0
100
AcDbSpline
 62
7
  6
CONTINUOUS
 70
0
 71
3
 72
13
 73
9
 74
0
 42
0.0000001
 43
0.0000001
 44
0.0000000001
 40
0.0
 40
0.0
 40
0.0
 40
0.0
 40
0.2515721839
 40
0.3786773766
 40
0.5058490348
 40
0.6322147219
 40
0.7569722075
 40
1.0
 40
1.0
 40
1.0
 40
1.0
 10
-3.1797931574
 20
5.7433236194
 30
0.0
 10
-3.1614099367
 20
5.7329714199
 30
0.0
 10
-3.1337734456
 20
5.7173269049
 30
0.0
 10
-3.0969552255
 20
5.6962541497
 30
0.0
 10
-3.0693065384
 20
5.6802991274
 30
0.0
 10
-3.041887639
 20
5.6643402586
 30
0.0
 10
-3.0061475538
 20
5.6433637063
 30
0.0
 10
-2.9796246457
 20
5.6276194886
 30
0.0
 10
-2.9621246159
 20
5.6171725855
 30
0.0
  0
SPLINE
  5
42A
100
AcDbEntity
  8
0
100
AcDbSpline
 62
7
  6
CONTINUOUS
 70
0
 71
3
 72
13
 73
9
 74
0
 42
0.0000001
 43
0.0000001
 44
0.0000000001
 40
0.0
 40
0.0
 40
0.0
 40
0.0
 40
0.2473154941
 40
0.3732415126
 40
0.5
 40
0.6267584874
 40
0.7526845059
 40
1.0
 40
1.0
 40
1.0
 40
1.0
 10
-2.9621246159
 20
5.6171725855
 30
0.0
 10
-2.961601415
 20
5.5963773859
 30
0.0
 10
-2.9609585686
 20
5.5649896497
 30
0.0
 10
-2.9605024447
 20
5.5229366926
 30
0.0
 10
-2.9603842225
 20
5.4910215517
 30
0.0
 10
-2.9605024447
 20
5.4591064108
 30
0.0
 10
-2.9609585686
 20
5.4170534537
 30
0.0
 10
-2.961601415
 20
5.3856657175
 30
0.0
 10
-2.9621246159
 20
5.3648705179
 30
0.0
  0
SPLINE
  5
42B
100
AcDbEntity
  8
0
100
AcDbSpline
 62
7
  6
CONTINUOUS
 70
0
 71
3
 72
13
 73
9
 74
0
 42
0.0000001
 43
0.0000001
 44
0.0000000001
 40
0.0
 40
0.0
 40
0.0
 40
0.0
 40
0.2430277925
 40
0.3677852781
 40
0.4941509652
 40
0.6213226234
 40
0.7484278161
 40
1.0
 40
1.0
 40
1.0
 40
1.0
 10
-2.9621246159
 20
5.3648705179
 30
0.0
 10
-2.9796246457
 20
5.3544236148
 30
0.0
 10
-3.0061475538
 20
5.3386793972
 30
0.0
 10
-3.041887639
 20
5.3177028448
 30
0.0
 10
-3.0693065384
 20
5.301743976
 30
0.0
 10
-3.0969552255
 20
5.2857889538
 30
0.0
 10
-3.1337734456
 20
5.2647161985
 30
0.0
 10
-3.1614099367
 20
5.2490716835
 30
0.0
 10
-3.1797931574
 20
5.2387194841
 30
0.0
  0
SPLINE
  5
42C
100
AcDbEntity
  8
0
100
AcDbSpline
 62
7
  6
CONTINUOUS
 70
0
 71
3
 72
23
 73
19
 74
0
 42
0.0000001
 43
0.0000001
 44
0.0000000001
 40
0.0
 40
0.0
 40
0.0
 40
0.0
 40
0.0626041864
 40
0.1251938615
 40
0.1877685123
 40
0.2503272371
 40
0.312870323
 40
0.3753973816
 40
0.4379090979
 40
0.5004059708
 40
0.562888785
 40
0.6253589957
 40
0.6878175231
 40
0.7502664412
 40
0.8127070713
 40
0.8751415833
 40
0.9375719222
 40
1.0
 40
1.0
 40
1.0
 40
1.0
 10
-2.9587213302
 20
5.3630215557
 30
0.0
 10
-2.9615569242
 20
5.3578488384
 30
0.0
 10
-2.9675733214
 20
5.3476898501
 30
0.0
 10
-2.9775913328
 20
5.3330914806
 30
0.0
 10
-2.9885559913
 20
5.3191945251
 30
0.0
 10
-3.0004199464
 20
5.3060630796
 30
0.0
 10
-3.0131299516
 20
5.2937551263
 30
0.0
 10
-3.026628625
 20
5.2823244394
 30
0.0
 10
-3.0408576896
 20
5.2718242526
 30
0.0
 10
-3.0557515104
 20
5.2622981146
 30
0.0
 10
-3.0712460085
 20
5.2537918469
 30
0.0
 10
-3.0872705031
 20
5.246340495
 30
0.0
 10
-3.1037545801
 20
5.2399787729
 30
0.0
 10
-3.1206247064
 20
5.2347351632
 30
0.0
 10
-3.1378053088
 20
5.2306311129
 30
0.0
 10
-3.1552208489
 20
5.2276882235
 30
0.0
 10
-3.1727920896
 20
5.2259156143
 30
0.0
 10
-3.1845608589
 20
5.225521745
 30
0.0
 10
-3.1904432137
 20
5.2255218879
 30
0.0
  0
SPLINE
  5
42D
100
AcDbEntity
  8
0
100
AcDbSpline
 62
7
  6
CONTINUOUS
 70
0
 71
3
 72
22
 73
18
 74
0
 42
0.0000001
 43
0.0000001
 44
0.0000000001
 40
0.0
 40
0.0
 40
0.0
 40
0.0
 40
0.1251231304
 40
0.1877142749
 40
0.2502741673
 40
0.3128145834
 40
0.375344007
 40
0.4378606075
 40
0.5003619873
 40
0.5628491737
 40
0.6253236442
 40
0.687787563
 40
0.7502419463
 40
0.8126884561
 40
0.8751290726
 40
0.9375654224
 40
1.0
 40
1.0
 40
1.0
 40
1.0
 10
-2.9613884211
 20
5.6237715517
 30
0.0
 10
-2.9671529029
 20
5.6337940659
 30
0.0
 10
-2.9768009128
 20
5.6482874945
 30
0.0
 10
-2.9914453259
 20
5.6662009419
 30
0.0
 10
-3.003286512
 20
5.6788917064
 30
0.0
 10
-3.0159269355
 20
5.6907763131
 30
0.0
 10
-3.0293158571
 20
5.7018050926
 30
0.0
 10
-3.0433937394
 20
5.7119334024
 30
0.0
 10
-3.0581025335
 20
5.721114243
 30
0.0
 10
-3.073377436
 20
5.7293104005
 30
0.0
 10
-3.0891536881
 20
5.7364861783
 30
0.0
 10
-3.1053640144
 20
5.7426099428
 30
0.0
 10
-3.1219382053
 20
5.7476580739
 30
0.0
 10
-3.1388062643
 20
5.7516051899
 30
0.0
 10
-3.1558952666
 20
5.7544381203
 30
0.0
 10
-3.1731316553
 20
5.7561420793
 30
0.0
 10
-3.1846739437
 20
5.7565210755
 30
0.0
 10
-3.1904432137
 20
5.7565212156
 30
0.0
  0
SPLINE
  5
42E
100
AcDbEntity
  8
0
100
AcDbSpline
 62
7
  6
CONTINUOUS
 70
0
 71
3
 72
22
 73
18
 74
0
 42
0.0000001
 43
0.0000001
 44
0.0000000001
 40
0.0
 40
0.0
 40
0.0
 40
0.0
 40
0.0624345805
 40
0.124870932
 40
0.1873115488
 40
0.2497580584
 40
0.3122124405
 40
0.3746763581
 40
0.4371508272
 40
0.4996380119
 40
0.5621393901
 40
0.6246559899
 40
0.6871854142
 40
0.7497258313
 40
0.8122857231
 40
0.8748768673
 40
1.0
 40
1.0
 40
1.0
 40
1.0
 10
-3.1930452044
 20
5.2255218878
 30
0.0
 10
-3.1988147383
 20
5.2255217505
 30
0.0
 10
-3.2103575733
 20
5.2259002268
 30
0.0
 10
-3.2275948259
 20
5.2276035104
 30
0.0
 10
-3.2446847255
 20
5.2304358778
 30
0.0
 10
-3.2615537051
 20
5.23438254
 30
0.0
 10
-3.2781288291
 20
5.2394303288
 30
0.0
 10
-3.2943400901
 20
5.2455538628
 30
0.0
 10
-3.3101172693
 20
5.2527295176
 30
0.0
 10
-3.3253930794
 20
5.2609256611
 30
0.0
 10
-3.3401027537
 20
5.2701065899
 30
0.0
 10
-3.3541814777
 20
5.280235089
 30
0.0
 10
-3.367571194
 20
5.2912641528
 30
0.0
 10
-3.3802123567
 20
5.3031491329
 30
0.0
 10
-3.3920542179
 20
5.3158403544
 30
0.0
 10
-3.4066994357
 20
5.3337545116
 30
0.0
 10
-3.4163479331
 20
5.3482485793
 30
0.0
 10
-3.4221126786
 20
5.3582715517
 30
0.0
  0
SPLINE
  5
42F
100
AcDbEntity
  8
0
100
AcDbSpline
 62
7
  6
CONTINUOUS
 70
0
 71
3
 72
38
 73
34
 74
0
 42
0.0000001
 43
0.0000001
 44
0.0000000001
 40
0.0
 40
0.0
 40
0.0
 40
0.0
 40
0.0311792267
 40
0.0623595379
 40
0.0935418673
 40
0.1247271197
 40
0.1559163806
 40
0.1871102638
 40
0.2183097767
 40
0.2495154118
 40
0.2807278042
 40
0.3119474552
 40
0.3431745244
 40
0.3744094454
 40
0.4056520444
 40
0.4369024346
 40
0.4681603403
 40
0.4994253768
 40
0.5306972572
 40
0.561975176
 40
0.5932587074
 40
0.624546929
 40
0.6558390695
 40
0.6871341992
 40
0.7184310935
 40
0.7497291661
 40
0.7810275768
 40
0.8123253672
 40
0.8436200268
 40
0.8749094689
 40
0.9061969645
 40
0.937487612
 40
1.0
 40
1.0
 40
1.0
 40
1.0
 10
-3.1930705676
 20
5.7565212156
 30
0.0
 10
-3.1988396863
 20
5.7565210782
 30
0.0
 10
-3.2103817361
 20
5.7561417112
 30
0.0
 10
-3.2276174821
 20
5.754435776
 30
0.0
 10
-3.2447062747
 20
5.7516038565
 30
0.0
 10
-3.2615733773
 20
5.7476543569
 30
0.0
 10
-3.2781473163
 20
5.7426069549
 30
0.0
 10
-3.294356952
 20
5.7364822329
 30
0.0
 10
-3.3101323377
 20
5.729305545
 30
0.0
 10
-3.3254072097
 20
5.7211100944
 30
0.0
 10
-3.3401142855
 20
5.7119276126
 30
0.0
 10
-3.3541925837
 20
5.7018007296
 30
0.0
 10
-3.3675803209
 20
5.6907704627
 30
0.0
 10
-3.3802206695
 20
5.6788849738
 30
0.0
 10
-3.3920603531
 20
5.6661957515
 30
0.0
 10
-3.403046528
 20
5.6527553373
 30
0.0
 10
-3.4131351431
 20
5.6386236544
 30
0.0
 10
-3.4222799314
 20
5.6238589573
 30
0.0
 10
-3.4304440503
 20
5.6085260784
 30
0.0
 10
-3.4375917545
 20
5.5926900115
 30
0.0
 10
-3.4436914326
 20
5.5764183271
 30
0.0
 10
-3.4487196101
 20
5.5597815141
 30
0.0
 10
-3.4526510511
 20
5.5428497595
 30
0.0
 10
-3.4554726989
 20
5.5256965262
 30
0.0
 10
-3.4571698162
 20
5.5083946547
 30
0.0
 10
-3.4577360595
 20
5.491018423
 30
0.0
 10
-3.4571698396
 20
5.4736419645
 30
0.0
 10
-3.4554708531
 20
5.4563401912
 30
0.0
 10
-3.4526506149
 20
5.439187071
 30
0.0
 10
-3.4487178571
 20
5.4222566539
 30
0.0
 10
-3.4436900495
 20
5.4056178822
 30
0.0
 10
-3.435559956
 20
5.3839354244
 30
0.0
 10
-3.4278795095
 20
5.3682981501
 30
0.0
 10
-3.4221126786
 20
5.3582715517
 30
0.0
  0
SPLINE
  5
430
100
AcDbEntity
  8
0
100
AcDbSpline
 62
7
  6
CONTINUOUS
 70
0
 71
3
 72
47
 73
43
 74
0
 42
0.0000001
 43
0.0000001
 44
0.0000000001
 40
0.0
 40
0.0
 40
0.0
 40
0.0
 40
0.0312670793
 40
0.0469087584
 40
0.0625447436
 40
0.0937925885
 40
0.1250300898
 40
0.1406498439
 40
0.1562666723
 40
0.1874828062
 40
0.2186896998
 40
0.2342949108
 40
0.2498983812
 40
0.281091785
 40
0.312281387
 40
0.3278802166
 40
0.3434789168
 40
0.3746678062
 40
0.4058596688
 40
0.4370566892
 40
0.468260901
 40
0.4994738393
 40
0.5306968979
 40
0.5619310867
 40
0.5931767845
 40
0.6244341455
 40
0.6557028371
 40
0.6713458187
 40
0.6869913157
 40
0.7182796742
 40
0.7495757634
 40
0.765230771
 40
0.7808870178
 40
0.8121926146
 40
0.8434996968
 40
0.8591579496
 40
0.8748159122
 40
0.9061188189
 40
0.9374152561
 40
0.9530686117
 40
0.9687228154
 40
1.0
 40
1.0
 40
1.0
 40
1.0
 10
-2.9899919766
 20
5.3820215517
 30
0.0
 10
-2.9935428134
 20
5.3758478291
 30
0.0
 10
-2.9993301986
 20
5.366839245
 30
0.0
 10
-3.0078907474
 20
5.3554465122
 30
0.0
 10
-3.0169984176
 20
5.3444903913
 30
0.0
 10
-3.0293694328
 20
5.3316575669
 30
0.0
 10
-3.0429375766
 20
5.3201032368
 30
0.0
 10
-3.0544248389
 20
5.3116955633
 30
0.0
 10
-3.0663078371
 20
5.3038659974
 30
0.0
 10
-3.081857599
 20
5.2951899271
 30
0.0
 10
-3.0981830297
 20
5.2880866551
 30
0.0
 10
-3.1116067367
 20
5.2833886307
 30
0.0
 10
-3.1252426992
 20
5.2793586799
 30
0.0
 10
-3.1426328006
 20
5.2755872802
 30
0.0
 10
-3.1603087496
 20
5.2735471583
 30
0.0
 10
-3.1745123664
 20
5.2729631519
 30
0.0
 10
-3.1887272375
 20
5.2730800616
 30
0.0
 10
-3.2064607821
 20
5.2745390888
 30
0.0
 10
-3.2274620984
 20
5.2783758789
 30
0.0
 10
-3.247988815
 20
5.2842597278
 30
0.0
 10
-3.2678417043
 20
5.2921352475
 30
0.0
 10
-3.2868296856
 20
5.3019265986
 30
0.0
 10
-3.3047704887
 20
5.313538313
 30
0.0
 10
-3.3214906617
 20
5.3268596015
 30
0.0
 10
-3.3368293075
 20
5.3417622189
 30
0.0
 10
-3.350639122
 20
5.3581006618
 30
0.0
 10
-3.3607628747
 20
5.3727855769
 30
0.0
 10
-3.3679703635
 20
5.3850833127
 30
0.0
 10
-3.374568581
 20
5.3977235866
 30
0.0
 10
-3.3816462796
 20
5.4141099085
 30
0.0
 10
-3.3870872027
 20
5.4311122205
 30
0.0
 10
-3.3904283745
 20
5.4449811392
 30
0.0
 10
-3.3930869801
 20
5.458999124
 30
0.0
 10
-3.3951214439
 20
5.476741212
 30
0.0
 10
-3.3954115033
 20
5.4945976701
 30
0.0
 10
-3.394598212
 20
5.508843815
 30
0.0
 10
-3.3930885569
 20
5.5230321061
 30
0.0
 10
-3.3899052981
 20
5.540601782
 30
0.0
 10
-3.3850194602
 20
5.5577748724
 30
0.0
 10
-3.3801205232
 20
5.5711724885
 30
0.0
 10
-3.3745729478
 20
5.5843087351
 30
0.0
 10
-3.3696942042
 20
5.5938458338
 30
0.0
 10
-3.3661422198
 20
5.6000215517
 30
0.0
  0
SPLINE
  5
431
100
AcDbEntity
  8
0
100
AcDbSpline
 62
7
  6
CONTINUOUS
 70
0
 71
3
 72
13
 73
9
 74
0
 42
0.0000001
 43
0.0000001
 44
0.0000000001
 40
0.0
 40
0.0
 40
0.0
 40
0.0
 40
0.2430277925
 40
0.3677852781
 40
0.4941509652
 40
0.6213226234
 40
0.7484278161
 40
1.0
 40
1.0
 40
1.0
 40
1.0
 10
-3.1797931574
 20
5.2387194841
 30
0.0
 10
-3.1972931872
 20
5.2491663872
 30
0.0
 10
-3.2238160954
 20
5.2649106048
 30
0.0
 10
-3.2595561805
 20
5.2858871572
 30
0.0
 10
-3.2869750799
 20
5.301846026
 30
0.0
 10
-3.3146237671
 20
5.3178010482
 30
0.0
 10
-3.3514419872
 20
5.3388738035
 30
0.0
 10
-3.3790784782
 20
5.3545183185
 30
0.0
 10
-3.3974616989
 20
5.3648705179
 30
0.0
  0
SPLINE
  5
432
100
AcDbEntity
  8
0
100
AcDbSpline
 62
7
  6
CONTINUOUS
 70
0
 71
3
 72
47
 73
43
 74
0
 42
0.0000001
 43
0.0000001
 44
0.0000000001
 40
0.0
 40
0.0
 40
0.0
 40
0.0
 40
0.0312670793
 40
0.0469087584
 40
0.0625447436
 40
0.0937925885
 40
0.1250300898
 40
0.1406498439
 40
0.1562666723
 40
0.1874828062
 40
0.2186896998
 40
0.2342949108
 40
0.2498983812
 40
0.281091785
 40
0.312281387
 40
0.3278802166
 40
0.3434789168
 40
0.3746678062
 40
0.4058596688
 40
0.4370566892
 40
0.468260901
 40
0.4994738393
 40
0.5306968979
 40
0.5619310867
 40
0.5931767845
 40
0.6244341455
 40
0.6557028371
 40
0.6713458187
 40
0.6869913157
 40
0.7182796742
 40
0.7495757634
 40
0.765230771
 40
0.7808870178
 40
0.8121926146
 40
0.8434996968
 40
0.8591579496
 40
0.8748159122
 40
0.9061188189
 40
0.9374152561
 40
0.9530686117
 40
0.9687228154
 40
1.0
 40
1.0
 40
1.0
 40
1.0
 10
-3.3661422198
 20
5.6000215517
 30
0.0
 10
-3.3625913831
 20
5.6061952743
 30
0.0
 10
-3.3568039978
 20
5.6152038584
 30
0.0
 10
-3.348243449
 20
5.6265965913
 30
0.0
 10
-3.3391357788
 20
5.6375527121
 30
0.0
 10
-3.3267647636
 20
5.6503855365
 30
0.0
 10
-3.3131966198
 20
5.6619398667
 30
0.0
 10
-3.3017093575
 20
5.6703475402
 30
0.0
 10
-3.2898263594
 20
5.6781771061
 30
0.0
 10
-3.2742765974
 20
5.6868531763
 30
0.0
 10
-3.2579511667
 20
5.6939564483
 30
0.0
 10
-3.2445274597
 20
5.6986544728
 30
0.0
 10
-3.2308914972
 20
5.7026844235
 30
0.0
 10
-3.2135013958
 20
5.7064558233
 30
0.0
 10
-3.1958254468
 20
5.7084959451
 30
0.0
 10
-3.1816218301
 20
5.7090799516
 30
0.0
 10
-3.1674069589
 20
5.7089630419
 30
0.0
 10
-3.1496734143
 20
5.7075040147
 30
0.0
 10
-3.128672098
 20
5.7036672245
 30
0.0
 10
-3.1081453814
 20
5.6977833757
 30
0.0
 10
-3.0882924921
 20
5.689907856
 30
0.0
 10
-3.0693045109
 20
5.6801165048
 30
0.0
 10
-3.0513637077
 20
5.6685047905
 30
0.0
 10
-3.0346435347
 20
5.6551835019
 30
0.0
 10
-3.0193048889
 20
5.6402808845
 30
0.0
 10
-3.0054950744
 20
5.6239424416
 30
0.0
 10
-2.9953713217
 20
5.6092575265
 30
0.0
 10
-2.9881638329
 20
5.5969597908
 30
0.0
 10
-2.9815656155
 20
5.5843195168
 30
0.0
 10
-2.9744879168
 20
5.567933195
 30
0.0
 10
-2.9690469938
 20
5.550930883
 30
0.0
 10
-2.965705822
 20
5.5370619642
 30
0.0
 10
-2.9630472164
 20
5.5230439794
 30
0.0
 10
-2.9610127525
 20
5.5053018914
 30
0.0
 10
-2.9607226931
 20
5.4874454333
 30
0.0
 10
-2.9615359844
 20
5.4731992884
 30
0.0
 10
-2.9630456396
 20
5.4590109973
 30
0.0
 10
-2.9662288983
 20
5.4414413215
 30
0.0
 10
-2.9711147363
 20
5.4242682311
 30
0.0
 10
-2.9760136732
 20
5.410870615
 30
0.0
 10
-2.9815612487
 20
5.3977343684
 30
0.0
 10
-2.9864399922
 20
5.3881972696
 30
0.0
 10
-2.9899919766
 20
5.3820215517
 30
0.0
  0
SPLINE
  5
433
100
AcDbEntity
  8
0
100
AcDbSpline
 62
7
  6
CONTINUOUS
 70
0
 71
3
 72
13
 73
9
 74
0
 42
0.0000001
 43
0.0000001
 44
0.0000000001
 40
0.0
 40
0.0
 40
0.0
 40
0.0
 40
0.2473154941
 40
0.3732415126
 40
0.5
 40
0.6267584874
 40
0.7526845059
 40
1.0
 40
1.0
 40
1.0
 40
1.0
 10
-3.3974616989
 20
5.3648705179
 30
0.0
 10
-3.396938498
 20
5.3856657175
 30
0.0
 10
-3.3962956516
 20
5.4170534537
 30
0.0
 10
-3.3958395277
 20
5.4591064108
 30
0.0
 10
-3.3957213056
 20
5.4910215517
 30
0.0
 10
-3.3958395277
 20
5.5229366926
 30
0.0
 10
-3.3962956516
 20
5.5649896497
 30
0.0
 10
-3.396938498
 20
5.5963773859
 30
0.0
 10
-3.3974616989
 20
5.6171725855
 30
0.0
  0
SPLINE
  5
434
100
AcDbEntity
  8
0
100
AcDbSpline
 62
7
  6
CONTINUOUS
 70
0
 71
3
 72
22
 73
18
 74
0
 42
0.0000001
 43
0.0000001
 44
0.0000000001
 40
0.0
 40
0.0
 40
0.0
 40
0.0
 40
0.0624345776
 40
0.1248709274
 40
0.1873115439
 40
0.2497580537
 40
0.312212437
 40
0.3746763558
 40
0.4371508263
 40
0.4996380127
 40
0.5621393925
 40
0.624655993
 40
0.6871854166
 40
0.7497258327
 40
0.8122857251
 40
0.8748768696
 40
1.0
 40
1.0
 40
1.0
 40
1.0
 10
-3.1904432137
 20
5.2255218879
 30
0.0
 10
-3.1962124836
 20
5.225522028
 30
0.0
 10
-3.2077547721
 20
5.2259010241
 30
0.0
 10
-3.2249911608
 20
5.2276049831
 30
0.0
 10
-3.2420801631
 20
5.2304379135
 30
0.0
 10
-3.2589482221
 20
5.2343850296
 30
0.0
 10
-3.275522413
 20
5.2394331607
 30
0.0
 10
-3.2917327393
 20
5.2455569251
 30
0.0
 10
-3.3075089914
 20
5.2527327029
 30
0.0
 10
-3.3227838938
 20
5.2609288605
 30
0.0
 10
-3.337492688
 20
5.270109701
 30
0.0
 10
-3.3515705703
 20
5.2802380108
 30
0.0
 10
-3.3649594919
 20
5.2912667903
 30
0.0
 10
-3.3775999153
 20
5.303151397
 30
0.0
 10
-3.3894411015
 20
5.3158421615
 30
0.0
 10
-3.4040855146
 20
5.333755609
 30
0.0
 10
-3.4137335244
 20
5.3482490376
 30
0.0
 10
-3.4194980063
 20
5.3582715517
 30
0.0
  0
SPLINE
  5
435
100
AcDbEntity
  8
0
100
AcDbSpline
 62
7
  6
CONTINUOUS
 70
0
 71
3
 72
13
 73
9
 74
0
 42
0.0000001
 43
0.0000001
 44
0.0000000001
 40
0.0
 40
0.0
 40
0.0
 40
0.0
 40
0.2515721839
 40
0.3786773766
 40
0.5058490348
 40
0.6322147219
 40
0.7569722075
 40
1.0
 40
1.0
 40
1.0
 40
1.0
 10
-3.3974616989
 20
5.6171725855
 30
0.0
 10
-3.3790784782
 20
5.627524785
 30
0.0
 10
-3.3514419872
 20
5.6431693
 30
0.0
 10
-3.3146237671
 20
5.6642420552
 30
0.0
 10
-3.2869750799
 20
5.6801970775
 30
0.0
 10
-3.2595561805
 20
5.6961559463
 30
0.0
 10
-3.2238160954
 20
5.7171324986
 30
0.0
 10
-3.1972931872
 20
5.7328767163
 30
0.0
 10
-3.1797931574
 20
5.7433236194
 30
0.0
  0
SPLINE
  5
436
100
AcDbEntity
  8
0
100
AcDbSpline
 62
7
  6
CONTINUOUS
 70
0
 71
3
 72
38
 73
34
 74
0
 42
0.0000001
 43
0.0000001
 44
0.0000000001
 40
0.0
 40
0.0
 40
0.0
 40
0.0
 40
0.0311792281
 40
0.0623595398
 40
0.0935418693
 40
0.1247271211
 40
0.155916381
 40
0.1871102628
 40
0.2183097739
 40
0.2495154071
 40
0.2807277973
 40
0.3119474463
 40
0.3431745134
 40
0.3744094324
 40
0.4056520297
 40
0.4369024183
 40
0.4681603227
 40
0.4994253583
 40
0.5306972381
 40
0.5619751567
 40
0.5932586881
 40
0.6245469102
 40
0.6558390515
 40
0.6871341824
 40
0.7184310781
 40
0.7497291522
 40
0.7810275646
 40
0.8123253569
 40
0.8436200187
 40
0.874909463
 40
0.9061969603
 40
0.9374876092
 40
1.0
 40
1.0
 40
1.0
 40
1.0
 10
-3.1904432137
 20
5.7565212156
 30
0.0
 10
-3.1962124644
 20
5.7565213557
 30
0.0
 10
-3.2077547965
 20
5.756142528
 30
0.0
 10
-3.2249910152
 20
5.7544373437
 30
0.0
 10
-3.242080324
 20
5.7516061171
 30
0.0
 10
-3.2589479815
 20
5.7476572513
 30
0.0
 10
-3.2755225071
 20
5.7426104176
 30
0.0
 10
-3.2917327571
 20
5.7364862029
 30
0.0
 10
-3.3075087771
 20
5.7293099545
 30
0.0
 10
-3.322784299
 20
5.7211148793
 30
0.0
 10
-3.3374920342
 20
5.7119327071
 30
0.0
 10
-3.3515709946
 20
5.7018060678
 30
0.0
 10
-3.3649593934
 20
5.690775982
 30
0.0
 10
-3.3776003946
 20
5.6788906095
 30
0.0
 10
-3.3894407196
 20
5.6662014443
 30
0.0
 10
-3.4004275172
 20
5.6527610275
 30
0.0
 10
-3.4105167323
 20
5.6386292861
 30
0.0
 10
-3.4196620945
 20
5.623864478
 30
0.0
 10
-3.4278267544
 20
5.6085314376
 30
0.0
 10
-3.434974966
 20
5.592695164
 30
0.0
 10
-3.4410751112
 20
5.5764232303
 30
0.0
 10
-3.4461037146
 20
5.5597861307
 30
0.0
 10
-3.4500355365
 20
5.542854056
 30
0.0
 10
-3.4528575173
 20
5.5257004741
 30
0.0
 10
-3.4545549194
 20
5.5083982304
 30
0.0
 10
-3.4551213957
 20
5.4910216078
 30
0.0
 10
-3.4545553578
 20
5.4736447446
 30
0.0
 10
-3.4528564999
 20
5.4563425582
 30
0.0
 10
-3.4500363378
 20
5.4391890215
 30
0.0
 10
-3.4461036038
 20
5.4222581897
 30
0.0
 10
-3.4410757678
 20
5.4056190104
 30
0.0
 10
-3.4329455694
 20
5.3839360256
 30
0.0
 10
-3.4252649691
 20
5.3682983794
 30
0.0
 10
-3.4194980063
 20
5.3582715517
 30
0.0
  0
SPLINE
  5
437
100
AcDbEntity
  8
0
100
AcDbSpline
 62
7
  6
CONTINUOUS
 70
0
 71
3
 72
24
 73
20
 74
0
 42
0.0000001
 43
0.0000001
 44
0.0000000001
 40
0.0
 40
0.0
 40
0.0
 40
0.0
 40
0.1896343974
 40
0.3644447204
 40
0.4455741134
 40
0.5222000015
 40
0.5940971715
 40
0.66104959
 40
0.7228514353
 40
0.7793325712
 40
0.8303368208
 40
0.8757318716
 40
0.9154245779
 40
0.933111074
 40
0.9493508949
 40
0.964147474
 40
0.9775092581
 40
0.9894515174
 40
1.0
 40
1.0
 40
1.0
 40
1.0
 10
6.707823281
 20
5.6000215517
 30
0.0
 10
6.7074810633
 20
5.6068224623
 30
0.0
 10
6.7067420589
 20
5.6198887435
 30
0.0
 10
6.7056028409
 20
5.635848882
 30
0.0
 10
6.7045896315
 20
5.6477479703
 30
0.0
 10
6.7038078159
 20
5.6559574923
 30
0.0
 10
6.7029877095
 20
5.6636515257
 30
0.0
 10
6.7021321139
 20
5.6708058966
 30
0.0
 10
6.7012435777
 20
5.6773981304
 30
0.0
 10
6.7003253898
 20
5.6834076318
 30
0.0
 10
6.6993807659
 20
5.6888160227
 30
0.0
 10
6.6984127026
 20
5.693606696
 30
0.0
 10
6.6975605533
 20
5.6971985863
 30
0.0
 10
6.6968601206
 20
5.6997479322
 30
0.0
 10
6.6963511174
 20
5.7014220924
 30
0.0
 10
6.6958385883
 20
5.7029320769
 30
0.0
 10
6.6953229315
 20
5.7042770399
 30
0.0
 10
6.6948046332
 20
5.7054560975
 30
0.0
 10
6.6944350347
 20
5.7061750793
 30
0.0
 10
6.6942478264
 20
5.7065043644
 30
0.0
  0
SPLINE
  5
438
100
AcDbEntity
  8
0
100
AcDbSpline
 62
7
  6
CONTINUOUS
 70
0
 71
3
 72
9
 73
5
 74
0
 42
0.0000001
 43
0.0000001
 44
0.0000000001
 40
0.0
 40
0.0
 40
0.0
 40
0.0
 40
0.5066196467
 40
1.0
 40
1.0
 40
1.0
 40
1.0
 10
6.6716398933
 20
5.2387194841
 30
0.0
 10
6.6740554011
 20
5.242046119
 30
0.0
 10
6.6786781496
 20
5.2487196477
 30
0.0
 10
6.6829303972
 20
5.2556379041
 30
0.0
 10
6.6849117764
 20
5.2591169144
 30
0.0
  0
SPLINE
  5
439
100
AcDbEntity
  8
0
100
AcDbSpline
 62
7
  6
CONTINUOUS
 70
0
 71
3
 72
9
 73
5
 74
0
 42
0.0000001
 43
0.0000001
 44
0.0000000001
 40
0.0
 40
0.0
 40
0.0
 40
0.0
 40
0.4933803533
 40
1.0
 40
1.0
 40
1.0
 40
1.0
 10
6.6849117764
 20
5.7229261891
 30
0.0
 10
6.6829303972
 20
5.7264051994
 30
0.0
 10
6.6786781496
 20
5.7333234558
 30
0.0
 10
6.6740554011
 20
5.7399969844
 30
0.0
 10
6.6716398933
 20
5.7433236194
 30
0.0
  0
SPLINE
  5
43A
100
AcDbEntity
  8
0
100
AcDbSpline
 62
7
  6
CONTINUOUS
 70
0
 71
3
 72
34
 73
30
 74
0
 42
0.0000001
 43
0.0000001
 44
0.0000000001
 40
0.0
 40
0.0
 40
0.0
 40
0.0
 40
0.0038051163
 40
0.0081537357
 40
0.013056082
 40
0.018517904
 40
0.0245421187
 40
0.0311291301
 40
0.0382763947
 40
0.0459801829
 40
0.0630387803
 40
0.082260728
 40
0.1035834666
 40
0.1269383747
 40
0.152244673
 40
0.1794132729
 40
0.2083496507
 40
0.2389483002
 40
0.2711008973
 40
0.30469049
 40
0.3756887778
 40
0.4509124129
 40
0.52926603
 40
0.6096066322
 40
0.6907607277
 40
0.7715445825
 40
0.8507722359
 40
0.9273039715
 40
1.0
 40
1.0
 40
1.0
 40
1.0
 10
6.6942478264
 20
5.2755387392
 30
0.0
 10
6.6944520669
 20
5.2758979834
 30
0.0
 10
6.6948544697
 20
5.2766879258
 30
0.0
 10
6.6954158715
 20
5.2779906638
 30
0.0
 10
6.6959741591
 20
5.2794883937
 30
0.0
 10
6.6965287122
 20
5.2811799996
 30
0.0
 10
6.6970789319
 20
5.2830643766
 30
0.0
 10
6.6976241804
 20
5.2851399891
 30
0.0
 10
6.6981640243
 20
5.2874049384
 30
0.0
 10
6.6989011131
 20
5.2907912867
 30
0.0
 10
6.6997949806
 20
5.2954845326
 30
0.0
 10
6.700805582
 20
5.3016587143
 30
0.0
 10
6.7017833503
 20
5.3085295549
 30
0.0
 10
6.7027240289
 20
5.3160718402
 30
0.0
 10
6.7036240155
 20
5.3242580496
 30
0.0
 10
6.7044798365
 20
5.3330581773
 30
0.0
 10
6.7052879609
 20
5.3424398079
 30
0.0
 10
6.7060456037
 20
5.3523685606
 30
0.0
 10
6.7067496293
 20
5.3628077996
 30
0.0
 10
6.7076297567
 20
5.3776321425
 30
0.0
 10
6.7085676279
 20
5.3971382275
 30
0.0
 10
6.7094258657
 20
5.4215130914
 30
0.0
 10
6.7100229846
 20
5.4469106111
 30
0.0
 10
6.7103498722
 20
5.4729571091
 30
0.0
 10
6.7104014913
 20
5.4992695272
 30
0.0
 10
6.7101769892
 20
5.5254601657
 30
0.0
 10
6.7096800303
 20
5.5511450057
 30
0.0
 10
6.7089179094
 20
5.5759445887
 30
0.0
 10
6.708220048
 20
5.5921365802
 30
0.0
 10
6.707823281
 20
5.6000215517
 30
0.0
  0
SPLINE
  5
43B
100
AcDbEntity
  8
0
100
AcDbSpline
 62
7
  6
CONTINUOUS
 70
0
 71
3
 72
20
 73
16
 74
0
 42
0.0000001
 43
0.0000001
 44
0.0000000001
 40
0.0
 40
0.0
 40
0.0
 40
0.0
 40
0.0303539297
 40
0.0620799072
 40
0.0963823755
 40
0.1342188607
 40
0.1763048768
 40
0.223160082
 40
0.2751528286
 40
0.3325402377
 40
0.3955061499
 40
0.4641832722
 40
0.6190092254
 40
0.7975417307
 40
1.0
 40
1.0
 40
1.0
 40
1.0
 10
6.5499091928
 20
5.2255218879
 30
0.0
 10
6.5500560444
 20
5.2255219286
 30
0.0
 10
6.5503572976
 20
5.2255554528
 30
0.0
 10
6.5508024394
 20
5.2257037335
 30
0.0
 10
6.551244248
 20
5.2259481046
 30
0.0
 10
6.5516829541
 20
5.2262869427
 30
0.0
 10
6.5521194567
 20
5.2267195916
 30
0.0
 10
6.5525542843
 20
5.2272459423
 30
0.0
 10
6.5529877592
 20
5.2278659572
 30
0.0
 10
6.5534200134
 20
5.2285795386
 30
0.0
 10
6.5538510533
 20
5.2293865342
 30
0.0
 10
6.5544480761
 20
5.2306377033
 30
0.0
 10
6.5551814446
 20
5.2324409386
 30
0.0
 10
6.5560238081
 20
5.2348934251
 30
0.0
 10
6.5565473649
 20
5.2366612986
 30
0.0
 10
6.5568105017
 20
5.2376047798
 30
0.0
  0
SPLINE
  5
43C
100
AcDbEntity
  8
0
100
AcDbSpline
 62
7
  6
CONTINUOUS
 70
0
 71
3
 72
20
 73
16
 74
0
 42
0.0000001
 43
0.0000001
 44
0.0000000001
 40
0.0
 40
0.0
 40
0.0
 40
0.0
 40
0.0306195461
 40
0.0625888724
 40
0.0971030822
 40
0.1351164467
 40
0.1773373152
 40
0.2242767895
 40
0.2763011559
 40
0.3336740291
 40
0.3965869495
 40
0.4651806045
 40
0.6197782645
 40
0.7979943404
 40
1.0
 40
1.0
 40
1.0
 40
1.0
 10
6.5499091928
 20
5.7565212156
 30
0.0
 10
6.5500541879
 20
5.7565212558
 30
0.0
 10
6.5503514712
 20
5.7564887705
 30
0.0
 10
6.5507909947
 20
5.7563444027
 30
0.0
 10
6.5512273234
 20
5.7561060885
 30
0.0
 10
6.5516605961
 20
5.755775405
 30
0.0
 10
6.5520917174
 20
5.7553531948
 30
0.0
 10
6.5525212406
 20
5.7548397177
 30
0.0
 10
6.5529494784
 20
5.7542350436
 30
0.0
 10
6.5533765215
 20
5.7535392004
 30
0.0
 10
6.553802383
 20
5.7527522558
 30
0.0
 10
6.5543922142
 20
5.7515321565
 30
0.0
 10
6.5551168148
 20
5.7497731216
 30
0.0
 10
6.5559492302
 20
5.7473803676
 30
0.0
 10
6.5564669888
 20
5.7456553609
 30
0.0
 10
6.5567271965
 20
5.744734859
 30
0.0
  0
SPLINE
  5
43D
100
AcDbEntity
  8
0
100
AcDbSpline
 62
7
  6
CONTINUOUS
 70
0
 71
3
 72
14
 73
10
 74
0
 42
0.0000001
 43
0.0000001
 44
0.0000000001
 40
0.0
 40
0.0
 40
0.0
 40
0.0
 40
0.2479351585
 40
0.3719121949
 40
0.496118663
 40
0.6207839608
 40
0.7461604521
 40
0.8724959293
 40
1.0
 40
1.0
 40
1.0
 40
1.0
 10
6.572475641
 20
5.6171725855
 30
0.0
 10
6.5732841623
 20
5.6241443166
 30
0.0
 10
6.5741546282
 20
5.6346493447
 30
0.0
 10
6.5744364335
 20
5.6486941348
 30
0.0
 10
6.5741650569
 20
5.6592492505
 30
0.0
 10
6.5733756172
 20
5.6698182292
 30
0.0
 10
6.5720459808
 20
5.6803939853
 30
0.0
 10
6.5701679129
 20
5.6909674978
 30
0.0
 10
6.5685661315
 20
5.6979755458
 30
0.0
 10
6.5676815092
 20
5.701474798
 30
0.0
  0
SPLINE
  5
43E
100
AcDbEntity
  8
0
100
AcDbSpline
 62
7
  6
CONTINUOUS
 70
0
 71
3
 72
19
 73
15
 74
0
 42
0.0000001
 43
0.0000001
 44
0.0000000001
 40
0.0
 40
0.0
 40
0.0
 40
0.0
 40
0.1270349194
 40
0.2520648816
 40
0.3754469131
 40
0.4367394286
 40
0.497903489
 40
0.5590728294
 40
0.620398445
 40
0.6820371579
 40
0.7441471659
 40
0.8068792115
 40
0.8703667006
 40
1.0
 40
1.0
 40
1.0
 40
1.0
 10
6.6906834231
 20
5.6171725855
 30
0.0
 10
6.6921912277
 20
5.6207270929
 30
0.0
 10
6.6949668746
 20
5.6278753202
 30
0.0
 10
6.6982937478
 20
5.6388031631
 30
0.0
 10
6.7002290787
 20
5.6480315864
 30
0.0
 10
6.7011993879
 20
5.6554433506
 30
0.0
 10
6.7016254177
 20
5.6610110638
 30
0.0
 10
6.7017402839
 20
5.6665949891
 30
0.0
 10
6.7015322024
 20
5.6721908115
 30
0.0
 10
6.7009968874
 20
5.6777936155
 30
0.0
 10
6.7001301965
 20
5.6833979889
 30
0.0
 10
6.6989336669
 20
5.6889988491
 30
0.0
 10
6.6968923668
 20
5.6965055203
 30
0.0
 10
6.6949022031
 20
5.7020411487
 30
0.0
 10
6.6934019589
 20
5.7056844109
 30
0.0
  0
LINE
  5
43F
100
AcDbEntity
  8
0
100
AcDbLine
 62
7
  6
CONTINUOUS
 10
6.6934019589
 20
5.7056844109
 11
6.6932589039
 21
5.7060303954
  0
SPLINE
  5
440
100
AcDbEntity
  8
0
100
AcDbSpline
 62
7
  6
CONTINUOUS
 70
0
 71
3
 72
9
 73
5
 74
0
 42
0.0000001
 43
0.0000001
 44
0.0000000001
 40
0.0
 40
0.0
 40
0.0
 40
0.0
 40
0.2455499381
 40
1.0
 40
1.0
 40
1.0
 40
1.0
 10
6.6932589039
 20
5.7060303954
 30
0.0
 10
6.6926672522
 20
5.7074555215
 30
0.0
 10
6.6901548068
 20
5.7132164716
 30
0.0
 10
6.6872580732
 20
5.7188064371
 30
0.0
 10
6.6849117764
 20
5.7229261891
 30
0.0
  0
SPLINE
  5
441
100
AcDbEntity
  8
0
100
AcDbSpline
 62
7
  6
CONTINUOUS
 70
0
 71
3
 72
9
 73
5
 74
0
 42
0.0000001
 43
0.0000001
 44
0.0000000001
 40
0.0
 40
0.0
 40
0.0
 40
0.0
 40
0.2545918402
 40
1.0
 40
1.0
 40
1.0
 40
1.0
 10
6.6849117764
 20
5.2591169144
 30
0.0
 10
6.6857035195
 20
5.2605070988
 30
0.0
 10
6.6887399021
 20
5.2660086058
 30
0.0
 10
6.6914628977
 20
5.2716866236
 30
0.0
 10
6.6932589039
 20
5.2760127081
 30
0.0
  0
LINE
  5
442
100
AcDbEntity
  8
0
100
AcDbLine
 62
7
  6
CONTINUOUS
 10
6.6932589039
 20
5.2760127081
 11
6.6934019589
 21
5.2763586926
  0
SPLINE
  5
443
100
AcDbEntity
  8
0
100
AcDbSpline
 62
7
  6
CONTINUOUS
 70
0
 71
3
 72
19
 73
15
 74
0
 42
0.0000001
 43
0.0000001
 44
0.0000000001
 40
0.0
 40
0.0
 40
0.0
 40
0.0
 40
0.1296332994
 40
0.1931207885
 40
0.2558528341
 40
0.3179628421
 40
0.379601555
 40
0.4409271706
 40
0.502096511
 40
0.5632605714
 40
0.6245530869
 40
0.7479351184
 40
0.8729650806
 40
1.0
 40
1.0
 40
1.0
 40
1.0
 10
6.6934019589
 20
5.2763586926
 30
0.0
 10
6.6949022031
 20
5.2800019548
 30
0.0
 10
6.6968923668
 20
5.2855375832
 30
0.0
 10
6.6989336669
 20
5.2930442543
 30
0.0
 10
6.7001301965
 20
5.2986451146
 30
0.0
 10
6.7009968874
 20
5.3042494879
 30
0.0
 10
6.7015322024
 20
5.309852292
 30
0.0
 10
6.7017402839
 20
5.3154481144
 30
0.0
 10
6.7016254177
 20
5.3210320397
 30
0.0
 10
6.7011993879
 20
5.3265997528
 30
0.0
 10
6.7002290787
 20
5.334011517
 30
0.0
 10
6.6982937478
 20
5.3432399403
 30
0.0
 10
6.6949668746
 20
5.3541677832
 30
0.0
 10
6.6921912277
 20
5.3613160106
 30
0.0
 10
6.6906834231
 20
5.3648705179
 30
0.0
  0
SPLINE
  5
444
100
AcDbEntity
  8
0
100
AcDbSpline
 62
7
  6
CONTINUOUS
 70
0
 71
3
 72
15
 73
11
 74
0
 42
0.0000001
 43
0.0000001
 44
0.0000000001
 40
0.0
 40
0.0
 40
0.0
 40
0.0
 40
0.1249964674
 40
0.2499956899
 40
0.3749971618
 40
0.4999999975
 40
0.6250028277
 40
0.7500042899
 40
0.8750035088
 40
1.0
 40
1.0
 40
1.0
 40
1.0
 10
6.572475641
 20
5.3648705179
 30
0.0
 10
6.5738708645
 20
5.3753243886
 30
0.0
 10
6.5764061691
 20
5.3962677745
 30
0.0
 10
6.5792849756
 20
5.4277820837
 30
0.0
 10
6.5810883056
 20
5.4593784672
 30
0.0
 10
6.5817034665
 20
5.4910215506
 30
0.0
 10
6.5810883059
 20
5.5226646332
 30
0.0
 10
6.5792849762
 20
5.5542610152
 30
0.0
 10
6.5764061703
 20
5.5857753254
 30
0.0
 10
6.5738708648
 20
5.6067187128
 30
0.0
 10
6.572475641
 20
5.6171725855
 30
0.0
  0
SPLINE
  5
445
100
AcDbEntity
  8
0
100
AcDbSpline
 62
7
  6
CONTINUOUS
 70
0
 71
3
 72
21
 73
17
 74
0
 42
0.0000001
 43
0.0000001
 44
0.0000000001
 40
0.0
 40
0.0
 40
0.0
 40
0.0
 40
0.1249717227
 40
0.187468436
 40
0.2499692878
 40
0.3124732585
 40
0.374980562
 40
0.437489661
 40
0.5
 40
0.562510339
 40
0.625019438
 40
0.6875267415
 40
0.7500307122
 40
0.812531564
 40
0.8750282773
 40
1.0
 40
1.0
 40
1.0
 40
1.0
 10
6.6906834231
 20
5.3648705179
 30
0.0
 10
6.6936321288
 20
5.3751241523
 30
0.0
 10
6.6976839632
 20
5.3906183629
 30
0.0
 10
6.7021485654
 20
5.4114896465
 30
0.0
 10
6.7049783008
 20
5.4272484704
 30
0.0
 10
6.7072411323
 20
5.4430998891
 30
0.0
 10
6.7088930606
 20
5.4590278118
 30
0.0
 10
6.7098990108
 20
5.4750104213
 30
0.0
 10
6.7102376854
 20
5.4910215517
 30
0.0
 10
6.7098990108
 20
5.5070326821
 30
0.0
 10
6.7088930606
 20
5.5230152917
 30
0.0
 10
6.7072411323
 20
5.5389432144
 30
0.0
 10
6.7049783008
 20
5.554794633
 30
0.0
 10
6.7021485654
 20
5.570553457
 30
0.0
 10
6.6976839632
 20
5.5914247406
 30
0.0
 10
6.6936321288
 20
5.6069189512
 30
0.0
 10
6.6906834231
 20
5.6171725855
 30
0.0
  0
SPLINE
  5
446
100
AcDbEntity
  8
0
100
AcDbSpline
 62
7
  6
CONTINUOUS
 70
0
 71
3
 72
14
 73
10
 74
0
 42
0.0000001
 43
0.0000001
 44
0.0000000001
 40
0.0
 40
0.0
 40
0.0
 40
0.0
 40
0.1275040531
 40
0.2538395195
 40
0.3792160086
 40
0.503881325
 40
0.6280878186
 40
0.7520648696
 40
1.0
 40
1.0
 40
1.0
 40
1.0
 10
6.5676815988
 20
5.2805686644
 30
0.0
 10
6.5685662113
 20
5.2840679024
 30
0.0
 10
6.5701679782
 20
5.2910759207
 30
0.0
 10
6.5720460213
 20
5.3016493894
 30
0.0
 10
6.573375636
 20
5.3122251014
 30
0.0
 10
6.5741650677
 20
5.3227940355
 30
0.0
 10
6.5744364316
 20
5.3333491072
 30
0.0
 10
6.5741546233
 20
5.3473938363
 30
0.0
 10
6.5732841587
 20
5.357898818
 30
0.0
 10
6.572475641
 20
5.3648705179
 30
0.0
  0
SPLINE
  5
447
100
AcDbEntity
  8
0
100
AcDbSpline
 62
7
  6
CONTINUOUS
 70
0
 71
3
 72
19
 73
15
 74
0
 42
0.0000001
 43
0.0000001
 44
0.0000000001
 40
0.0
 40
0.0
 40
0.0
 40
0.0
 40
0.0355737342
 40
0.0751556913
 40
0.1186962358
 40
0.1661217454
 40
0.2173507477
 40
0.272298069
 40
0.3308618399
 40
0.392925799
 40
0.5270782688
 40
0.6737536961
 40
0.8318587087
 40
1.0
 40
1.0
 40
1.0
 40
1.0
 10
6.5574646222
 20
5.2400732206
 30
0.0
 10
6.5578097817
 20
5.2414413112
 30
0.0
 10
6.5584873186
 20
5.2443447613
 30
0.0
 10
6.5594333706
 20
5.2489569873
 30
0.0
 10
6.5603612752
 20
5.2540514584
 30
0.0
 10
6.5612692572
 20
5.259618034
 30
0.0
 10
6.5621553387
 20
5.2656457756
 30
0.0
 10
6.5630174373
 20
5.2721229098
 30
0.0
 10
6.5638538277
 20
5.2790364746
 30
0.0
 10
6.5649614682
 20
5.2890810796
 30
0.0
 10
6.5662565251
 20
5.3026201405
 30
0.0
 10
6.5676469583
 20
5.3199744517
 30
0.0
 10
6.5688984964
 20
5.3386905928
 30
0.0
 10
6.5696137355
 20
5.3516109978
 30
0.0
 10
6.5699488905
 20
5.3582715517
 30
0.0
  0
SPLINE
  5
448
100
AcDbEntity
  8
0
100
AcDbSpline
 62
7
  6
CONTINUOUS
 70
0
 71
3
 72
28
 73
24
 74
0
 42
0.0000001
 43
0.0000001
 44
0.0000000001
 40
0.0
 40
0.0
 40
0.0
 40
0.0
 40
0.0137461651
 40
0.0293728579
 40
0.0468430249
 40
0.0661149205
 40
0.0871368258
 40
0.1098483684
 40
0.1341871099
 40
0.1600818026
 40
0.1874555802
 40
0.2162299554
 40
0.2776307831
 40
0.3435554125
 40
0.4132147838
 40
0.4857746173
 40
0.560364735
 40
0.6360880174
 40
0.7120360517
 40
0.7872944989
 40
0.8609539326
 40
0.9321546535
 40
1.0
 40
1.0
 40
1.0
 40
1.0
 10
6.5574646291
 20
5.7419701121
 30
0.0
 10
6.5578957639
 20
5.7402614669
 30
0.0
 10
6.5587359039
 20
5.7365898617
 30
0.0
 10
6.559890894
 20
5.7306962385
 30
0.0
 10
6.561017984
 20
5.7240774804
 30
0.0
 10
6.5621128853
 20
5.7167533694
 30
0.0
 10
6.56317202
 20
5.7087457708
 30
0.0
 10
6.5641921717
 20
5.7000787858
 30
0.0
 10
6.5651697055
 20
5.6907785758
 30
0.0
 10
6.5661016915
 20
5.6808732409
 30
0.0
 10
6.5669853632
 20
5.6703927381
 30
0.0
 10
6.5681196382
 20
5.6553660553
 30
0.0
 10
6.5693839342
 20
5.6353938997
 30
0.0
 10
6.5706397813
 20
5.6101719098
 30
0.0
 10
6.5716491263
 20
5.5835072828
 30
0.0
 10
6.5723992719
 20
5.5557228837
 30
0.0
 10
6.572880582
 20
5.5271550815
 30
0.0
 10
6.5730871144
 20
5.4981496296
 30
0.0
 10
6.5730163013
 20
5.4690578537
 30
0.0
 10
6.5726689666
 20
5.4402326532
 30
0.0
 10
6.5720495632
 20
5.4120206997
 30
0.0
 10
6.5711655512
 20
5.3847666082
 30
0.0
 10
6.5703859894
 20
5.3669580424
 30
0.0
 10
6.5699488905
 20
5.3582715517
 30
0.0
  0
SPLINE
  5
449
100
AcDbEntity
  8
0
100
AcDbSpline
 62
7
  6
CONTINUOUS
 70
0
 71
3
 72
24
 73
20
 74
0
 42
0.0000001
 43
0.0000001
 44
0.0000000001
 40
0.0
 40
0.0
 40
0.0
 40
0.0
 40
0.1896343974
 40
0.3644447204
 40
0.4455741134
 40
0.5222000015
 40
0.5940971715
 40
0.66104959
 40
0.7228514353
 40
0.7793325712
 40
0.8303368208
 40
0.8757318716
 40
0.9154245779
 40
0.933111074
 40
0.9493508949
 40
0.964147474
 40
0.9775092581
 40
0.9894515174
 40
1.0
 40
1.0
 40
1.0
 40
1.0
 10
-14.9564572754
 20
5.6000215517
 30
0.0
 10
-14.9561150578
 20
5.6068224623
 30
0.0
 10
-14.9553760533
 20
5.6198887435
 30
0.0
 10
-14.9542368354
 20
5.635848882
 30
0.0
 10
-14.9532236259
 20
5.6477479703
 30
0.0
 10
-14.9524418104
 20
5.6559574923
 30
0.0
 10
-14.9516217039
 20
5.6636515257
 30
0.0
 10
-14.9507661083
 20
5.6708058966
 30
0.0
 10
-14.9498775722
 20
5.6773981304
 30
0.0
 10
-14.9489593843
 20
5.6834076318
 30
0.0
 10
-14.9480147603
 20
5.6888160227
 30
0.0
 10
-14.947046697
 20
5.693606696
 30
0.0
 10
-14.9461945478
 20
5.6971985863
 30
0.0
 10
-14.945494115
 20
5.6997479322
 30
0.0
 10
-14.9449851118
 20
5.7014220924
 30
0.0
 10
-14.9444725827
 20
5.7029320769
 30
0.0
 10
-14.943956926
 20
5.7042770399
 30
0.0
 10
-14.9434386277
 20
5.7054560975
 30
0.0
 10
-14.9430690291
 20
5.7061750793
 30
0.0
 10
-14.9428818209
 20
5.7065043644
 30
0.0
  0
SPLINE
  5
44A
100
AcDbEntity
  8
0
100
AcDbSpline
 62
7
  6
CONTINUOUS
 70
0
 71
3
 72
9
 73
5
 74
0
 42
0.0000001
 43
0.0000001
 44
0.0000000001
 40
0.0
 40
0.0
 40
0.0
 40
0.0
 40
0.5066196467
 40
1.0
 40
1.0
 40
1.0
 40
1.0
 10
-14.9202738878
 20
5.2387194841
 30
0.0
 10
-14.9226893955
 20
5.242046119
 30
0.0
 10
-14.927312144
 20
5.2487196477
 30
0.0
 10
-14.9315643917
 20
5.2556379041
 30
0.0
 10
-14.9335457708
 20
5.2591169144
 30
0.0
  0
SPLINE
  5
44B
100
AcDbEntity
  8
0
100
AcDbSpline
 62
7
  6
CONTINUOUS
 70
0
 71
3
 72
21
 73
17
 74
0
 42
0.0000001
 43
0.0000001
 44
0.0000000001
 40
0.0
 40
0.0
 40
0.0
 40
0.0
 40
0.0601750489
 40
0.1227587303
 40
0.1872777212
 40
0.2533023347
 40
0.388109928
 40
0.5235320356
 40
0.5903279068
 40
0.6559081831
 40
0.7198294713
 40
0.7816589459
 40
0.8409803401
 40
0.8973924084
 40
0.9505182427
 40
1.0
 40
1.0
 40
1.0
 40
1.0
 10
-14.7486176487
 20
5.6237715517
 30
0.0
 10
-14.7482918379
 20
5.6172966974
 30
0.0
 10
-14.7476917557
 20
5.6040845071
 30
0.0
 10
-14.7469522223
 20
5.5839212056
 30
0.0
 10
-14.7463598418
 20
5.5631225597
 30
0.0
 10
-14.7457674423
 20
5.5345404657
 30
0.0
 10
-14.7454225938
 20
5.4983138962
 30
0.0
 10
-14.7455939787
 20
5.4620030297
 30
0.0
 10
-14.7460469272
 20
5.4331547244
 30
0.0
 10
-14.7465384263
 20
5.4120118308
 30
0.0
 10
-14.7471796481
 20
5.3914082561
 30
0.0
 10
-14.7479662282
 20
5.37148451
 30
0.0
 10
-14.7488924776
 20
5.3523766682
 30
0.0
 10
-14.7499521025
 20
5.3342149172
 30
0.0
 10
-14.751137288
 20
5.3171233923
 30
0.0
 10
-14.7520396003
 20
5.3061052927
 30
0.0
 10
-14.7525149123
 20
5.3007955354
 30
0.0
  0
SPLINE
  5
44C
100
AcDbEntity
  8
0
100
AcDbSpline
 62
7
  6
CONTINUOUS
 70
0
 71
3
 72
28
 73
24
 74
0
 42
0.0000001
 43
0.0000001
 44
0.0000000001
 40
0.0
 40
0.0
 40
0.0
 40
0.0
 40
0.217267607
 40
0.3169170983
 40
0.410285591
 40
0.4971713014
 40
0.577381474
 40
0.6507614265
 40
0.7171766571
 40
0.7765059599
 40
0.8286748965
 40
0.8520672724
 40
0.8736647499
 40
0.8934728859
 40
0.911503515
 40
0.9277807788
 40
0.9423433534
 40
0.9552481709
 40
0.9665803587
 40
0.9764694115
 40
0.9851141585
 40
0.9928159551
 40
1.0
 40
1.0
 40
1.0
 40
1.0
 10
-14.7525149123
 20
5.3007955354
 30
0.0
 10
-14.7530214298
 20
5.2951371792
 30
0.0
 10
-14.7538260003
 20
5.2868890887
 30
0.0
 10
-14.7550406251
 20
5.2762299836
 30
0.0
 10
-14.7559562519
 20
5.2689685265
 30
0.0
 10
-14.7569006135
 20
5.2622236085
 30
0.0
 10
-14.7578716839
 20
5.2560109111
 30
0.0
 10
-14.7588668344
 20
5.2503446761
 30
0.0
 10
-14.7598832421
 20
5.2452376867
 30
0.0
 10
-14.7609186037
 20
5.2407017073
 30
0.0
 10
-14.7618244686
 20
5.237291805
 30
0.0
 10
-14.7625653359
 20
5.2348615134
 30
0.0
 10
-14.7631039037
 20
5.2332548261
 30
0.0
 10
-14.7636454053
 20
5.2317977707
 30
0.0
 10
-14.7641896167
 20
5.2304911543
 30
0.0
 10
-14.7647362091
 20
5.2293354865
 30
0.0
 10
-14.765284905
 20
5.2283309695
 30
0.0
 10
-14.7658356224
 20
5.2274775991
 30
0.0
 10
-14.7663886695
 20
5.2267752051
 30
0.0
 10
-14.7669450203
 20
5.2262236242
 30
0.0
 10
-14.7675071215
 20
5.225823471
 30
0.0
 10
-14.7680774054
 20
5.2255781781
 30
0.0
 10
-14.7684683928
 20
5.225521939
 30
0.0
 10
-14.7686562368
 20
5.2255218878
 30
0.0
  0
SPLINE
  5
44D
100
AcDbEntity
  8
0
100
AcDbSpline
 62
7
  6
CONTINUOUS
 70
0
 71
3
 72
34
 73
30
 74
0
 42
0.0000001
 43
0.0000001
 44
0.0000000001
 40
0.0
 40
0.0
 40
0.0
 40
0.0
 40
0.1085545202
 40
0.2125894357
 40
0.3115796097
 40
0.4050891343
 40
0.4927514538
 40
0.5742135912
 40
0.6491470047
 40
0.7172374139
 40
0.7782272332
 40
0.8059894605
 40
0.8318945715
 40
0.8559241992
 40
0.8780645524
 40
0.8983045768
 40
0.9166371395
 40
0.933062576
 40
0.9475965342
 40
0.9602700092
 40
0.9711369279
 40
0.9759224551
 40
0.9802971352
 40
0.9842852359
 40
0.987919658
 40
0.9912439718
 40
0.9943150872
 40
0.9972050318
 40
1.0
 40
1.0
 40
1.0
 40
1.0
 10
-14.7486176487
 20
5.6237715517
 30
0.0
 10
-14.7488650701
 20
5.6286885723
 30
0.0
 10
-14.7493854545
 20
5.638316142
 30
0.0
 10
-14.7502633775
 20
5.652419989
 30
0.0
 10
-14.7512194529
 20
5.6658348128
 30
0.0
 10
-14.7522492741
 20
5.6784993531
 30
0.0
 10
-14.7533480333
 20
5.6903600182
 30
0.0
 10
-14.7545112163
 20
5.7013677657
 30
0.0
 10
-14.7557329426
 20
5.7114757148
 30
0.0
 10
-14.7570082563
 20
5.720640525
 30
0.0
 10
-14.7581427435
 20
5.7276635539
 30
0.0
 10
-14.759082441
 20
5.7327781418
 30
0.0
 10
-14.7597749841
 20
5.7362333648
 30
0.0
 10
-14.7604766782
 20
5.7394261834
 30
0.0
 10
-14.7611866795
 20
5.742353459
 30
0.0
 10
-14.7619041209
 20
5.7450122139
 30
0.0
 10
-14.7626281291
 20
5.7473996445
 30
0.0
 10
-14.7633579758
 20
5.7495133519
 30
0.0
 10
-14.7640926479
 20
5.751351878
 30
0.0
 10
-14.7648313233
 20
5.7529140185
 30
0.0
 10
-14.7654743908
 20
5.7540288922
 30
0.0
 10
-14.765996749
 20
5.7547726504
 30
0.0
 10
-14.7663727157
 20
5.7552362367
 30
0.0
 10
-14.7667497054
 20
5.7556296008
 30
0.0
 10
-14.7671279537
 20
5.7559526938
 30
0.0
 10
-14.7675077785
 20
5.7562053262
 30
0.0
 10
-14.7678895863
 20
5.7563869671
 30
0.0
 10
-14.7682732538
 20
5.7564966666
 30
0.0
 10
-14.7685316965
 20
5.7565212501
 30
0.0
 10
-14.7686584558
 20
5.7565212156
 30
0.0
  0
SPLINE
  5
44E
100
AcDbEntity
  8
0
100
AcDbSpline
 62
7
  6
CONTINUOUS
 70
0
 71
3
 72
9
 73
5
 74
0
 42
0.0000001
 43
0.0000001
 44
0.0000000001
 40
0.0
 40
0.0
 40
0.0
 40
0.0
 40
0.4933803533
 40
1.0
 40
1.0
 40
1.0
 40
1.0
 10
-14.9335457708
 20
5.7229261891
 30
0.0
 10
-14.9315643917
 20
5.7264051994
 30
0.0
 10
-14.927312144
 20
5.7333234558
 30
0.0
 10
-14.9226893955
 20
5.7399969844
 30
0.0
 10
-14.9202738878
 20
5.7433236194
 30
0.0
  0
SPLINE
  5
44F
100
AcDbEntity
  8
0
100
AcDbSpline
 62
7
  6
CONTINUOUS
 70
0
 71
3
 72
34
 73
30
 74
0
 42
0.0000001
 43
0.0000001
 44
0.0000000001
 40
0.0
 40
0.0
 40
0.0
 40
0.0
 40
0.0038051163
 40
0.0081537357
 40
0.013056082
 40
0.018517904
 40
0.0245421187
 40
0.0311291301
 40
0.0382763947
 40
0.0459801829
 40
0.0630387803
 40
0.082260728
 40
0.1035834666
 40
0.1269383747
 40
0.152244673
 40
0.1794132729
 40
0.2083496507
 40
0.2389483002
 40
0.2711008973
 40
0.30469049
 40
0.3756887778
 40
0.4509124129
 40
0.52926603
 40
0.6096066322
 40
0.6907607277
 40
0.7715445825
 40
0.8507722359
 40
0.9273039715
 40
1.0
 40
1.0
 40
1.0
 40
1.0
 10
-14.9428818209
 20
5.2755387392
 30
0.0
 10
-14.9430860613
 20
5.2758979834
 30
0.0
 10
-14.9434884641
 20
5.2766879258
 30
0.0
 10
-14.944049866
 20
5.2779906638
 30
0.0
 10
-14.9446081535
 20
5.2794883937
 30
0.0
 10
-14.9451627067
 20
5.2811799996
 30
0.0
 10
-14.9457129263
 20
5.2830643766
 30
0.0
 10
-14.9462581748
 20
5.2851399891
 30
0.0
 10
-14.9467980188
 20
5.2874049384
 30
0.0
 10
-14.9475351075
 20
5.2907912867
 30
0.0
 10
-14.948428975
 20
5.2954845326
 30
0.0
 10
-14.9494395764
 20
5.3016587143
 30
0.0
 10
-14.9504173447
 20
5.3085295549
 30
0.0
 10
-14.9513580234
 20
5.3160718402
 30
0.0
 10
-14.95225801
 20
5.3242580496
 30
0.0
 10
-14.9531138309
 20
5.3330581773
 30
0.0
 10
-14.9539219553
 20
5.3424398079
 30
0.0
 10
-14.9546795981
 20
5.3523685606
 30
0.0
 10
-14.9553836238
 20
5.3628077996
 30
0.0
 10
-14.9562637511
 20
5.3776321425
 30
0.0
 10
-14.9572016223
 20
5.3971382275
 30
0.0
 10
-14.9580598601
 20
5.4215130914
 30
0.0
 10
-14.958656979
 20
5.4469106111
 30
0.0
 10
-14.9589838666
 20
5.4729571091
 30
0.0
 10
-14.9590354858
 20
5.4992695272
 30
0.0
 10
-14.9588109836
 20
5.5254601657
 30
0.0
 10
-14.9583140247
 20
5.5511450057
 30
0.0
 10
-14.9575519038
 20
5.5759445887
 30
0.0
 10
-14.9568540424
 20
5.5921365802
 30
0.0
 10
-14.9564572754
 20
5.6000215517
 30
0.0
  0
SPLINE
  5
450
100
AcDbEntity
  8
0
100
AcDbSpline
 62
7
  6
CONTINUOUS
 70
0
 71
3
 72
20
 73
16
 74
0
 42
0.0000001
 43
0.0000001
 44
0.0000000001
 40
0.0
 40
0.0
 40
0.0
 40
0.0
 40
0.0303539297
 40
0.0620799072
 40
0.0963823755
 40
0.1342188607
 40
0.1763048768
 40
0.223160082
 40
0.2751528286
 40
0.3325402377
 40
0.3955061499
 40
0.4641832722
 40
0.6190092254
 40
0.7975417307
 40
1.0
 40
1.0
 40
1.0
 40
1.0
 10
-14.7985431873
 20
5.2255218879
 30
0.0
 10
-14.7986900389
 20
5.2255219286
 30
0.0
 10
-14.798991292
 20
5.2255554528
 30
0.0
 10
-14.7994364338
 20
5.2257037335
 30
0.0
 10
-14.7998782424
 20
5.2259481046
 30
0.0
 10
-14.8003169485
 20
5.2262869427
 30
0.0
 10
-14.8007534512
 20
5.2267195916
 30
0.0
 10
-14.8011882787
 20
5.2272459423
 30
0.0
 10
-14.8016217537
 20
5.2278659572
 30
0.0
 10
-14.8020540078
 20
5.2285795386
 30
0.0
 10
-14.8024850478
 20
5.2293865342
 30
0.0
 10
-14.8030820706
 20
5.2306377033
 30
0.0
 10
-14.803815439
 20
5.2324409386
 30
0.0
 10
-14.8046578026
 20
5.2348934251
 30
0.0
 10
-14.8051813593
 20
5.2366612986
 30
0.0
 10
-14.8054444961
 20
5.2376047798
 30
0.0
  0
SPLINE
  5
451
100
AcDbEntity
  8
0
100
AcDbSpline
 62
7
  6
CONTINUOUS
 70
0
 71
3
 72
20
 73
16
 74
0
 42
0.0000001
 43
0.0000001
 44
0.0000000001
 40
0.0
 40
0.0
 40
0.0
 40
0.0
 40
0.0306195461
 40
0.0625888724
 40
0.0971030822
 40
0.1351164467
 40
0.1773373152
 40
0.2242767895
 40
0.2763011559
 40
0.3336740291
 40
0.3965869495
 40
0.4651806045
 40
0.6197782645
 40
0.7979943404
 40
1.0
 40
1.0
 40
1.0
 40
1.0
 10
-14.7985431873
 20
5.7565212156
 30
0.0
 10
-14.7986881824
 20
5.7565212558
 30
0.0
 10
-14.7989854657
 20
5.7564887705
 30
0.0
 10
-14.7994249891
 20
5.7563444027
 30
0.0
 10
-14.7998613178
 20
5.7561060885
 30
0.0
 10
-14.8002945906
 20
5.755775405
 30
0.0
 10
-14.8007257119
 20
5.7553531948
 30
0.0
 10
-14.8011552351
 20
5.7548397177
 30
0.0
 10
-14.8015834729
 20
5.7542350436
 30
0.0
 10
-14.8020105159
 20
5.7535392004
 30
0.0
 10
-14.8024363774
 20
5.7527522558
 30
0.0
 10
-14.8030262087
 20
5.7515321565
 30
0.0
 10
-14.8037508093
 20
5.7497731216
 30
0.0
 10
-14.8045832247
 20
5.7473803676
 30
0.0
 10
-14.8051009833
 20
5.7456553609
 30
0.0
 10
-14.8053611909
 20
5.744734859
 30
0.0
  0
SPLINE
  5
452
100
AcDbEntity
  8
0
100
AcDbSpline
 62
7
  6
CONTINUOUS
 70
0
 71
3
 72
21
 73
17
 74
0
 42
0.0000001
 43
0.0000001
 44
0.0000000001
 40
0.0
 40
0.0
 40
0.0
 40
0.0
 40
0.1249717227
 40
0.187468436
 40
0.2499692878
 40
0.3124732585
 40
0.374980562
 40
0.437489661
 40
0.5
 40
0.562510339
 40
0.625019438
 40
0.6875267415
 40
0.7500307122
 40
0.812531564
 40
0.8750282773
 40
1.0
 40
1.0
 40
1.0
 40
1.0
 10
-14.901230358
 20
5.6171725855
 30
0.0
 10
-14.9041790637
 20
5.6069189512
 30
0.0
 10
-14.9082308981
 20
5.5914247406
 30
0.0
 10
-14.9126955003
 20
5.570553457
 30
0.0
 10
-14.9155252357
 20
5.554794633
 30
0.0
 10
-14.9177880672
 20
5.5389432144
 30
0.0
 10
-14.9194399954
 20
5.5230152917
 30
0.0
 10
-14.9204459457
 20
5.5070326821
 30
0.0
 10
-14.9207846203
 20
5.4910215517
 30
0.0
 10
-14.9204459457
 20
5.4750104213
 30
0.0
 10
-14.9194399954
 20
5.4590278118
 30
0.0
 10
-14.9177880672
 20
5.4430998891
 30
0.0
 10
-14.9155252357
 20
5.4272484704
 30
0.0
 10
-14.9126955003
 20
5.4114896465
 30
0.0
 10
-14.9082308981
 20
5.3906183629
 30
0.0
 10
-14.9041790637
 20
5.3751241523
 30
0.0
 10
-14.901230358
 20
5.3648705179
 30
0.0
  0
SPLINE
  5
453
100
AcDbEntity
  8
0
100
AcDbSpline
 62
7
  6
CONTINUOUS
 70
0
 71
3
 72
42
 73
38
 74
0
 42
0.0000001
 43
0.0000001
 44
0.0000000001
 40
0.0
 40
0.0
 40
0.0
 40
0.0
 40
0.077614825
 40
0.1595348133
 40
0.2443471298
 40
0.3306295274
 40
0.4169103591
 40
0.5017268
 40
0.5836388193
 40
0.6612581663
 40
0.6980451563
 40
0.7332733039
 40
0.7667963765
 40
0.7984715501
 40
0.828168723
 40
0.8557642405
 40
0.8811448331
 40
0.9042108068
 40
0.9248697731
 40
0.9342738814
 40
0.9430501459
 40
0.9511910719
 40
0.9586907798
 40
0.9655463895
 40
0.9717566068
 40
0.9773220716
 40
0.9822464339
 40
0.9865394395
 40
0.9902203496
 40
0.991841579
 40
0.9933239352
 40
0.9946755586
 40
0.995907346
 40
0.9970338548
 40
0.9980743177
 40
0.9990532643
 40
1.0
 40
1.0
 40
1.0
 40
1.0
 10
-14.7785034896
 20
5.6237715517
 30
0.0
 10
-14.7779812586
 20
5.6133932271
 30
0.0
 10
-14.7770737017
 20
5.5920523558
 30
0.0
 10
-14.7761151012
 20
5.5593512074
 30
0.0
 10
-14.7755331828
 20
5.5254805489
 30
0.0
 10
-14.7753379097
 20
5.4910216557
 30
0.0
 10
-14.7755331168
 20
5.4565622068
 30
0.0
 10
-14.7761151214
 20
5.4226922815
 30
0.0
 10
-14.7770736586
 20
5.3899910162
 30
0.0
 10
-14.7781904467
 20
5.3637297048
 30
0.0
 10
-14.7792712223
 20
5.3437248908
 30
0.0
 10
-14.7801493449
 20
5.3296220505
 30
0.0
 10
-14.781105152
 20
5.3162102864
 30
0.0
 10
-14.7821348972
 20
5.3035467822
 30
0.0
 10
-14.7832336609
 20
5.2916858243
 30
0.0
 10
-14.784396599
 20
5.2806780279
 30
0.0
 10
-14.7856185585
 20
5.2705702668
 30
0.0
 10
-14.7868935084
 20
5.2614057925
 30
0.0
 10
-14.7880280416
 20
5.2543828208
 30
0.0
 10
-14.7889677585
 20
5.2492682482
 30
0.0
 10
-14.7896601994
 20
5.2458127432
 30
0.0
 10
-14.7903617669
 20
5.2426196359
 30
0.0
 10
-14.7910717729
 20
5.2396923252
 30
0.0
 10
-14.7917892422
 20
5.2370336614
 30
0.0
 10
-14.792513282
 20
5.234646097
 30
0.0
 10
-14.7932429667
 20
5.2325319556
 30
0.0
 10
-14.7939775047
 20
5.2306930177
 30
0.0
 10
-14.7947162194
 20
5.2291307677
 30
0.0
 10
-14.7953593241
 20
5.2280159328
 30
0.0
 10
-14.7958816562
 20
5.2272720893
 30
0.0
 10
-14.7962576033
 20
5.2268082679
 30
0.0
 10
-14.7966345404
 20
5.2264145272
 30
0.0
 10
-14.7970127327
 20
5.2260910114
 30
0.0
 10
-14.797392519
 20
5.2258380219
 30
0.0
 10
-14.7977743276
 20
5.2256561936
 30
0.0
 10
-14.7981579958
 20
5.2255464334
 30
0.0
 10
-14.7984164336
 20
5.2255218527
 30
0.0
 10
-14.7985431873
 20
5.2255218879
 30
0.0
  0
SPLINE
  5
454
100
AcDbEntity
  8
0
100
AcDbSpline
 62
7
  6
CONTINUOUS
 70
0
 71
3
 72
34
 73
30
 74
0
 42
0.0000001
 43
0.0000001
 44
0.0000000001
 40
0.0
 40
0.0
 40
0.0
 40
0.0
 40
0.1085505324
 40
0.2125818615
 40
0.3115689151
 40
0.4050758281
 40
0.4927360904
 40
0.574196765
 40
0.6491293493
 40
0.7172195936
 40
0.7782099254
 40
0.80597267
 40
0.8318784732
 40
0.8559089633
 40
0.8780503486
 40
0.898291573
 40
0.9166254997
 40
0.9330524512
 40
0.9475880557
 40
0.960263284
 40
0.9711320199
 40
0.975918455
 40
0.9802940236
 40
0.9842829696
 40
0.9879181647
 40
0.9912431404
 40
0.9943147592
 40
0.9972049963
 40
1.0
 40
1.0
 40
1.0
 40
1.0
 10
-14.7785034896
 20
5.6237715517
 30
0.0
 10
-14.7787509
 20
5.6286883516
 30
0.0
 10
-14.7792712599
 20
5.6383155002
 30
0.0
 10
-14.7801491377
 20
5.6524187488
 30
0.0
 10
-14.781105161
 20
5.665833043
 30
0.0
 10
-14.7821349242
 20
5.6784971298
 30
0.0
 10
-14.7832336199
 20
5.6903574242
 30
0.0
 10
-14.7843967349
 20
5.7013648899
 30
0.0
 10
-14.7856183894
 20
5.7114726519
 30
0.0
 10
-14.7868936283
 20
5.7206373744
 30
0.0
 10
-14.7880280469
 20
5.7276603954
 30
0.0
 10
-14.7889676862
 20
5.7327750303
 30
0.0
 10
-14.7896601891
 20
5.7362303279
 30
0.0
 10
-14.7903618431
 20
5.7394232481
 30
0.0
 10
-14.7910718045
 20
5.7423506524
 30
0.0
 10
-14.7917892061
 20
5.7450095637
 30
0.0
 10
-14.7925131749
 20
5.7473971781
 30
0.0
 10
-14.7932429826
 20
5.7495110965
 30
0.0
 10
-14.7939776164
 20
5.7513498599
 30
0.0
 10
-14.7947162542
 20
5.7529122636
 30
0.0
 10
-14.7953592846
 20
5.754027379
 30
0.0
 10
-14.7958816116
 20
5.7547713497
 30
0.0
 10
-14.7962575586
 20
5.7552350994
 30
0.0
 10
-14.796634528
 20
5.7556286333
 30
0.0
 10
-14.7970127552
 20
5.7559519027
 30
0.0
 10
-14.7973925575
 20
5.7562047188
 30
0.0
 10
-14.7977743417
 20
5.7563865521
 30
0.0
 10
-14.7981579859
 20
5.7564964537
 30
0.0
 10
-14.7984164273
 20
5.7565211804
 30
0.0
 10
-14.7985431873
 20
5.7565212156
 30
0.0
  0
SPLINE
  5
455
100
AcDbEntity
  8
0
100
AcDbSpline
 62
7
  6
CONTINUOUS
 70
0
 71
3
 72
15
 73
11
 74
0
 42
0.0000001
 43
0.0000001
 44
0.0000000001
 40
0.0
 40
0.0
 40
0.0
 40
0.0
 40
0.1305892218
 40
0.2591248575
 40
0.3856048389
 40
0.5102478894
 40
0.6334863092
 40
0.755866504
 40
0.8779076124
 40
1.0
 40
1.0
 40
1.0
 40
1.0
 10
-14.7830225758
 20
5.3648705179
 30
0.0
 10
-14.7851904037
 20
5.3596829337
 30
0.0
 10
-14.7892771159
 20
5.3492970791
 30
0.0
 10
-14.7945418697
 20
5.3335429482
 30
0.0
 10
-14.7987422611
 20
5.3177332757
 30
0.0
 10
-14.8017590721
 20
5.301885317
 30
0.0
 10
-14.8035419362
 20
5.2860286396
 30
0.0
 10
-14.8041273664
 20
5.27019648
 30
0.0
 10
-14.8036268215
 20
5.2544142202
 30
0.0
 10
-14.8026716512
 20
5.2439409923
 30
0.0
 10
-14.8020661056
 20
5.2387194841
 30
0.0
  0
SPLINE
  5
456
100
AcDbEntity
  8
0
100
AcDbSpline
 62
7
  6
CONTINUOUS
 70
0
 71
3
 72
47
 73
43
 74
0
 42
0.0000001
 43
0.0000001
 44
0.0000000001
 40
0.0
 40
0.0
 40
0.0
 40
0.0
 40
0.0036573321
 40
0.0052444637
 40
0.0066822179
 40
0.0079838659
 40
0.0091673996
 40
0.0102568249
 40
0.0112829292
 40
0.0122825285
 40
0.0132954562
 40
0.0155015805
 40
0.0167615209
 40
0.0181521521
 40
0.019688175
 40
0.0213804127
 40
0.0252621174
 40
0.0298405932
 40
0.0351368323
 40
0.0411617986
 40
0.0479207436
 40
0.0554144832
 40
0.063639059
 40
0.0725885691
 40
0.0822560593
 40
0.0926334092
 40
0.1154715708
 40
0.1410041531
 40
0.1691169731
 40
0.1996771624
 40
0.2325420898
 40
0.2675523542
 40
0.3045414845
 40
0.3433285552
 40
0.3837270455
 40
0.4685613002
 40
0.5573927566
 40
0.6484879129
 40
0.7400687446
 40
0.8303443242
 40
0.9175572543
 40
1.0
 40
1.0
 40
1.0
 40
1.0
 10
-14.9428818209
 20
5.7065043644
 30
0.0
 10
-14.9426807075
 20
5.7068581075
 30
0.0
 10
-14.9423692725
 20
5.7073538985
 30
0.0
 10
-14.9419059563
 20
5.707936222
 30
0.0
 10
-14.9415739911
 20
5.7082858538
 30
0.0
 10
-14.9412407823
 20
5.7085693051
 30
0.0
 10
-14.9409058711
 20
5.7087862906
 30
0.0
 10
-14.9405688463
 20
5.7089360898
 30
0.0
 10
-14.9402297331
 20
5.7090174856
 30
0.0
 10
-14.9398894747
 20
5.7090291576
 30
0.0
 10
-14.9394238937
 20
5.7089494688
 30
0.0
 10
-14.9389684619
 20
5.7087215512
 30
0.0
 10
-14.9385429571
 20
5.7083879279
 30
0.0
 10
-14.9382103784
 20
5.7080602811
 30
0.0
 10
-14.9378791884
 20
5.7076666361
 30
0.0
 10
-14.9374173846
 20
5.7070235726
 30
0.0
 10
-14.9368501272
 20
5.7060439301
 30
0.0
 10
-14.9362006353
 20
5.704656735
 30
0.0
 10
-14.935554839
 20
5.7030087689
 30
0.0
 10
-14.9349135662
 20
5.7011014838
 30
0.0
 10
-14.9342778007
 20
5.6989363411
 30
0.0
 10
-14.9336485433
 20
5.6965156345
 30
0.0
 10
-14.9330265425
 20
5.6938422362
 30
0.0
 10
-14.932412682
 20
5.6909194042
 30
0.0
 10
-14.9318077772
 20
5.6877505422
 30
0.0
 10
-14.9309880335
 20
5.6830501441
 30
0.0
 10
-14.930002291
 20
5.676587807
 30
0.0
 10
-14.9289004106
 20
5.6681493716
 30
0.0
 10
-14.9278513941
 20
5.6588391218
 30
0.0
 10
-14.9268604034
 20
5.6487025941
 30
0.0
 10
-14.9259330459
 20
5.6377897132
 30
0.0
 10
-14.9250737212
 20
5.6261539474
 30
0.0
 10
-14.9242872282
 20
5.6138527424
 30
0.0
 10
-14.9235771583
 20
5.6009464615
 30
0.0
 10
-14.9227237264
 20
5.5827173551
 30
0.0
 10
-14.9218830365
 20
5.558914435
 30
0.0
 10
-14.9212379534
 20
5.5294633278
 30
0.0
 10
-14.9209546859
 20
5.4992558634
 30
0.0
 10
-14.921039071
 20
5.4688865471
 30
0.0
 10
-14.9214892797
 20
5.4389523762
 30
0.0
 10
-14.9222961074
 20
5.4100427928
 30
0.0
 10
-14.9230874164
 20
5.3911825718
 30
0.0
 10
-14.9235483934
 20
5.3820215517
 30
0.0
  0
SPLINE
  5
457
100
AcDbEntity
  8
0
100
AcDbSpline
 62
7
  6
CONTINUOUS
 70
0
 71
3
 72
25
 73
21
 74
0
 42
0.0000001
 43
0.0000001
 44
0.0000000001
 40
0.0
 40
0.0
 40
0.0
 40
0.0
 40
0.069872469
 40
0.1383857583
 40
0.2054633413
 40
0.2710670067
 40
0.3352068402
 40
0.3979571844
 40
0.4288597397
 40
0.4594761175
 40
0.5199616156
 40
0.5797011882
 40
0.6093944072
 40
0.6390173222
 40
0.698193401
 40
0.757519814
 40
0.817224503
 40
0.8774745938
 40
0.9383809441
 40
1.0
 40
1.0
 40
1.0
 40
1.0
 10
-14.901230358
 20
5.3648705179
 30
0.0
 10
-14.9030745132
 20
5.3623307491
 30
0.0
 10
-14.9066418601
 20
5.3572379119
 30
0.0
 10
-14.9116331054
 20
5.3494712895
 30
0.0
 10
-14.916166428
 20
5.3416485529
 30
0.0
 10
-14.920190941
 20
5.3337710928
 30
0.0
 10
-14.9236579636
 20
5.3258435627
 30
0.0
 10
-14.9260562327
 20
5.3191666055
 30
0.0
 10
-14.9276482516
 20
5.3138149644
 30
0.0
 10
-14.929007689
 20
5.3085045943
 30
0.0
 10
-14.9302993853
 20
5.3018450178
 30
0.0
 10
-14.9310300181
 20
5.2951420297
 30
0.0
 10
-14.9312766848
 20
5.2897983783
 30
0.0
 10
-14.9313015928
 20
5.2844744204
 30
0.0
 10
-14.9309262894
 20
5.27782347
 30
0.0
 10
-14.9298563071
 20
5.2698828862
 30
0.0
 10
-14.9282115881
 20
5.2619928472
 30
0.0
 10
-14.9260399422
 20
5.2541588587
 30
0.0
 10
-14.9233925323
 20
5.2463829849
 30
0.0
 10
-14.9213548037
 20
5.2412676414
 30
0.0
 10
-14.9202738878
 20
5.2387194841
 30
0.0
  0
SPLINE
  5
458
100
AcDbEntity
  8
0
100
AcDbSpline
 62
7
  6
CONTINUOUS
 70
0
 71
3
 72
15
 73
11
 74
0
 42
0.0000001
 43
0.0000001
 44
0.0000000001
 40
0.0
 40
0.0
 40
0.0
 40
0.0
 40
0.1220923863
 40
0.2441335045
 40
0.3665137054
 40
0.4897521289
 40
0.6143951879
 40
0.7408751845
 40
0.8694108149
 40
1.0
 40
1.0
 40
1.0
 40
1.0
 10
-14.8020661056
 20
5.7433236194
 30
0.0
 10
-14.8026716512
 20
5.7381021112
 30
0.0
 10
-14.8036268216
 20
5.7276288829
 30
0.0
 10
-14.8041273666
 20
5.7118466225
 30
0.0
 10
-14.8035419363
 20
5.6960144621
 30
0.0
 10
-14.8017590718
 20
5.6801577839
 30
0.0
 10
-14.7987422599
 20
5.6643098242
 30
0.0
 10
-14.794541868
 20
5.648500151
 30
0.0
 10
-14.7892771137
 20
5.6327460215
 30
0.0
 10
-14.7851904031
 20
5.6223601683
 30
0.0
 10
-14.7830225758
 20
5.6171725855
 30
0.0
  0
SPLINE
  5
459
100
AcDbEntity
  8
0
100
AcDbSpline
 62
7
  6
CONTINUOUS
 70
0
 71
3
 72
25
 73
21
 74
0
 42
0.0000001
 43
0.0000001
 44
0.0000000001
 40
0.0
 40
0.0
 40
0.0
 40
0.0
 40
0.0616190559
 40
0.1225254062
 40
0.182775497
 40
0.242480186
 40
0.301806599
 40
0.3609826778
 40
0.3906055928
 40
0.4202988118
 40
0.4800383844
 40
0.5405238825
 40
0.5711402603
 40
0.6020428156
 40
0.6647931598
 40
0.7289329933
 40
0.7945366587
 40
0.8616142417
 40
0.930127531
 40
1.0
 40
1.0
 40
1.0
 40
1.0
 10
-14.9202738878
 20
5.7433236194
 30
0.0
 10
-14.9213548037
 20
5.740775462
 30
0.0
 10
-14.9233925323
 20
5.7356601185
 30
0.0
 10
-14.9260399422
 20
5.7278842447
 30
0.0
 10
-14.9282115881
 20
5.7200502562
 30
0.0
 10
-14.9298563071
 20
5.7121602173
 30
0.0
 10
-14.9309262894
 20
5.7042196335
 30
0.0
 10
-14.9313015928
 20
5.697568683
 30
0.0
 10
-14.9312766848
 20
5.6922447252
 30
0.0
 10
-14.9310300181
 20
5.6869010738
 30
0.0
 10
-14.9302993853
 20
5.6801980857
 30
0.0
 10
-14.929007689
 20
5.6735385092
 30
0.0
 10
-14.9276482516
 20
5.668228139
 30
0.0
 10
-14.9260562327
 20
5.662876498
 30
0.0
 10
-14.9236579636
 20
5.6561995408
 30
0.0
 10
-14.920190941
 20
5.6482720106
 30
0.0
 10
-14.916166428
 20
5.6403945505
 30
0.0
 10
-14.9116331054
 20
5.632571814
 30
0.0
 10
-14.9066418601
 20
5.6248051916
 30
0.0
 10
-14.9030745132
 20
5.6197123543
 30
0.0
 10
-14.901230358
 20
5.6171725855
 30
0.0
  0
SPLINE
  5
45A
100
AcDbEntity
  8
0
100
AcDbSpline
 62
7
  6
CONTINUOUS
 70
0
 71
3
 72
41
 73
37
 74
0
 42
0.0000001
 43
0.0000001
 44
0.0000000001
 40
0.0
 40
0.0
 40
0.0
 40
0.0
 40
0.1196887876
 40
0.2335462827
 40
0.3408403901
 40
0.4409962107
 40
0.5334876718
 40
0.6178222152
 40
0.6935400246
 40
0.7280490197
 40
0.7602660641
 40
0.7901515855
 40
0.8176764694
 40
0.8428162844
 40
0.8655506337
 40
0.8858677545
 40
0.9037741849
 40
0.919293273
 40
0.9261729565
 40
0.9324775667
 40
0.9382212344
 40
0.9434245121
 40
0.9481157057
 40
0.9523338723
 40
0.9561331656
 40
0.9595880232
 40
0.9627975124
 40
0.9658850093
 40
0.9689890094
 40
0.9722458088
 40
0.9757735341
 40
0.9796652514
 40
0.9839901729
 40
0.9887984629
 40
0.99412631
 40
1.0
 40
1.0
 40
1.0
 40
1.0
 10
-14.9235483934
 20
5.3820215517
 30
0.0
 10
-14.923780382
 20
5.3774112296
 30
0.0
 10
-14.9242712338
 20
5.3684170608
 30
0.0
 10
-14.9251117262
 20
5.3552982211
 30
0.0
 10
-14.9260349695
 20
5.3429402173
 30
0.0
 10
-14.9270350083
 20
5.331415075
 30
0.0
 10
-14.9281062315
 20
5.3207858733
 30
0.0
 10
-14.9292418745
 20
5.311111717
 30
0.0
 10
-14.9302654358
 20
5.3036772759
 30
0.0
 10
-14.9311208981
 20
5.2982503566
 30
0.0
 10
-14.9317546341
 20
5.2945783771
 30
0.0
 10
-14.9323996451
 20
5.2911821473
 30
0.0
 10
-14.933054875
 20
5.2880662622
 30
0.0
 10
-14.9337192526
 20
5.2852348611
 30
0.0
 10
-14.9343917256
 20
5.2826918654
 30
0.0
 10
-14.9350713217
 20
5.2804405627
 30
0.0
 10
-14.9357568423
 20
5.2784836872
 30
0.0
 10
-14.9363535594
 20
5.2770468202
 30
0.0
 10
-14.9368393135
 20
5.2760516948
 30
0.0
 10
-14.937189922
 20
5.2754110291
 30
0.0
 10
-14.9375415367
 20
5.2748456848
 30
0.0
 10
-14.9378941497
 20
5.2743556882
 30
0.0
 10
-14.938247848
 20
5.2739409914
 30
0.0
 10
-14.9386029026
 20
5.2736015838
 30
0.0
 10
-14.9389598111
 20
5.2733376475
 30
0.0
 10
-14.9393192185
 20
5.2731498563
 30
0.0
 10
-14.939681437
 20
5.2730396609
 30
0.0
 10
-14.9400455854
 20
5.2730089207
 30
0.0
 10
-14.940409445
 20
5.2730584453
 30
0.0
 10
-14.9407710256
 20
5.2731870128
 30
0.0
 10
-14.9411297935
 20
5.2733927683
 30
0.0
 10
-14.9414862109
 20
5.2736744472
 30
0.0
 10
-14.941840911
 20
5.2740315234
 30
0.0
 10
-14.9421943394
 20
5.274463886
 30
0.0
 10
-14.9425467093
 20
5.2749715439
 30
0.0
 10
-14.9427698582
 20
5.275341805
 30
0.0
 10
-14.9428818209
 20
5.2755387392
 30
0.0
  0
SPLINE
  5
45B
100
AcDbEntity
  8
0
100
AcDbSpline
 62
7
  6
CONTINUOUS
 70
0
 71
3
 72
15
 73
11
 74
0
 42
0.0000001
 43
0.0000001
 44
0.0000000001
 40
0.0
 40
0.0
 40
0.0
 40
0.0
 40
0.1249964674
 40
0.2499956899
 40
0.3749971618
 40
0.4999999975
 40
0.6250028277
 40
0.7500042899
 40
0.8750035088
 40
1.0
 40
1.0
 40
1.0
 40
1.0
 10
-14.7830225758
 20
5.6171725855
 30
0.0
 10
-14.7844177994
 20
5.6067187148
 30
0.0
 10
-14.7869531039
 20
5.585775329
 30
0.0
 10
-14.7898319105
 20
5.5542610198
 30
0.0
 10
-14.7916352405
 20
5.5226646362
 30
0.0
 10
-14.7922504014
 20
5.4910215528
 30
0.0
 10
-14.7916352408
 20
5.4593784702
 30
0.0
 10
-14.789831911
 20
5.4277820882
 30
0.0
 10
-14.7869531052
 20
5.3962677781
 30
0.0
 10
-14.7844177997
 20
5.3753243906
 30
0.0
 10
-14.7830225758
 20
5.3648705179
 30
0.0
  0
SPLINE
  5
45C
100
AcDbEntity
  8
0
100
AcDbSpline
 62
7
  6
CONTINUOUS
 70
0
 71
3
 72
15
 73
11
 74
0
 42
0.0000001
 43
0.0000001
 44
0.0000000001
 40
0.0
 40
0.0
 40
0.0
 40
0.0
 40
0.1453524083
 40
0.2868079831
 40
0.4230969843
 40
0.5529474777
 40
0.6754525845
 40
0.7903911539
 40
0.8982555593
 40
1.0
 40
1.0
 40
1.0
 40
1.0
 10
3.245831881
 20
-5.7219720973
 30
0.0
 10
3.2529394968
 20
-5.7263246053
 30
0.0
 10
3.2668790394
 20
-5.7350535553
 30
0.0
 10
3.2870991769
 20
-5.7484649747
 30
0.0
 10
3.3061383503
 20
-5.7620288036
 30
0.0
 10
3.3237478692
 20
-5.7756978179
 30
0.0
 10
3.3397536762
 20
-5.7893993887
 30
0.0
 10
3.3541100077
 20
-5.8030484898
 30
0.0
 10
3.3669068792
 20
-5.8165705822
 30
0.0
 10
3.3747246797
 20
-5.8257063037
 30
0.0
 10
3.3784144025
 20
-5.8302252728
 30
0.0
  0
SPLINE
  5
45D
100
AcDbEntity
  8
0
100
AcDbSpline
 62
7
  6
CONTINUOUS
 70
0
 71
3
 72
19
 73
15
 74
0
 42
0.0000001
 43
0.0000001
 44
0.0000000001
 40
0.0
 40
0.0
 40
0.0
 40
0.0
 40
0.1239135187
 40
0.2486584689
 40
0.3113153546
 40
0.3741210923
 40
0.4370327446
 40
0.5
 40
0.5629672554
 40
0.6258789077
 40
0.6886846454
 40
0.7513415311
 40
0.8760864813
 40
1.0
 40
1.0
 40
1.0
 40
1.0
 10
3.3784144025
 20
-5.8302252728
 30
0.0
 10
3.3802166236
 20
-5.839054317
 30
0.0
 10
3.383515591
 20
-5.8568387736
 30
0.0
 10
3.3866674022
 20
-5.8792669497
 30
0.0
 10
3.3885010901
 20
-5.8973715978
 30
0.0
 10
3.3895065945
 20
-5.9110352648
 30
0.0
 10
3.3901188089
 20
-5.9247448757
 30
0.0
 10
3.3903249194
 20
-5.9384784483
 30
0.0
 10
3.3901188089
 20
-5.9522120209
 30
0.0
 10
3.3895065945
 20
-5.9659216317
 30
0.0
 10
3.3885010901
 20
-5.9795852988
 30
0.0
 10
3.3866674022
 20
-5.9976899468
 30
0.0
 10
3.383515591
 20
-6.0201181229
 30
0.0
 10
3.3802166236
 20
-6.0379025796
 30
0.0
 10
3.3784144025
 20
-6.0467316237
 30
0.0
  0
SPLINE
  5
45E
100
AcDbEntity
  8
0
100
AcDbSpline
 62
7
  6
CONTINUOUS
 70
0
 71
3
 72
15
 73
11
 74
0
 42
0.0000001
 43
0.0000001
 44
0.0000000001
 40
0.0
 40
0.0
 40
0.0
 40
0.0
 40
0.1017444407
 40
0.2096088461
 40
0.3245474155
 40
0.4470525223
 40
0.5769030157
 40
0.7131920169
 40
0.8546475917
 40
1.0
 40
1.0
 40
1.0
 40
1.0
 10
3.3784144025
 20
-6.0467316237
 30
0.0
 10
3.3747246797
 20
-6.0512505929
 30
0.0
 10
3.3669068792
 20
-6.0603863143
 30
0.0
 10
3.3541100077
 20
-6.0739084068
 30
0.0
 10
3.3397536762
 20
-6.0875575078
 30
0.0
 10
3.3237478692
 20
-6.1012590786
 30
0.0
 10
3.3061383503
 20
-6.1149280929
 30
0.0
 10
3.2870991769
 20
-6.1284919218
 30
0.0
 10
3.2668790394
 20
-6.1419033413
 30
0.0
 10
3.2529394968
 20
-6.1506322912
 30
0.0
 10
3.245831881
 20
-6.1549847992
 30
0.0
  0
SPLINE
  5
45F
100
AcDbEntity
  8
0
100
AcDbSpline
 62
7
  6
CONTINUOUS
 70
0
 71
3
 72
15
 73
11
 74
0
 42
0.0000001
 43
0.0000001
 44
0.0000000001
 40
0.0
 40
0.0
 40
0.0
 40
0.0
 40
0.1341084573
 40
0.2648959645
 40
0.3926219614
 40
0.517627337
 40
0.6403394988
 40
0.7612572922
 40
0.880942489
 40
1.0
 40
1.0
 40
1.0
 40
1.0
 10
3.2248075281
 20
-5.721488531
 30
0.0
 10
3.2211256402
 20
-5.7180515684
 30
0.0
 10
3.213584289
 20
-5.7115429198
 30
0.0
 10
3.2016438638
 20
-5.7028611652
 30
0.0
 10
3.1892825083
 20
-5.695429365
 30
0.0
 10
3.1765649194
 20
-5.6892916484
 30
0.0
 10
3.1635598336
 20
-5.6844799521
 30
0.0
 10
3.1503356948
 20
-5.6810240867
 30
0.0
 10
3.1369666309
 20
-5.6789417627
 30
0.0
 10
3.1279932081
 20
-5.6784785358
 30
0.0
 10
3.1235217168
 20
-5.6784786351
 30
0.0
  0
SPLINE
  5
460
100
AcDbEntity
  8
0
100
AcDbSpline
 62
7
  6
CONTINUOUS
 70
0
 71
3
 72
17
 73
13
 74
0
 42
0.0000001
 43
0.0000001
 44
0.0000000001
 40
0.0
 40
0.0
 40
0.0
 40
0.0
 40
0.1341655017
 40
0.2649905088
 40
0.3927303475
 40
0.4555651072
 40
0.5177644712
 40
0.6404514855
 40
0.7011012981
 40
0.7613669052
 40
0.8810005192
 40
1.0
 40
1.0
 40
1.0
 40
1.0
 10
3.2252384895
 20
-6.1550650364
 30
0.0
 10
3.2215464254
 20
-6.1585326301
 30
0.0
 10
3.2139817918
 20
-6.1650992998
 30
0.0
 10
3.2020005515
 20
-6.1738617608
 30
0.0
 10
3.1916005075
 20
-6.1801470673
 30
0.0
 10
3.1831086645
 20
-6.1845078085
 30
0.0
 10
3.1745956172
 20
-6.1883860507
 30
0.0
 10
3.1658907691
 20
-6.191622762
 30
0.0
 10
3.1570529924
 20
-6.1941782418
 30
0.0
 10
3.1482100006
 20
-6.196260565
 30
0.0
 10
3.1370414734
 20
-6.1980094489
 30
0.0
 10
3.1280258726
 20
-6.1984781617
 30
0.0
 10
3.1235333031
 20
-6.1984782615
 30
0.0
  0
SPLINE
  5
461
100
AcDbEntity
  8
0
100
AcDbSpline
 62
7
  6
CONTINUOUS
 70
0
 71
3
 72
11
 73
7
 74
0
 42
0.0000001
 43
0.0000001
 44
0.0000000001
 40
0.0
 40
0.0
 40
0.0
 40
0.0
 40
0.2401732686
 40
0.4850365616
 40
0.7374846583
 40
1.0
 40
1.0
 40
1.0
 40
1.0
 10
3.1390131484
 20
-6.1549847992
 30
0.0
 10
3.1384082786
 20
-6.1549847992
 30
0.0
 10
3.1371838846
 20
-6.1551046671
 30
0.0
 10
3.1353912442
 20
-6.1556267501
 30
0.0
 10
3.1336683585
 20
-6.1564795254
 30
0.0
 10
3.1326056073
 20
-6.1572322582
 30
0.0
 10
3.1320932378
 20
-6.1576500865
 30
0.0
  0
SPLINE
  5
462
100
AcDbEntity
  8
0
100
AcDbSpline
 62
7
  6
CONTINUOUS
 70
0
 71
3
 72
11
 73
7
 74
0
 42
0.0000001
 43
0.0000001
 44
0.0000000001
 40
0.0
 40
0.0
 40
0.0
 40
0.0
 40
0.2401732686
 40
0.4850365616
 40
0.7374846583
 40
1.0
 40
1.0
 40
1.0
 40
1.0
 10
3.1390131484
 20
-5.7219720973
 30
0.0
 10
3.1384082786
 20
-5.7219720973
 30
0.0
 10
3.1371838846
 20
-5.7218522294
 30
0.0
 10
3.1353912442
 20
-5.7213301465
 30
0.0
 10
3.1336683585
 20
-5.7204773712
 30
0.0
 10
3.1326056073
 20
-5.7197246383
 30
0.0
 10
3.1320932378
 20
-5.71930681
 30
0.0
  0
SPLINE
  5
463
100
AcDbEntity
  8
0
100
AcDbSpline
 62
7
  6
CONTINUOUS
 70
0
 71
3
 72
23
 73
19
 74
0
 42
0.0000001
 43
0.0000001
 44
0.0000000001
 40
0.0
 40
0.0
 40
0.0
 40
0.0
 40
0.0552200583
 40
0.1106748871
 40
0.1665926736
 40
0.2231878726
 40
0.2806564376
 40
0.3391704851
 40
0.3988763535
 40
0.4598908728
 40
0.5223035786
 40
0.5861741968
 40
0.6515348273
 40
0.7183856123
 40
0.7867085174
 40
0.8564722864
 40
0.9276136373
 40
1.0
 40
1.0
 40
1.0
 40
1.0
 10
3.088177964
 20
-6.1984782615
 30
0.0
 10
3.08416548
 20
-6.1984783506
 30
0.0
 10
3.0761184906
 20
-6.1981057548
 30
0.0
 10
3.0641134561
 20
-6.1964301362
 30
0.0
 10
3.0522127825
 20
-6.1936463002
 30
0.0
 10
3.0404697194
 20
-6.1897664764
 30
0.0
 10
3.0289347088
 20
-6.1848085392
 30
0.0
 10
3.0176573137
 20
-6.1787949001
 30
0.0
 10
3.0066859711
 20
-6.1717519547
 30
0.0
 10
2.9960668104
 20
-6.1637113736
 30
0.0
 10
2.9858454569
 20
-6.1547073865
 30
0.0
 10
2.9760642391
 20
-6.1447798123
 30
0.0
 10
2.9667657156
 20
-6.133970667
 30
0.0
 10
2.9579876149
 20
-6.1223278278
 30
0.0
 10
2.9497681684
 20
-6.1098994134
 30
0.0
 10
2.942140511
 20
-6.096738149
 30
0.0
 10
2.9351398728
 20
-6.0829022492
 30
0.0
 10
2.9309433734
 20
-6.0733481215
 30
0.0
 10
2.9289553376
 20
-6.0684784483
 30
0.0
  0
SPLINE
  5
464
100
AcDbEntity
  8
0
100
AcDbSpline
 62
7
  6
CONTINUOUS
 70
0
 71
3
 72
33
 73
29
 74
0
 42
0.0000001
 43
0.0000001
 44
0.0000000001
 40
0.0
 40
0.0
 40
0.0
 40
0.0
 40
0.0248617031
 40
0.0498293083
 40
0.0750052916
 40
0.1004865152
 40
0.1263607673
 40
0.1527060222
 40
0.1795875392
 40
0.2070587667
 40
0.2351590604
 40
0.2639158084
 40
0.293342707
 40
0.3234424266
 40
0.3855854026
 40
0.4501825721
 40
0.5169033937
 40
0.585309275
 40
0.6548820701
 40
0.7250511664
 40
0.7601826356
 40
0.7952393726
 40
0.8301469022
 40
0.8648309296
 40
0.8992215798
 40
0.9332580601
 40
0.9668772299
 40
1.0
 40
1.0
 40
1.0
 40
1.0
 10
3.0881663777
 20
-5.6784786351
 30
0.0
 10
3.0841540748
 20
-5.6784787242
 30
0.0
 10
3.0761074385
 20
-5.6788521777
 30
0.0
 10
3.0641030735
 20
-5.6805288426
 30
0.0
 10
3.0522029399
 20
-5.6833131523
 30
0.0
 10
3.0404607388
 20
-5.6871941445
 30
0.0
 10
3.0289261552
 20
-5.6921521023
 30
0.0
 10
3.017649845
 20
-5.6981668347
 30
0.0
 10
3.006678729
 20
-5.7052094536
 30
0.0
 10
2.9960608484
 20
-5.7132510157
 30
0.0
 10
2.9858395795
 20
-5.7222544962
 30
0.0
 10
2.9760598413
 20
-5.7321825675
 30
0.0
 10
2.9667609198
 20
-5.742991239
 30
0.0
 10
2.9549346682
 20
-5.7586802247
 30
0.0
 10
2.9416134972
 20
-5.7802796756
 30
0.0
 10
2.9283065713
 20
-5.8085895093
 30
0.0
 10
2.9177200977
 20
-5.8390938119
 30
0.0
 10
2.9100307497
 20
-5.8712755927
 30
0.0
 10
2.9053654467
 20
-5.9045908257
 30
0.0
 10
2.9040625258
 20
-5.9328266811
 30
0.0
 10
2.9045866154
 20
-5.9554787388
 30
0.0
 10
2.905763991
 20
-5.9724051147
 30
0.0
 10
2.9077214864
 20
-5.9891860785
 30
0.0
 10
2.9104490397
 20
-6.0057505003
 30
0.0
 10
2.9139368554
 20
-6.022028037
 30
0.0
 10
2.9181694044
 20
-6.0379506047
 30
0.0
 10
2.9231293693
 20
-6.0534468304
 30
0.0
 10
2.9269349231
 20
-6.0635294637
 30
0.0
 10
2.9289553376
 20
-6.0684784483
 30
0.0
  0
SPLINE
  5
465
100
AcDbEntity
  8
0
100
AcDbSpline
 62
7
  6
CONTINUOUS
 70
0
 71
3
 72
17
 73
13
 74
0
 42
0.0000001
 43
0.0000001
 44
0.0000000001
 40
0.0
 40
0.0
 40
0.0
 40
0.0
 40
0.0507521541
 40
0.1062279752
 40
0.1656818145
 40
0.2283685672
 40
0.3603916239
 40
0.4965882669
 40
0.6320482742
 40
0.7629485808
 40
0.8864675634
 40
1.0
 40
1.0
 40
1.0
 40
1.0
 10
3.006430627
 20
-6.0467316237
 30
0.0
 10
3.0058563236
 20
-6.0467316237
 30
0.0
 10
3.0046540375
 20
-6.0467862209
 30
0.0
 10
3.0027903507
 20
-6.0470003695
 30
0.0
 10
3.0008096922
 20
-6.0473481137
 30
0.0
 10
2.9980050612
 20
-6.0479895783
 30
0.0
 10
2.9944155755
 20
-6.0490720967
 30
0.0
 10
2.990147856
 20
-6.050710535
 30
0.0
 10
2.9860107691
 20
-6.0526248704
 30
0.0
 10
2.9821315812
 20
-6.0547329954
 30
0.0
 10
2.9786117318
 20
-6.0569628368
 30
0.0
 10
2.976454486
 20
-6.0585630695
 30
0.0
 10
2.97545935
 20
-6.0593755946
 30
0.0
  0
SPLINE
  5
466
100
AcDbEntity
  8
0
100
AcDbSpline
 62
7
  6
CONTINUOUS
 70
0
 71
3
 72
45
 73
41
 74
0
 42
0.0000001
 43
0.0000001
 44
0.0000000001
 40
0.0
 40
0.0
 40
0.0
 40
0.0
 40
0.0128513267
 40
0.0257402646
 40
0.038691441
 40
0.051730823
 40
0.0648871307
 40
0.0781878531
 40
0.1053036192
 40
0.1332505709
 40
0.1621439873
 40
0.1920543393
 40
0.2230077703
 40
0.2549895349
 40
0.287948694
 40
0.3218028922
 40
0.3564428168
 40
0.3917370601
 40
0.4275370898
 40
0.4636814477
 40
0.5
 40
0.5363185523
 40
0.5724629102
 40
0.6082629399
 40
0.6435571832
 40
0.6781971078
 40
0.712051306
 40
0.7450104651
 40
0.7769922297
 40
0.8079456607
 40
0.8378560127
 40
0.8667494291
 40
0.8946963808
 40
0.9218121469
 40
0.9351128693
 40
0.948269177
 40
0.961308559
 40
0.9742597354
 40
0.9871486733
 40
1.0
 40
1.0
 40
1.0
 40
1.0
 10
3.2578777984
 20
-5.7514784483
 30
0.0
 10
3.2600410313
 20
-5.7514784483
 30
0.0
 10
3.2643753176
 20
-5.751629449
 30
0.0
 10
3.2708578154
 20
-5.7523063607
 30
0.0
 10
3.2773099658
 20
-5.7534325346
 30
0.0
 10
3.2837139241
 20
-5.7550060761
 30
0.0
 10
3.2900545584
 20
-5.7570219794
 30
0.0
 10
3.2984558874
 20
-5.7603137223
 30
0.0
 10
3.3087442162
 20
-5.7655416704
 30
0.0
 10
3.3205018377
 20
-5.7734389343
 30
0.0
 10
3.331645729
 20
-5.7829211358
 30
0.0
 10
3.3420701626
 20
-5.7938936907
 30
0.0
 10
3.3516780746
 20
-5.8062501147
 30
0.0
 10
3.3603800909
 20
-5.8198708084
 30
0.0
 10
3.3680950979
 20
-5.8346250601
 30
0.0
 10
3.3747505112
 20
-5.8503718897
 30
0.0
 10
3.3802835917
 20
-5.8669608446
 30
0.0
 10
3.3846425057
 20
-5.8842333058
 30
0.0
 10
3.3877860071
 20
-5.9020242906
 30
0.0
 10
3.3896839309
 20
-5.920163825
 30
0.0
 10
3.3903185117
 20
-5.9384784483
 30
0.0
 10
3.3896839309
 20
-5.9567930715
 30
0.0
 10
3.3877860071
 20
-5.974932606
 30
0.0
 10
3.3846425057
 20
-5.9927235907
 30
0.0
 10
3.3802835917
 20
-6.009996052
 30
0.0
 10
3.3747505112
 20
-6.0265850068
 30
0.0
 10
3.3680950979
 20
-6.0423318365
 30
0.0
 10
3.3603800909
 20
-6.0570860882
 30
0.0
 10
3.3516780746
 20
-6.0707067818
 30
0.0
 10
3.3420701626
 20
-6.0830632058
 30
0.0
 10
3.331645729
 20
-6.0940357607
 30
0.0
 10
3.3205018377
 20
-6.1035179623
 30
0.0
 10
3.3087442162
 20
-6.1114152262
 30
0.0
 10
3.2984558874
 20
-6.1166431743
 30
0.0
 10
3.2900545584
 20
-6.1199349172
 30
0.0
 10
3.2837139241
 20
-6.1219508204
 30
0.0
 10
3.2773099658
 20
-6.1235243619
 30
0.0
 10
3.2708578154
 20
-6.1246505359
 30
0.0
 10
3.2643753176
 20
-6.1253274476
 30
0.0
 10
3.2600410313
 20
-6.1254784483
 30
0.0
 10
3.2578777984
 20
-6.1254784483
 30
0.0
  0
SPLINE
  5
467
100
AcDbEntity
  8
0
100
AcDbSpline
 62
7
  6
CONTINUOUS
 70
0
 71
3
 72
17
 73
13
 74
0
 42
0.0000001
 43
0.0000001
 44
0.0000000001
 40
0.0
 40
0.0
 40
0.0
 40
0.0
 40
0.0507521541
 40
0.1062279752
 40
0.1656818145
 40
0.2283685672
 40
0.3603916239
 40
0.4965882669
 40
0.6320482742
 40
0.7629485808
 40
0.8864675634
 40
1.0
 40
1.0
 40
1.0
 40
1.0
 10
3.006430627
 20
-5.8302252728
 30
0.0
 10
3.0058563236
 20
-5.8302252728
 30
0.0
 10
3.0046540375
 20
-5.8301706757
 30
0.0
 10
3.0027903507
 20
-5.829956527
 30
0.0
 10
3.0008096922
 20
-5.8296087829
 30
0.0
 10
2.9980050612
 20
-5.8289673183
 30
0.0
 10
2.9944155755
 20
-5.8278847998
 30
0.0
 10
2.990147856
 20
-5.8262463616
 30
0.0
 10
2.9860107691
 20
-5.8243320262
 30
0.0
 10
2.9821315812
 20
-5.8222239012
 30
0.0
 10
2.9786117318
 20
-5.8199940597
 30
0.0
 10
2.976454486
 20
-5.8183938271
 30
0.0
 10
2.97545935
 20
-5.8175813019
 30
0.0
  0
SPLINE
  5
468
100
AcDbEntity
  8
0
100
AcDbSpline
 62
7
  6
CONTINUOUS
 70
0
 71
3
 72
15
 73
11
 74
0
 42
0.0000001
 43
0.0000001
 44
0.0000000001
 40
0.0
 40
0.0
 40
0.0
 40
0.0
 40
0.1017444407
 40
0.2096088461
 40
0.3245474155
 40
0.4470525223
 40
0.5769030157
 40
0.7131920169
 40
0.8546475917
 40
1.0
 40
1.0
 40
1.0
 40
1.0
 10
3.245831881
 20
-6.1549847992
 30
0.0
 10
3.2421421582
 20
-6.1504658301
 30
0.0
 10
3.2343243577
 20
-6.1413301086
 30
0.0
 10
3.2215274862
 20
-6.1278080162
 30
0.0
 10
3.2071711547
 20
-6.1141589152
 30
0.0
 10
3.1911653477
 20
-6.1004573443
 30
0.0
 10
3.1735558288
 20
-6.0867883301
 30
0.0
 10
3.1545166554
 20
-6.0732245011
 30
0.0
 10
3.1342965179
 20
-6.0598130817
 30
0.0
 10
3.1203569753
 20
-6.0510841317
 30
0.0
 10
3.1132493596
 20
-6.0467316237
 30
0.0
  0
SPLINE
  5
469
100
AcDbEntity
  8
0
100
AcDbSpline
 62
7
  6
CONTINUOUS
 70
0
 71
3
 72
45
 73
41
 74
0
 42
0.0000001
 43
0.0000001
 44
0.0000000001
 40
0.0
 40
0.0
 40
0.0
 40
0.0
 40
0.0128513267
 40
0.0257402646
 40
0.038691441
 40
0.051730823
 40
0.0648871307
 40
0.0781878531
 40
0.1053036192
 40
0.1332505709
 40
0.1621439873
 40
0.1920543393
 40
0.2230077703
 40
0.2549895349
 40
0.287948694
 40
0.3218028922
 40
0.3564428168
 40
0.3917370601
 40
0.4275370898
 40
0.4636814477
 40
0.5
 40
0.5363185523
 40
0.5724629102
 40
0.6082629399
 40
0.6435571832
 40
0.6781971078
 40
0.712051306
 40
0.7450104651
 40
0.7769922297
 40
0.8079456607
 40
0.8378560127
 40
0.8667494291
 40
0.8946963808
 40
0.9218121469
 40
0.9351128693
 40
0.948269177
 40
0.961308559
 40
0.9742597354
 40
0.9871486733
 40
1.0
 40
1.0
 40
1.0
 40
1.0
 10
3.2578777984
 20
-6.1254784483
 30
0.0
 10
3.2557145654
 20
-6.1254784483
 30
0.0
 10
3.2513802791
 20
-6.1253274476
 30
0.0
 10
3.2448977813
 20
-6.1246505359
 30
0.0
 10
3.2384456309
 20
-6.1235243619
 30
0.0
 10
3.2320416726
 20
-6.1219508204
 30
0.0
 10
3.2257010383
 20
-6.1199349172
 30
0.0
 10
3.2172997093
 20
-6.1166431743
 30
0.0
 10
3.2070113805
 20
-6.1114152262
 30
0.0
 10
3.195253759
 20
-6.1035179623
 30
0.0
 10
3.1841098678
 20
-6.0940357607
 30
0.0
 10
3.1736854341
 20
-6.0830632058
 30
0.0
 10
3.1640775221
 20
-6.0707067818
 30
0.0
 10
3.1553755058
 20
-6.0570860882
 30
0.0
 10
3.1476604988
 20
-6.0423318365
 30
0.0
 10
3.1410050855
 20
-6.0265850068
 30
0.0
 10
3.135472005
 20
-6.009996052
 30
0.0
 10
3.131113091
 20
-5.9927235907
 30
0.0
 10
3.1279695897
 20
-5.974932606
 30
0.0
 10
3.1260716658
 20
-5.9567930715
 30
0.0
 10
3.1254370851
 20
-5.9384784483
 30
0.0
 10
3.1260716658
 20
-5.920163825
 30
0.0
 10
3.1279695897
 20
-5.9020242906
 30
0.0
 10
3.131113091
 20
-5.8842333058
 30
0.0
 10
3.135472005
 20
-5.8669608446
 30
0.0
 10
3.1410050855
 20
-5.8503718897
 30
0.0
 10
3.1476604988
 20
-5.8346250601
 30
0.0
 10
3.1553755058
 20
-5.8198708084
 30
0.0
 10
3.1640775221
 20
-5.8062501147
 30
0.0
 10
3.1736854341
 20
-5.7938936907
 30
0.0
 10
3.1841098678
 20
-5.7829211358
 30
0.0
 10
3.195253759
 20
-5.7734389343
 30
0.0
 10
3.2070113805
 20
-5.7655416704
 30
0.0
 10
3.2172997093
 20
-5.7603137223
 30
0.0
 10
3.2257010383
 20
-5.7570219794
 30
0.0
 10
3.2320416726
 20
-5.7550060761
 30
0.0
 10
3.2384456309
 20
-5.7534325346
 30
0.0
 10
3.2448977813
 20
-5.7523063607
 30
0.0
 10
3.2513802791
 20
-5.751629449
 30
0.0
 10
3.2557145654
 20
-5.7514784483
 30
0.0
 10
3.2578777984
 20
-5.7514784483
 30
0.0
  0
SPLINE
  5
46A
100
AcDbEntity
  8
0
100
AcDbSpline
 62
7
  6
CONTINUOUS
 70
0
 71
3
 72
19
 73
15
 74
0
 42
0.0000001
 43
0.0000001
 44
0.0000000001
 40
0.0
 40
0.0
 40
0.0
 40
0.0
 40
0.1239135187
 40
0.2486584689
 40
0.3113153546
 40
0.3741210923
 40
0.4370327446
 40
0.5
 40
0.5629672554
 40
0.6258789077
 40
0.6886846454
 40
0.7513415311
 40
0.8760864813
 40
1.0
 40
1.0
 40
1.0
 40
1.0
 10
3.1132493596
 20
-6.0467316237
 30
0.0
 10
3.1150515806
 20
-6.0379025796
 30
0.0
 10
3.118350548
 20
-6.0201181229
 30
0.0
 10
3.1215023593
 20
-5.9976899468
 30
0.0
 10
3.1233360471
 20
-5.9795852988
 30
0.0
 10
3.1243415516
 20
-5.9659216317
 30
0.0
 10
3.1249537659
 20
-5.9522120209
 30
0.0
 10
3.1251598765
 20
-5.9384784483
 30
0.0
 10
3.1249537659
 20
-5.9247448757
 30
0.0
 10
3.1243415516
 20
-5.9110352648
 30
0.0
 10
3.1233360471
 20
-5.8973715978
 30
0.0
 10
3.1215023593
 20
-5.8792669497
 30
0.0
 10
3.118350548
 20
-5.8568387736
 30
0.0
 10
3.1150515806
 20
-5.839054317
 30
0.0
 10
3.1132493596
 20
-5.8302252728
 30
0.0
  0
SPLINE
  5
46B
100
AcDbEntity
  8
0
100
AcDbSpline
 62
7
  6
CONTINUOUS
 70
0
 71
3
 72
23
 73
19
 74
0
 42
0.0000001
 43
0.0000001
 44
0.0000000001
 40
0.0
 40
0.0
 40
0.0
 40
0.0
 40
0.0552200583
 40
0.1106748871
 40
0.1665926736
 40
0.2231878726
 40
0.2806564376
 40
0.3391704851
 40
0.3988763535
 40
0.4598908728
 40
0.5223035786
 40
0.5861741968
 40
0.6515348273
 40
0.7183856123
 40
0.7867085174
 40
0.8564722864
 40
0.9276136373
 40
1.0
 40
1.0
 40
1.0
 40
1.0
 10
3.1235333031
 20
-6.1984782615
 30
0.0
 10
3.119520819
 20
-6.1984783506
 30
0.0
 10
3.1114738297
 20
-6.1981057548
 30
0.0
 10
3.0994687952
 20
-6.1964301362
 30
0.0
 10
3.0875681216
 20
-6.1936463002
 30
0.0
 10
3.0758250584
 20
-6.1897664764
 30
0.0
 10
3.0642900479
 20
-6.1848085392
 30
0.0
 10
3.0530126528
 20
-6.1787949001
 30
0.0
 10
3.0420413102
 20
-6.1717519547
 30
0.0
 10
3.0314221494
 20
-6.1637113736
 30
0.0
 10
3.021200796
 20
-6.1547073865
 30
0.0
 10
3.0114195781
 20
-6.1447798123
 30
0.0
 10
3.0021210547
 20
-6.133970667
 30
0.0
 10
2.993342954
 20
-6.1223278278
 30
0.0
 10
2.9851235075
 20
-6.1098994134
 30
0.0
 10
2.9774958501
 20
-6.096738149
 30
0.0
 10
2.9704952118
 20
-6.0829022492
 30
0.0
 10
2.9662987124
 20
-6.0733481215
 30
0.0
 10
2.9643106767
 20
-6.0684784483
 30
0.0
  0
SPLINE
  5
46C
100
AcDbEntity
  8
0
100
AcDbSpline
 62
7
  6
CONTINUOUS
 70
0
 71
3
 72
15
 73
11
 74
0
 42
0.0000001
 43
0.0000001
 44
0.0000000001
 40
0.0
 40
0.0
 40
0.0
 40
0.0
 40
0.1453524083
 40
0.2868079831
 40
0.4230969843
 40
0.5529474777
 40
0.6754525845
 40
0.7903911539
 40
0.8982555593
 40
1.0
 40
1.0
 40
1.0
 40
1.0
 10
3.1132493596
 20
-5.8302252728
 30
0.0
 10
3.1203569753
 20
-5.8258727648
 30
0.0
 10
3.1342965179
 20
-5.8171438148
 30
0.0
 10
3.1545166554
 20
-5.8037323954
 30
0.0
 10
3.1735558288
 20
-5.7901685665
 30
0.0
 10
3.1911653477
 20
-5.7764995522
 30
0.0
 10
3.2071711547
 20
-5.7627979814
 30
0.0
 10
3.2215274862
 20
-5.7491488803
 30
0.0
 10
3.2343243577
 20
-5.7356267879
 30
0.0
 10
3.2421421582
 20
-5.7264910665
 30
0.0
 10
3.245831881
 20
-5.7219720973
 30
0.0
  0
SPLINE
  5
46D
100
AcDbEntity
  8
0
100
AcDbSpline
 62
7
  6
CONTINUOUS
 70
0
 71
3
 72
33
 73
29
 74
0
 42
0.0000001
 43
0.0000001
 44
0.0000000001
 40
0.0
 40
0.0
 40
0.0
 40
0.0
 40
0.0248617031
 40
0.0498293083
 40
0.0750052916
 40
0.1004865152
 40
0.1263607673
 40
0.1527060222
 40
0.1795875392
 40
0.2070587667
 40
0.2351590604
 40
0.2639158084
 40
0.293342707
 40
0.3234424266
 40
0.3855854026
 40
0.4501825721
 40
0.5169033937
 40
0.585309275
 40
0.6548820701
 40
0.7250511664
 40
0.7601826356
 40
0.7952393726
 40
0.8301469022
 40
0.8648309296
 40
0.8992215798
 40
0.9332580601
 40
0.9668772299
 40
1.0
 40
1.0
 40
1.0
 40
1.0
 10
3.1235217168
 20
-5.6784786351
 30
0.0
 10
3.1195094138
 20
-5.6784787242
 30
0.0
 10
3.1114627775
 20
-5.6788521777
 30
0.0
 10
3.0994584126
 20
-5.6805288426
 30
0.0
 10
3.087558279
 20
-5.6833131523
 30
0.0
 10
3.0758160779
 20
-5.6871941445
 30
0.0
 10
3.0642814942
 20
-5.6921521023
 30
0.0
 10
3.0530051841
 20
-5.6981668347
 30
0.0
 10
3.042034068
 20
-5.7052094536
 30
0.0
 10
3.0314161874
 20
-5.7132510157
 30
0.0
 10
3.0211949185
 20
-5.7222544962
 30
0.0
 10
3.0114151803
 20
-5.7321825675
 30
0.0
 10
3.0021162589
 20
-5.742991239
 30
0.0
 10
2.9902900073
 20
-5.7586802247
 30
0.0
 10
2.9769688362
 20
-5.7802796756
 30
0.0
 10
2.9636619104
 20
-5.8085895093
 30
0.0
 10
2.9530754367
 20
-5.8390938119
 30
0.0
 10
2.9453860888
 20
-5.8712755927
 30
0.0
 10
2.9407207858
 20
-5.9045908257
 30
0.0
 10
2.9394178649
 20
-5.9328266811
 30
0.0
 10
2.9399419545
 20
-5.9554787388
 30
0.0
 10
2.9411193301
 20
-5.9724051147
 30
0.0
 10
2.9430768255
 20
-5.9891860785
 30
0.0
 10
2.9458043787
 20
-6.0057505003
 30
0.0
 10
2.9492921945
 20
-6.022028037
 30
0.0
 10
2.9535247435
 20
-6.0379506047
 30
0.0
 10
2.9584847083
 20
-6.0534468304
 30
0.0
 10
2.9622902622
 20
-6.0635294637
 30
0.0
 10
2.9643106767
 20
-6.0684784483
 30
0.0
  0
SPLINE
  5
46E
100
AcDbEntity
  8
0
100
AcDbSpline
 62
7
  6
CONTINUOUS
 70
0
 71
3
 72
15
 73
11
 74
0
 42
0.0000001
 43
0.0000001
 44
0.0000000001
 40
0.0
 40
0.0
 40
0.0
 40
0.0
 40
0.1093848924
 40
0.2247529651
 40
0.3455303054
 40
0.4709316038
 40
0.5999829275
 40
0.7318632405
 40
0.865594525
 40
1.0
 40
1.0
 40
1.0
 40
1.0
 10
3.1320932378
 20
-6.1576500865
 30
0.0
 10
3.1313893571
 20
-6.1582240887
 30
0.0
 10
3.1300520486
 20
-6.1595406839
 30
0.0
 10
3.1283309041
 20
-6.1618468169
 30
0.0
 10
3.126858942
 20
-6.1644717867
 30
0.0
 10
3.1256465999
 20
-6.1673480587
 30
0.0
 10
3.124700427
 20
-6.1704182537
 30
0.0
 10
3.1240238019
 20
-6.1736290022
 30
0.0
 10
3.1236179919
 20
-6.1769292584
 30
0.0
 10
3.1235275099
 20
-6.1791567333
 30
0.0
 10
3.1235275099
 20
-6.180272741
 30
0.0
  0
SPLINE
  5
46F
100
AcDbEntity
  8
0
100
AcDbSpline
 62
7
  6
CONTINUOUS
 70
0
 71
3
 72
15
 73
11
 74
0
 42
0.0000001
 43
0.0000001
 44
0.0000000001
 40
0.0
 40
0.0
 40
0.0
 40
0.0
 40
0.1093848924
 40
0.2247529651
 40
0.3455303054
 40
0.4709316038
 40
0.5999829275
 40
0.7318632405
 40
0.865594525
 40
1.0
 40
1.0
 40
1.0
 40
1.0
 10
3.1320932378
 20
-5.71930681
 30
0.0
 10
3.1313893571
 20
-5.7187328079
 30
0.0
 10
3.1300520486
 20
-5.7174162127
 30
0.0
 10
3.1283309041
 20
-5.7151100796
 30
0.0
 10
3.126858942
 20
-5.7124851099
 30
0.0
 10
3.1256465999
 20
-5.7096088378
 30
0.0
 10
3.124700427
 20
-5.7065386428
 30
0.0
 10
3.1240238019
 20
-5.7033278944
 30
0.0
 10
3.1236179919
 20
-5.7000276382
 30
0.0
 10
3.1235275099
 20
-5.6978001633
 30
0.0
 10
3.1235275099
 20
-5.6966841555
 30
0.0
  0
SPLINE
  5
470
100
AcDbEntity
  8
0
100
AcDbSpline
 62
7
  6
CONTINUOUS
 70
0
 71
3
 72
15
 73
11
 74
0
 42
0.0000001
 43
0.0000001
 44
0.0000000001
 40
0.0
 40
0.0
 40
0.0
 40
0.0
 40
0.1453524083
 40
0.2868079831
 40
0.4230969843
 40
0.5529474777
 40
0.6754525845
 40
0.7903911539
 40
0.8982555593
 40
1.0
 40
1.0
 40
1.0
 40
1.0
 10
-11.4944658755
 20
-6.1549847992
 30
0.0
 10
-11.5015734913
 20
-6.1506322912
 30
0.0
 10
-11.5155130339
 20
-6.1419033413
 30
0.0
 10
-11.5357331713
 20
-6.1284919218
 30
0.0
 10
-11.5547723447
 20
-6.1149280929
 30
0.0
 10
-11.5723818637
 20
-6.1012590786
 30
0.0
 10
-11.5883876706
 20
-6.0875575078
 30
0.0
 10
-11.6027440021
 20
-6.0739084068
 30
0.0
 10
-11.6155408737
 20
-6.0603863143
 30
0.0
 10
-11.6233586741
 20
-6.0512505929
 30
0.0
 10
-11.627048397
 20
-6.0467316237
 30
0.0
  0
SPLINE
  5
471
100
AcDbEntity
  8
0
100
AcDbSpline
 62
7
  6
CONTINUOUS
 70
0
 71
3
 72
19
 73
15
 74
0
 42
0.0000001
 43
0.0000001
 44
0.0000000001
 40
0.0
 40
0.0
 40
0.0
 40
0.0
 40
0.1239135187
 40
0.2486584689
 40
0.3113153546
 40
0.3741210923
 40
0.4370327446
 40
0.5
 40
0.5629672554
 40
0.6258789077
 40
0.6886846454
 40
0.7513415311
 40
0.8760864813
 40
1.0
 40
1.0
 40
1.0
 40
1.0
 10
-11.627048397
 20
-6.0467316237
 30
0.0
 10
-11.628850618
 20
-6.0379025796
 30
0.0
 10
-11.6321495854
 20
-6.0201181229
 30
0.0
 10
-11.6353013967
 20
-5.9976899468
 30
0.0
 10
-11.6371350845
 20
-5.9795852988
 30
0.0
 10
-11.638140589
 20
-5.9659216317
 30
0.0
 10
-11.6387528033
 20
-5.9522120209
 30
0.0
 10
-11.6389589139
 20
-5.9384784483
 30
0.0
 10
-11.6387528033
 20
-5.9247448757
 30
0.0
 10
-11.638140589
 20
-5.9110352648
 30
0.0
 10
-11.6371350845
 20
-5.8973715978
 30
0.0
 10
-11.6353013967
 20
-5.8792669497
 30
0.0
 10
-11.6321495854
 20
-5.8568387736
 30
0.0
 10
-11.628850618
 20
-5.839054317
 30
0.0
 10
-11.627048397
 20
-5.8302252728
 30
0.0
  0
SPLINE
  5
472
100
AcDbEntity
  8
0
100
AcDbSpline
 62
7
  6
CONTINUOUS
 70
0
 71
3
 72
15
 73
11
 74
0
 42
0.0000001
 43
0.0000001
 44
0.0000000001
 40
0.0
 40
0.0
 40
0.0
 40
0.0
 40
0.1017444407
 40
0.2096088461
 40
0.3245474155
 40
0.4470525223
 40
0.5769030157
 40
0.7131920169
 40
0.8546475917
 40
1.0
 40
1.0
 40
1.0
 40
1.0
 10
-11.627048397
 20
-5.8302252728
 30
0.0
 10
-11.6233586741
 20
-5.8257063037
 30
0.0
 10
-11.6155408737
 20
-5.8165705822
 30
0.0
 10
-11.6027440021
 20
-5.8030484898
 30
0.0
 10
-11.5883876706
 20
-5.7893993887
 30
0.0
 10
-11.5723818637
 20
-5.7756978179
 30
0.0
 10
-11.5547723447
 20
-5.7620288036
 30
0.0
 10
-11.5357331713
 20
-5.7484649747
 30
0.0
 10
-11.5155130339
 20
-5.7350535553
 30
0.0
 10
-11.5015734913
 20
-5.7263246053
 30
0.0
 10
-11.4944658755
 20
-5.7219720973
 30
0.0
  0
SPLINE
  5
473
100
AcDbEntity
  8
0
100
AcDbSpline
 62
7
  6
CONTINUOUS
 70
0
 71
3
 72
18
 73
14
 74
0
 42
0.0000001
 43
0.0000001
 44
0.0000000001
 40
0.0
 40
0.0
 40
0.0
 40
0.0
 40
0.1219730971
 40
0.1839754588
 40
0.2465198403
 40
0.3095102951
 40
0.3728376439
 40
0.436389733
 40
0.5000543644
 40
0.6272420788
 40
0.7535297939
 40
0.8780497529
 40
1.0
 40
1.0
 40
1.0
 40
1.0
 10
-11.1735143888
 20
-5.8190155614
 30
0.0
 10
-11.1701119444
 20
-5.8283178705
 30
0.0
 10
-11.16564489
 20
-5.8426035396
 30
0.0
 10
-11.1609623276
 20
-5.8620714275
 30
0.0
 10
-11.158055156
 20
-5.8770261102
 30
0.0
 10
-11.1557839714
 20
-5.8921985492
 30
0.0
 10
-11.1541550626
 20
-5.9075356413
 30
0.0
 10
-11.1531762036
 20
-5.9229829494
 30
0.0
 10
-11.1527406637
 20
-5.9436427013
 30
0.0
 10
-11.1538258632
 20
-5.9694069781
 30
0.0
 10
-11.1577135344
 20
-5.9998929746
 30
0.0
 10
-11.1641316707
 20
-6.0295130761
 30
0.0
 10
-11.1701144054
 20
-6.0486481162
 30
0.0
 10
-11.1735168202
 20
-6.0579484604
 30
0.0
  0
SPLINE
  5
474
100
AcDbEntity
  8
0
100
AcDbSpline
 62
7
  6
CONTINUOUS
 70
0
 71
3
 72
21
 73
17
 74
0
 42
0.0000001
 43
0.0000001
 44
0.0000000001
 40
0.0
 40
0.0
 40
0.0
 40
0.0
 40
0.1440774648
 40
0.2141490211
 40
0.2827733814
 40
0.4153959364
 40
0.4794238866
 40
0.5419244177
 40
0.6029513683
 40
0.6625894253
 40
0.7209576385
 40
0.7782059614
 40
0.834516051
 40
0.890095485
 40
0.9451749392
 40
1.0
 40
1.0
 40
1.0
 40
1.0
 10
-11.1735168202
 20
-6.0579484604
 30
0.0
 10
-11.1772992211
 20
-6.0682874795
 30
0.0
 10
-11.1837437916
 20
-6.0833772813
 30
0.0
 10
-11.1939393332
 20
-6.1024395794
 30
0.0
 10
-11.204804857
 20
-6.1201068201
 30
0.0
 10
-11.2170264616
 20
-6.1363659876
 30
0.0
 10
-11.2305220651
 20
-6.1508758606
 30
0.0
 10
-11.241026871
 20
-6.1606447036
 30
0.0
 10
-11.2519812698
 20
-6.1693785672
 30
0.0
 10
-11.2633360995
 20
-6.1770357134
 30
0.0
 10
-11.2750380056
 20
-6.183580225
 30
0.0
 10
-11.2870333118
 20
-6.1889793247
 30
0.0
 10
-11.2992652091
 20
-6.193207605
 30
0.0
 10
-11.3116768999
 20
-6.1962428152
 30
0.0
 10
-11.32420753
 20
-6.1980708312
 30
0.0
 10
-11.3326111082
 20
-6.1984781685
 30
0.0
 10
-11.3368003722
 20
-6.1984782615
 30
0.0
  0
SPLINE
  5
475
100
AcDbEntity
  8
0
100
AcDbSpline
 62
7
  6
CONTINUOUS
 70
0
 71
3
 72
23
 73
19
 74
0
 42
0.0000001
 43
0.0000001
 44
0.0000000001
 40
0.0
 40
0.0
 40
0.0
 40
0.0
 40
0.0723863627
 40
0.1435277136
 40
0.2132914826
 40
0.2816143877
 40
0.3484651727
 40
0.4138258032
 40
0.4776964214
 40
0.5401091272
 40
0.6011236465
 40
0.6608295149
 40
0.7193435624
 40
0.7768121274
 40
0.8334073264
 40
0.8893251129
 40
0.9447799417
 40
1.0
 40
1.0
 40
1.0
 40
1.0
 10
-11.177589332
 20
-5.8084784483
 30
0.0
 10
-11.1795773678
 20
-5.8036087751
 30
0.0
 10
-11.1837738672
 20
-5.7940546473
 30
0.0
 10
-11.1907745054
 20
-5.7802187476
 30
0.0
 10
-11.1984021629
 20
-5.7670574831
 30
0.0
 10
-11.2066216094
 20
-5.7546290687
 30
0.0
 10
-11.2153997101
 20
-5.7429862295
 30
0.0
 10
-11.2246982335
 20
-5.7321770843
 30
0.0
 10
-11.2344794514
 20
-5.7222495101
 30
0.0
 10
-11.2447008048
 20
-5.7132455229
 30
0.0
 10
-11.2553199656
 20
-5.7052049419
 30
0.0
 10
-11.2662913082
 20
-5.6981619965
 30
0.0
 10
-11.2775687033
 20
-5.6921483573
 30
0.0
 10
-11.2891037138
 20
-5.6871904201
 30
0.0
 10
-11.300846777
 20
-5.6833105964
 30
0.0
 10
-11.3127474506
 20
-5.6805267603
 30
0.0
 10
-11.3247524851
 20
-5.6788511418
 30
0.0
 10
-11.3327994744
 20
-5.678478546
 30
0.0
 10
-11.3368119585
 20
-5.6784786351
 30
0.0
  0
SPLINE
  5
476
100
AcDbEntity
  8
0
100
AcDbSpline
 62
7
  6
CONTINUOUS
 70
0
 71
3
 72
11
 73
7
 74
0
 42
0.0000001
 43
0.0000001
 44
0.0000000001
 40
0.0
 40
0.0
 40
0.0
 40
0.0
 40
0.2401732686
 40
0.4850365616
 40
0.7374846583
 40
1.0
 40
1.0
 40
1.0
 40
1.0
 10
-11.3876471429
 20
-6.1549847992
 30
0.0
 10
-11.3870422731
 20
-6.1549847992
 30
0.0
 10
-11.3858178791
 20
-6.1551046671
 30
0.0
 10
-11.3840252387
 20
-6.1556267501
 30
0.0
 10
-11.382302353
 20
-6.1564795254
 30
0.0
 10
-11.3812396018
 20
-6.1572322582
 30
0.0
 10
-11.3807272322
 20
-6.1576500865
 30
0.0
  0
SPLINE
  5
477
100
AcDbEntity
  8
0
100
AcDbSpline
 62
7
  6
CONTINUOUS
 70
0
 71
3
 72
11
 73
7
 74
0
 42
0.0000001
 43
0.0000001
 44
0.0000000001
 40
0.0
 40
0.0
 40
0.0
 40
0.0
 40
0.2401732686
 40
0.4850365616
 40
0.7374846583
 40
1.0
 40
1.0
 40
1.0
 40
1.0
 10
-11.3876471429
 20
-5.7219720973
 30
0.0
 10
-11.3870422731
 20
-5.7219720973
 30
0.0
 10
-11.3858178791
 20
-5.7218522294
 30
0.0
 10
-11.3840252387
 20
-5.7213301465
 30
0.0
 10
-11.382302353
 20
-5.7204773712
 30
0.0
 10
-11.3812396018
 20
-5.7197246383
 30
0.0
 10
-11.3807272322
 20
-5.71930681
 30
0.0
  0
SPLINE
  5
478
100
AcDbEntity
  8
0
100
AcDbSpline
 62
7
  6
CONTINUOUS
 70
0
 71
3
 72
15
 73
11
 74
0
 42
0.0000001
 43
0.0000001
 44
0.0000000001
 40
0.0
 40
0.0
 40
0.0
 40
0.0
 40
0.119057511
 40
0.2387427078
 40
0.3596605012
 40
0.482372663
 40
0.6073780386
 40
0.7351040355
 40
0.8658915427
 40
1.0
 40
1.0
 40
1.0
 40
1.0
 10
-11.3721557113
 20
-6.1984782615
 30
0.0
 10
-11.3766272026
 20
-6.1984783608
 30
0.0
 10
-11.3856006254
 20
-6.1980151339
 30
0.0
 10
-11.3989696892
 20
-6.1959328098
 30
0.0
 10
-11.4121938281
 20
-6.1924769445
 30
0.0
 10
-11.4251989139
 20
-6.1876652481
 30
0.0
 10
-11.4379165028
 20
-6.1815275316
 30
0.0
 10
-11.4502778583
 20
-6.1740957314
 30
0.0
 10
-11.4622182834
 20
-6.1654139768
 30
0.0
 10
-11.4697596347
 20
-6.1589053282
 30
0.0
 10
-11.4734415226
 20
-6.1554683656
 30
0.0
  0
SPLINE
  5
479
100
AcDbEntity
  8
0
100
AcDbSpline
 62
7
  6
CONTINUOUS
 70
0
 71
3
 72
17
 73
13
 74
0
 42
0.0000001
 43
0.0000001
 44
0.0000000001
 40
0.0
 40
0.0
 40
0.0
 40
0.0
 40
0.1189994808
 40
0.2386330948
 40
0.2988987019
 40
0.3595485145
 40
0.4822355288
 40
0.5444348928
 40
0.6072696525
 40
0.7350094912
 40
0.8658344983
 40
1.0
 40
1.0
 40
1.0
 40
1.0
 10
-11.3721672975
 20
-5.6784786351
 30
0.0
 10
-11.3766598671
 20
-5.6784787348
 30
0.0
 10
-11.3856754679
 20
-5.6789474477
 30
0.0
 10
-11.3968439951
 20
-5.6806963316
 30
0.0
 10
-11.4056869869
 20
-5.6827786548
 30
0.0
 10
-11.4145247635
 20
-5.6853341345
 30
0.0
 10
-11.4232296116
 20
-5.6885708459
 30
0.0
 10
-11.431742659
 20
-5.6924490881
 30
0.0
 10
-11.4402345019
 20
-5.6968098292
 30
0.0
 10
-11.450634546
 20
-5.7030951357
 30
0.0
 10
-11.4626157862
 20
-5.7118575967
 30
0.0
 10
-11.4701804199
 20
-5.7184242665
 30
0.0
 10
-11.473872484
 20
-5.7218918601
 30
0.0
  0
SPLINE
  5
47A
100
AcDbEntity
  8
0
100
AcDbSpline
 62
7
  6
CONTINUOUS
 70
0
 71
3
 72
19
 73
15
 74
0
 42
0.0000001
 43
0.0000001
 44
0.0000000001
 40
0.0
 40
0.0
 40
0.0
 40
0.0
 40
0.1239135187
 40
0.2486584689
 40
0.3113153546
 40
0.3741210923
 40
0.4370327446
 40
0.5
 40
0.5629672554
 40
0.6258789077
 40
0.6886846454
 40
0.7513415311
 40
0.8760864813
 40
1.0
 40
1.0
 40
1.0
 40
1.0
 10
-11.361883354
 20
-5.8302252728
 30
0.0
 10
-11.3636855751
 20
-5.839054317
 30
0.0
 10
-11.3669845425
 20
-5.8568387736
 30
0.0
 10
-11.3701363537
 20
-5.8792669497
 30
0.0
 10
-11.3719700416
 20
-5.8973715978
 30
0.0
 10
-11.372975546
 20
-5.9110352648
 30
0.0
 10
-11.3735877604
 20
-5.9247448757
 30
0.0
 10
-11.3737938709
 20
-5.9384784483
 30
0.0
 10
-11.3735877604
 20
-5.9522120209
 30
0.0
 10
-11.372975546
 20
-5.9659216317
 30
0.0
 10
-11.3719700416
 20
-5.9795852988
 30
0.0
 10
-11.3701363537
 20
-5.9976899468
 30
0.0
 10
-11.3669845425
 20
-6.0201181229
 30
0.0
 10
-11.3636855751
 20
-6.0379025796
 30
0.0
 10
-11.361883354
 20
-6.0467316237
 30
0.0
  0
SPLINE
  5
47B
100
AcDbEntity
  8
0
100
AcDbSpline
 62
7
  6
CONTINUOUS
 70
0
 71
3
 72
17
 73
13
 74
0
 42
0.0000001
 43
0.0000001
 44
0.0000000001
 40
0.0
 40
0.0
 40
0.0
 40
0.0
 40
0.0507521541
 40
0.1062279752
 40
0.1656818145
 40
0.2283685672
 40
0.3603916239
 40
0.4965882669
 40
0.6320482742
 40
0.7629485808
 40
0.8864675634
 40
1.0
 40
1.0
 40
1.0
 40
1.0
 10
-11.2550646214
 20
-6.0467316237
 30
0.0
 10
-11.2544903181
 20
-6.0467316237
 30
0.0
 10
-11.253288032
 20
-6.0467862209
 30
0.0
 10
-11.2514243451
 20
-6.0470003695
 30
0.0
 10
-11.2494436866
 20
-6.0473481137
 30
0.0
 10
-11.2466390557
 20
-6.0479895783
 30
0.0
 10
-11.24304957
 20
-6.0490720967
 30
0.0
 10
-11.2387818505
 20
-6.050710535
 30
0.0
 10
-11.2346447636
 20
-6.0526248704
 30
0.0
 10
-11.2307655756
 20
-6.0547329954
 30
0.0
 10
-11.2272457263
 20
-6.0569628368
 30
0.0
 10
-11.2250884805
 20
-6.0585630695
 30
0.0
 10
-11.2240933444
 20
-6.0593755946
 30
0.0
  0
SPLINE
  5
47C
100
AcDbEntity
  8
0
100
AcDbSpline
 62
7
  6
CONTINUOUS
 70
0
 71
3
 72
17
 73
13
 74
0
 42
0.0000001
 43
0.0000001
 44
0.0000000001
 40
0.0
 40
0.0
 40
0.0
 40
0.0
 40
0.0507521541
 40
0.1062279752
 40
0.1656818145
 40
0.2283685672
 40
0.3603916239
 40
0.4965882669
 40
0.6320482742
 40
0.7629485808
 40
0.8864675634
 40
1.0
 40
1.0
 40
1.0
 40
1.0
 10
-11.2550646214
 20
-5.8302252728
 30
0.0
 10
-11.2544903181
 20
-5.8302252728
 30
0.0
 10
-11.253288032
 20
-5.8301706757
 30
0.0
 10
-11.2514243451
 20
-5.829956527
 30
0.0
 10
-11.2494436866
 20
-5.8296087829
 30
0.0
 10
-11.2466390557
 20
-5.8289673183
 30
0.0
 10
-11.24304957
 20
-5.8278847998
 30
0.0
 10
-11.2387818505
 20
-5.8262463616
 30
0.0
 10
-11.2346447636
 20
-5.8243320262
 30
0.0
 10
-11.2307655756
 20
-5.8222239012
 30
0.0
 10
-11.2272457263
 20
-5.8199940597
 30
0.0
 10
-11.2250884805
 20
-5.8183938271
 30
0.0
 10
-11.2240933444
 20
-5.8175813019
 30
0.0
  0
SPLINE
  5
47D
100
AcDbEntity
  8
0
100
AcDbSpline
 62
7
  6
CONTINUOUS
 70
0
 71
3
 72
15
 73
11
 74
0
 42
0.0000001
 43
0.0000001
 44
0.0000000001
 40
0.0
 40
0.0
 40
0.0
 40
0.0
 40
0.1453524083
 40
0.2868079831
 40
0.4230969843
 40
0.5529474777
 40
0.6754525845
 40
0.7903911539
 40
0.8982555593
 40
1.0
 40
1.0
 40
1.0
 40
1.0
 10
-11.361883354
 20
-6.0467316237
 30
0.0
 10
-11.3689909698
 20
-6.0510841317
 30
0.0
 10
-11.3829305124
 20
-6.0598130817
 30
0.0
 10
-11.4031506499
 20
-6.0732245011
 30
0.0
 10
-11.4221898233
 20
-6.0867883301
 30
0.0
 10
-11.4397993422
 20
-6.1004573443
 30
0.0
 10
-11.4558051492
 20
-6.1141589152
 30
0.0
 10
-11.4701614807
 20
-6.1278080162
 30
0.0
 10
-11.4829583522
 20
-6.1413301086
 30
0.0
 10
-11.4907761526
 20
-6.1504658301
 30
0.0
 10
-11.4944658755
 20
-6.1549847992
 30
0.0
  0
SPLINE
  5
47E
100
AcDbEntity
  8
0
100
AcDbSpline
 62
7
  6
CONTINUOUS
 70
0
 71
3
 72
21
 73
17
 74
0
 42
0.0000001
 43
0.0000001
 44
0.0000000001
 40
0.0
 40
0.0
 40
0.0
 40
0.0
 40
0.1409036607
 40
0.2094604769
 40
0.2767185847
 40
0.4072912582
 40
0.4707165708
 40
0.5329471585
 40
0.5940558339
 40
0.654131383
 40
0.7132818607
 40
0.7716318841
 40
0.8293207125
 40
0.8865018045
 40
0.9433379216
 40
1.0
 40
1.0
 40
1.0
 40
1.0
 10
-11.2293556161
 20
-5.7747317147
 30
0.0
 10
-11.233570719
 20
-5.7673795976
 30
0.0
 10
-11.2403698814
 20
-5.7567397833
 30
0.0
 10
-11.2504236008
 20
-5.7434678675
 30
0.0
 10
-11.2607841687
 20
-5.7312386205
 30
0.0
 10
-11.2719474471
 20
-5.7201179303
 30
0.0
 10
-11.2838348728
 20
-5.7102974033
 30
0.0
 10
-11.2929413295
 20
-5.7037065097
 30
0.0
 10
-11.30229367
 20
-5.6978403301
 30
0.0
 10
-11.3118642748
 20
-5.6927179703
 30
0.0
 10
-11.3216233044
 20
-5.6883556976
 30
0.0
 10
-11.3315403112
 20
-5.6847665581
 30
0.0
 10
-11.341584965
 20
-5.6819638195
 30
0.0
 10
-11.3517255581
 20
-5.679954603
 30
0.0
 10
-11.3619299018
 20
-5.678747048
 30
0.0
 10
-11.3687593328
 20
-5.6784785594
 30
0.0
 10
-11.3721672975
 20
-5.6784786351
 30
0.0
  0
SPLINE
  5
47F
100
AcDbEntity
  8
0
100
AcDbSpline
 62
7
  6
CONTINUOUS
 70
0
 71
3
 72
19
 73
15
 74
0
 42
0.0000001
 43
0.0000001
 44
0.0000000001
 40
0.0
 40
0.0
 40
0.0
 40
0.0
 40
0.0607989248
 40
0.1226154924
 40
0.1852677686
 40
0.2486094177
 40
0.3124837272
 40
0.3767140996
 40
0.5054804394
 40
0.6335156521
 40
0.7594201646
 40
0.8211935997
 40
0.8819717771
 40
1.0
 40
1.0
 40
1.0
 40
1.0
 10
-11.2129446711
 20
-5.8084784483
 30
0.0
 10
-11.2106278592
 20
-5.8141534553
 30
0.0
 10
-11.2063046293
 20
-5.8257441017
 30
0.0
 10
-11.2008054693
 20
-5.8436050079
 30
0.0
 10
-11.1962676053
 20
-5.8619985436
 30
0.0
 10
-11.1927155474
 20
-5.8808180595
 30
0.0
 10
-11.1901686643
 20
-5.8999606698
 30
0.0
 10
-11.1881308156
 20
-5.9257879599
 30
0.0
 10
-11.1881577279
 20
-5.9582206515
 30
0.0
 10
-11.1922723811
 20
-5.9966546976
 30
0.0
 10
-11.199074901
 20
-6.0278223205
 30
0.0
 10
-11.2064912424
 20
-6.0517623562
 30
0.0
 10
-11.2150141834
 20
-6.0744800335
 30
0.0
 10
-11.2228623784
 20
-6.0907787703
 30
0.0
 10
-11.2287314784
 20
-6.101130217
 30
0.0
  0
SPLINE
  5
480
100
AcDbEntity
  8
0
100
AcDbSpline
 62
7
  6
CONTINUOUS
 70
0
 71
3
 72
20
 73
16
 74
0
 42
0.0000001
 43
0.0000001
 44
0.0000000001
 40
0.0
 40
0.0
 40
0.0
 40
0.0
 40
0.141015485
 40
0.2768702674
 40
0.407502578
 40
0.4709449652
 40
0.5331837383
 40
0.5942895951
 40
0.6543536632
 40
0.713483101
 40
0.7718039065
 40
0.8294567009
 40
0.8865956693
 40
0.9433860732
 40
1.0
 40
1.0
 40
1.0
 40
1.0
 10
-11.2287314784
 20
-6.101130217
 30
0.0
 10
-11.2329434205
 20
-6.1085589018
 30
0.0
 10
-11.2419251579
 20
-6.1227576633
 30
0.0
 10
-11.2572660559
 20
-6.1421456375
 30
0.0
 10
-11.2714010772
 20
-6.1563407132
 30
0.0
 10
-11.2833387637
 20
-6.1662753101
 30
0.0
 10
-11.2924856327
 20
-6.1729441681
 30
0.0
 10
-11.301883917
 20
-6.1788791364
 30
0.0
 10
-11.3115035863
 20
-6.1840632253
 30
0.0
 10
-11.3213154438
 20
-6.1884782025
 30
0.0
 10
-11.3312882804
 20
-6.1921106104
 30
0.0
 10
-11.3413907288
 20
-6.1949487866
 30
0.0
 10
-11.3515913485
 20
-6.1969821729
 30
0.0
 10
-11.3618565951
 20
-6.1982059483
 30
0.0
 10
-11.3687272668
 20
-6.1984781853
 30
0.0
 10
-11.3721557113
 20
-6.1984782615
 30
0.0
  0
SPLINE
  5
481
100
AcDbEntity
  8
0
100
AcDbSpline
 62
7
  6
CONTINUOUS
 70
0
 71
3
 72
45
 73
41
 74
0
 42
0.0000001
 43
0.0000001
 44
0.0000000001
 40
0.0
 40
0.0
 40
0.0
 40
0.0
 40
0.0128513267
 40
0.0257402646
 40
0.038691441
 40
0.051730823
 40
0.0648871307
 40
0.0781878531
 40
0.1053036192
 40
0.1332505709
 40
0.1621439873
 40
0.1920543393
 40
0.2230077703
 40
0.2549895349
 40
0.287948694
 40
0.3218028922
 40
0.3564428168
 40
0.3917370601
 40
0.4275370898
 40
0.4636814477
 40
0.5
 40
0.5363185523
 40
0.5724629102
 40
0.6082629399
 40
0.6435571832
 40
0.6781971078
 40
0.712051306
 40
0.7450104651
 40
0.7769922297
 40
0.8079456607
 40
0.8378560127
 40
0.8667494291
 40
0.8946963808
 40
0.9218121469
 40
0.9351128693
 40
0.948269177
 40
0.961308559
 40
0.9742597354
 40
0.9871486733
 40
1.0
 40
1.0
 40
1.0
 40
1.0
 10
-11.5065117928
 20
-5.7514784483
 30
0.0
 10
-11.5043485599
 20
-5.7514784483
 30
0.0
 10
-11.5000142736
 20
-5.751629449
 30
0.0
 10
-11.4935317758
 20
-5.7523063607
 30
0.0
 10
-11.4870796254
 20
-5.7534325346
 30
0.0
 10
-11.4806756671
 20
-5.7550060761
 30
0.0
 10
-11.4743350328
 20
-5.7570219794
 30
0.0
 10
-11.4659337038
 20
-5.7603137223
 30
0.0
 10
-11.455645375
 20
-5.7655416704
 30
0.0
 10
-11.4438877535
 20
-5.7734389343
 30
0.0
 10
-11.4327438622
 20
-5.7829211358
 30
0.0
 10
-11.4223194285
 20
-5.7938936907
 30
0.0
 10
-11.4127115166
 20
-5.8062501147
 30
0.0
 10
-11.4040095003
 20
-5.8198708084
 30
0.0
 10
-11.3962944933
 20
-5.8346250601
 30
0.0
 10
-11.3896390799
 20
-5.8503718897
 30
0.0
 10
-11.3841059994
 20
-5.8669608446
 30
0.0
 10
-11.3797470855
 20
-5.8842333058
 30
0.0
 10
-11.3766035841
 20
-5.9020242906
 30
0.0
 10
-11.3747056603
 20
-5.920163825
 30
0.0
 10
-11.3740710795
 20
-5.9384784483
 30
0.0
 10
-11.3747056603
 20
-5.9567930715
 30
0.0
 10
-11.3766035841
 20
-5.974932606
 30
0.0
 10
-11.3797470855
 20
-5.9927235907
 30
0.0
 10
-11.3841059994
 20
-6.009996052
 30
0.0
 10
-11.3896390799
 20
-6.0265850068
 30
0.0
 10
-11.3962944933
 20
-6.0423318365
 30
0.0
 10
-11.4040095003
 20
-6.0570860882
 30
0.0
 10
-11.4127115166
 20
-6.0707067818
 30
0.0
 10
-11.4223194285
 20
-6.0830632058
 30
0.0
 10
-11.4327438622
 20
-6.0940357607
 30
0.0
 10
-11.4438877535
 20
-6.1035179623
 30
0.0
 10
-11.455645375
 20
-6.1114152262
 30
0.0
 10
-11.4659337038
 20
-6.1166431743
 30
0.0
 10
-11.4743350328
 20
-6.1199349172
 30
0.0
 10
-11.4806756671
 20
-6.1219508204
 30
0.0
 10
-11.4870796254
 20
-6.1235243619
 30
0.0
 10
-11.4935317758
 20
-6.1246505359
 30
0.0
 10
-11.5000142736
 20
-6.1253274476
 30
0.0
 10
-11.5043485599
 20
-6.1254784483
 30
0.0
 10
-11.5065117928
 20
-6.1254784483
 30
0.0
  0
SPLINE
  5
482
100
AcDbEntity
  8
0
100
AcDbSpline
 62
7
  6
CONTINUOUS
 70
0
 71
3
 72
15
 73
11
 74
0
 42
0.0000001
 43
0.0000001
 44
0.0000000001
 40
0.0
 40
0.0
 40
0.0
 40
0.0
 40
0.1093848924
 40
0.2247529651
 40
0.3455303054
 40
0.4709316038
 40
0.5999829275
 40
0.7318632405
 40
0.865594525
 40
1.0
 40
1.0
 40
1.0
 40
1.0
 10
-11.3807272322
 20
-6.1576500865
 30
0.0
 10
-11.3800233516
 20
-6.1582240887
 30
0.0
 10
-11.378686043
 20
-6.1595406839
 30
0.0
 10
-11.3769648986
 20
-6.1618468169
 30
0.0
 10
-11.3754929365
 20
-6.1644717867
 30
0.0
 10
-11.3742805944
 20
-6.1673480587
 30
0.0
 10
-11.3733344214
 20
-6.1704182537
 30
0.0
 10
-11.3726577963
 20
-6.1736290022
 30
0.0
 10
-11.3722519864
 20
-6.1769292584
 30
0.0
 10
-11.3721615044
 20
-6.1791567333
 30
0.0
 10
-11.3721615044
 20
-6.180272741
 30
0.0
  0
SPLINE
  5
483
100
AcDbEntity
  8
0
100
AcDbSpline
 62
7
  6
CONTINUOUS
 70
0
 71
3
 72
15
 73
11
 74
0
 42
0.0000001
 43
0.0000001
 44
0.0000000001
 40
0.0
 40
0.0
 40
0.0
 40
0.0
 40
0.1017444407
 40
0.2096088461
 40
0.3245474155
 40
0.4470525223
 40
0.5769030157
 40
0.7131920169
 40
0.8546475917
 40
1.0
 40
1.0
 40
1.0
 40
1.0
 10
-11.4944658755
 20
-5.7219720973
 30
0.0
 10
-11.4907761526
 20
-5.7264910665
 30
0.0
 10
-11.4829583522
 20
-5.7356267879
 30
0.0
 10
-11.4701614807
 20
-5.7491488803
 30
0.0
 10
-11.4558051492
 20
-5.7627979814
 30
0.0
 10
-11.4397993422
 20
-5.7764995522
 30
0.0
 10
-11.4221898233
 20
-5.7901685665
 30
0.0
 10
-11.4031506499
 20
-5.8037323954
 30
0.0
 10
-11.3829305124
 20
-5.8171438148
 30
0.0
 10
-11.3689909698
 20
-5.8258727648
 30
0.0
 10
-11.361883354
 20
-5.8302252728
 30
0.0
  0
SPLINE
  5
484
100
AcDbEntity
  8
0
100
AcDbSpline
 62
7
  6
CONTINUOUS
 70
0
 71
3
 72
15
 73
11
 74
0
 42
0.0000001
 43
0.0000001
 44
0.0000000001
 40
0.0
 40
0.0
 40
0.0
 40
0.0
 40
0.1093848924
 40
0.2247529651
 40
0.3455303054
 40
0.4709316038
 40
0.5999829275
 40
0.7318632405
 40
0.865594525
 40
1.0
 40
1.0
 40
1.0
 40
1.0
 10
-11.3807272322
 20
-5.71930681
 30
0.0
 10
-11.3800233516
 20
-5.7187328079
 30
0.0
 10
-11.378686043
 20
-5.7174162127
 30
0.0
 10
-11.3769648986
 20
-5.7151100796
 30
0.0
 10
-11.3754929365
 20
-5.7124851099
 30
0.0
 10
-11.3742805944
 20
-5.7096088378
 30
0.0
 10
-11.3733344214
 20
-5.7065386428
 30
0.0
 10
-11.3726577963
 20
-5.7033278944
 30
0.0
 10
-11.3722519864
 20
-5.7000276382
 30
0.0
 10
-11.3721615044
 20
-5.6978001633
 30
0.0
 10
-11.3721615044
 20
-5.6966841555
 30
0.0
  0
SPLINE
  5
485
100
AcDbEntity
  8
0
100
AcDbSpline
 62
7
  6
CONTINUOUS
 70
0
 71
3
 72
45
 73
41
 74
0
 42
0.0000001
 43
0.0000001
 44
0.0000000001
 40
0.0
 40
0.0
 40
0.0
 40
0.0
 40
0.0128513267
 40
0.0257402646
 40
0.038691441
 40
0.051730823
 40
0.0648871307
 40
0.0781878531
 40
0.1053036192
 40
0.1332505709
 40
0.1621439873
 40
0.1920543393
 40
0.2230077703
 40
0.2549895349
 40
0.287948694
 40
0.3218028922
 40
0.3564428168
 40
0.3917370601
 40
0.4275370898
 40
0.4636814477
 40
0.5
 40
0.5363185523
 40
0.5724629102
 40
0.6082629399
 40
0.6435571832
 40
0.6781971078
 40
0.712051306
 40
0.7450104651
 40
0.7769922297
 40
0.8079456607
 40
0.8378560127
 40
0.8667494291
 40
0.8946963808
 40
0.9218121469
 40
0.9351128693
 40
0.948269177
 40
0.961308559
 40
0.9742597354
 40
0.9871486733
 40
1.0
 40
1.0
 40
1.0
 40
1.0
 10
-11.5065117928
 20
-6.1254784483
 30
0.0
 10
-11.5086750257
 20
-6.1254784483
 30
0.0
 10
-11.5130093121
 20
-6.1253274476
 30
0.0
 10
-11.5194918099
 20
-6.1246505359
 30
0.0
 10
-11.5259439603
 20
-6.1235243619
 30
0.0
 10
-11.5323479186
 20
-6.1219508204
 30
0.0
 10
-11.5386885529
 20
-6.1199349172
 30
0.0
 10
-11.5470898818
 20
-6.1166431743
 30
0.0
 10
-11.5573782106
 20
-6.1114152262
 30
0.0
 10
-11.5691358321
 20
-6.1035179623
 30
0.0
 10
-11.5802797234
 20
-6.0940357607
 30
0.0
 10
-11.5907041571
 20
-6.0830632058
 30
0.0
 10
-11.6003120691
 20
-6.0707067818
 30
0.0
 10
-11.6090140853
 20
-6.0570860882
 30
0.0
 10
-11.6167290923
 20
-6.0423318365
 30
0.0
 10
-11.6233845057
 20
-6.0265850068
 30
0.0
 10
-11.6289175862
 20
-6.009996052
 30
0.0
 10
-11.6332765002
 20
-5.9927235907
 30
0.0
 10
-11.6364200015
 20
-5.974932606
 30
0.0
 10
-11.6383179254
 20
-5.9567930715
 30
0.0
 10
-11.6389525061
 20
-5.9384784483
 30
0.0
 10
-11.6383179254
 20
-5.920163825
 30
0.0
 10
-11.6364200015
 20
-5.9020242906
 30
0.0
 10
-11.6332765002
 20
-5.8842333058
 30
0.0
 10
-11.6289175862
 20
-5.8669608446
 30
0.0
 10
-11.6233845057
 20
-5.8503718897
 30
0.0
 10
-11.6167290923
 20
-5.8346250601
 30
0.0
 10
-11.6090140853
 20
-5.8198708084
 30
0.0
 10
-11.6003120691
 20
-5.8062501147
 30
0.0
 10
-11.5907041571
 20
-5.7938936907
 30
0.0
 10
-11.5802797234
 20
-5.7829211358
 30
0.0
 10
-11.5691358321
 20
-5.7734389343
 30
0.0
 10
-11.5573782106
 20
-5.7655416704
 30
0.0
 10
-11.5470898818
 20
-5.7603137223
 30
0.0
 10
-11.5386885529
 20
-5.7570219794
 30
0.0
 10
-11.5323479186
 20
-5.7550060761
 30
0.0
 10
-11.5259439603
 20
-5.7534325346
 30
0.0
 10
-11.5194918099
 20
-5.7523063607
 30
0.0
 10
-11.5130093121
 20
-5.751629449
 30
0.0
 10
-11.5086750257
 20
-5.7514784483
 30
0.0
 10
-11.5065117928
 20
-5.7514784483
 30
0.0
  0
SPLINE
  5
486
100
AcDbEntity
  8
0
100
AcDbSpline
 62
7
  6
CONTINUOUS
 70
0
 71
3
 72
35
 73
31
 74
0
 42
0.0000001
 43
0.0000001
 44
0.0000000001
 40
0.0
 40
0.0
 40
0.0
 40
0.0
 40
0.0625961662
 40
0.0939150299
 40
0.1252262965
 40
0.187813484
 40
0.2503913256
 40
0.2816841774
 40
0.3129721426
 40
0.344255045
 40
0.3755327096
 40
0.4068051403
 40
0.4380720506
 40
0.4693331449
 40
0.5005884668
 40
0.5318379348
 40
0.5630815115
 40
0.5943194349
 40
0.6255517515
 40
0.6567785977
 40
0.6880003636
 40
0.7192172369
 40
0.7504295337
 40
0.7816377737
 40
0.8128422591
 40
0.8440434548
 40
0.8752419698
 40
0.9064381901
 40
0.9376326914
 40
1.0
 40
1.0
 40
1.0
 40
1.0
 10
-2.8294468212
 20
5.4910215517
 30
0.0
 10
-2.8294468212
 20
5.4790834284
 30
0.0
 10
-2.8303256225
 20
5.4611562436
 30
0.0
 10
-2.8332373826
 20
5.4374448788
 30
0.0
 10
-2.8373067189
 20
5.4139042574
 30
0.0
 10
-2.844543053
 20
5.3849003463
 30
0.0
 10
-2.8545797706
 20
5.3567458362
 30
0.0
 10
-2.8642245186
 20
5.3349025988
 30
0.0
 10
-2.8722525948
 20
5.3188939539
 30
0.0
 10
-2.881052363
 20
5.303299983
 30
0.0
 10
-2.8906040024
 20
5.2881582141
 30
0.0
 10
-2.9008849601
 20
5.2735056396
 30
0.0
 10
-2.9118688444
 20
5.2593763309
 30
0.0
 10
-2.9235305195
 20
5.2458053015
 30
0.0
 10
-2.9358419984
 20
5.2328255046
 30
0.0
 10
-2.9487722976
 20
5.2204668798
 30
0.0
 10
-2.9622915971
 20
5.208760504
 30
0.0
 10
-2.9763670883
 20
5.1977344769
 30
0.0
 10
-2.9909639285
 20
5.1874140457
 30
0.0
 10
-3.0060481699
 20
5.1778257448
 30
0.0
 10
-3.021583006
 20
5.1689921529
 30
0.0
 10
-3.037530446
 20
5.1609333613
 30
0.0
 10
-3.0538530626
 20
5.1536707375
 30
0.0
 10
-3.0705109835
 20
5.1472207958
 30
0.0
 10
-3.0874638116
 20
5.1415981296
 30
0.0
 10
-3.1046714673
 20
5.1368184152
 30
0.0
 10
-3.1220917179
 20
5.1328917484
 30
0.0
 10
-3.1396836297
 20
5.1298269463
 30
0.0
 10
-3.1633031889
 20
5.1269030922
 30
0.0
 10
-3.1811634096
 20
5.1260215517
 30
0.0
 10
-3.193057886
 20
5.1260215517
 30
0.0
  0
SPLINE
  5
487
100
AcDbEntity
  8
0
100
AcDbSpline
 62
7
  6
CONTINUOUS
 70
0
 71
3
 72
35
 73
31
 74
0
 42
0.0000001
 43
0.0000001
 44
0.0000000001
 40
0.0
 40
0.0
 40
0.0
 40
0.0
 40
0.0623673086
 40
0.0935618099
 40
0.1247580302
 40
0.1559565452
 40
0.1871577409
 40
0.2183622263
 40
0.2495704663
 40
0.2807827631
 40
0.3119996364
 40
0.3432214023
 40
0.3744482485
 40
0.4056805651
 40
0.4369184885
 40
0.4681620652
 40
0.4994115332
 40
0.5306668551
 40
0.5619279494
 40
0.5931948597
 40
0.6244672904
 40
0.655744955
 40
0.6870278574
 40
0.7183158226
 40
0.7496086744
 40
0.812186516
 40
0.8747737035
 40
0.9060849701
 40
0.9374038338
 40
1.0
 40
1.0
 40
1.0
 40
1.0
 10
-3.193057886
 20
5.8560215517
 30
0.0
 10
-3.1811634096
 20
5.8560215517
 30
0.0
 10
-3.1633031889
 20
5.8551400113
 30
0.0
 10
-3.1396836297
 20
5.8522161572
 30
0.0
 10
-3.1220917179
 20
5.849151355
 30
0.0
 10
-3.1046714673
 20
5.8452246883
 30
0.0
 10
-3.0874638116
 20
5.8404449738
 30
0.0
 10
-3.0705109835
 20
5.8348223077
 30
0.0
 10
-3.0538530626
 20
5.828372366
 30
0.0
 10
-3.037530446
 20
5.8211097421
 30
0.0
 10
-3.021583006
 20
5.8130509505
 30
0.0
 10
-3.0060481699
 20
5.8042173586
 30
0.0
 10
-2.9909639285
 20
5.7946290577
 30
0.0
 10
-2.9763670883
 20
5.7843086266
 30
0.0
 10
-2.9622915971
 20
5.7732825995
 30
0.0
 10
-2.9487722976
 20
5.7615762236
 30
0.0
 10
-2.9358419984
 20
5.7492175988
 30
0.0
 10
-2.9235305195
 20
5.736237802
 30
0.0
 10
-2.9118688444
 20
5.7226667726
 30
0.0
 10
-2.9008849601
 20
5.7085374639
 30
0.0
 10
-2.8906040024
 20
5.6938848893
 30
0.0
 10
-2.881052363
 20
5.6787431205
 30
0.0
 10
-2.8722525948
 20
5.6631491496
 30
0.0
 10
-2.8642245186
 20
5.6471405046
 30
0.0
 10
-2.8545797706
 20
5.6252972673
 30
0.0
 10
-2.844543053
 20
5.5971427571
 30
0.0
 10
-2.8373067189
 20
5.568138846
 30
0.0
 10
-2.8332373826
 20
5.5445982246
 30
0.0
 10
-2.8303256225
 20
5.5208868598
 30
0.0
 10
-2.8294468212
 20
5.502959675
 30
0.0
 10
-2.8294468212
 20
5.4910215517
 30
0.0
  0
SPLINE
  5
488
100
AcDbEntity
  8
0
100
AcDbSpline
 62
7
  6
CONTINUOUS
 70
0
 71
3
 72
35
 73
31
 74
0
 42
0.0000001
 43
0.0000001
 44
0.0000000001
 40
0.0
 40
0.0
 40
0.0
 40
0.0
 40
0.0625961662
 40
0.0939150299
 40
0.1252262965
 40
0.187813484
 40
0.2503913256
 40
0.2816841774
 40
0.3129721426
 40
0.344255045
 40
0.3755327096
 40
0.4068051403
 40
0.4380720506
 40
0.4693331449
 40
0.5005884668
 40
0.5318379348
 40
0.5630815115
 40
0.5943194349
 40
0.6255517515
 40
0.6567785977
 40
0.6880003636
 40
0.7192172369
 40
0.7504295337
 40
0.7816377737
 40
0.8128422591
 40
0.8440434548
 40
0.8752419698
 40
0.9064381901
 40
0.9376326914
 40
1.0
 40
1.0
 40
1.0
 40
1.0
 10
-3.5566689508
 20
5.4910215517
 30
0.0
 10
-3.5566689508
 20
5.502959675
 30
0.0
 10
-3.5557901495
 20
5.5208868598
 30
0.0
 10
-3.5528783894
 20
5.5445982246
 30
0.0
 10
-3.548809053
 20
5.568138846
 30
0.0
 10
-3.5415727189
 20
5.5971427571
 30
0.0
 10
-3.5315360013
 20
5.6252972673
 30
0.0
 10
-3.5218912534
 20
5.6471405046
 30
0.0
 10
-3.5138631772
 20
5.6631491496
 30
0.0
 10
-3.5050634089
 20
5.6787431205
 30
0.0
 10
-3.4955117695
 20
5.6938848893
 30
0.0
 10
-3.4852308118
 20
5.7085374639
 30
0.0
 10
-3.4742469276
 20
5.7226667726
 30
0.0
 10
-3.4625852525
 20
5.736237802
 30
0.0
 10
-3.4502737736
 20
5.7492175988
 30
0.0
 10
-3.4373434744
 20
5.7615762236
 30
0.0
 10
-3.4238241748
 20
5.7732825995
 30
0.0
 10
-3.4097486836
 20
5.7843086266
 30
0.0
 10
-3.3951518434
 20
5.7946290577
 30
0.0
 10
-3.380067602
 20
5.8042173586
 30
0.0
 10
-3.364532766
 20
5.8130509505
 30
0.0
 10
-3.3485853259
 20
5.8211097421
 30
0.0
 10
-3.3322627093
 20
5.828372366
 30
0.0
 10
-3.3156047885
 20
5.8348223077
 30
0.0
 10
-3.2986519603
 20
5.8404449738
 30
0.0
 10
-3.2814443046
 20
5.8452246883
 30
0.0
 10
-3.264024054
 20
5.849151355
 30
0.0
 10
-3.2464321423
 20
5.8522161572
 30
0.0
 10
-3.222812583
 20
5.8551400113
 30
0.0
 10
-3.2049523623
 20
5.8560215517
 30
0.0
 10
-3.193057886
 20
5.8560215517
 30
0.0
  0
SPLINE
  5
489
100
AcDbEntity
  8
0
100
AcDbSpline
 62
7
  6
CONTINUOUS
 70
0
 71
3
 72
35
 73
31
 74
0
 42
0.0000001
 43
0.0000001
 44
0.0000000001
 40
0.0
 40
0.0
 40
0.0
 40
0.0
 40
0.0623673086
 40
0.0935618099
 40
0.1247580302
 40
0.1559565452
 40
0.1871577409
 40
0.2183622263
 40
0.2495704663
 40
0.2807827631
 40
0.3119996364
 40
0.3432214023
 40
0.3744482485
 40
0.4056805651
 40
0.4369184885
 40
0.4681620652
 40
0.4994115332
 40
0.5306668551
 40
0.5619279494
 40
0.5931948597
 40
0.6244672904
 40
0.655744955
 40
0.6870278574
 40
0.7183158226
 40
0.7496086744
 40
0.812186516
 40
0.8747737035
 40
0.9060849701
 40
0.9374038338
 40
1.0
 40
1.0
 40
1.0
 40
1.0
 10
-3.193057886
 20
5.1260215517
 30
0.0
 10
-3.2049523623
 20
5.1260215517
 30
0.0
 10
-3.222812583
 20
5.1269030922
 30
0.0
 10
-3.2464321423
 20
5.1298269463
 30
0.0
 10
-3.264024054
 20
5.1328917484
 30
0.0
 10
-3.2814443046
 20
5.1368184152
 30
0.0
 10
-3.2986519603
 20
5.1415981296
 30
0.0
 10
-3.3156047885
 20
5.1472207958
 30
0.0
 10
-3.3322627093
 20
5.1536707375
 30
0.0
 10
-3.3485853259
 20
5.1609333613
 30
0.0
 10
-3.364532766
 20
5.1689921529
 30
0.0
 10
-3.380067602
 20
5.1778257448
 30
0.0
 10
-3.3951518434
 20
5.1874140457
 30
0.0
 10
-3.4097486836
 20
5.1977344769
 30
0.0
 10
-3.4238241748
 20
5.208760504
 30
0.0
 10
-3.4373434744
 20
5.2204668798
 30
0.0
 10
-3.4502737736
 20
5.2328255046
 30
0.0
 10
-3.4625852525
 20
5.2458053015
 30
0.0
 10
-3.4742469276
 20
5.2593763309
 30
0.0
 10
-3.4852308118
 20
5.2735056396
 30
0.0
 10
-3.4955117695
 20
5.2881582141
 30
0.0
 10
-3.5050634089
 20
5.303299983
 30
0.0
 10
-3.5138631772
 20
5.3188939539
 30
0.0
 10
-3.5218912534
 20
5.3349025988
 30
0.0
 10
-3.5315360013
 20
5.3567458362
 30
0.0
 10
-3.5415727189
 20
5.3849003463
 30
0.0
 10
-3.548809053
 20
5.4139042574
 30
0.0
 10
-3.5528783894
 20
5.4374448788
 30
0.0
 10
-3.5557901495
 20
5.4611562436
 30
0.0
 10
-3.5566689508
 20
5.4790834284
 30
0.0
 10
-3.5566689508
 20
5.4910215517
 30
0.0
  0
SPLINE
  5
48A
100
AcDbEntity
  8
0
100
AcDbSpline
 62
7
  6
CONTINUOUS
 70
0
 71
3
 72
15
 73
11
 74
0
 42
0.0000001
 43
0.0000001
 44
0.0000000001
 40
0.0
 40
0.0
 40
0.0
 40
0.0
 40
0.1252329505
 40
0.2504328687
 40
0.37556308
 40
0.5006107027
 40
0.62556535
 40
0.7504307989
 40
0.8752344591
 40
1.0
 40
1.0
 40
1.0
 40
1.0
 10
6.0107131658
 20
4.1510215517
 30
0.0
 10
6.0107131658
 20
4.1464476091
 30
0.0
 10
6.0116118895
 20
4.137275764
 30
0.0
 10
6.0156046847
 20
4.1240653546
 30
0.0
 10
6.0220890091
 20
4.1118847005
 30
0.0
 10
6.0308162219
 20
4.1012087362
 30
0.0
 10
6.0414508862
 20
4.0924461199
 30
0.0
 10
6.053586386
 20
4.0859344475
 30
0.0
 10
6.0667493506
 20
4.0819243218
 30
0.0
 10
6.0758899235
 20
4.0810215517
 30
0.0
 10
6.0804467947
 20
4.0810215517
 30
0.0
  0
SPLINE
  5
48B
100
AcDbEntity
  8
0
100
AcDbSpline
 62
7
  6
CONTINUOUS
 70
0
 71
3
 72
15
 73
11
 74
0
 42
0.0000001
 43
0.0000001
 44
0.0000000001
 40
0.0
 40
0.0
 40
0.0
 40
0.0
 40
0.1252329505
 40
0.2504328687
 40
0.37556308
 40
0.5006107027
 40
0.62556535
 40
0.7504307989
 40
0.8752344591
 40
1.0
 40
1.0
 40
1.0
 40
1.0
 10
-14.2593471603
 20
4.1510215517
 30
0.0
 10
-14.2593471603
 20
4.1464476091
 30
0.0
 10
-14.2602458839
 20
4.137275764
 30
0.0
 10
-14.2642386792
 20
4.1240653546
 30
0.0
 10
-14.2707230035
 20
4.1118847005
 30
0.0
 10
-14.2794502163
 20
4.1012087362
 30
0.0
 10
-14.2900848806
 20
4.0924461199
 30
0.0
 10
-14.3022203804
 20
4.0859344475
 30
0.0
 10
-14.3153833451
 20
4.0819243218
 30
0.0
 10
-14.324523918
 20
4.0810215517
 30
0.0
 10
-14.3290807891
 20
4.0810215517
 30
0.0
  0
SPLINE
  5
48C
100
AcDbEntity
  8
0
100
AcDbSpline
 62
7
  6
CONTINUOUS
 70
0
 71
3
 72
15
 73
11
 74
0
 42
0.0000001
 43
0.0000001
 44
0.0000000001
 40
0.0
 40
0.0
 40
0.0
 40
0.0
 40
0.1247655409
 40
0.2495692011
 40
0.37443465
 40
0.4993892973
 40
0.62443692
 40
0.7495671313
 40
0.8747670495
 40
1.0
 40
1.0
 40
1.0
 40
1.0
 10
-14.2419250464
 20
4.0810215517
 30
0.0
 10
-14.2373681752
 20
4.0810215517
 30
0.0
 10
-14.2282276023
 20
4.0819243218
 30
0.0
 10
-14.2150646377
 20
4.0859344475
 30
0.0
 10
-14.2029291379
 20
4.0924461199
 30
0.0
 10
-14.1922944736
 20
4.1012087362
 30
0.0
 10
-14.1835672608
 20
4.1118847005
 30
0.0
 10
-14.1770829364
 20
4.1240653546
 30
0.0
 10
-14.1730901412
 20
4.137275764
 30
0.0
 10
-14.1721914175
 20
4.1464476091
 30
0.0
 10
-14.1721914175
 20
4.1510215517
 30
0.0
  0
SPLINE
  5
48D
100
AcDbEntity
  8
0
100
AcDbSpline
 62
7
  6
CONTINUOUS
 70
0
 71
3
 72
28
 73
24
 74
0
 42
0.0000001
 43
0.0000001
 44
0.0000000001
 40
0.0
 40
0.0
 40
0.0
 40
0.0
 40
0.0021305426
 40
0.0044214873
 40
0.0070014036
 40
0.0099605939
 40
0.0172256425
 40
0.0264982361
 40
0.0378928926
 40
0.0514488124
 40
0.0671722808
 40
0.0850543774
 40
0.1050744273
 40
0.1271929998
 40
0.1775366568
 40
0.2356686756
 40
0.301049768
 40
0.3730845067
 40
0.451087418
 40
0.5343299542
 40
0.6220067751
 40
0.807332104
 40
1.0
 40
1.0
 40
1.0
 40
1.0
 10
-2.7372310722
 20
4.0810215517
 30
0.0
 10
-2.7372814115
 20
4.0810215517
 30
0.0
 10
-2.7373863673
 20
4.0810369902
 30
0.0
 10
-2.7375392274
 20
4.0811040911
 30
0.0
 10
-2.7376899373
 20
4.0812132481
 30
0.0
 10
-2.7379035135
 20
4.0814288895
 30
0.0
 10
-2.7381619136
 20
4.0818142121
 30
0.0
 10
-2.7384514684
 20
4.0824081623
 30
0.0
 10
-2.7387389668
 20
4.0831648972
 30
0.0
 10
-2.7390238393
 20
4.0840831196
 30
0.0
 10
-2.7393052251
 20
4.0851616314
 30
0.0
 10
-2.73958222
 20
4.0863982155
 30
0.0
 10
-2.7398539739
 20
4.0877902205
 30
0.0
 10
-2.7402245892
 20
4.0899438263
 30
0.0
 10
-2.7406610458
 20
4.0929990119
 30
0.0
 10
-2.7411343951
 20
4.0970797566
 30
0.0
 10
-2.7415722302
 20
4.1016795396
 30
0.0
 10
-2.7419695788
 20
4.106753995
 30
0.0
 10
-2.742322626
 20
4.1122546507
 30
0.0
 10
-2.742627415
 20
4.1181282795
 30
0.0
 10
-2.7429720725
 20
4.1265385133
 30
0.0
 10
-2.7432566618
 20
4.1375381118
 30
0.0
 10
-2.7433319741
 20
4.1464692998
 30
0.0
 10
-2.7433319741
 20
4.1510215517
 30
0.0
  0
SPLINE
  5
48E
100
AcDbEntity
  8
0
100
AcDbSpline
 62
7
  6
CONTINUOUS
 70
0
 71
3
 72
28
 73
24
 74
0
 42
0.0000001
 43
0.0000001
 44
0.0000000001
 40
0.0
 40
0.0
 40
0.0
 40
0.0
 40
0.192667896
 40
0.3779932249
 40
0.4656700458
 40
0.548912582
 40
0.6269154933
 40
0.698950232
 40
0.7643313244
 40
0.8224633432
 40
0.8728070002
 40
0.8949255727
 40
0.9149456226
 40
0.9328277192
 40
0.9485511876
 40
0.9621071074
 40
0.9735017639
 40
0.9827743575
 40
0.9900394061
 40
0.9929985964
 40
0.9955785127
 40
0.9978694574
 40
1.0
 40
1.0
 40
1.0
 40
1.0
 10
-3.7395266722
 20
4.1510215517
 30
0.0
 10
-3.7395266722
 20
4.1464692998
 30
0.0
 10
-3.7394513599
 20
4.1375381118
 30
0.0
 10
-3.7391667706
 20
4.1265385133
 30
0.0
 10
-3.7388221131
 20
4.1181282795
 30
0.0
 10
-3.7385173241
 20
4.1122546507
 30
0.0
 10
-3.7381642769
 20
4.106753995
 30
0.0
 10
-3.7377669283
 20
4.1016795396
 30
0.0
 10
-3.7373290932
 20
4.0970797566
 30
0.0
 10
-3.7368557439
 20
4.0929990119
 30
0.0
 10
-3.7364192873
 20
4.0899438263
 30
0.0
 10
-3.736048672
 20
4.0877902205
 30
0.0
 10
-3.7357769181
 20
4.0863982155
 30
0.0
 10
-3.7354999232
 20
4.0851616314
 30
0.0
 10
-3.7352185374
 20
4.0840831196
 30
0.0
 10
-3.7349336649
 20
4.0831648972
 30
0.0
 10
-3.7346461665
 20
4.0824081623
 30
0.0
 10
-3.7343566117
 20
4.0818142121
 30
0.0
 10
-3.7340982116
 20
4.0814288895
 30
0.0
 10
-3.7338846354
 20
4.0812132481
 30
0.0
 10
-3.7337339255
 20
4.0811040911
 30
0.0
 10
-3.7335810654
 20
4.0810369902
 30
0.0
 10
-3.7334761095
 20
4.0810215517
 30
0.0
 10
-3.7334257702
 20
4.0810215517
 30
0.0
  0
SPLINE
  5
48F
100
AcDbEntity
  8
0
100
AcDbSpline
 62
3
  6
CONTINUOUS
 70
0
 71
3
 72
15
 73
11
 74
0
 42
0.0000001
 43
0.0000001
 44
0.0000000001
 40
0.0
 40
0.0
 40
0.0
 40
0.0
 40
0.1252329505
 40
0.2504328687
 40
0.37556308
 40
0.5006107027
 40
0.62556535
 40
0.7504307989
 40
0.8752344591
 40
1.0
 40
1.0
 40
1.0
 40
1.0
 10
5.9409795369
 20
4.1510215517
 30
0.0
 10
5.9409795369
 20
4.1418736665
 30
0.0
 10
5.9427769843
 20
4.1235299763
 30
0.0
 10
5.9507625748
 20
4.0971091576
 30
0.0
 10
5.9637312235
 20
4.0727478493
 30
0.0
 10
5.981185649
 20
4.0513959206
 30
0.0
 10
6.0024549777
 20
4.0338706881
 30
0.0
 10
6.0267259773
 20
4.0208473433
 30
0.0
 10
6.0530519066
 20
4.0128270918
 30
0.0
 10
6.0713330523
 20
4.0110215517
 30
0.0
 10
6.0804467947
 20
4.0110215517
 30
0.0
  0
SPLINE
  5
490
100
AcDbEntity
  8
0
100
AcDbSpline
 62
3
  6
CONTINUOUS
 70
0
 71
3
 72
15
 73
11
 74
0
 42
0.0000001
 43
0.0000001
 44
0.0000000001
 40
0.0
 40
0.0
 40
0.0
 40
0.0
 40
0.1247655409
 40
0.2495692011
 40
0.37443465
 40
0.4993892973
 40
0.62443692
 40
0.7495671313
 40
0.8747670495
 40
1.0
 40
1.0
 40
1.0
 40
1.0
 10
-14.2419250464
 20
4.0110215517
 30
0.0
 10
-14.232811304
 20
4.0110215517
 30
0.0
 10
-14.2145301583
 20
4.0128270918
 30
0.0
 10
-14.188204229
 20
4.0208473433
 30
0.0
 10
-14.1639332294
 20
4.0338706881
 30
0.0
 10
-14.1426639007
 20
4.0513959206
 30
0.0
 10
-14.1252094752
 20
4.0727478493
 30
0.0
 10
-14.1122408265
 20
4.0971091576
 30
0.0
 10
-14.104255236
 20
4.1235299763
 30
0.0
 10
-14.1024577887
 20
4.1418736665
 30
0.0
 10
-14.1024577887
 20
4.1510215517
 30
0.0
  0
SPLINE
  5
491
100
AcDbEntity
  8
0
100
AcDbSpline
 62
3
  6
CONTINUOUS
 70
0
 71
3
 72
31
 73
27
 74
0
 42
0.0000001
 43
0.0000001
 44
0.0000000001
 40
0.0
 40
0.0
 40
0.0
 40
0.0
 40
0.192665234
 40
0.3779880023
 40
0.4656636119
 40
0.548904998
 40
0.6269068315
 40
0.698940575
 40
0.7643207641
 40
0.8224519797
 40
0.8486260807
 40
0.8727965254
 40
0.8949147923
 40
0.9149345655
 40
0.9328164152
 40
0.9485396663
 40
0.9620953988
 40
0.9734898979
 40
0.9783881466
 40
0.9827663539
 40
0.9866416585
 40
0.9900395437
 40
0.9929986931
 40
0.9955785738
 40
0.9978694868
 40
1.0
 40
1.0
 40
1.0
 40
1.0
 10
-3.7456275742
 20
4.1510215517
 30
0.0
 10
-3.7456275742
 20
4.1419170479
 30
0.0
 10
-3.7454769492
 20
4.124054672
 30
0.0
 10
-3.7449077717
 20
4.1020554744
 30
0.0
 10
-3.7442184548
 20
4.0852350079
 30
0.0
 10
-3.7436088823
 20
4.0734877475
 30
0.0
 10
-3.7429027688
 20
4.0624864459
 30
0.0
 10
-3.7421081352
 20
4.0523375021
 30
0.0
 10
-3.7412322599
 20
4.0431380424
 30
0.0
 10
-3.7404177208
 20
4.0361108603
 30
0.0
 10
-3.7397215956
 20
4.0310320911
 30
0.0
 10
-3.7392031805
 20
4.0276471215
 30
0.0
 10
-3.7386715387
 20
4.0245588944
 30
0.0
 10
-3.738128077
 20
4.0217748762
 30
0.0
 10
-3.7375740639
 20
4.0193017176
 30
0.0
 10
-3.737011337
 20
4.0171446679
 30
0.0
 10
-3.7364414643
 20
4.0153083008
 30
0.0
 10
-3.7359402812
 20
4.0139880814
 30
0.0
 10
-3.7355283704
 20
4.0131018908
 30
0.0
 10
-3.7352339736
 20
4.0125540589
 30
0.0
 10
-3.7349385165
 20
4.012088734
 30
0.0
 10
-3.7346418367
 20
4.01170577
 30
0.0
 10
-3.7343434587
 20
4.0114049882
 30
0.0
 10
-3.7340420901
 20
4.0111866207
 30
0.0
 10
-3.7337363582
 20
4.0110524311
 30
0.0
 10
-3.7335264488
 20
4.0110215517
 30
0.0
 10
-3.7334257702
 20
4.0110215517
 30
0.0
  0
SPLINE
  5
492
100
AcDbEntity
  8
0
100
AcDbSpline
 62
7
  6
CONTINUOUS
 70
0
 71
3
 72
39
 73
35
 74
0
 42
0.0000001
 43
0.0000001
 44
0.0000000001
 40
0.0
 40
0.0
 40
0.0
 40
0.0
 40
0.0944469041
 40
0.1880733952
 40
0.2799780329
 40
0.3693598567
 40
0.4554117181
 40
0.5373558771
 40
0.6144574644
 40
0.6860281519
 40
0.7195385912
 40
0.7514327915
 40
0.7816391265
 40
0.8100940513
 40
0.8367363105
 40
0.8493592049
 40
0.8615081143
 40
0.8843607208
 40
0.9052493104
 40
0.9241338628
 40
0.9328159719
 40
0.9409873767
 40
0.9486457286
 40
0.9557892206
 40
0.9624171764
 40
0.9685310043
 40
0.9741335792
 40
0.9792295581
 40
0.9838261611
 40
0.9879343943
 40
0.991571392
 40
0.9947640784
 40
0.9975531082
 40
1.0
 40
1.0
 40
1.0
 40
1.0
 10
51.0222764062
 20
5.4910215517
 30
0.0
 10
51.0222764062
 20
5.5026119788
 30
0.0
 10
51.0221806758
 20
5.5256922687
 30
0.0
 10
51.0217512964
 20
5.5600485921
 30
0.0
 10
51.0210397466
 20
5.5937785605
 30
0.0
 10
51.0200529858
 20
5.6265716708
 30
0.0
 10
51.0188002974
 20
5.6581324851
 30
0.0
 10
51.0172935094
 20
5.688173465
 30
0.0
 10
51.0155466524
 20
5.7164211936
 30
0.0
 10
51.0138706849
 20
5.738716447
 30
0.0
 10
51.0124092289
 20
5.7554624415
 30
0.0
 10
51.011287903
 20
5.7671421827
 30
0.0
 10
51.0101196012
 20
5.7781936668
 30
0.0
 10
51.0089072652
 20
5.7885918073
 30
0.0
 10
51.0078445347
 20
5.7968343816
 30
0.0
 10
51.0069708014
 20
5.8030831295
 30
0.0
 10
51.0061176089
 20
5.8088649773
 30
0.0
 10
51.0050352529
 20
5.8156382057
 30
0.0
 10
51.0036768231
 20
5.8232030877
 30
0.0
 10
51.0024902062
 20
5.8290306481
 30
0.0
 10
51.0015199483
 20
5.8333078795
 30
0.0
 10
51.0008067013
 20
5.8362303244
 30
0.0
 10
51.0000878086
 20
5.8389565681
 30
0.0
 10
50.9993636665
 20
5.8414849811
 30
0.0
 10
50.9986346603
 20
5.8438141401
 30
0.0
 10
50.9979013048
 20
5.8459429169
 30
0.0
 10
50.997164064
 20
5.8478703899
 30
0.0
 10
50.9964233774
 20
5.8495957345
 30
0.0
 10
50.9956796517
 20
5.8511182326
 30
0.0
 10
50.9949331199
 20
5.8524373805
 30
0.0
 10
50.9941837759
 20
5.8535529755
 30
0.0
 10
50.9934309457
 20
5.8544654535
 30
0.0
 10
50.9926737896
 20
5.8551749267
 30
0.0
 10
50.9921334522
 20
5.8555315682
 30
0.0
 10
50.9918655208
 20
5.8556671444
 30
0.0
  0
SPLINE
  5
493
100
AcDbEntity
  8
0
100
AcDbSpline
 62
7
  6
CONTINUOUS
 70
0
 71
3
 72
15
 73
11
 74
0
 42
0.0000001
 43
0.0000001
 44
0.0000000001
 40
0.0
 40
0.0
 40
0.0
 40
0.0
 40
0.1042619458
 40
0.2166105586
 40
0.3360398107
 40
0.4614755216
 40
0.5917807883
 40
0.725775244
 40
0.862287569
 40
1.0
 40
1.0
 40
1.0
 40
1.0
 10
51.0134239801
 20
5.2383765398
 30
0.0
 10
51.0141560254
 20
5.2471340766
 30
0.0
 10
51.0155276801
 20
5.2653410291
 30
0.0
 10
51.0172792557
 20
5.293611761
 30
0.0
 10
51.0187902726
 20
5.3236834346
 30
0.0
 10
51.0200465237
 20
5.3552815162
 30
0.0
 10
51.0210361313
 20
5.3881172801
 30
0.0
 10
51.0217497551
 20
5.4218940142
 30
0.0
 10
51.022180395
 20
5.4562998818
 30
0.0
 10
51.0222764062
 20
5.4794139822
 30
0.0
 10
51.0222764062
 20
5.4910215517
 30
0.0
  0
SPLINE
  5
494
100
AcDbEntity
  8
0
100
AcDbSpline
 62
7
  6
CONTINUOUS
 70
0
 71
3
 72
30
 73
26
 74
0
 42
0.0000001
 43
0.0000001
 44
0.0000000001
 40
0.0
 40
0.0
 40
0.0
 40
0.0
 40
0.1118197709
 40
0.2174481838
 40
0.3167206201
 40
0.4094990815
 40
0.4956532874
 40
0.5750593918
 40
0.6476216079
 40
0.7132704412
 40
0.7719516744
 40
0.7986713589
 40
0.8236460641
 40
0.8468830059
 40
0.8683932621
 40
0.8881931169
 40
0.906306004
 40
0.9227653701
 40
0.9376198677
 40
0.9509416124
 40
0.9628328466
 40
0.9734387412
 40
0.9829650653
 40
0.9916960691
 40
1.0
 40
1.0
 40
1.0
 40
1.0
 10
50.5215043285
 20
4.3002825933
 30
0.0
 10
50.5211712495
 20
4.2973956269
 30
0.0
 10
50.5204975012
 20
4.2917844956
 30
0.0
 10
50.5194293885
 20
4.2836225751
 30
0.0
 10
50.5183336705
 20
4.2759638733
 30
0.0
 10
50.5172124124
 20
4.2688207321
 30
0.0
 10
50.5160676302
 20
4.2622046817
 30
0.0
 10
50.5149011403
 20
4.2561265696
 30
0.0
 10
50.5137150982
 20
4.2505960546
 30
0.0
 10
50.512511802
 20
4.245621796
 30
0.0
 10
50.5114666539
 20
4.241836765
 30
0.0
 10
50.5106158371
 20
4.2390970315
 30
0.0
 10
50.5099945813
 20
4.2372511541
 30
0.0
 10
50.5093703886
 20
4.235549765
 30
0.0
 10
50.5087435004
 20
4.2339934252
 30
0.0
 10
50.5081141835
 20
4.2325826561
 30
0.0
 10
50.5074826727
 20
4.2313179338
 30
0.0
 10
50.5068491446
 20
4.2301996464
 30
0.0
 10
50.5062136132
 20
4.2292280322
 30
0.0
 10
50.5055760358
 20
4.2284030437
 30
0.0
 10
50.5049359596
 20
4.2277245381
 30
0.0
 10
50.5042924408
 20
4.2271926238
 30
0.0
 10
50.5036437939
 20
4.2268083238
 30
0.0
 10
50.5029892211
 20
4.2265745265
 30
0.0
 10
50.5025449713
 20
4.2265215517
 30
0.0
 10
50.502329158
 20
4.2265215517
 30
0.0
  0
SPLINE
  5
495
100
AcDbEntity
  8
0
100
AcDbSpline
 62
7
  6
CONTINUOUS
 70
0
 71
3
 72
30
 73
26
 74
0
 42
0.0000001
 43
0.0000001
 44
0.0000000001
 40
0.0
 40
0.0
 40
0.0
 40
0.0
 40
0.1118197709
 40
0.2174481838
 40
0.3167206201
 40
0.4094990815
 40
0.4956532874
 40
0.5750593918
 40
0.6476216079
 40
0.7132704412
 40
0.7719516744
 40
0.7986713589
 40
0.8236460641
 40
0.8468830059
 40
0.8683932621
 40
0.8881931169
 40
0.906306004
 40
0.9227653701
 40
0.9376198677
 40
0.9509416124
 40
0.9628328466
 40
0.9734387412
 40
0.9829650653
 40
0.9916960691
 40
1.0
 40
1.0
 40
1.0
 40
1.0
 10
30.1707440934
 20
4.3002825933
 30
0.0
 10
30.1710771724
 20
4.2973956269
 30
0.0
 10
30.1717509207
 20
4.2917844956
 30
0.0
 10
30.1728190334
 20
4.2836225751
 30
0.0
 10
30.1739147514
 20
4.2759638733
 30
0.0
 10
30.1750360095
 20
4.2688207321
 30
0.0
 10
30.1761807917
 20
4.2622046817
 30
0.0
 10
30.1773472816
 20
4.2561265696
 30
0.0
 10
30.1785333237
 20
4.2505960546
 30
0.0
 10
30.1797366199
 20
4.245621796
 30
0.0
 10
30.180781768
 20
4.241836765
 30
0.0
 10
30.1816325847
 20
4.2390970315
 30
0.0
 10
30.1822538406
 20
4.2372511541
 30
0.0
 10
30.1828780333
 20
4.235549765
 30
0.0
 10
30.1835049215
 20
4.2339934252
 30
0.0
 10
30.1841342383
 20
4.2325826561
 30
0.0
 10
30.1847657492
 20
4.2313179338
 30
0.0
 10
30.1853992773
 20
4.2301996464
 30
0.0
 10
30.1860348087
 20
4.2292280322
 30
0.0
 10
30.1866723861
 20
4.2284030437
 30
0.0
 10
30.1873124623
 20
4.2277245381
 30
0.0
 10
30.1879559811
 20
4.2271926238
 30
0.0
 10
30.188604628
 20
4.2268083238
 30
0.0
 10
30.1892592008
 20
4.2265745265
 30
0.0
 10
30.1897034506
 20
4.2265215517
 30
0.0
 10
30.1899192639
 20
4.2265215517
 30
0.0
  0
SPLINE
  5
496
100
AcDbEntity
  8
0
100
AcDbSpline
 62
7
  6
CONTINUOUS
 70
0
 71
3
 72
30
 73
26
 74
0
 42
0.0000001
 43
0.0000001
 44
0.0000000001
 40
0.0
 40
0.0
 40
0.0
 40
0.0
 40
0.0083039309
 40
0.0170349347
 40
0.0265612588
 40
0.0371671534
 40
0.0490583876
 40
0.0623801323
 40
0.0772346299
 40
0.093693996
 40
0.1118068831
 40
0.1316067379
 40
0.1531169941
 40
0.1763539359
 40
0.2013286411
 40
0.2280483256
 40
0.2867295588
 40
0.3523783921
 40
0.4249406082
 40
0.5043467126
 40
0.5905009185
 40
0.6832793799
 40
0.7825518162
 40
0.8881802291
 40
1.0
 40
1.0
 40
1.0
 40
1.0
 10
30.2546719193
 20
4.2265215517
 30
0.0
 10
30.2548877326
 20
4.2265215517
 30
0.0
 10
30.2553319824
 20
4.2265745265
 30
0.0
 10
30.2559865552
 20
4.2268083238
 30
0.0
 10
30.2566352021
 20
4.2271926238
 30
0.0
 10
30.2572787209
 20
4.2277245381
 30
0.0
 10
30.2579187971
 20
4.2284030437
 30
0.0
 10
30.2585563744
 20
4.2292280322
 30
0.0
 10
30.2591919059
 20
4.2301996464
 30
0.0
 10
30.259825434
 20
4.2313179338
 30
0.0
 10
30.2604569448
 20
4.2325826561
 30
0.0
 10
30.2610862617
 20
4.2339934252
 30
0.0
 10
30.2617131499
 20
4.235549765
 30
0.0
 10
30.2623373426
 20
4.2372511541
 30
0.0
 10
30.2629585984
 20
4.2390970315
 30
0.0
 10
30.2638094152
 20
4.241836765
 30
0.0
 10
30.2648545633
 20
4.245621796
 30
0.0
 10
30.2660578595
 20
4.2505960546
 30
0.0
 10
30.2672439016
 20
4.2561265696
 30
0.0
 10
30.2684103915
 20
4.2622046817
 30
0.0
 10
30.2695551737
 20
4.2688207321
 30
0.0
 10
30.2706764318
 20
4.2759638733
 30
0.0
 10
30.2717721498
 20
4.2836225751
 30
0.0
 10
30.2728402625
 20
4.2917844956
 30
0.0
 10
30.2735140108
 20
4.2973956269
 30
0.0
 10
30.2738470898
 20
4.3002825933
 30
0.0
  0
SPLINE
  5
497
100
AcDbEntity
  8
0
100
AcDbSpline
 62
7
  6
CONTINUOUS
 70
0
 71
3
 72
30
 73
26
 74
0
 42
0.0000001
 43
0.0000001
 44
0.0000000001
 40
0.0
 40
0.0
 40
0.0
 40
0.0
 40
0.0083039309
 40
0.0170349347
 40
0.0265612588
 40
0.0371671534
 40
0.0490583876
 40
0.0623801323
 40
0.0772346299
 40
0.093693996
 40
0.1118068831
 40
0.1316067379
 40
0.1531169941
 40
0.1763539359
 40
0.2013286411
 40
0.2280483256
 40
0.2867295588
 40
0.3523783921
 40
0.4249406082
 40
0.5043467126
 40
0.5905009185
 40
0.6832793799
 40
0.7825518162
 40
0.8881802291
 40
1.0
 40
1.0
 40
1.0
 40
1.0
 10
30.1899192639
 20
4.2265215517
 30
0.0
 10
30.1901350772
 20
4.2265215517
 30
0.0
 10
30.190579327
 20
4.2265745265
 30
0.0
 10
30.1912338998
 20
4.2268083238
 30
0.0
 10
30.1918825467
 20
4.2271926238
 30
0.0
 10
30.1925260655
 20
4.2277245381
 30
0.0
 10
30.1931661417
 20
4.2284030437
 30
0.0
 10
30.1938037191
 20
4.2292280322
 30
0.0
 10
30.1944392505
 20
4.2301996464
 30
0.0
 10
30.1950727786
 20
4.2313179338
 30
0.0
 10
30.1957042895
 20
4.2325826561
 30
0.0
 10
30.1963336063
 20
4.2339934252
 30
0.0
 10
30.1969604945
 20
4.235549765
 30
0.0
 10
30.1975846872
 20
4.2372511541
 30
0.0
 10
30.1982059431
 20
4.2390970315
 30
0.0
 10
30.1990567598
 20
4.241836765
 30
0.0
 10
30.2001019079
 20
4.245621796
 30
0.0
 10
30.2013052041
 20
4.2505960546
 30
0.0
 10
30.2024912462
 20
4.2561265696
 30
0.0
 10
30.2036577361
 20
4.2622046817
 30
0.0
 10
30.2048025183
 20
4.2688207321
 30
0.0
 10
30.2059237764
 20
4.2759638733
 30
0.0
 10
30.2070194944
 20
4.2836225751
 30
0.0
 10
30.2080876071
 20
4.2917844956
 30
0.0
 10
30.2087613554
 20
4.2973956269
 30
0.0
 10
30.2090944344
 20
4.3002825933
 30
0.0
  0
SPLINE
  5
498
100
AcDbEntity
  8
0
100
AcDbSpline
 62
7
  6
CONTINUOUS
 70
0
 71
3
 72
31
 73
27
 74
0
 42
0.0000001
 43
0.0000001
 44
0.0000000001
 40
0.0
 40
0.0
 40
0.0
 40
0.0
 40
0.1116414507
 40
0.2173878493
 40
0.317022788
 40
0.4103360405
 40
0.4971304849
 40
0.5772414629
 40
0.6505147082
 40
0.7168139925
 40
0.7760456616
 40
0.8029897004
 40
0.8281430284
 40
0.8515032953
 40
0.8730752737
 40
0.892868707
 40
0.9108993175
 40
0.9271913795
 40
0.9417817208
 40
0.9547271654
 40
0.9661168711
 40
0.9760849005
 40
0.9848331276
 40
0.9926608628
 40
0.9963630396
 40
1.0
 40
1.0
 40
1.0
 40
1.0
 10
29.6800047711
 20
5.7570690668
 30
0.0
 10
29.6803599183
 20
5.7608965689
 30
0.0
 10
29.6810829003
 20
5.7683466052
 30
0.0
 10
29.6822415721
 20
5.7792005746
 30
0.0
 10
29.6834429223
 20
5.7894147902
 30
0.0
 10
29.6846841927
 20
5.7989666054
 30
0.0
 10
29.6859627343
 20
5.8078348804
 30
0.0
 10
29.6872752193
 20
5.8160001107
 30
0.0
 10
29.6886184115
 20
5.8234444315
 30
0.0
 10
29.6899894551
 20
5.8301514599
 30
0.0
 10
29.6911865285
 20
5.835264124
 30
0.0
 10
29.6921646998
 20
5.8389706389
 30
0.0
 10
29.6928800971
 20
5.8414685244
 30
0.0
 10
29.6936002228
 20
5.8437719771
 30
0.0
 10
29.6943246144
 20
5.8458798998
 30
0.0
 10
29.6950528181
 20
5.8477914001
 30
0.0
 10
29.6957844082
 20
5.849505674
 30
0.0
 10
29.6965189997
 20
5.8510220163
 30
0.0
 10
29.6972563146
 20
5.8523399076
 30
0.0
 10
29.6979964282
 20
5.8534591233
 30
0.0
 10
29.6987396164
 20
5.8543799632
 30
0.0
 10
29.699487418
 20
5.8551027678
 30
0.0
 10
29.7002420677
 20
5.8556269171
 30
0.0
 10
29.7008927084
 20
5.8558992734
 30
0.0
 10
29.7014056083
 20
5.8560042522
 30
0.0
 10
29.7016586371
 20
5.8560215517
 30
0.0
 10
29.7017838618
 20
5.8560215517
 30
0.0
  0
SPLINE
  5
499
100
AcDbEntity
  8
0
100
AcDbSpline
 62
7
  6
CONTINUOUS
 70
0
 71
3
 72
31
 73
27
 74
0
 42
0.0000001
 43
0.0000001
 44
0.0000000001
 40
0.0
 40
0.0
 40
0.0
 40
0.0
 40
0.0036369604
 40
0.0073391372
 40
0.0151668724
 40
0.0239150995
 40
0.0338831289
 40
0.0452728346
 40
0.0582182792
 40
0.0728086205
 40
0.0891006825
 40
0.107131293
 40
0.1269247263
 40
0.1484967047
 40
0.1718569716
 40
0.1970102996
 40
0.2239543384
 40
0.2831860075
 40
0.3494852918
 40
0.4227585371
 40
0.5028695151
 40
0.5896639595
 40
0.682977212
 40
0.7826121507
 40
0.8883585493
 40
1.0
 40
1.0
 40
1.0
 40
1.0
 10
29.7017838618
 20
5.1260215517
 30
0.0
 10
29.7016586371
 20
5.1260215517
 30
0.0
 10
29.7014056083
 20
5.1260388512
 30
0.0
 10
29.7008927084
 20
5.12614383
 30
0.0
 10
29.7002420677
 20
5.1264161864
 30
0.0
 10
29.699487418
 20
5.1269403356
 30
0.0
 10
29.6987396164
 20
5.1276631402
 30
0.0
 10
29.6979964282
 20
5.1285839802
 30
0.0
 10
29.6972563146
 20
5.1297031958
 30
0.0
 10
29.6965189997
 20
5.1310210872
 30
0.0
 10
29.6957844082
 20
5.1325374294
 30
0.0
 10
29.6950528181
 20
5.1342517034
 30
0.0
 10
29.6943246144
 20
5.1361632036
 30
0.0
 10
29.6936002228
 20
5.1382711263
 30
0.0
 10
29.6928800971
 20
5.1405745791
 30
0.0
 10
29.6921646998
 20
5.1430724646
 30
0.0
 10
29.6911865285
 20
5.1467789795
 30
0.0
 10
29.6899894551
 20
5.1518916436
 30
0.0
 10
29.6886184115
 20
5.1585986719
 30
0.0
 10
29.6872752193
 20
5.1660429927
 30
0.0
 10
29.6859627343
 20
5.174208223
 30
0.0
 10
29.6846841927
 20
5.183076498
 30
0.0
 10
29.6834429223
 20
5.1926283133
 30
0.0
 10
29.6822415721
 20
5.2028425289
 30
0.0
 10
29.6810829003
 20
5.2136964982
 30
0.0
 10
29.6803599183
 20
5.2211465346
 30
0.0
 10
29.6800047711
 20
5.2249740367
 30
0.0
  0
SPLINE
  5
49A
100
AcDbEntity
  8
0
100
AcDbSpline
 62
7
  6
CONTINUOUS
 70
0
 71
3
 72
43
 73
39
 74
0
 42
0.0000001
 43
0.0000001
 44
0.0000000001
 40
0.0
 40
0.0
 40
0.0
 40
0.0
 40
0.0010588047
 40
0.0021381806
 40
0.0044300818
 40
0.0070097635
 40
0.0099681803
 40
0.0133654661
 40
0.0172409072
 40
0.0193666687
 40
0.0216206256
 40
0.0265193544
 40
0.0319479151
 40
0.0379129104
 40
0.0444184858
 40
0.0514670622
 40
0.0590590919
 40
0.0671930476
 40
0.0758666307
 40
0.0850770226
 40
0.1050946059
 40
0.1272122427
 40
0.1513835814
 40
0.1775589826
 40
0.2056818957
 40
0.2356869432
 40
0.2675071477
 40
0.3010693457
 40
0.3362936073
 40
0.3730990073
 40
0.4113987898
 40
0.4511010337
 40
0.5343371571
 40
0.6220183601
 40
0.7133077846
 40
0.8073306109
 40
0.9032181743
 40
1.0
 40
1.0
 40
1.0
 40
1.0
 10
29.7017838618
 20
5.8560215517
 30
0.0
 10
29.7019143113
 20
5.8560215517
 30
0.0
 10
29.7021781192
 20
5.8560027529
 30
0.0
 10
29.7027133797
 20
5.8558885627
 30
0.0
 10
29.7033925252
 20
5.8555918202
 30
0.0
 10
29.704177986
 20
5.8550227461
 30
0.0
 10
29.7049560293
 20
5.8542387476
 30
0.0
 10
29.7057291537
 20
5.853240231
 30
0.0
 10
29.7063502277
 20
5.8522613332
 30
0.0
 10
29.7068488363
 20
5.8513747245
 30
0.0
 10
29.7073763129
 20
5.8503603318
 30
0.0
 10
29.7080297799
 20
5.8489538726
 30
0.0
 10
29.708790302
 20
5.8470956514
 30
0.0
 10
29.7095469992
 20
5.8450237998
 30
0.0
 10
29.7102993947
 20
5.8427393246
 30
0.0
 10
29.7110469385
 20
5.8402432847
 30
0.0
 10
29.7117891322
 20
5.8375370688
 30
0.0
 10
29.7125255574
 20
5.8346223484
 30
0.0
 10
29.7132557565
 20
5.8315009454
 30
0.0
 10
29.7142481606
 20
5.8269378156
 30
0.0
 10
29.7154605043
 20
5.8207282971
 30
0.0
 10
29.7168466092
 20
5.8126769627
 30
0.0
 10
29.7181980303
 20
5.8038514563
 30
0.0
 10
29.719511038
 20
5.7942728815
 30
0.0
 10
29.7207821662
 20
5.7839641282
 30
0.0
 10
29.7220084932
 20
5.7729499463
 30
0.0
 10
29.7231866847
 20
5.7612568021
 30
0.0
 10
29.7243138097
 20
5.7489128012
 30
0.0
 10
29.7253872984
 20
5.7359476368
 30
0.0
 10
29.7264042605
 20
5.7223925281
 30
0.0
 10
29.7273622742
 20
5.7082801076
 30
0.0
 10
29.7285772132
 20
5.688451915
 30
0.0
 10
29.7299220699
 20
5.662536867
 30
0.0
 10
29.7312450105
 20
5.6302583706
 30
0.0
 10
29.7322877873
 20
5.5966400047
 30
0.0
 10
29.7330402178
 20
5.5620026268
 30
0.0
 10
29.7334944423
 20
5.5266833605
 30
0.0
 10
29.7335957079
 20
5.5029455049
 30
0.0
 10
29.7335957079
 20
5.4910215517
 30
0.0
  0
SPLINE
  5
49B
100
AcDbEntity
  8
0
100
AcDbSpline
 62
7
  6
CONTINUOUS
 70
0
 71
3
 72
43
 73
39
 74
0
 42
0.0000001
 43
0.0000001
 44
0.0000000001
 40
0.0
 40
0.0
 40
0.0
 40
0.0
 40
0.0967818257
 40
0.1926693891
 40
0.2866922154
 40
0.3779816399
 40
0.4656628429
 40
0.5488989663
 40
0.5886012102
 40
0.6269009927
 40
0.6637063927
 40
0.6989306543
 40
0.7324928523
 40
0.7643130568
 40
0.7943181043
 40
0.8224410174
 40
0.8486164186
 40
0.8727877573
 40
0.8949053941
 40
0.9149229774
 40
0.9241333693
 40
0.9328069524
 40
0.9409409081
 40
0.9485329378
 40
0.9555815142
 40
0.9620870896
 40
0.9680520849
 40
0.9734806456
 40
0.9783793744
 40
0.9806333313
 40
0.9827590928
 40
0.9866345339
 40
0.9900318197
 40
0.9929902365
 40
0.9955699182
 40
0.9978618194
 40
0.9989411953
 40
1.0
 40
1.0
 40
1.0
 40
1.0
 10
29.7335957079
 20
5.4910215517
 30
0.0
 10
29.7335957079
 20
5.4790975985
 30
0.0
 10
29.7334944423
 20
5.455359743
 30
0.0
 10
29.7330402178
 20
5.4200404766
 30
0.0
 10
29.7322877873
 20
5.3854030988
 30
0.0
 10
29.7312450105
 20
5.3517847329
 30
0.0
 10
29.7299220699
 20
5.3195062365
 30
0.0
 10
29.7285772132
 20
5.2935911884
 30
0.0
 10
29.7273622742
 20
5.2737629959
 30
0.0
 10
29.7264042605
 20
5.2596505753
 30
0.0
 10
29.7253872984
 20
5.2460954666
 30
0.0
 10
29.7243138097
 20
5.2331303023
 30
0.0
 10
29.7231866847
 20
5.2207863013
 30
0.0
 10
29.7220084932
 20
5.2090931571
 30
0.0
 10
29.7207821662
 20
5.1980789752
 30
0.0
 10
29.719511038
 20
5.1877702219
 30
0.0
 10
29.7181980303
 20
5.1781916471
 30
0.0
 10
29.7168466092
 20
5.1693661407
 30
0.0
 10
29.7154605043
 20
5.1613148063
 30
0.0
 10
29.7142481606
 20
5.1551052878
 30
0.0
 10
29.7132557565
 20
5.1505421581
 30
0.0
 10
29.7125255574
 20
5.1474207551
 30
0.0
 10
29.7117891322
 20
5.1445060346
 30
0.0
 10
29.7110469385
 20
5.1417998188
 30
0.0
 10
29.7102993947
 20
5.1393037788
 30
0.0
 10
29.7095469992
 20
5.1370193037
 30
0.0
 10
29.708790302
 20
5.134947452
 30
0.0
 10
29.7080297799
 20
5.1330892309
 30
0.0
 10
29.7073763129
 20
5.1316827716
 30
0.0
 10
29.7068488363
 20
5.1306683789
 30
0.0
 10
29.7063502277
 20
5.1297817702
 30
0.0
 10
29.7057291537
 20
5.1288028724
 30
0.0
 10
29.7049560293
 20
5.1278043559
 30
0.0
 10
29.704177986
 20
5.1270203573
 30
0.0
 10
29.7033925252
 20
5.1264512833
 30
0.0
 10
29.7027133797
 20
5.1261545407
 30
0.0
 10
29.7021781192
 20
5.1260403505
 30
0.0
 10
29.7019143113
 20
5.1260215517
 30
0.0
 10
29.7017838618
 20
5.1260215517
 30
0.0
  0
SPLINE
  5
49C
100
AcDbEntity
  8
0
100
AcDbSpline
 62
7
  6
CONTINUOUS
 70
0
 71
3
 72
13
 73
9
 74
0
 42
0.0000001
 43
0.0000001
 44
0.0000000001
 40
0.0
 40
0.0
 40
0.0
 40
0.0
 40
0.2515721839
 40
0.3786773766
 40
0.5058490348
 40
0.6322147219
 40
0.7569722075
 40
1.0
 40
1.0
 40
1.0
 40
1.0
 10
41.2906480508
 20
5.7433236194
 30
0.0
 10
41.3090312715
 20
5.7329714199
 30
0.0
 10
41.3366677625
 20
5.7173269049
 30
0.0
 10
41.3734859827
 20
5.6962541497
 30
0.0
 10
41.4011346698
 20
5.6802991274
 30
0.0
 10
41.4285535692
 20
5.6643402586
 30
0.0
 10
41.4642936543
 20
5.6433637063
 30
0.0
 10
41.4908165625
 20
5.6276194886
 30
0.0
 10
41.5083165923
 20
5.6171725855
 30
0.0
  0
SPLINE
  5
49D
100
AcDbEntity
  8
0
100
AcDbSpline
 62
7
  6
CONTINUOUS
 70
0
 71
3
 72
13
 73
9
 74
0
 42
0.0000001
 43
0.0000001
 44
0.0000000001
 40
0.0
 40
0.0
 40
0.0
 40
0.0
 40
0.2473154941
 40
0.3732415126
 40
0.5
 40
0.6267584874
 40
0.7526845059
 40
1.0
 40
1.0
 40
1.0
 40
1.0
 10
41.5083165923
 20
5.6171725855
 30
0.0
 10
41.5088397932
 20
5.5963773859
 30
0.0
 10
41.5094826396
 20
5.5649896497
 30
0.0
 10
41.5099387635
 20
5.5229366926
 30
0.0
 10
41.5100569856
 20
5.4910215517
 30
0.0
 10
41.5099387635
 20
5.4591064108
 30
0.0
 10
41.5094826396
 20
5.4170534537
 30
0.0
 10
41.5088397932
 20
5.3856657175
 30
0.0
 10
41.5083165923
 20
5.3648705179
 30
0.0
  0
SPLINE
  5
49E
100
AcDbEntity
  8
0
100
AcDbSpline
 62
7
  6
CONTINUOUS
 70
0
 71
3
 72
13
 73
9
 74
0
 42
0.0000001
 43
0.0000001
 44
0.0000000001
 40
0.0
 40
0.0
 40
0.0
 40
0.0
 40
0.2430277925
 40
0.3677852781
 40
0.4941509652
 40
0.6213226234
 40
0.7484278161
 40
1.0
 40
1.0
 40
1.0
 40
1.0
 10
41.5083165923
 20
5.3648705179
 30
0.0
 10
41.4908165625
 20
5.3544236148
 30
0.0
 10
41.4642936543
 20
5.3386793972
 30
0.0
 10
41.4285535692
 20
5.3177028448
 30
0.0
 10
41.4011346698
 20
5.301743976
 30
0.0
 10
41.3734859827
 20
5.2857889538
 30
0.0
 10
41.3366677625
 20
5.2647161985
 30
0.0
 10
41.3090312715
 20
5.2490716835
 30
0.0
 10
41.2906480508
 20
5.2387194841
 30
0.0
  0
SPLINE
  5
49F
100
AcDbEntity
  8
0
100
AcDbSpline
 62
7
  6
CONTINUOUS
 70
0
 71
3
 72
23
 73
19
 74
0
 42
0.0000001
 43
0.0000001
 44
0.0000000001
 40
0.0
 40
0.0
 40
0.0
 40
0.0
 40
0.0626041864
 40
0.1251938615
 40
0.1877685123
 40
0.2503272371
 40
0.312870323
 40
0.3753973816
 40
0.4379090979
 40
0.5004059708
 40
0.562888785
 40
0.6253589957
 40
0.6878175231
 40
0.7502664412
 40
0.8127070713
 40
0.8751415833
 40
0.9375719222
 40
1.0
 40
1.0
 40
1.0
 40
1.0
 10
41.511719878
 20
5.3630215557
 30
0.0
 10
41.508884284
 20
5.3578488384
 30
0.0
 10
41.5028678868
 20
5.3476898501
 30
0.0
 10
41.4928498753
 20
5.3330914806
 30
0.0
 10
41.4818852169
 20
5.3191945251
 30
0.0
 10
41.4700212617
 20
5.3060630796
 30
0.0
 10
41.4573112566
 20
5.2937551263
 30
0.0
 10
41.4438125832
 20
5.2823244394
 30
0.0
 10
41.4295835186
 20
5.2718242526
 30
0.0
 10
41.4146896978
 20
5.2622981146
 30
0.0
 10
41.3991951996
 20
5.2537918469
 30
0.0
 10
41.3831707051
 20
5.246340495
 30
0.0
 10
41.366686628
 20
5.2399787729
 30
0.0
 10
41.3498165018
 20
5.2347351632
 30
0.0
 10
41.3326358993
 20
5.2306311129
 30
0.0
 10
41.3152203592
 20
5.2276882235
 30
0.0
 10
41.2976491186
 20
5.2259156143
 30
0.0
 10
41.2858803493
 20
5.225521745
 30
0.0
 10
41.2799979945
 20
5.2255218879
 30
0.0
  0
SPLINE
  5
4A0
100
AcDbEntity
  8
0
100
AcDbSpline
 62
7
  6
CONTINUOUS
 70
0
 71
3
 72
22
 73
18
 74
0
 42
0.0000001
 43
0.0000001
 44
0.0000000001
 40
0.0
 40
0.0
 40
0.0
 40
0.0
 40
0.1251231304
 40
0.1877142749
 40
0.2502741673
 40
0.3128145834
 40
0.375344007
 40
0.4378606075
 40
0.5003619873
 40
0.5628491737
 40
0.6253236442
 40
0.687787563
 40
0.7502419463
 40
0.8126884561
 40
0.8751290726
 40
0.9375654224
 40
1.0
 40
1.0
 40
1.0
 40
1.0
 10
41.5090527871
 20
5.6237715517
 30
0.0
 10
41.5032883052
 20
5.6337940659
 30
0.0
 10
41.4936402954
 20
5.6482874945
 30
0.0
 10
41.4789958823
 20
5.6662009419
 30
0.0
 10
41.4671546961
 20
5.6788917064
 30
0.0
 10
41.4545142727
 20
5.6907763131
 30
0.0
 10
41.4411253511
 20
5.7018050926
 30
0.0
 10
41.4270474688
 20
5.7119334024
 30
0.0
 10
41.4123386746
 20
5.721114243
 30
0.0
 10
41.3970637722
 20
5.7293104005
 30
0.0
 10
41.3812875201
 20
5.7364861783
 30
0.0
 10
41.3650771938
 20
5.7426099428
 30
0.0
 10
41.3485030029
 20
5.7476580739
 30
0.0
 10
41.3316349439
 20
5.7516051899
 30
0.0
 10
41.3145459416
 20
5.7544381203
 30
0.0
 10
41.2973095529
 20
5.7561420793
 30
0.0
 10
41.2857672644
 20
5.7565210755
 30
0.0
 10
41.2799979945
 20
5.7565212156
 30
0.0
  0
SPLINE
  5
4A1
100
AcDbEntity
  8
0
100
AcDbSpline
 62
7
  6
CONTINUOUS
 70
0
 71
3
 72
22
 73
18
 74
0
 42
0.0000001
 43
0.0000001
 44
0.0000000001
 40
0.0
 40
0.0
 40
0.0
 40
0.0
 40
0.0624345805
 40
0.124870932
 40
0.1873115488
 40
0.2497580584
 40
0.3122124405
 40
0.3746763581
 40
0.4371508272
 40
0.4996380119
 40
0.5621393901
 40
0.6246559899
 40
0.6871854142
 40
0.7497258313
 40
0.8122857231
 40
0.8748768673
 40
1.0
 40
1.0
 40
1.0
 40
1.0
 10
41.2773960038
 20
5.2255218878
 30
0.0
 10
41.2716264699
 20
5.2255217505
 30
0.0
 10
41.2600836349
 20
5.2259002268
 30
0.0
 10
41.2428463822
 20
5.2276035104
 30
0.0
 10
41.2257564826
 20
5.2304358778
 30
0.0
 10
41.2088875031
 20
5.23438254
 30
0.0
 10
41.192312379
 20
5.2394303288
 30
0.0
 10
41.1761011181
 20
5.2455538628
 30
0.0
 10
41.1603239389
 20
5.2527295176
 30
0.0
 10
41.1450481288
 20
5.2609256611
 30
0.0
 10
41.1303384545
 20
5.2701065899
 30
0.0
 10
41.1162597304
 20
5.280235089
 30
0.0
 10
41.1028700142
 20
5.2912641528
 30
0.0
 10
41.0902288514
 20
5.3031491329
 30
0.0
 10
41.0783869903
 20
5.3158403544
 30
0.0
 10
41.0637417725
 20
5.3337545116
 30
0.0
 10
41.0540932751
 20
5.3482485793
 30
0.0
 10
41.0483285296
 20
5.3582715517
 30
0.0
  0
SPLINE
  5
4A2
100
AcDbEntity
  8
0
100
AcDbSpline
 62
7
  6
CONTINUOUS
 70
0
 71
3
 72
38
 73
34
 74
0
 42
0.0000001
 43
0.0000001
 44
0.0000000001
 40
0.0
 40
0.0
 40
0.0
 40
0.0
 40
0.0311792267
 40
0.0623595379
 40
0.0935418673
 40
0.1247271197
 40
0.1559163806
 40
0.1871102638
 40
0.2183097767
 40
0.2495154118
 40
0.2807278042
 40
0.3119474552
 40
0.3431745244
 40
0.3744094454
 40
0.4056520444
 40
0.4369024346
 40
0.4681603403
 40
0.4994253768
 40
0.5306972572
 40
0.561975176
 40
0.5932587074
 40
0.624546929
 40
0.6558390695
 40
0.6871341992
 40
0.7184310935
 40
0.7497291661
 40
0.7810275768
 40
0.8123253672
 40
0.8436200268
 40
0.8749094689
 40
0.9061969645
 40
0.937487612
 40
1.0
 40
1.0
 40
1.0
 40
1.0
 10
41.2773706406
 20
5.7565212156
 30
0.0
 10
41.2716015219
 20
5.7565210782
 30
0.0
 10
41.2600594721
 20
5.7561417112
 30
0.0
 10
41.2428237261
 20
5.754435776
 30
0.0
 10
41.2257349335
 20
5.7516038565
 30
0.0
 10
41.2088678309
 20
5.7476543569
 30
0.0
 10
41.1922938918
 20
5.7426069549
 30
0.0
 10
41.1760842562
 20
5.7364822329
 30
0.0
 10
41.1603088705
 20
5.729305545
 30
0.0
 10
41.1450339985
 20
5.7211100944
 30
0.0
 10
41.1303269227
 20
5.7119276126
 30
0.0
 10
41.1162486245
 20
5.7018007296
 30
0.0
 10
41.1028608873
 20
5.6907704627
 30
0.0
 10
41.0902205387
 20
5.6788849738
 30
0.0
 10
41.078380855
 20
5.6661957515
 30
0.0
 10
41.0673946802
 20
5.6527553373
 30
0.0
 10
41.0573060651
 20
5.6386236544
 30
0.0
 10
41.0481612767
 20
5.6238589573
 30
0.0
 10
41.0399971579
 20
5.6085260784
 30
0.0
 10
41.0328494537
 20
5.5926900115
 30
0.0
 10
41.0267497756
 20
5.5764183271
 30
0.0
 10
41.021721598
 20
5.5597815141
 30
0.0
 10
41.017790157
 20
5.5428497595
 30
0.0
 10
41.0149685093
 20
5.5256965262
 30
0.0
 10
41.0132713919
 20
5.5083946547
 30
0.0
 10
41.0127051487
 20
5.491018423
 30
0.0
 10
41.0132713685
 20
5.4736419645
 30
0.0
 10
41.0149703551
 20
5.4563401912
 30
0.0
 10
41.0177905933
 20
5.439187071
 30
0.0
 10
41.021723351
 20
5.4222566539
 30
0.0
 10
41.0267511587
 20
5.4056178822
 30
0.0
 10
41.0348812522
 20
5.3839354244
 30
0.0
 10
41.0425616987
 20
5.3682981501
 30
0.0
 10
41.0483285296
 20
5.3582715517
 30
0.0
  0
SPLINE
  5
4A3
100
AcDbEntity
  8
0
100
AcDbSpline
 62
7
  6
CONTINUOUS
 70
0
 71
3
 72
47
 73
43
 74
0
 42
0.0000001
 43
0.0000001
 44
0.0000000001
 40
0.0
 40
0.0
 40
0.0
 40
0.0
 40
0.0312670793
 40
0.0469087584
 40
0.0625447436
 40
0.0937925885
 40
0.1250300898
 40
0.1406498439
 40
0.1562666723
 40
0.1874828062
 40
0.2186896998
 40
0.2342949108
 40
0.2498983812
 40
0.281091785
 40
0.312281387
 40
0.3278802166
 40
0.3434789168
 40
0.3746678062
 40
0.4058596688
 40
0.4370566892
 40
0.468260901
 40
0.4994738393
 40
0.5306968979
 40
0.5619310867
 40
0.5931767845
 40
0.6244341455
 40
0.6557028371
 40
0.6713458187
 40
0.6869913157
 40
0.7182796742
 40
0.7495757634
 40
0.765230771
 40
0.7808870178
 40
0.8121926146
 40
0.8434996968
 40
0.8591579496
 40
0.8748159122
 40
0.9061188189
 40
0.9374152561
 40
0.9530686117
 40
0.9687228154
 40
1.0
 40
1.0
 40
1.0
 40
1.0
 10
41.4804492316
 20
5.3820215517
 30
0.0
 10
41.4768983948
 20
5.3758478291
 30
0.0
 10
41.4711110096
 20
5.366839245
 30
0.0
 10
41.4625504608
 20
5.3554465122
 30
0.0
 10
41.4534427905
 20
5.3444903913
 30
0.0
 10
41.4410717754
 20
5.3316575669
 30
0.0
 10
41.4275036315
 20
5.3201032368
 30
0.0
 10
41.4160163692
 20
5.3116955633
 30
0.0
 10
41.4041333711
 20
5.3038659974
 30
0.0
 10
41.3885836092
 20
5.2951899271
 30
0.0
 10
41.3722581785
 20
5.2880866551
 30
0.0
 10
41.3588344715
 20
5.2833886307
 30
0.0
 10
41.3451985089
 20
5.2793586799
 30
0.0
 10
41.3278084075
 20
5.2755872802
 30
0.0
 10
41.3101324586
 20
5.2735471583
 30
0.0
 10
41.2959288418
 20
5.2729631519
 30
0.0
 10
41.2817139707
 20
5.2730800616
 30
0.0
 10
41.2639804261
 20
5.2745390888
 30
0.0
 10
41.2429791098
 20
5.2783758789
 30
0.0
 10
41.2224523932
 20
5.2842597278
 30
0.0
 10
41.2025995039
 20
5.2921352475
 30
0.0
 10
41.1836115226
 20
5.3019265986
 30
0.0
 10
41.1656707194
 20
5.313538313
 30
0.0
 10
41.1489505465
 20
5.3268596015
 30
0.0
 10
41.1336119007
 20
5.3417622189
 30
0.0
 10
41.1198020861
 20
5.3581006618
 30
0.0
 10
41.1096783334
 20
5.3727855769
 30
0.0
 10
41.1024708447
 20
5.3850833127
 30
0.0
 10
41.0958726272
 20
5.3977235866
 30
0.0
 10
41.0887949286
 20
5.4141099085
 30
0.0
 10
41.0833540055
 20
5.4311122205
 30
0.0
 10
41.0800128337
 20
5.4449811392
 30
0.0
 10
41.0773542281
 20
5.458999124
 30
0.0
 10
41.0753197643
 20
5.476741212
 30
0.0
 10
41.0750297049
 20
5.4945976701
 30
0.0
 10
41.0758429961
 20
5.508843815
 30
0.0
 10
41.0773526513
 20
5.5230321061
 30
0.0
 10
41.08053591
 20
5.540601782
 30
0.0
 10
41.085421748
 20
5.5577748724
 30
0.0
 10
41.0903206849
 20
5.5711724885
 30
0.0
 10
41.0958682604
 20
5.5843087351
 30
0.0
 10
41.100747004
 20
5.5938458338
 30
0.0
 10
41.1042989883
 20
5.6000215517
 30
0.0
  0
SPLINE
  5
4A4
100
AcDbEntity
  8
0
100
AcDbSpline
 62
7
  6
CONTINUOUS
 70
0
 71
3
 72
13
 73
9
 74
0
 42
0.0000001
 43
0.0000001
 44
0.0000000001
 40
0.0
 40
0.0
 40
0.0
 40
0.0
 40
0.2430277925
 40
0.3677852781
 40
0.4941509652
 40
0.6213226234
 40
0.7484278161
 40
1.0
 40
1.0
 40
1.0
 40
1.0
 10
41.2906480508
 20
5.2387194841
 30
0.0
 10
41.273148021
 20
5.2491663872
 30
0.0
 10
41.2466251128
 20
5.2649106048
 30
0.0
 10
41.2108850277
 20
5.2858871572
 30
0.0
 10
41.1834661283
 20
5.301846026
 30
0.0
 10
41.1558174411
 20
5.3178010482
 30
0.0
 10
41.118999221
 20
5.3388738035
 30
0.0
 10
41.0913627299
 20
5.3545183185
 30
0.0
 10
41.0729795093
 20
5.3648705179
 30
0.0
  0
SPLINE
  5
4A5
100
AcDbEntity
  8
0
100
AcDbSpline
 62
7
  6
CONTINUOUS
 70
0
 71
3
 72
47
 73
43
 74
0
 42
0.0000001
 43
0.0000001
 44
0.0000000001
 40
0.0
 40
0.0
 40
0.0
 40
0.0
 40
0.0312670793
 40
0.0469087584
 40
0.0625447436
 40
0.0937925885
 40
0.1250300898
 40
0.1406498439
 40
0.1562666723
 40
0.1874828062
 40
0.2186896998
 40
0.2342949108
 40
0.2498983812
 40
0.281091785
 40
0.312281387
 40
0.3278802166
 40
0.3434789168
 40
0.3746678062
 40
0.4058596688
 40
0.4370566892
 40
0.468260901
 40
0.4994738393
 40
0.5306968979
 40
0.5619310867
 40
0.5931767845
 40
0.6244341455
 40
0.6557028371
 40
0.6713458187
 40
0.6869913157
 40
0.7182796742
 40
0.7495757634
 40
0.765230771
 40
0.7808870178
 40
0.8121926146
 40
0.8434996968
 40
0.8591579496
 40
0.8748159122
 40
0.9061188189
 40
0.9374152561
 40
0.9530686117
 40
0.9687228154
 40
1.0
 40
1.0
 40
1.0
 40
1.0
 10
41.1042989883
 20
5.6000215517
 30
0.0
 10
41.1078498251
 20
5.6061952743
 30
0.0
 10
41.1136372103
 20
5.6152038584
 30
0.0
 10
41.1221977591
 20
5.6265965913
 30
0.0
 10
41.1313054294
 20
5.6375527121
 30
0.0
 10
41.1436764445
 20
5.6503855365
 30
0.0
 10
41.1572445884
 20
5.6619398667
 30
0.0
 10
41.1687318507
 20
5.6703475402
 30
0.0
 10
41.1806148488
 20
5.6781771061
 30
0.0
 10
41.1961646107
 20
5.6868531763
 30
0.0
 10
41.2124900414
 20
5.6939564483
 30
0.0
 10
41.2259137484
 20
5.6986544728
 30
0.0
 10
41.239549711
 20
5.7026844235
 30
0.0
 10
41.2569398124
 20
5.7064558233
 30
0.0
 10
41.2746157614
 20
5.7084959451
 30
0.0
 10
41.2888193781
 20
5.7090799516
 30
0.0
 10
41.3030342493
 20
5.7089630419
 30
0.0
 10
41.3207677938
 20
5.7075040147
 30
0.0
 10
41.3417691102
 20
5.7036672245
 30
0.0
 10
41.3622958267
 20
5.6977833757
 30
0.0
 10
41.382148716
 20
5.689907856
 30
0.0
 10
41.4011366973
 20
5.6801165048
 30
0.0
 10
41.4190775005
 20
5.6685047905
 30
0.0
 10
41.4357976735
 20
5.6551835019
 30
0.0
 10
41.4511363192
 20
5.6402808845
 30
0.0
 10
41.4649461338
 20
5.6239424416
 30
0.0
 10
41.4750698865
 20
5.6092575265
 30
0.0
 10
41.4822773752
 20
5.5969597908
 30
0.0
 10
41.4888755927
 20
5.5843195168
 30
0.0
 10
41.4959532914
 20
5.567933195
 30
0.0
 10
41.5013942144
 20
5.550930883
 30
0.0
 10
41.5047353862
 20
5.5370619642
 30
0.0
 10
41.5073939918
 20
5.5230439794
 30
0.0
 10
41.5094284557
 20
5.5053018914
 30
0.0
 10
41.5097185151
 20
5.4874454333
 30
0.0
 10
41.5089052238
 20
5.4731992884
 30
0.0
 10
41.5073955686
 20
5.4590109973
 30
0.0
 10
41.5042123099
 20
5.4414413215
 30
0.0
 10
41.4993264719
 20
5.4242682311
 30
0.0
 10
41.494427535
 20
5.410870615
 30
0.0
 10
41.4888799595
 20
5.3977343684
 30
0.0
 10
41.484001216
 20
5.3881972696
 30
0.0
 10
41.4804492316
 20
5.3820215517
 30
0.0
  0
SPLINE
  5
4A6
100
AcDbEntity
  8
0
100
AcDbSpline
 62
7
  6
CONTINUOUS
 70
0
 71
3
 72
13
 73
9
 74
0
 42
0.0000001
 43
0.0000001
 44
0.0000000001
 40
0.0
 40
0.0
 40
0.0
 40
0.0
 40
0.2473154941
 40
0.3732415126
 40
0.5
 40
0.6267584874
 40
0.7526845059
 40
1.0
 40
1.0
 40
1.0
 40
1.0
 10
41.0729795093
 20
5.3648705179
 30
0.0
 10
41.0735027101
 20
5.3856657175
 30
0.0
 10
41.0741455565
 20
5.4170534537
 30
0.0
 10
41.0746016804
 20
5.4591064108
 30
0.0
 10
41.0747199026
 20
5.4910215517
 30
0.0
 10
41.0746016804
 20
5.5229366926
 30
0.0
 10
41.0741455565
 20
5.5649896497
 30
0.0
 10
41.0735027101
 20
5.5963773859
 30
0.0
 10
41.0729795093
 20
5.6171725855
 30
0.0
  0
SPLINE
  5
4A7
100
AcDbEntity
  8
0
100
AcDbSpline
 62
7
  6
CONTINUOUS
 70
0
 71
3
 72
22
 73
18
 74
0
 42
0.0000001
 43
0.0000001
 44
0.0000000001
 40
0.0
 40
0.0
 40
0.0
 40
0.0
 40
0.0624345776
 40
0.1248709274
 40
0.1873115439
 40
0.2497580537
 40
0.312212437
 40
0.3746763558
 40
0.4371508263
 40
0.4996380127
 40
0.5621393925
 40
0.624655993
 40
0.6871854166
 40
0.7497258327
 40
0.8122857251
 40
0.8748768696
 40
1.0
 40
1.0
 40
1.0
 40
1.0
 10
41.2799979945
 20
5.2255218879
 30
0.0
 10
41.2742287245
 20
5.225522028
 30
0.0
 10
41.2626864361
 20
5.2259010241
 30
0.0
 10
41.2454500474
 20
5.2276049831
 30
0.0
 10
41.2283610451
 20
5.2304379135
 30
0.0
 10
41.211492986
 20
5.2343850296
 30
0.0
 10
41.1949187952
 20
5.2394331607
 30
0.0
 10
41.1787084689
 20
5.2455569251
 30
0.0
 10
41.1629322168
 20
5.2527327029
 30
0.0
 10
41.1476573143
 20
5.2609288605
 30
0.0
 10
41.1329485202
 20
5.270109701
 30
0.0
 10
41.1188706379
 20
5.2802380108
 30
0.0
 10
41.1054817163
 20
5.2912667903
 30
0.0
 10
41.0928412928
 20
5.303151397
 30
0.0
 10
41.0810001067
 20
5.3158421615
 30
0.0
 10
41.0663556936
 20
5.333755609
 30
0.0
 10
41.0567076837
 20
5.3482490376
 30
0.0
 10
41.0509432019
 20
5.3582715517
 30
0.0
  0
SPLINE
  5
4A8
100
AcDbEntity
  8
0
100
AcDbSpline
 62
7
  6
CONTINUOUS
 70
0
 71
3
 72
13
 73
9
 74
0
 42
0.0000001
 43
0.0000001
 44
0.0000000001
 40
0.0
 40
0.0
 40
0.0
 40
0.0
 40
0.2515721839
 40
0.3786773766
 40
0.5058490348
 40
0.6322147219
 40
0.7569722075
 40
1.0
 40
1.0
 40
1.0
 40
1.0
 10
41.0729795093
 20
5.6171725855
 30
0.0
 10
41.0913627299
 20
5.627524785
 30
0.0
 10
41.118999221
 20
5.6431693
 30
0.0
 10
41.1558174411
 20
5.6642420552
 30
0.0
 10
41.1834661283
 20
5.6801970775
 30
0.0
 10
41.2108850277
 20
5.6961559463
 30
0.0
 10
41.2466251128
 20
5.7171324986
 30
0.0
 10
41.273148021
 20
5.7328767163
 30
0.0
 10
41.2906480508
 20
5.7433236194
 30
0.0
  0
SPLINE
  5
4A9
100
AcDbEntity
  8
0
100
AcDbSpline
 62
7
  6
CONTINUOUS
 70
0
 71
3
 72
38
 73
34
 74
0
 42
0.0000001
 43
0.0000001
 44
0.0000000001
 40
0.0
 40
0.0
 40
0.0
 40
0.0
 40
0.0311792281
 40
0.0623595398
 40
0.0935418693
 40
0.1247271211
 40
0.155916381
 40
0.1871102628
 40
0.2183097739
 40
0.2495154071
 40
0.2807277973
 40
0.3119474463
 40
0.3431745134
 40
0.3744094324
 40
0.4056520297
 40
0.4369024183
 40
0.4681603227
 40
0.4994253583
 40
0.5306972381
 40
0.5619751567
 40
0.5932586881
 40
0.6245469102
 40
0.6558390515
 40
0.6871341824
 40
0.7184310781
 40
0.7497291522
 40
0.7810275646
 40
0.8123253569
 40
0.8436200187
 40
0.874909463
 40
0.9061969603
 40
0.9374876092
 40
1.0
 40
1.0
 40
1.0
 40
1.0
 10
41.2799979945
 20
5.7565212156
 30
0.0
 10
41.2742287438
 20
5.7565213557
 30
0.0
 10
41.2626864117
 20
5.756142528
 30
0.0
 10
41.245450193
 20
5.7544373437
 30
0.0
 10
41.2283608842
 20
5.7516061171
 30
0.0
 10
41.2114932267
 20
5.7476572513
 30
0.0
 10
41.1949187011
 20
5.7426104176
 30
0.0
 10
41.1787084511
 20
5.7364862029
 30
0.0
 10
41.1629324311
 20
5.7293099545
 30
0.0
 10
41.1476569091
 20
5.7211148793
 30
0.0
 10
41.132949174
 20
5.7119327071
 30
0.0
 10
41.1188702136
 20
5.7018060678
 30
0.0
 10
41.1054818147
 20
5.690775982
 30
0.0
 10
41.0928408136
 20
5.6788906095
 30
0.0
 10
41.0810004886
 20
5.6662014443
 30
0.0
 10
41.070013691
 20
5.6527610275
 30
0.0
 10
41.0599244759
 20
5.6386292861
 30
0.0
 10
41.0507791136
 20
5.623864478
 30
0.0
 10
41.0426144537
 20
5.6085314376
 30
0.0
 10
41.0354662421
 20
5.592695164
 30
0.0
 10
41.029366097
 20
5.5764232303
 30
0.0
 10
41.0243374936
 20
5.5597861307
 30
0.0
 10
41.0204056717
 20
5.542854056
 30
0.0
 10
41.0175836909
 20
5.5257004741
 30
0.0
 10
41.0158862887
 20
5.5083982304
 30
0.0
 10
41.0153198125
 20
5.4910216078
 30
0.0
 10
41.0158858504
 20
5.4736447446
 30
0.0
 10
41.0175847082
 20
5.4563425582
 30
0.0
 10
41.0204048704
 20
5.4391890215
 30
0.0
 10
41.0243376043
 20
5.4222581897
 30
0.0
 10
41.0293654404
 20
5.4056190104
 30
0.0
 10
41.0374956388
 20
5.3839360256
 30
0.0
 10
41.0451762391
 20
5.3682983794
 30
0.0
 10
41.0509432019
 20
5.3582715517
 30
0.0
  0
SPLINE
  5
4AA
100
AcDbEntity
  8
0
100
AcDbSpline
 62
7
  6
CONTINUOUS
 70
0
 71
3
 72
24
 73
20
 74
0
 42
0.0000001
 43
0.0000001
 44
0.0000000001
 40
0.0
 40
0.0
 40
0.0
 40
0.0
 40
0.1896343974
 40
0.3644447204
 40
0.4455741134
 40
0.5222000015
 40
0.5940971715
 40
0.66104959
 40
0.7228514353
 40
0.7793325712
 40
0.8303368208
 40
0.8757318716
 40
0.9154245779
 40
0.933111074
 40
0.9493508949
 40
0.964147474
 40
0.9775092581
 40
0.9894515174
 40
1.0
 40
1.0
 40
1.0
 40
1.0
 10
51.1782644892
 20
5.6000215517
 30
0.0
 10
51.1779222715
 20
5.6068224623
 30
0.0
 10
51.1771832671
 20
5.6198887435
 30
0.0
 10
51.1760440491
 20
5.635848882
 30
0.0
 10
51.1750308396
 20
5.6477479703
 30
0.0
 10
51.1742490241
 20
5.6559574923
 30
0.0
 10
51.1734289176
 20
5.6636515257
 30
0.0
 10
51.172573322
 20
5.6708058966
 30
0.0
 10
51.1716847859
 20
5.6773981304
 30
0.0
 10
51.170766598
 20
5.6834076318
 30
0.0
 10
51.169821974
 20
5.6888160227
 30
0.0
 10
51.1688539107
 20
5.693606696
 30
0.0
 10
51.1680017615
 20
5.6971985863
 30
0.0
 10
51.1673013288
 20
5.6997479322
 30
0.0
 10
51.1667923255
 20
5.7014220924
 30
0.0
 10
51.1662797964
 20
5.7029320769
 30
0.0
 10
51.1657641397
 20
5.7042770399
 30
0.0
 10
51.1652458414
 20
5.7054560975
 30
0.0
 10
51.1648762428
 20
5.7061750793
 30
0.0
 10
51.1646890346
 20
5.7065043644
 30
0.0
  0
SPLINE
  5
4AB
100
AcDbEntity
  8
0
100
AcDbSpline
 62
7
  6
CONTINUOUS
 70
0
 71
3
 72
9
 73
5
 74
0
 42
0.0000001
 43
0.0000001
 44
0.0000000001
 40
0.0
 40
0.0
 40
0.0
 40
0.0
 40
0.5066196467
 40
1.0
 40
1.0
 40
1.0
 40
1.0
 10
51.1420811015
 20
5.2387194841
 30
0.0
 10
51.1444966092
 20
5.242046119
 30
0.0
 10
51.1491193577
 20
5.2487196477
 30
0.0
 10
51.1533716054
 20
5.2556379041
 30
0.0
 10
51.1553529846
 20
5.2591169144
 30
0.0
  0
SPLINE
  5
4AC
100
AcDbEntity
  8
0
100
AcDbSpline
 62
7
  6
CONTINUOUS
 70
0
 71
3
 72
9
 73
5
 74
0
 42
0.0000001
 43
0.0000001
 44
0.0000000001
 40
0.0
 40
0.0
 40
0.0
 40
0.0
 40
0.4933803533
 40
1.0
 40
1.0
 40
1.0
 40
1.0
 10
51.1553529846
 20
5.7229261891
 30
0.0
 10
51.1533716054
 20
5.7264051994
 30
0.0
 10
51.1491193577
 20
5.7333234558
 30
0.0
 10
51.1444966092
 20
5.7399969844
 30
0.0
 10
51.1420811015
 20
5.7433236194
 30
0.0
  0
SPLINE
  5
4AD
100
AcDbEntity
  8
0
100
AcDbSpline
 62
7
  6
CONTINUOUS
 70
0
 71
3
 72
34
 73
30
 74
0
 42
0.0000001
 43
0.0000001
 44
0.0000000001
 40
0.0
 40
0.0
 40
0.0
 40
0.0
 40
0.0038051163
 40
0.0081537357
 40
0.013056082
 40
0.018517904
 40
0.0245421187
 40
0.0311291301
 40
0.0382763947
 40
0.0459801829
 40
0.0630387803
 40
0.082260728
 40
0.1035834666
 40
0.1269383747
 40
0.152244673
 40
0.1794132729
 40
0.2083496507
 40
0.2389483002
 40
0.2711008973
 40
0.30469049
 40
0.3756887778
 40
0.4509124129
 40
0.52926603
 40
0.6096066322
 40
0.6907607277
 40
0.7715445825
 40
0.8507722359
 40
0.9273039715
 40
1.0
 40
1.0
 40
1.0
 40
1.0
 10
51.1646890346
 20
5.2755387392
 30
0.0
 10
51.164893275
 20
5.2758979834
 30
0.0
 10
51.1652956778
 20
5.2766879258
 30
0.0
 10
51.1658570797
 20
5.2779906638
 30
0.0
 10
51.1664153672
 20
5.2794883937
 30
0.0
 10
51.1669699204
 20
5.2811799996
 30
0.0
 10
51.1675201401
 20
5.2830643766
 30
0.0
 10
51.1680653885
 20
5.2851399891
 30
0.0
 10
51.1686052325
 20
5.2874049384
 30
0.0
 10
51.1693423212
 20
5.2907912867
 30
0.0
 10
51.1702361888
 20
5.2954845326
 30
0.0
 10
51.1712467901
 20
5.3016587143
 30
0.0
 10
51.1722245585
 20
5.3085295549
 30
0.0
 10
51.1731652371
 20
5.3160718402
 30
0.0
 10
51.1740652237
 20
5.3242580496
 30
0.0
 10
51.1749210446
 20
5.3330581773
 30
0.0
 10
51.175729169
 20
5.3424398079
 30
0.0
 10
51.1764868118
 20
5.3523685606
 30
0.0
 10
51.1771908375
 20
5.3628077996
 30
0.0
 10
51.1780709648
 20
5.3776321425
 30
0.0
 10
51.1790088361
 20
5.3971382275
 30
0.0
 10
51.1798670738
 20
5.4215130914
 30
0.0
 10
51.1804641927
 20
5.4469106111
 30
0.0
 10
51.1807910803
 20
5.4729571091
 30
0.0
 10
51.1808426995
 20
5.4992695272
 30
0.0
 10
51.1806181974
 20
5.5254601657
 30
0.0
 10
51.1801212385
 20
5.5511450057
 30
0.0
 10
51.1793591176
 20
5.5759445887
 30
0.0
 10
51.1786612561
 20
5.5921365802
 30
0.0
 10
51.1782644892
 20
5.6000215517
 30
0.0
  0
SPLINE
  5
4AE
100
AcDbEntity
  8
0
100
AcDbSpline
 62
7
  6
CONTINUOUS
 70
0
 71
3
 72
20
 73
16
 74
0
 42
0.0000001
 43
0.0000001
 44
0.0000000001
 40
0.0
 40
0.0
 40
0.0
 40
0.0
 40
0.0303539297
 40
0.0620799072
 40
0.0963823755
 40
0.1342188607
 40
0.1763048768
 40
0.223160082
 40
0.2751528286
 40
0.3325402377
 40
0.3955061499
 40
0.4641832722
 40
0.6190092254
 40
0.7975417307
 40
1.0
 40
1.0
 40
1.0
 40
1.0
 10
51.020350401
 20
5.2255218879
 30
0.0
 10
51.0204972526
 20
5.2255219286
 30
0.0
 10
51.0207985057
 20
5.2255554528
 30
0.0
 10
51.0212436475
 20
5.2257037335
 30
0.0
 10
51.0216854562
 20
5.2259481046
 30
0.0
 10
51.0221241622
 20
5.2262869427
 30
0.0
 10
51.0225606649
 20
5.2267195916
 30
0.0
 10
51.0229954924
 20
5.2272459423
 30
0.0
 10
51.0234289674
 20
5.2278659572
 30
0.0
 10
51.0238612216
 20
5.2285795386
 30
0.0
 10
51.0242922615
 20
5.2293865342
 30
0.0
 10
51.0248892843
 20
5.2306377033
 30
0.0
 10
51.0256226527
 20
5.2324409386
 30
0.0
 10
51.0264650163
 20
5.2348934251
 30
0.0
 10
51.026988573
 20
5.2366612986
 30
0.0
 10
51.0272517098
 20
5.2376047798
 30
0.0
  0
SPLINE
  5
4AF
100
AcDbEntity
  8
0
100
AcDbSpline
 62
7
  6
CONTINUOUS
 70
0
 71
3
 72
20
 73
16
 74
0
 42
0.0000001
 43
0.0000001
 44
0.0000000001
 40
0.0
 40
0.0
 40
0.0
 40
0.0
 40
0.0306195461
 40
0.0625888724
 40
0.0971030822
 40
0.1351164467
 40
0.1773373152
 40
0.2242767895
 40
0.2763011559
 40
0.3336740291
 40
0.3965869495
 40
0.4651806045
 40
0.6197782645
 40
0.7979943404
 40
1.0
 40
1.0
 40
1.0
 40
1.0
 10
51.020350401
 20
5.7565212156
 30
0.0
 10
51.0204953961
 20
5.7565212558
 30
0.0
 10
51.0207926794
 20
5.7564887705
 30
0.0
 10
51.0212322029
 20
5.7563444027
 30
0.0
 10
51.0216685316
 20
5.7561060885
 30
0.0
 10
51.0221018043
 20
5.755775405
 30
0.0
 10
51.0225329256
 20
5.7553531948
 30
0.0
 10
51.0229624488
 20
5.7548397177
 30
0.0
 10
51.0233906866
 20
5.7542350436
 30
0.0
 10
51.0238177296
 20
5.7535392004
 30
0.0
 10
51.0242435912
 20
5.7527522558
 30
0.0
 10
51.0248334224
 20
5.7515321565
 30
0.0
 10
51.025558023
 20
5.7497731216
 30
0.0
 10
51.0263904384
 20
5.7473803676
 30
0.0
 10
51.026908197
 20
5.7456553609
 30
0.0
 10
51.0271684047
 20
5.744734859
 30
0.0
  0
SPLINE
  5
4B0
100
AcDbEntity
  8
0
100
AcDbSpline
 62
7
  6
CONTINUOUS
 70
0
 71
3
 72
14
 73
10
 74
0
 42
0.0000001
 43
0.0000001
 44
0.0000000001
 40
0.0
 40
0.0
 40
0.0
 40
0.0
 40
0.2479351585
 40
0.3719121949
 40
0.496118663
 40
0.6207839608
 40
0.7461604521
 40
0.8724959293
 40
1.0
 40
1.0
 40
1.0
 40
1.0
 10
51.0429168491
 20
5.6171725855
 30
0.0
 10
51.0437253705
 20
5.6241443166
 30
0.0
 10
51.0445958364
 20
5.6346493447
 30
0.0
 10
51.0448776417
 20
5.6486941348
 30
0.0
 10
51.0446062651
 20
5.6592492505
 30
0.0
 10
51.0438168254
 20
5.6698182292
 30
0.0
 10
51.042487189
 20
5.6803939853
 30
0.0
 10
51.0406091211
 20
5.6909674978
 30
0.0
 10
51.0390073396
 20
5.6979755458
 30
0.0
 10
51.0381227174
 20
5.701474798
 30
0.0
  0
SPLINE
  5
4B1
100
AcDbEntity
  8
0
100
AcDbSpline
 62
7
  6
CONTINUOUS
 70
0
 71
3
 72
19
 73
15
 74
0
 42
0.0000001
 43
0.0000001
 44
0.0000000001
 40
0.0
 40
0.0
 40
0.0
 40
0.0
 40
0.1270349194
 40
0.2520648816
 40
0.3754469131
 40
0.4367394286
 40
0.497903489
 40
0.5590728294
 40
0.620398445
 40
0.6820371579
 40
0.7441471659
 40
0.8068792115
 40
0.8703667006
 40
1.0
 40
1.0
 40
1.0
 40
1.0
 10
51.1611246313
 20
5.6171725855
 30
0.0
 10
51.1626324359
 20
5.6207270929
 30
0.0
 10
51.1654080828
 20
5.6278753202
 30
0.0
 10
51.168734956
 20
5.6388031631
 30
0.0
 10
51.1706702869
 20
5.6480315864
 30
0.0
 10
51.1716405961
 20
5.6554433506
 30
0.0
 10
51.1720666259
 20
5.6610110638
 30
0.0
 10
51.1721814921
 20
5.6665949891
 30
0.0
 10
51.1719734106
 20
5.6721908115
 30
0.0
 10
51.1714380956
 20
5.6777936155
 30
0.0
 10
51.1705714047
 20
5.6833979889
 30
0.0
 10
51.169374875
 20
5.6889988491
 30
0.0
 10
51.1673335749
 20
5.6965055203
 30
0.0
 10
51.1653434113
 20
5.7020411487
 30
0.0
 10
51.1638431671
 20
5.7056844109
 30
0.0
  0
LINE
  5
4B2
100
AcDbEntity
  8
0
100
AcDbLine
 62
7
  6
CONTINUOUS
 10
51.1638431671
 20
5.7056844109
 11
51.163700112
 21
5.7060303954
  0
SPLINE
  5
4B3
100
AcDbEntity
  8
0
100
AcDbSpline
 62
7
  6
CONTINUOUS
 70
0
 71
3
 72
9
 73
5
 74
0
 42
0.0000001
 43
0.0000001
 44
0.0000000001
 40
0.0
 40
0.0
 40
0.0
 40
0.0
 40
0.2455499381
 40
1.0
 40
1.0
 40
1.0
 40
1.0
 10
51.163700112
 20
5.7060303954
 30
0.0
 10
51.1631084603
 20
5.7074555215
 30
0.0
 10
51.160596015
 20
5.7132164716
 30
0.0
 10
51.1576992814
 20
5.7188064371
 30
0.0
 10
51.1553529846
 20
5.7229261891
 30
0.0
  0
SPLINE
  5
4B4
100
AcDbEntity
  8
0
100
AcDbSpline
 62
7
  6
CONTINUOUS
 70
0
 71
3
 72
9
 73
5
 74
0
 42
0.0000001
 43
0.0000001
 44
0.0000000001
 40
0.0
 40
0.0
 40
0.0
 40
0.0
 40
0.2545918402
 40
1.0
 40
1.0
 40
1.0
 40
1.0
 10
51.1553529846
 20
5.2591169144
 30
0.0
 10
51.1561447277
 20
5.2605070988
 30
0.0
 10
51.1591811102
 20
5.2660086058
 30
0.0
 10
51.1619041059
 20
5.2716866236
 30
0.0
 10
51.163700112
 20
5.2760127081
 30
0.0
  0
LINE
  5
4B5
100
AcDbEntity
  8
0
100
AcDbLine
 62
7
  6
CONTINUOUS
 10
51.163700112
 20
5.2760127081
 11
51.1638431671
 21
5.2763586926
  0
SPLINE
  5
4B6
100
AcDbEntity
  8
0
100
AcDbSpline
 62
7
  6
CONTINUOUS
 70
0
 71
3
 72
19
 73
15
 74
0
 42
0.0000001
 43
0.0000001
 44
0.0000000001
 40
0.0
 40
0.0
 40
0.0
 40
0.0
 40
0.1296332994
 40
0.1931207885
 40
0.2558528341
 40
0.3179628421
 40
0.379601555
 40
0.4409271706
 40
0.502096511
 40
0.5632605714
 40
0.6245530869
 40
0.7479351184
 40
0.8729650806
 40
1.0
 40
1.0
 40
1.0
 40
1.0
 10
51.1638431671
 20
5.2763586926
 30
0.0
 10
51.1653434113
 20
5.2800019548
 30
0.0
 10
51.1673335749
 20
5.2855375832
 30
0.0
 10
51.169374875
 20
5.2930442543
 30
0.0
 10
51.1705714047
 20
5.2986451146
 30
0.0
 10
51.1714380956
 20
5.3042494879
 30
0.0
 10
51.1719734106
 20
5.309852292
 30
0.0
 10
51.1721814921
 20
5.3154481144
 30
0.0
 10
51.1720666259
 20
5.3210320397
 30
0.0
 10
51.1716405961
 20
5.3265997528
 30
0.0
 10
51.1706702869
 20
5.334011517
 30
0.0
 10
51.168734956
 20
5.3432399403
 30
0.0
 10
51.1654080828
 20
5.3541677832
 30
0.0
 10
51.1626324359
 20
5.3613160106
 30
0.0
 10
51.1611246313
 20
5.3648705179
 30
0.0
  0
SPLINE
  5
4B7
100
AcDbEntity
  8
0
100
AcDbSpline
 62
7
  6
CONTINUOUS
 70
0
 71
3
 72
15
 73
11
 74
0
 42
0.0000001
 43
0.0000001
 44
0.0000000001
 40
0.0
 40
0.0
 40
0.0
 40
0.0
 40
0.1249964674
 40
0.2499956899
 40
0.3749971618
 40
0.4999999975
 40
0.6250028277
 40
0.7500042899
 40
0.8750035088
 40
1.0
 40
1.0
 40
1.0
 40
1.0
 10
51.0429168491
 20
5.3648705179
 30
0.0
 10
51.0443120727
 20
5.3753243886
 30
0.0
 10
51.0468473772
 20
5.3962677745
 30
0.0
 10
51.0497261838
 20
5.4277820837
 30
0.0
 10
51.0515295138
 20
5.4593784672
 30
0.0
 10
51.0521446747
 20
5.4910215506
 30
0.0
 10
51.0515295141
 20
5.5226646332
 30
0.0
 10
51.0497261843
 20
5.5542610152
 30
0.0
 10
51.0468473785
 20
5.5857753254
 30
0.0
 10
51.044312073
 20
5.6067187128
 30
0.0
 10
51.0429168491
 20
5.6171725855
 30
0.0
  0
SPLINE
  5
4B8
100
AcDbEntity
  8
0
100
AcDbSpline
 62
7
  6
CONTINUOUS
 70
0
 71
3
 72
21
 73
17
 74
0
 42
0.0000001
 43
0.0000001
 44
0.0000000001
 40
0.0
 40
0.0
 40
0.0
 40
0.0
 40
0.1249717227
 40
0.187468436
 40
0.2499692878
 40
0.3124732585
 40
0.374980562
 40
0.437489661
 40
0.5
 40
0.562510339
 40
0.625019438
 40
0.6875267415
 40
0.7500307122
 40
0.812531564
 40
0.8750282773
 40
1.0
 40
1.0
 40
1.0
 40
1.0
 10
51.1611246313
 20
5.3648705179
 30
0.0
 10
51.164073337
 20
5.3751241523
 30
0.0
 10
51.1681251714
 20
5.3906183629
 30
0.0
 10
51.1725897735
 20
5.4114896465
 30
0.0
 10
51.175419509
 20
5.4272484704
 30
0.0
 10
51.1776823405
 20
5.4430998891
 30
0.0
 10
51.1793342687
 20
5.4590278118
 30
0.0
 10
51.180340219
 20
5.4750104213
 30
0.0
 10
51.1806788936
 20
5.4910215517
 30
0.0
 10
51.180340219
 20
5.5070326821
 30
0.0
 10
51.1793342687
 20
5.5230152917
 30
0.0
 10
51.1776823405
 20
5.5389432144
 30
0.0
 10
51.175419509
 20
5.554794633
 30
0.0
 10
51.1725897735
 20
5.570553457
 30
0.0
 10
51.1681251714
 20
5.5914247406
 30
0.0
 10
51.164073337
 20
5.6069189512
 30
0.0
 10
51.1611246313
 20
5.6171725855
 30
0.0
  0
SPLINE
  5
4B9
100
AcDbEntity
  8
0
100
AcDbSpline
 62
7
  6
CONTINUOUS
 70
0
 71
3
 72
14
 73
10
 74
0
 42
0.0000001
 43
0.0000001
 44
0.0000000001
 40
0.0
 40
0.0
 40
0.0
 40
0.0
 40
0.1275040531
 40
0.2538395195
 40
0.3792160086
 40
0.503881325
 40
0.6280878186
 40
0.7520648696
 40
1.0
 40
1.0
 40
1.0
 40
1.0
 10
51.038122807
 20
5.2805686644
 30
0.0
 10
51.0390074195
 20
5.2840679024
 30
0.0
 10
51.0406091864
 20
5.2910759207
 30
0.0
 10
51.0424872295
 20
5.3016493894
 30
0.0
 10
51.0438168441
 20
5.3122251014
 30
0.0
 10
51.0446062759
 20
5.3227940355
 30
0.0
 10
51.0448776398
 20
5.3333491072
 30
0.0
 10
51.0445958315
 20
5.3473938363
 30
0.0
 10
51.0437253669
 20
5.357898818
 30
0.0
 10
51.0429168491
 20
5.3648705179
 30
0.0
  0
SPLINE
  5
4BA
100
AcDbEntity
  8
0
100
AcDbSpline
 62
7
  6
CONTINUOUS
 70
0
 71
3
 72
19
 73
15
 74
0
 42
0.0000001
 43
0.0000001
 44
0.0000000001
 40
0.0
 40
0.0
 40
0.0
 40
0.0
 40
0.0355737342
 40
0.0751556913
 40
0.1186962358
 40
0.1661217454
 40
0.2173507477
 40
0.272298069
 40
0.3308618399
 40
0.392925799
 40
0.5270782688
 40
0.6737536961
 40
0.8318587087
 40
1.0
 40
1.0
 40
1.0
 40
1.0
 10
51.0279058304
 20
5.2400732206
 30
0.0
 10
51.0282509899
 20
5.2414413112
 30
0.0
 10
51.0289285268
 20
5.2443447613
 30
0.0
 10
51.0298745788
 20
5.2489569873
 30
0.0
 10
51.0308024834
 20
5.2540514584
 30
0.0
 10
51.0317104654
 20
5.259618034
 30
0.0
 10
51.0325965469
 20
5.2656457756
 30
0.0
 10
51.0334586455
 20
5.2721229098
 30
0.0
 10
51.0342950359
 20
5.2790364746
 30
0.0
 10
51.0354026764
 20
5.2890810796
 30
0.0
 10
51.0366977332
 20
5.3026201405
 30
0.0
 10
51.0380881665
 20
5.3199744517
 30
0.0
 10
51.0393397046
 20
5.3386905928
 30
0.0
 10
51.0400549437
 20
5.3516109978
 30
0.0
 10
51.0403900987
 20
5.3582715517
 30
0.0
  0
SPLINE
  5
4BB
100
AcDbEntity
  8
0
100
AcDbSpline
 62
7
  6
CONTINUOUS
 70
0
 71
3
 72
28
 73
24
 74
0
 42
0.0000001
 43
0.0000001
 44
0.0000000001
 40
0.0
 40
0.0
 40
0.0
 40
0.0
 40
0.0137461651
 40
0.0293728579
 40
0.0468430249
 40
0.0661149205
 40
0.0871368258
 40
0.1098483684
 40
0.1341871099
 40
0.1600818026
 40
0.1874555802
 40
0.2162299554
 40
0.2776307831
 40
0.3435554125
 40
0.4132147838
 40
0.4857746173
 40
0.560364735
 40
0.6360880174
 40
0.7120360517
 40
0.7872944989
 40
0.8609539326
 40
0.9321546535
 40
1.0
 40
1.0
 40
1.0
 40
1.0
 10
51.0279058373
 20
5.7419701121
 30
0.0
 10
51.0283369721
 20
5.7402614669
 30
0.0
 10
51.0291771121
 20
5.7365898617
 30
0.0
 10
51.0303321022
 20
5.7306962385
 30
0.0
 10
51.0314591922
 20
5.7240774804
 30
0.0
 10
51.0325540935
 20
5.7167533694
 30
0.0
 10
51.0336132281
 20
5.7087457708
 30
0.0
 10
51.0346333798
 20
5.7000787858
 30
0.0
 10
51.0356109137
 20
5.6907785758
 30
0.0
 10
51.0365428996
 20
5.6808732409
 30
0.0
 10
51.0374265714
 20
5.6703927381
 30
0.0
 10
51.0385608464
 20
5.6553660553
 30
0.0
 10
51.0398251424
 20
5.6353938997
 30
0.0
 10
51.0410809895
 20
5.6101719098
 30
0.0
 10
51.0420903345
 20
5.5835072828
 30
0.0
 10
51.0428404801
 20
5.5557228837
 30
0.0
 10
51.0433217902
 20
5.5271550815
 30
0.0
 10
51.0435283226
 20
5.4981496296
 30
0.0
 10
51.0434575095
 20
5.4690578537
 30
0.0
 10
51.0431101748
 20
5.4402326532
 30
0.0
 10
51.0424907714
 20
5.4120206997
 30
0.0
 10
51.0416067593
 20
5.3847666082
 30
0.0
 10
51.0408271976
 20
5.3669580424
 30
0.0
 10
51.0403900987
 20
5.3582715517
 30
0.0
  0
SPLINE
  5
4BC
100
AcDbEntity
  8
0
100
AcDbSpline
 62
7
  6
CONTINUOUS
 70
0
 71
3
 72
24
 73
20
 74
0
 42
0.0000001
 43
0.0000001
 44
0.0000000001
 40
0.0
 40
0.0
 40
0.0
 40
0.0
 40
0.1896343974
 40
0.3644447204
 40
0.4455741134
 40
0.5222000015
 40
0.5940971715
 40
0.66104959
 40
0.7228514353
 40
0.7793325712
 40
0.8303368208
 40
0.8757318716
 40
0.9154245779
 40
0.933111074
 40
0.9493508949
 40
0.964147474
 40
0.9775092581
 40
0.9894515174
 40
1.0
 40
1.0
 40
1.0
 40
1.0
 10
29.5139839327
 20
5.6000215517
 30
0.0
 10
29.5143261504
 20
5.6068224623
 30
0.0
 10
29.5150651548
 20
5.6198887435
 30
0.0
 10
29.5162043728
 20
5.635848882
 30
0.0
 10
29.5172175823
 20
5.6477479703
 30
0.0
 10
29.5179993978
 20
5.6559574923
 30
0.0
 10
29.5188195042
 20
5.6636515257
 30
0.0
 10
29.5196750999
 20
5.6708058966
 30
0.0
 10
29.520563636
 20
5.6773981304
 30
0.0
 10
29.5214818239
 20
5.6834076318
 30
0.0
 10
29.5224264479
 20
5.6888160227
 30
0.0
 10
29.5233945112
 20
5.693606696
 30
0.0
 10
29.5242466604
 20
5.6971985863
 30
0.0
 10
29.5249470931
 20
5.6997479322
 30
0.0
 10
29.5254560964
 20
5.7014220924
 30
0.0
 10
29.5259686254
 20
5.7029320769
 30
0.0
 10
29.5264842822
 20
5.7042770399
 30
0.0
 10
29.5270025805
 20
5.7054560975
 30
0.0
 10
29.527372179
 20
5.7061750793
 30
0.0
 10
29.5275593873
 20
5.7065043644
 30
0.0
  0
SPLINE
  5
4BD
100
AcDbEntity
  8
0
100
AcDbSpline
 62
7
  6
CONTINUOUS
 70
0
 71
3
 72
9
 73
5
 74
0
 42
0.0000001
 43
0.0000001
 44
0.0000000001
 40
0.0
 40
0.0
 40
0.0
 40
0.0
 40
0.5066196467
 40
1.0
 40
1.0
 40
1.0
 40
1.0
 10
29.5501673204
 20
5.2387194841
 30
0.0
 10
29.5477518126
 20
5.242046119
 30
0.0
 10
29.5431290642
 20
5.2487196477
 30
0.0
 10
29.5388768165
 20
5.2556379041
 30
0.0
 10
29.5368954373
 20
5.2591169144
 30
0.0
  0
SPLINE
  5
4BE
100
AcDbEntity
  8
0
100
AcDbSpline
 62
7
  6
CONTINUOUS
 70
0
 71
3
 72
21
 73
17
 74
0
 42
0.0000001
 43
0.0000001
 44
0.0000000001
 40
0.0
 40
0.0
 40
0.0
 40
0.0
 40
0.0601750489
 40
0.1227587303
 40
0.1872777212
 40
0.2533023347
 40
0.388109928
 40
0.5235320356
 40
0.5903279068
 40
0.6559081831
 40
0.7198294713
 40
0.7816589459
 40
0.8409803401
 40
0.8973924084
 40
0.9505182427
 40
1.0
 40
1.0
 40
1.0
 40
1.0
 10
29.7218235595
 20
5.6237715517
 30
0.0
 10
29.7221493702
 20
5.6172966974
 30
0.0
 10
29.7227494525
 20
5.6040845071
 30
0.0
 10
29.7234889859
 20
5.5839212056
 30
0.0
 10
29.7240813664
 20
5.5631225597
 30
0.0
 10
29.7246737658
 20
5.5345404657
 30
0.0
 10
29.7250186144
 20
5.4983138962
 30
0.0
 10
29.7248472295
 20
5.4620030297
 30
0.0
 10
29.7243942809
 20
5.4331547244
 30
0.0
 10
29.7239027819
 20
5.4120118308
 30
0.0
 10
29.72326156
 20
5.3914082561
 30
0.0
 10
29.72247498
 20
5.37148451
 30
0.0
 10
29.7215487306
 20
5.3523766682
 30
0.0
 10
29.7204891056
 20
5.3342149172
 30
0.0
 10
29.7193039202
 20
5.3171233923
 30
0.0
 10
29.7184016079
 20
5.3061052927
 30
0.0
 10
29.7179262959
 20
5.3007955354
 30
0.0
  0
SPLINE
  5
4BF
100
AcDbEntity
  8
0
100
AcDbSpline
 62
7
  6
CONTINUOUS
 70
0
 71
3
 72
28
 73
24
 74
0
 42
0.0000001
 43
0.0000001
 44
0.0000000001
 40
0.0
 40
0.0
 40
0.0
 40
0.0
 40
0.217267607
 40
0.3169170983
 40
0.410285591
 40
0.4971713014
 40
0.577381474
 40
0.6507614265
 40
0.7171766571
 40
0.7765059599
 40
0.8286748965
 40
0.8520672724
 40
0.8736647499
 40
0.8934728859
 40
0.911503515
 40
0.9277807788
 40
0.9423433534
 40
0.9552481709
 40
0.9665803587
 40
0.9764694115
 40
0.9851141585
 40
0.9928159551
 40
1.0
 40
1.0
 40
1.0
 40
1.0
 10
29.7179262959
 20
5.3007955354
 30
0.0
 10
29.7174197784
 20
5.2951371792
 30
0.0
 10
29.7166152079
 20
5.2868890887
 30
0.0
 10
29.7154005831
 20
5.2762299836
 30
0.0
 10
29.7144849563
 20
5.2689685265
 30
0.0
 10
29.7135405947
 20
5.2622236085
 30
0.0
 10
29.7125695243
 20
5.2560109111
 30
0.0
 10
29.7115743737
 20
5.2503446761
 30
0.0
 10
29.7105579661
 20
5.2452376867
 30
0.0
 10
29.7095226045
 20
5.2407017073
 30
0.0
 10
29.7086167396
 20
5.237291805
 30
0.0
 10
29.7078758723
 20
5.2348615134
 30
0.0
 10
29.7073373045
 20
5.2332548261
 30
0.0
 10
29.7067958029
 20
5.2317977707
 30
0.0
 10
29.7062515915
 20
5.2304911543
 30
0.0
 10
29.7057049991
 20
5.2293354865
 30
0.0
 10
29.7051563032
 20
5.2283309695
 30
0.0
 10
29.7046055857
 20
5.2274775991
 30
0.0
 10
29.7040525386
 20
5.2267752051
 30
0.0
 10
29.7034961879
 20
5.2262236242
 30
0.0
 10
29.7029340867
 20
5.225823471
 30
0.0
 10
29.7023638027
 20
5.2255781781
 30
0.0
 10
29.7019728154
 20
5.225521939
 30
0.0
 10
29.7017849713
 20
5.2255218878
 30
0.0
  0
SPLINE
  5
4C0
100
AcDbEntity
  8
0
100
AcDbSpline
 62
7
  6
CONTINUOUS
 70
0
 71
3
 72
34
 73
30
 74
0
 42
0.0000001
 43
0.0000001
 44
0.0000000001
 40
0.0
 40
0.0
 40
0.0
 40
0.0
 40
0.1085545202
 40
0.2125894357
 40
0.3115796097
 40
0.4050891343
 40
0.4927514538
 40
0.5742135912
 40
0.6491470047
 40
0.7172374139
 40
0.7782272332
 40
0.8059894605
 40
0.8318945715
 40
0.8559241992
 40
0.8780645524
 40
0.8983045768
 40
0.9166371395
 40
0.933062576
 40
0.9475965342
 40
0.9602700092
 40
0.9711369279
 40
0.9759224551
 40
0.9802971352
 40
0.9842852359
 40
0.987919658
 40
0.9912439718
 40
0.9943150872
 40
0.9972050318
 40
1.0
 40
1.0
 40
1.0
 40
1.0
 10
29.7218235595
 20
5.6237715517
 30
0.0
 10
29.721576138
 20
5.6286885723
 30
0.0
 10
29.7210557537
 20
5.638316142
 30
0.0
 10
29.7201778307
 20
5.652419989
 30
0.0
 10
29.7192217553
 20
5.6658348128
 30
0.0
 10
29.7181919341
 20
5.6784993531
 30
0.0
 10
29.7170931748
 20
5.6903600182
 30
0.0
 10
29.7159299918
 20
5.7013677657
 30
0.0
 10
29.7147082656
 20
5.7114757148
 30
0.0
 10
29.7134329519
 20
5.720640525
 30
0.0
 10
29.7122984646
 20
5.7276635539
 30
0.0
 10
29.7113587671
 20
5.7327781418
 30
0.0
 10
29.7106662241
 20
5.7362333648
 30
0.0
 10
29.70996453
 20
5.7394261834
 30
0.0
 10
29.7092545287
 20
5.742353459
 30
0.0
 10
29.7085370873
 20
5.7450122139
 30
0.0
 10
29.7078130791
 20
5.7473996445
 30
0.0
 10
29.7070832323
 20
5.7495133519
 30
0.0
 10
29.7063485603
 20
5.751351878
 30
0.0
 10
29.7056098848
 20
5.7529140185
 30
0.0
 10
29.7049668174
 20
5.7540288922
 30
0.0
 10
29.7044444592
 20
5.7547726504
 30
0.0
 10
29.7040684924
 20
5.7552362367
 30
0.0
 10
29.7036915028
 20
5.7556296008
 30
0.0
 10
29.7033132545
 20
5.7559526938
 30
0.0
 10
29.7029334297
 20
5.7562053262
 30
0.0
 10
29.7025516219
 20
5.7563869671
 30
0.0
 10
29.7021679544
 20
5.7564966666
 30
0.0
 10
29.7019095117
 20
5.7565212501
 30
0.0
 10
29.7017827523
 20
5.7565212156
 30
0.0
  0
SPLINE
  5
4C1
100
AcDbEntity
  8
0
100
AcDbSpline
 62
7
  6
CONTINUOUS
 70
0
 71
3
 72
9
 73
5
 74
0
 42
0.0000001
 43
0.0000001
 44
0.0000000001
 40
0.0
 40
0.0
 40
0.0
 40
0.0
 40
0.4933803533
 40
1.0
 40
1.0
 40
1.0
 40
1.0
 10
29.5368954373
 20
5.7229261891
 30
0.0
 10
29.5388768165
 20
5.7264051994
 30
0.0
 10
29.5431290642
 20
5.7333234558
 30
0.0
 10
29.5477518126
 20
5.7399969844
 30
0.0
 10
29.5501673204
 20
5.7433236194
 30
0.0
  0
SPLINE
  5
4C2
100
AcDbEntity
  8
0
100
AcDbSpline
 62
7
  6
CONTINUOUS
 70
0
 71
3
 72
34
 73
30
 74
0
 42
0.0000001
 43
0.0000001
 44
0.0000000001
 40
0.0
 40
0.0
 40
0.0
 40
0.0
 40
0.0038051163
 40
0.0081537357
 40
0.013056082
 40
0.018517904
 40
0.0245421187
 40
0.0311291301
 40
0.0382763947
 40
0.0459801829
 40
0.0630387803
 40
0.082260728
 40
0.1035834666
 40
0.1269383747
 40
0.152244673
 40
0.1794132729
 40
0.2083496507
 40
0.2389483002
 40
0.2711008973
 40
0.30469049
 40
0.3756887778
 40
0.4509124129
 40
0.52926603
 40
0.6096066322
 40
0.6907607277
 40
0.7715445825
 40
0.8507722359
 40
0.9273039715
 40
1.0
 40
1.0
 40
1.0
 40
1.0
 10
29.5275593873
 20
5.2755387392
 30
0.0
 10
29.5273551468
 20
5.2758979834
 30
0.0
 10
29.5269527441
 20
5.2766879258
 30
0.0
 10
29.5263913422
 20
5.2779906638
 30
0.0
 10
29.5258330546
 20
5.2794883937
 30
0.0
 10
29.5252785015
 20
5.2811799996
 30
0.0
 10
29.5247282818
 20
5.2830643766
 30
0.0
 10
29.5241830334
 20
5.2851399891
 30
0.0
 10
29.5236431894
 20
5.2874049384
 30
0.0
 10
29.5229061006
 20
5.2907912867
 30
0.0
 10
29.5220122331
 20
5.2954845326
 30
0.0
 10
29.5210016317
 20
5.3016587143
 30
0.0
 10
29.5200238634
 20
5.3085295549
 30
0.0
 10
29.5190831848
 20
5.3160718402
 30
0.0
 10
29.5181831982
 20
5.3242580496
 30
0.0
 10
29.5173273773
 20
5.3330581773
 30
0.0
 10
29.5165192529
 20
5.3424398079
 30
0.0
 10
29.5157616101
 20
5.3523685606
 30
0.0
 10
29.5150575844
 20
5.3628077996
 30
0.0
 10
29.5141774571
 20
5.3776321425
 30
0.0
 10
29.5132395858
 20
5.3971382275
 30
0.0
 10
29.5123813481
 20
5.4215130914
 30
0.0
 10
29.5117842291
 20
5.4469106111
 30
0.0
 10
29.5114573416
 20
5.4729571091
 30
0.0
 10
29.5114057224
 20
5.4992695272
 30
0.0
 10
29.5116302245
 20
5.5254601657
 30
0.0
 10
29.5121271834
 20
5.5511450057
 30
0.0
 10
29.5128893043
 20
5.5759445887
 30
0.0
 10
29.5135871658
 20
5.5921365802
 30
0.0
 10
29.5139839327
 20
5.6000215517
 30
0.0
  0
SPLINE
  5
4C3
100
AcDbEntity
  8
0
100
AcDbSpline
 62
7
  6
CONTINUOUS
 70
0
 71
3
 72
20
 73
16
 74
0
 42
0.0000001
 43
0.0000001
 44
0.0000000001
 40
0.0
 40
0.0
 40
0.0
 40
0.0
 40
0.0303539297
 40
0.0620799072
 40
0.0963823755
 40
0.1342188607
 40
0.1763048768
 40
0.223160082
 40
0.2751528286
 40
0.3325402377
 40
0.3955061499
 40
0.4641832722
 40
0.6190092254
 40
0.7975417307
 40
1.0
 40
1.0
 40
1.0
 40
1.0
 10
29.6718980209
 20
5.2255218879
 30
0.0
 10
29.6717511693
 20
5.2255219286
 30
0.0
 10
29.6714499161
 20
5.2255554528
 30
0.0
 10
29.6710047744
 20
5.2257037335
 30
0.0
 10
29.6705629657
 20
5.2259481046
 30
0.0
 10
29.6701242597
 20
5.2262869427
 30
0.0
 10
29.669687757
 20
5.2267195916
 30
0.0
 10
29.6692529294
 20
5.2272459423
 30
0.0
 10
29.6688194545
 20
5.2278659572
 30
0.0
 10
29.6683872003
 20
5.2285795386
 30
0.0
 10
29.6679561604
 20
5.2293865342
 30
0.0
 10
29.6673591376
 20
5.2306377033
 30
0.0
 10
29.6666257691
 20
5.2324409386
 30
0.0
 10
29.6657834056
 20
5.2348934251
 30
0.0
 10
29.6652598488
 20
5.2366612986
 30
0.0
 10
29.664996712
 20
5.2376047798
 30
0.0
  0
SPLINE
  5
4C4
100
AcDbEntity
  8
0
100
AcDbSpline
 62
7
  6
CONTINUOUS
 70
0
 71
3
 72
20
 73
16
 74
0
 42
0.0000001
 43
0.0000001
 44
0.0000000001
 40
0.0
 40
0.0
 40
0.0
 40
0.0
 40
0.0306195461
 40
0.0625888724
 40
0.0971030822
 40
0.1351164467
 40
0.1773373152
 40
0.2242767895
 40
0.2763011559
 40
0.3336740291
 40
0.3965869495
 40
0.4651806045
 40
0.6197782645
 40
0.7979943404
 40
1.0
 40
1.0
 40
1.0
 40
1.0
 10
29.6718980209
 20
5.7565212156
 30
0.0
 10
29.6717530258
 20
5.7565212558
 30
0.0
 10
29.6714557425
 20
5.7564887705
 30
0.0
 10
29.671016219
 20
5.7563444027
 30
0.0
 10
29.6705798903
 20
5.7561060885
 30
0.0
 10
29.6701466176
 20
5.755775405
 30
0.0
 10
29.6697154963
 20
5.7553531948
 30
0.0
 10
29.6692859731
 20
5.7548397177
 30
0.0
 10
29.6688577353
 20
5.7542350436
 30
0.0
 10
29.6684306922
 20
5.7535392004
 30
0.0
 10
29.6680048307
 20
5.7527522558
 30
0.0
 10
29.6674149995
 20
5.7515321565
 30
0.0
 10
29.6666903989
 20
5.7497731216
 30
0.0
 10
29.6658579835
 20
5.7473803676
 30
0.0
 10
29.6653402249
 20
5.7456553609
 30
0.0
 10
29.6650800172
 20
5.744734859
 30
0.0
  0
SPLINE
  5
4C5
100
AcDbEntity
  8
0
100
AcDbSpline
 62
7
  6
CONTINUOUS
 70
0
 71
3
 72
21
 73
17
 74
0
 42
0.0000001
 43
0.0000001
 44
0.0000000001
 40
0.0
 40
0.0
 40
0.0
 40
0.0
 40
0.1249717227
 40
0.187468436
 40
0.2499692878
 40
0.3124732585
 40
0.374980562
 40
0.437489661
 40
0.5
 40
0.562510339
 40
0.625019438
 40
0.6875267415
 40
0.7500307122
 40
0.812531564
 40
0.8750282773
 40
1.0
 40
1.0
 40
1.0
 40
1.0
 10
29.5692108502
 20
5.6171725855
 30
0.0
 10
29.5662621445
 20
5.6069189512
 30
0.0
 10
29.5622103101
 20
5.5914247406
 30
0.0
 10
29.5577457079
 20
5.570553457
 30
0.0
 10
29.5549159725
 20
5.554794633
 30
0.0
 10
29.552653141
 20
5.5389432144
 30
0.0
 10
29.5510012127
 20
5.5230152917
 30
0.0
 10
29.5499952625
 20
5.5070326821
 30
0.0
 10
29.5496565879
 20
5.4910215517
 30
0.0
 10
29.5499952625
 20
5.4750104213
 30
0.0
 10
29.5510012127
 20
5.4590278118
 30
0.0
 10
29.552653141
 20
5.4430998891
 30
0.0
 10
29.5549159725
 20
5.4272484704
 30
0.0
 10
29.5577457079
 20
5.4114896465
 30
0.0
 10
29.5622103101
 20
5.3906183629
 30
0.0
 10
29.5662621445
 20
5.3751241523
 30
0.0
 10
29.5692108502
 20
5.3648705179
 30
0.0
  0
SPLINE
  5
4C6
100
AcDbEntity
  8
0
100
AcDbSpline
 62
7
  6
CONTINUOUS
 70
0
 71
3
 72
42
 73
38
 74
0
 42
0.0000001
 43
0.0000001
 44
0.0000000001
 40
0.0
 40
0.0
 40
0.0
 40
0.0
 40
0.077614825
 40
0.1595348133
 40
0.2443471298
 40
0.3306295274
 40
0.4169103591
 40
0.5017268
 40
0.5836388193
 40
0.6612581663
 40
0.6980451563
 40
0.7332733039
 40
0.7667963765
 40
0.7984715501
 40
0.828168723
 40
0.8557642405
 40
0.8811448331
 40
0.9042108068
 40
0.9248697731
 40
0.9342738814
 40
0.9430501459
 40
0.9511910719
 40
0.9586907798
 40
0.9655463895
 40
0.9717566068
 40
0.9773220716
 40
0.9822464339
 40
0.9865394395
 40
0.9902203496
 40
0.991841579
 40
0.9933239352
 40
0.9946755586
 40
0.995907346
 40
0.9970338548
 40
0.9980743177
 40
0.9990532643
 40
1.0
 40
1.0
 40
1.0
 40
1.0
 10
29.6919377186
 20
5.6237715517
 30
0.0
 10
29.6924599496
 20
5.6133932271
 30
0.0
 10
29.6933675064
 20
5.5920523558
 30
0.0
 10
29.694326107
 20
5.5593512074
 30
0.0
 10
29.6949080254
 20
5.5254805489
 30
0.0
 10
29.6951032985
 20
5.4910216557
 30
0.0
 10
29.6949080914
 20
5.4565622068
 30
0.0
 10
29.6943260867
 20
5.4226922815
 30
0.0
 10
29.6933675495
 20
5.3899910162
 30
0.0
 10
29.6922507615
 20
5.3637297048
 30
0.0
 10
29.6911699859
 20
5.3437248908
 30
0.0
 10
29.6902918633
 20
5.3296220505
 30
0.0
 10
29.6893360562
 20
5.3162102864
 30
0.0
 10
29.6883063109
 20
5.3035467822
 30
0.0
 10
29.6872075473
 20
5.2916858243
 30
0.0
 10
29.6860446092
 20
5.2806780279
 30
0.0
 10
29.6848226497
 20
5.2705702668
 30
0.0
 10
29.6835476998
 20
5.2614057925
 30
0.0
 10
29.6824131666
 20
5.2543828208
 30
0.0
 10
29.6814734496
 20
5.2492682482
 30
0.0
 10
29.6807810088
 20
5.2458127432
 30
0.0
 10
29.6800794412
 20
5.2426196359
 30
0.0
 10
29.6793694353
 20
5.2396923252
 30
0.0
 10
29.678651966
 20
5.2370336614
 30
0.0
 10
29.6779279262
 20
5.234646097
 30
0.0
 10
29.6771982415
 20
5.2325319556
 30
0.0
 10
29.6764637035
 20
5.2306930177
 30
0.0
 10
29.6757249887
 20
5.2291307677
 30
0.0
 10
29.6750818841
 20
5.2280159328
 30
0.0
 10
29.674559552
 20
5.2272720893
 30
0.0
 10
29.6741836049
 20
5.2268082679
 30
0.0
 10
29.6738066678
 20
5.2264145272
 30
0.0
 10
29.6734284755
 20
5.2260910114
 30
0.0
 10
29.6730486891
 20
5.2258380219
 30
0.0
 10
29.6726668806
 20
5.2256561936
 30
0.0
 10
29.6722832124
 20
5.2255464334
 30
0.0
 10
29.6720247745
 20
5.2255218527
 30
0.0
 10
29.6718980209
 20
5.2255218879
 30
0.0
  0
SPLINE
  5
4C7
100
AcDbEntity
  8
0
100
AcDbSpline
 62
7
  6
CONTINUOUS
 70
0
 71
3
 72
34
 73
30
 74
0
 42
0.0000001
 43
0.0000001
 44
0.0000000001
 40
0.0
 40
0.0
 40
0.0
 40
0.0
 40
0.1085505324
 40
0.2125818615
 40
0.3115689151
 40
0.4050758281
 40
0.4927360904
 40
0.574196765
 40
0.6491293493
 40
0.7172195936
 40
0.7782099254
 40
0.80597267
 40
0.8318784732
 40
0.8559089633
 40
0.8780503486
 40
0.898291573
 40
0.9166254997
 40
0.9330524512
 40
0.9475880557
 40
0.960263284
 40
0.9711320199
 40
0.975918455
 40
0.9802940236
 40
0.9842829696
 40
0.9879181647
 40
0.9912431404
 40
0.9943147592
 40
0.9972049963
 40
1.0
 40
1.0
 40
1.0
 40
1.0
 10
29.6919377186
 20
5.6237715517
 30
0.0
 10
29.6916903082
 20
5.6286883516
 30
0.0
 10
29.6911699483
 20
5.6383155002
 30
0.0
 10
29.6902920705
 20
5.6524187488
 30
0.0
 10
29.6893360472
 20
5.665833043
 30
0.0
 10
29.688306284
 20
5.6784971298
 30
0.0
 10
29.6872075882
 20
5.6903574242
 30
0.0
 10
29.6860444733
 20
5.7013648899
 30
0.0
 10
29.6848228187
 20
5.7114726519
 30
0.0
 10
29.6835475799
 20
5.7206373744
 30
0.0
 10
29.6824131613
 20
5.7276603954
 30
0.0
 10
29.681473522
 20
5.7327750303
 30
0.0
 10
29.6807810191
 20
5.7362303279
 30
0.0
 10
29.680079365
 20
5.7394232481
 30
0.0
 10
29.6793694037
 20
5.7423506524
 30
0.0
 10
29.6786520021
 20
5.7450095637
 30
0.0
 10
29.6779280333
 20
5.7473971781
 30
0.0
 10
29.6771982256
 20
5.7495110965
 30
0.0
 10
29.6764635918
 20
5.7513498599
 30
0.0
 10
29.675724954
 20
5.7529122636
 30
0.0
 10
29.6750819236
 20
5.754027379
 30
0.0
 10
29.6745595965
 20
5.7547713497
 30
0.0
 10
29.6741836495
 20
5.7552350994
 30
0.0
 10
29.6738066801
 20
5.7556286333
 30
0.0
 10
29.673428453
 20
5.7559519027
 30
0.0
 10
29.6730486507
 20
5.7562047188
 30
0.0
 10
29.6726668665
 20
5.7563865521
 30
0.0
 10
29.6722832223
 20
5.7564964537
 30
0.0
 10
29.6720247808
 20
5.7565211804
 30
0.0
 10
29.6718980209
 20
5.7565212156
 30
0.0
  0
SPLINE
  5
4C8
100
AcDbEntity
  8
0
100
AcDbSpline
 62
7
  6
CONTINUOUS
 70
0
 71
3
 72
15
 73
11
 74
0
 42
0.0000001
 43
0.0000001
 44
0.0000000001
 40
0.0
 40
0.0
 40
0.0
 40
0.0
 40
0.1305892218
 40
0.2591248575
 40
0.3856048389
 40
0.5102478894
 40
0.6334863092
 40
0.755866504
 40
0.8779076124
 40
1.0
 40
1.0
 40
1.0
 40
1.0
 10
29.6874186323
 20
5.3648705179
 30
0.0
 10
29.6852508045
 20
5.3596829337
 30
0.0
 10
29.6811640923
 20
5.3492970791
 30
0.0
 10
29.6758993385
 20
5.3335429482
 30
0.0
 10
29.6716989471
 20
5.3177332757
 30
0.0
 10
29.6686821361
 20
5.301885317
 30
0.0
 10
29.666899272
 20
5.2860286396
 30
0.0
 10
29.6663138418
 20
5.27019648
 30
0.0
 10
29.6668143867
 20
5.2544142202
 30
0.0
 10
29.667769557
 20
5.2439409923
 30
0.0
 10
29.6683751025
 20
5.2387194841
 30
0.0
  0
SPLINE
  5
4C9
100
AcDbEntity
  8
0
100
AcDbSpline
 62
7
  6
CONTINUOUS
 70
0
 71
3
 72
47
 73
43
 74
0
 42
0.0000001
 43
0.0000001
 44
0.0000000001
 40
0.0
 40
0.0
 40
0.0
 40
0.0
 40
0.0036573321
 40
0.0052444637
 40
0.0066822179
 40
0.0079838659
 40
0.0091673996
 40
0.0102568249
 40
0.0112829292
 40
0.0122825285
 40
0.0132954562
 40
0.0155015805
 40
0.0167615209
 40
0.0181521521
 40
0.019688175
 40
0.0213804127
 40
0.0252621174
 40
0.0298405932
 40
0.0351368323
 40
0.0411617986
 40
0.0479207436
 40
0.0554144832
 40
0.063639059
 40
0.0725885691
 40
0.0822560593
 40
0.0926334092
 40
0.1154715708
 40
0.1410041531
 40
0.1691169731
 40
0.1996771624
 40
0.2325420898
 40
0.2675523542
 40
0.3045414845
 40
0.3433285552
 40
0.3837270455
 40
0.4685613002
 40
0.5573927566
 40
0.6484879129
 40
0.7400687446
 40
0.8303443242
 40
0.9175572543
 40
1.0
 40
1.0
 40
1.0
 40
1.0
 10
29.5275593873
 20
5.7065043644
 30
0.0
 10
29.5277605006
 20
5.7068581075
 30
0.0
 10
29.5280719357
 20
5.7073538985
 30
0.0
 10
29.5285352519
 20
5.707936222
 30
0.0
 10
29.5288672171
 20
5.7082858538
 30
0.0
 10
29.5292004259
 20
5.7085693051
 30
0.0
 10
29.5295353371
 20
5.7087862906
 30
0.0
 10
29.5298723618
 20
5.7089360898
 30
0.0
 10
29.5302114751
 20
5.7090174856
 30
0.0
 10
29.5305517335
 20
5.7090291576
 30
0.0
 10
29.5310173145
 20
5.7089494688
 30
0.0
 10
29.5314727463
 20
5.7087215512
 30
0.0
 10
29.5318982511
 20
5.7083879279
 30
0.0
 10
29.5322308297
 20
5.7080602811
 30
0.0
 10
29.5325620197
 20
5.7076666361
 30
0.0
 10
29.5330238236
 20
5.7070235726
 30
0.0
 10
29.5335910809
 20
5.7060439301
 30
0.0
 10
29.5342405729
 20
5.704656735
 30
0.0
 10
29.5348863691
 20
5.7030087689
 30
0.0
 10
29.535527642
 20
5.7011014838
 30
0.0
 10
29.5361634075
 20
5.6989363411
 30
0.0
 10
29.5367926649
 20
5.6965156345
 30
0.0
 10
29.5374146657
 20
5.6938422362
 30
0.0
 10
29.5380285262
 20
5.6909194042
 30
0.0
 10
29.538633431
 20
5.6877505422
 30
0.0
 10
29.5394531747
 20
5.6830501441
 30
0.0
 10
29.5404389172
 20
5.676587807
 30
0.0
 10
29.5415407976
 20
5.6681493716
 30
0.0
 10
29.5425898141
 20
5.6588391218
 30
0.0
 10
29.5435808048
 20
5.6487025941
 30
0.0
 10
29.5445081623
 20
5.6377897132
 30
0.0
 10
29.5453674869
 20
5.6261539474
 30
0.0
 10
29.5461539799
 20
5.6138527424
 30
0.0
 10
29.5468640498
 20
5.6009464615
 30
0.0
 10
29.5477174817
 20
5.5827173551
 30
0.0
 10
29.5485581717
 20
5.558914435
 30
0.0
 10
29.5492032548
 20
5.5294633278
 30
0.0
 10
29.5494865223
 20
5.4992558634
 30
0.0
 10
29.5494021372
 20
5.4688865471
 30
0.0
 10
29.5489519284
 20
5.4389523762
 30
0.0
 10
29.5481451008
 20
5.4100427928
 30
0.0
 10
29.5473537918
 20
5.3911825718
 30
0.0
 10
29.5468928148
 20
5.3820215517
 30
0.0
  0
SPLINE
  5
4CA
100
AcDbEntity
  8
0
100
AcDbSpline
 62
7
  6
CONTINUOUS
 70
0
 71
3
 72
25
 73
21
 74
0
 42
0.0000001
 43
0.0000001
 44
0.0000000001
 40
0.0
 40
0.0
 40
0.0
 40
0.0
 40
0.069872469
 40
0.1383857583
 40
0.2054633413
 40
0.2710670067
 40
0.3352068402
 40
0.3979571844
 40
0.4288597397
 40
0.4594761175
 40
0.5199616156
 40
0.5797011882
 40
0.6093944072
 40
0.6390173222
 40
0.698193401
 40
0.757519814
 40
0.817224503
 40
0.8774745938
 40
0.9383809441
 40
1.0
 40
1.0
 40
1.0
 40
1.0
 10
29.5692108502
 20
5.3648705179
 30
0.0
 10
29.567366695
 20
5.3623307491
 30
0.0
 10
29.5637993481
 20
5.3572379119
 30
0.0
 10
29.5588081028
 20
5.3494712895
 30
0.0
 10
29.5542747801
 20
5.3416485529
 30
0.0
 10
29.5502502671
 20
5.3337710928
 30
0.0
 10
29.5467832446
 20
5.3258435627
 30
0.0
 10
29.5443849755
 20
5.3191666055
 30
0.0
 10
29.5427929565
 20
5.3138149644
 30
0.0
 10
29.5414335192
 20
5.3085045943
 30
0.0
 10
29.5401418229
 20
5.3018450178
 30
0.0
 10
29.53941119
 20
5.2951420297
 30
0.0
 10
29.5391645234
 20
5.2897983783
 30
0.0
 10
29.5391396153
 20
5.2844744204
 30
0.0
 10
29.5395149188
 20
5.27782347
 30
0.0
 10
29.5405849011
 20
5.2698828862
 30
0.0
 10
29.5422296201
 20
5.2619928472
 30
0.0
 10
29.5444012659
 20
5.2541588587
 30
0.0
 10
29.5470486758
 20
5.2463829849
 30
0.0
 10
29.5490864045
 20
5.2412676414
 30
0.0
 10
29.5501673204
 20
5.2387194841
 30
0.0
  0
SPLINE
  5
4CB
100
AcDbEntity
  8
0
100
AcDbSpline
 62
7
  6
CONTINUOUS
 70
0
 71
3
 72
15
 73
11
 74
0
 42
0.0000001
 43
0.0000001
 44
0.0000000001
 40
0.0
 40
0.0
 40
0.0
 40
0.0
 40
0.1220923863
 40
0.2441335045
 40
0.3665137054
 40
0.4897521289
 40
0.6143951879
 40
0.7408751845
 40
0.8694108149
 40
1.0
 40
1.0
 40
1.0
 40
1.0
 10
29.6683751025
 20
5.7433236194
 30
0.0
 10
29.667769557
 20
5.7381021112
 30
0.0
 10
29.6668143866
 20
5.7276288829
 30
0.0
 10
29.6663138416
 20
5.7118466225
 30
0.0
 10
29.6668992719
 20
5.6960144621
 30
0.0
 10
29.6686821364
 20
5.6801577839
 30
0.0
 10
29.6716989482
 20
5.6643098242
 30
0.0
 10
29.6758993401
 20
5.648500151
 30
0.0
 10
29.6811640945
 20
5.6327460215
 30
0.0
 10
29.6852508051
 20
5.6223601683
 30
0.0
 10
29.6874186323
 20
5.6171725855
 30
0.0
  0
SPLINE
  5
4CC
100
AcDbEntity
  8
0
100
AcDbSpline
 62
7
  6
CONTINUOUS
 70
0
 71
3
 72
25
 73
21
 74
0
 42
0.0000001
 43
0.0000001
 44
0.0000000001
 40
0.0
 40
0.0
 40
0.0
 40
0.0
 40
0.0616190559
 40
0.1225254062
 40
0.182775497
 40
0.242480186
 40
0.301806599
 40
0.3609826778
 40
0.3906055928
 40
0.4202988118
 40
0.4800383844
 40
0.5405238825
 40
0.5711402603
 40
0.6020428156
 40
0.6647931598
 40
0.7289329933
 40
0.7945366587
 40
0.8616142417
 40
0.930127531
 40
1.0
 40
1.0
 40
1.0
 40
1.0
 10
29.5501673204
 20
5.7433236194
 30
0.0
 10
29.5490864045
 20
5.740775462
 30
0.0
 10
29.5470486758
 20
5.7356601185
 30
0.0
 10
29.5444012659
 20
5.7278842447
 30
0.0
 10
29.5422296201
 20
5.7200502562
 30
0.0
 10
29.5405849011
 20
5.7121602173
 30
0.0
 10
29.5395149188
 20
5.7042196335
 30
0.0
 10
29.5391396153
 20
5.697568683
 30
0.0
 10
29.5391645234
 20
5.6922447252
 30
0.0
 10
29.53941119
 20
5.6869010738
 30
0.0
 10
29.5401418229
 20
5.6801980857
 30
0.0
 10
29.5414335192
 20
5.6735385092
 30
0.0
 10
29.5427929565
 20
5.668228139
 30
0.0
 10
29.5443849755
 20
5.662876498
 30
0.0
 10
29.5467832446
 20
5.6561995408
 30
0.0
 10
29.5502502671
 20
5.6482720106
 30
0.0
 10
29.5542747801
 20
5.6403945505
 30
0.0
 10
29.5588081028
 20
5.632571814
 30
0.0
 10
29.5637993481
 20
5.6248051916
 30
0.0
 10
29.567366695
 20
5.6197123543
 30
0.0
 10
29.5692108502
 20
5.6171725855
 30
0.0
  0
SPLINE
  5
4CD
100
AcDbEntity
  8
0
100
AcDbSpline
 62
7
  6
CONTINUOUS
 70
0
 71
3
 72
41
 73
37
 74
0
 42
0.0000001
 43
0.0000001
 44
0.0000000001
 40
0.0
 40
0.0
 40
0.0
 40
0.0
 40
0.1196887876
 40
0.2335462827
 40
0.3408403901
 40
0.4409962107
 40
0.5334876718
 40
0.6178222152
 40
0.6935400246
 40
0.7280490197
 40
0.7602660641
 40
0.7901515855
 40
0.8176764694
 40
0.8428162844
 40
0.8655506337
 40
0.8858677545
 40
0.9037741849
 40
0.919293273
 40
0.9261729565
 40
0.9324775667
 40
0.9382212344
 40
0.9434245121
 40
0.9481157057
 40
0.9523338723
 40
0.9561331656
 40
0.9595880232
 40
0.9627975124
 40
0.9658850093
 40
0.9689890094
 40
0.9722458088
 40
0.9757735341
 40
0.9796652514
 40
0.9839901729
 40
0.9887984629
 40
0.99412631
 40
1.0
 40
1.0
 40
1.0
 40
1.0
 10
29.5468928148
 20
5.3820215517
 30
0.0
 10
29.5466608262
 20
5.3774112296
 30
0.0
 10
29.5461699744
 20
5.3684170608
 30
0.0
 10
29.5453294819
 20
5.3552982211
 30
0.0
 10
29.5444062387
 20
5.3429402173
 30
0.0
 10
29.5434061999
 20
5.331415075
 30
0.0
 10
29.5423349767
 20
5.3207858733
 30
0.0
 10
29.5411993337
 20
5.311111717
 30
0.0
 10
29.5401757724
 20
5.3036772759
 30
0.0
 10
29.53932031
 20
5.2982503566
 30
0.0
 10
29.5386865741
 20
5.2945783771
 30
0.0
 10
29.5380415631
 20
5.2911821473
 30
0.0
 10
29.5373863332
 20
5.2880662622
 30
0.0
 10
29.5367219556
 20
5.2852348611
 30
0.0
 10
29.5360494826
 20
5.2826918654
 30
0.0
 10
29.5353698865
 20
5.2804405627
 30
0.0
 10
29.5346843658
 20
5.2784836872
 30
0.0
 10
29.5340876488
 20
5.2770468202
 30
0.0
 10
29.5336018947
 20
5.2760516948
 30
0.0
 10
29.5332512862
 20
5.2754110291
 30
0.0
 10
29.5328996715
 20
5.2748456848
 30
0.0
 10
29.5325470584
 20
5.2743556882
 30
0.0
 10
29.5321933602
 20
5.2739409914
 30
0.0
 10
29.5318383056
 20
5.2736015838
 30
0.0
 10
29.531481397
 20
5.2733376475
 30
0.0
 10
29.5311219896
 20
5.2731498563
 30
0.0
 10
29.5307597712
 20
5.2730396609
 30
0.0
 10
29.5303956227
 20
5.2730089207
 30
0.0
 10
29.5300317631
 20
5.2730584453
 30
0.0
 10
29.5296701826
 20
5.2731870128
 30
0.0
 10
29.5293114147
 20
5.2733927683
 30
0.0
 10
29.5289549973
 20
5.2736744472
 30
0.0
 10
29.5286002972
 20
5.2740315234
 30
0.0
 10
29.5282468688
 20
5.274463886
 30
0.0
 10
29.5278944989
 20
5.2749715439
 30
0.0
 10
29.52767135
 20
5.275341805
 30
0.0
 10
29.5275593873
 20
5.2755387392
 30
0.0
  0
SPLINE
  5
4CE
100
AcDbEntity
  8
0
100
AcDbSpline
 62
7
  6
CONTINUOUS
 70
0
 71
3
 72
15
 73
11
 74
0
 42
0.0000001
 43
0.0000001
 44
0.0000000001
 40
0.0
 40
0.0
 40
0.0
 40
0.0
 40
0.1249964674
 40
0.2499956899
 40
0.3749971618
 40
0.4999999975
 40
0.6250028277
 40
0.7500042899
 40
0.8750035088
 40
1.0
 40
1.0
 40
1.0
 40
1.0
 10
29.6874186323
 20
5.6171725855
 30
0.0
 10
29.6860234088
 20
5.6067187148
 30
0.0
 10
29.6834881042
 20
5.585775329
 30
0.0
 10
29.6806092977
 20
5.5542610198
 30
0.0
 10
29.6788059677
 20
5.5226646362
 30
0.0
 10
29.6781908068
 20
5.4910215528
 30
0.0
 10
29.6788059674
 20
5.4593784702
 30
0.0
 10
29.6806092971
 20
5.4277820882
 30
0.0
 10
29.683488103
 20
5.3962677781
 30
0.0
 10
29.6860234085
 20
5.3753243906
 30
0.0
 10
29.6874186323
 20
5.3648705179
 30
0.0
  0
SPLINE
  5
4CF
100
AcDbEntity
  8
0
100
AcDbSpline
 62
7
  6
CONTINUOUS
 70
0
 71
3
 72
15
 73
11
 74
0
 42
0.0000001
 43
0.0000001
 44
0.0000000001
 40
0.0
 40
0.0
 40
0.0
 40
0.0
 40
0.1453524083
 40
0.2868079831
 40
0.4230969843
 40
0.5529474777
 40
0.6754525845
 40
0.7903911539
 40
0.8982555593
 40
1.0
 40
1.0
 40
1.0
 40
1.0
 10
32.9759753327
 20
-6.1549847992
 30
0.0
 10
32.9688677169
 20
-6.1506322912
 30
0.0
 10
32.9549281743
 20
-6.1419033413
 30
0.0
 10
32.9347080368
 20
-6.1284919218
 30
0.0
 10
32.9156688634
 20
-6.1149280929
 30
0.0
 10
32.8980593445
 20
-6.1012590786
 30
0.0
 10
32.8820535375
 20
-6.0875575078
 30
0.0
 10
32.867697206
 20
-6.0739084068
 30
0.0
 10
32.8549003345
 20
-6.0603863143
 30
0.0
 10
32.8470825341
 20
-6.0512505929
 30
0.0
 10
32.8433928112
 20
-6.0467316237
 30
0.0
  0
SPLINE
  5
4D0
100
AcDbEntity
  8
0
100
AcDbSpline
 62
7
  6
CONTINUOUS
 70
0
 71
3
 72
19
 73
15
 74
0
 42
0.0000001
 43
0.0000001
 44
0.0000000001
 40
0.0
 40
0.0
 40
0.0
 40
0.0
 40
0.1239135187
 40
0.2486584689
 40
0.3113153546
 40
0.3741210923
 40
0.4370327446
 40
0.5
 40
0.5629672554
 40
0.6258789077
 40
0.6886846454
 40
0.7513415311
 40
0.8760864813
 40
1.0
 40
1.0
 40
1.0
 40
1.0
 10
32.8433928112
 20
-6.0467316237
 30
0.0
 10
32.8415905901
 20
-6.0379025796
 30
0.0
 10
32.8382916227
 20
-6.0201181229
 30
0.0
 10
32.8351398115
 20
-5.9976899468
 30
0.0
 10
32.8333061236
 20
-5.9795852988
 30
0.0
 10
32.8323006192
 20
-5.9659216317
 30
0.0
 10
32.8316884048
 20
-5.9522120209
 30
0.0
 10
32.8314822943
 20
-5.9384784483
 30
0.0
 10
32.8316884048
 20
-5.9247448757
 30
0.0
 10
32.8323006192
 20
-5.9110352648
 30
0.0
 10
32.8333061236
 20
-5.8973715978
 30
0.0
 10
32.8351398115
 20
-5.8792669497
 30
0.0
 10
32.8382916227
 20
-5.8568387736
 30
0.0
 10
32.8415905901
 20
-5.839054317
 30
0.0
 10
32.8433928112
 20
-5.8302252728
 30
0.0
  0
SPLINE
  5
4D1
100
AcDbEntity
  8
0
100
AcDbSpline
 62
7
  6
CONTINUOUS
 70
0
 71
3
 72
15
 73
11
 74
0
 42
0.0000001
 43
0.0000001
 44
0.0000000001
 40
0.0
 40
0.0
 40
0.0
 40
0.0
 40
0.1017444407
 40
0.2096088461
 40
0.3245474155
 40
0.4470525223
 40
0.5769030157
 40
0.7131920169
 40
0.8546475917
 40
1.0
 40
1.0
 40
1.0
 40
1.0
 10
32.8433928112
 20
-5.8302252728
 30
0.0
 10
32.8470825341
 20
-5.8257063037
 30
0.0
 10
32.8549003345
 20
-5.8165705822
 30
0.0
 10
32.867697206
 20
-5.8030484898
 30
0.0
 10
32.8820535375
 20
-5.7893993887
 30
0.0
 10
32.8980593445
 20
-5.7756978179
 30
0.0
 10
32.9156688634
 20
-5.7620288036
 30
0.0
 10
32.9347080368
 20
-5.7484649747
 30
0.0
 10
32.9549281743
 20
-5.7350535553
 30
0.0
 10
32.9688677169
 20
-5.7263246053
 30
0.0
 10
32.9759753327
 20
-5.7219720973
 30
0.0
  0
SPLINE
  5
4D2
100
AcDbEntity
  8
0
100
AcDbSpline
 62
7
  6
CONTINUOUS
 70
0
 71
3
 72
18
 73
14
 74
0
 42
0.0000001
 43
0.0000001
 44
0.0000000001
 40
0.0
 40
0.0
 40
0.0
 40
0.0
 40
0.1219730971
 40
0.1839754588
 40
0.2465198403
 40
0.3095102951
 40
0.3728376439
 40
0.436389733
 40
0.5000543644
 40
0.6272420788
 40
0.7535297939
 40
0.8780497529
 40
1.0
 40
1.0
 40
1.0
 40
1.0
 10
33.2969268194
 20
-5.8190155614
 30
0.0
 10
33.3003292638
 20
-5.8283178705
 30
0.0
 10
33.3047963181
 20
-5.8426035396
 30
0.0
 10
33.3094788806
 20
-5.8620714275
 30
0.0
 10
33.3123860522
 20
-5.8770261102
 30
0.0
 10
33.3146572368
 20
-5.8921985492
 30
0.0
 10
33.3162861456
 20
-5.9075356413
 30
0.0
 10
33.3172650045
 20
-5.9229829494
 30
0.0
 10
33.3177005444
 20
-5.9436427013
 30
0.0
 10
33.3166153449
 20
-5.9694069781
 30
0.0
 10
33.3127276738
 20
-5.9998929746
 30
0.0
 10
33.3063095375
 20
-6.0295130761
 30
0.0
 10
33.3003268028
 20
-6.0486481162
 30
0.0
 10
33.296924388
 20
-6.0579484604
 30
0.0
  0
SPLINE
  5
4D3
100
AcDbEntity
  8
0
100
AcDbSpline
 62
7
  6
CONTINUOUS
 70
0
 71
3
 72
9
 73
5
 74
0
 42
0.0000001
 43
0.0000001
 44
0.0000000001
 40
0.0
 40
0.0
 40
0.0
 40
0.0
 40
0.5066617877
 40
1.0
 40
1.0
 40
1.0
 40
1.0
 10
33.296924388
 20
-6.0579484604
 30
0.0
 10
33.2941611556
 20
-6.0655016292
 30
0.0
 10
33.2881278706
 20
-6.0802047762
 30
0.0
 10
33.2809032462
 20
-6.0943638567
 30
0.0
 10
33.2770393692
 20
-6.1011755335
 30
0.0
  0
SPLINE
  5
4D4
100
AcDbEntity
  8
0
100
AcDbSpline
 62
7
  6
CONTINUOUS
 70
0
 71
3
 72
20
 73
16
 74
0
 42
0.0000001
 43
0.0000001
 44
0.0000000001
 40
0.0
 40
0.0
 40
0.0
 40
0.0
 40
0.1410112706
 40
0.2768626041
 40
0.4074926723
 40
0.4709344808
 40
0.5331730669
 40
0.5942791408
 40
0.6543438205
 40
0.7134742423
 40
0.7717963714
 40
0.8294507779
 40
0.8865915881
 40
0.943383992
 40
1.0
 40
1.0
 40
1.0
 40
1.0
 10
33.2770393692
 20
-6.1011755335
 30
0.0
 10
33.2728273013
 20
-6.1086010404
 30
0.0
 10
33.2638456783
 20
-6.1227936177
 30
0.0
 10
33.2485060926
 20
-6.1421728158
 30
0.0
 10
33.2343730745
 20
-6.1563612266
 30
0.0
 10
33.2224374673
 20
-6.1662910751
 30
0.0
 10
33.2132923203
 20
-6.1729567278
 30
0.0
 10
33.2038959433
 20
-6.1788888179
 30
0.0
 10
33.1942783451
 20
-6.1840703735
 30
0.0
 10
33.1844687001
 20
-6.1884831755
 30
0.0
 10
33.1744981977
 20
-6.1921137864
 30
0.0
 10
33.1643981799
 20
-6.1949505499
 30
0.0
 10
33.1542000653
 20
-6.1969829215
 30
0.0
 10
33.1439373725
 20
-6.1982060849
 30
0.0
 10
33.137068424
 20
-6.1984781854
 30
0.0
 10
33.133640836
 20
-6.1984782615
 30
0.0
  0
SPLINE
  5
4D5
100
AcDbEntity
  8
0
100
AcDbSpline
 62
7
  6
CONTINUOUS
 70
0
 71
3
 72
9
 73
5
 74
0
 42
0.0000001
 43
0.0000001
 44
0.0000000001
 40
0.0
 40
0.0
 40
0.0
 40
0.0
 40
0.5053805904
 40
1.0
 40
1.0
 40
1.0
 40
1.0
 10
33.2928518761
 20
-5.8084784483
 30
0.0
 10
33.2904573274
 20
-5.8026130257
 30
0.0
 10
33.2853508369
 20
-5.7911536648
 30
0.0
 10
33.2794955671
 20
-5.780056817
 30
0.0
 10
33.2764103543
 20
-5.7746783961
 30
0.0
  0
SPLINE
  5
4D6
100
AcDbEntity
  8
0
100
AcDbSpline
 62
7
  6
CONTINUOUS
 70
0
 71
3
 72
21
 73
17
 74
0
 42
0.0000001
 43
0.0000001
 44
0.0000000001
 40
0.0
 40
0.0
 40
0.0
 40
0.0
 40
0.1408985898
 40
0.2094532213
 40
0.2767094393
 40
0.4072794677
 40
0.4707041016
 40
0.5329344812
 40
0.5940434245
 40
0.6541197052
 40
0.7132713576
 40
0.771622953
 40
0.8293136952
 40
0.8864969702
 40
0.9433354568
 40
1.0
 40
1.0
 40
1.0
 40
1.0
 10
33.2764103543
 20
-5.7746783961
 30
0.0
 10
33.2721951251
 20
-5.7673300287
 30
0.0
 10
33.2653961097
 20
-5.7566957503
 30
0.0
 10
33.2553432902
 20
-5.7434309569
 30
0.0
 10
33.2449839835
 20
-5.7312083249
 30
0.0
 10
33.2338225784
 20
-5.7200938215
 30
0.0
 10
33.2219376271
 20
-5.7102788802
 30
0.0
 10
33.2128332179
 20
-5.7036917543
 30
0.0
 10
33.2034831411
 20
-5.6978289559
 30
0.0
 10
33.193914989
 20
-5.6927095765
 30
0.0
 10
33.1841585808
 20
-5.6883498555
 30
0.0
 10
33.1742443344
 20
-5.6847628298
 30
0.0
 10
33.1642025554
 20
-5.6819617488
 30
0.0
 10
33.1540649232
 20
-5.6799537241
 30
0.0
 10
33.1438635975
 20
-5.6787468882
 30
0.0
 10
33.1370362025
 20
-5.6784785594
 30
0.0
 10
33.1336292497
 20
-5.6784786351
 30
0.0
  0
SPLINE
  5
4D7
100
AcDbEntity
  8
0
100
AcDbSpline
 62
7
  6
CONTINUOUS
 70
0
 71
3
 72
11
 73
7
 74
0
 42
0.0000001
 43
0.0000001
 44
0.0000000001
 40
0.0
 40
0.0
 40
0.0
 40
0.0
 40
0.2401732686
 40
0.4850365616
 40
0.7374846583
 40
1.0
 40
1.0
 40
1.0
 40
1.0
 10
33.0827940653
 20
-6.1549847992
 30
0.0
 10
33.0833989351
 20
-6.1549847992
 30
0.0
 10
33.0846233291
 20
-6.1551046671
 30
0.0
 10
33.0864159695
 20
-6.1556267501
 30
0.0
 10
33.0881388552
 20
-6.1564795254
 30
0.0
 10
33.0892016064
 20
-6.1572322582
 30
0.0
 10
33.089713976
 20
-6.1576500865
 30
0.0
  0
SPLINE
  5
4D8
100
AcDbEntity
  8
0
100
AcDbSpline
 62
7
  6
CONTINUOUS
 70
0
 71
3
 72
11
 73
7
 74
0
 42
0.0000001
 43
0.0000001
 44
0.0000000001
 40
0.0
 40
0.0
 40
0.0
 40
0.0
 40
0.2401732686
 40
0.4850365616
 40
0.7374846583
 40
1.0
 40
1.0
 40
1.0
 40
1.0
 10
33.0827940653
 20
-5.7219720973
 30
0.0
 10
33.0833989351
 20
-5.7219720973
 30
0.0
 10
33.0846233291
 20
-5.7218522294
 30
0.0
 10
33.0864159695
 20
-5.7213301465
 30
0.0
 10
33.0881388552
 20
-5.7204773712
 30
0.0
 10
33.0892016064
 20
-5.7197246383
 30
0.0
 10
33.089713976
 20
-5.71930681
 30
0.0
  0
SPLINE
  5
4D9
100
AcDbEntity
  8
0
100
AcDbSpline
 62
7
  6
CONTINUOUS
 70
0
 71
3
 72
15
 73
11
 74
0
 42
0.0000001
 43
0.0000001
 44
0.0000000001
 40
0.0
 40
0.0
 40
0.0
 40
0.0
 40
0.119057511
 40
0.2387427078
 40
0.3596605012
 40
0.482372663
 40
0.6073780386
 40
0.7351040355
 40
0.8658915427
 40
1.0
 40
1.0
 40
1.0
 40
1.0
 10
33.0982854969
 20
-6.1984782615
 30
0.0
 10
33.0938140056
 20
-6.1984783608
 30
0.0
 10
33.0848405828
 20
-6.1980151339
 30
0.0
 10
33.0714715189
 20
-6.1959328098
 30
0.0
 10
33.0582473801
 20
-6.1924769445
 30
0.0
 10
33.0452422943
 20
-6.1876652481
 30
0.0
 10
33.0325247054
 20
-6.1815275316
 30
0.0
 10
33.0201633499
 20
-6.1740957314
 30
0.0
 10
33.0082229247
 20
-6.1654139768
 30
0.0
 10
33.0006815735
 20
-6.1589053282
 30
0.0
 10
32.9969996856
 20
-6.1554683656
 30
0.0
  0
SPLINE
  5
4DA
100
AcDbEntity
  8
0
100
AcDbSpline
 62
7
  6
CONTINUOUS
 70
0
 71
3
 72
17
 73
13
 74
0
 42
0.0000001
 43
0.0000001
 44
0.0000000001
 40
0.0
 40
0.0
 40
0.0
 40
0.0
 40
0.1189994808
 40
0.2386330948
 40
0.2988987019
 40
0.3595485145
 40
0.4822355288
 40
0.5444348928
 40
0.6072696525
 40
0.7350094912
 40
0.8658344983
 40
1.0
 40
1.0
 40
1.0
 40
1.0
 10
33.0982739106
 20
-5.6784786351
 30
0.0
 10
33.0937813411
 20
-5.6784787348
 30
0.0
 10
33.0847657403
 20
-5.6789474477
 30
0.0
 10
33.0735972131
 20
-5.6806963316
 30
0.0
 10
33.0647542213
 20
-5.6827786548
 30
0.0
 10
33.0559164446
 20
-5.6853341345
 30
0.0
 10
33.0472115965
 20
-5.6885708459
 30
0.0
 10
33.0386985492
 20
-5.6924490881
 30
0.0
 10
33.0302067062
 20
-5.6968098292
 30
0.0
 10
33.0198066622
 20
-5.7030951357
 30
0.0
 10
33.0078254219
 20
-5.7118575967
 30
0.0
 10
33.0002607883
 20
-5.7184242665
 30
0.0
 10
32.9965687242
 20
-5.7218918601
 30
0.0
  0
SPLINE
  5
4DB
100
AcDbEntity
  8
0
100
AcDbSpline
 62
7
  6
CONTINUOUS
 70
0
 71
3
 72
19
 73
15
 74
0
 42
0.0000001
 43
0.0000001
 44
0.0000000001
 40
0.0
 40
0.0
 40
0.0
 40
0.0
 40
0.1239135187
 40
0.2486584689
 40
0.3113153546
 40
0.3741210923
 40
0.4370327446
 40
0.5
 40
0.5629672554
 40
0.6258789077
 40
0.6886846454
 40
0.7513415311
 40
0.8760864813
 40
1.0
 40
1.0
 40
1.0
 40
1.0
 10
33.1085578542
 20
-5.8302252728
 30
0.0
 10
33.1067556331
 20
-5.839054317
 30
0.0
 10
33.1034566657
 20
-5.8568387736
 30
0.0
 10
33.1003048544
 20
-5.8792669497
 30
0.0
 10
33.0984711666
 20
-5.8973715978
 30
0.0
 10
33.0974656621
 20
-5.9110352648
 30
0.0
 10
33.0968534478
 20
-5.9247448757
 30
0.0
 10
33.0966473372
 20
-5.9384784483
 30
0.0
 10
33.0968534478
 20
-5.9522120209
 30
0.0
 10
33.0974656621
 20
-5.9659216317
 30
0.0
 10
33.0984711666
 20
-5.9795852988
 30
0.0
 10
33.1003048544
 20
-5.9976899468
 30
0.0
 10
33.1034566657
 20
-6.0201181229
 30
0.0
 10
33.1067556331
 20
-6.0379025796
 30
0.0
 10
33.1085578542
 20
-6.0467316237
 30
0.0
  0
SPLINE
  5
4DC
100
AcDbEntity
  8
0
100
AcDbSpline
 62
7
  6
CONTINUOUS
 70
0
 71
3
 72
17
 73
13
 74
0
 42
0.0000001
 43
0.0000001
 44
0.0000000001
 40
0.0
 40
0.0
 40
0.0
 40
0.0
 40
0.0507521541
 40
0.1062279752
 40
0.1656818145
 40
0.2283685672
 40
0.3603916239
 40
0.4965882669
 40
0.6320482742
 40
0.7629485808
 40
0.8864675634
 40
1.0
 40
1.0
 40
1.0
 40
1.0
 10
33.2153765867
 20
-6.0467316237
 30
0.0
 10
33.2159508901
 20
-6.0467316237
 30
0.0
 10
33.2171531762
 20
-6.0467862209
 30
0.0
 10
33.2190168631
 20
-6.0470003695
 30
0.0
 10
33.2209975215
 20
-6.0473481137
 30
0.0
 10
33.2238021525
 20
-6.0479895783
 30
0.0
 10
33.2273916382
 20
-6.0490720967
 30
0.0
 10
33.2316593577
 20
-6.050710535
 30
0.0
 10
33.2357964446
 20
-6.0526248704
 30
0.0
 10
33.2396756326
 20
-6.0547329954
 30
0.0
 10
33.2431954819
 20
-6.0569628368
 30
0.0
 10
33.2453527277
 20
-6.0585630695
 30
0.0
 10
33.2463478638
 20
-6.0593755946
 30
0.0
  0
SPLINE
  5
4DD
100
AcDbEntity
  8
0
100
AcDbSpline
 62
7
  6
CONTINUOUS
 70
0
 71
3
 72
17
 73
13
 74
0
 42
0.0000001
 43
0.0000001
 44
0.0000000001
 40
0.0
 40
0.0
 40
0.0
 40
0.0
 40
0.0507521541
 40
0.1062279752
 40
0.1656818145
 40
0.2283685672
 40
0.3603916239
 40
0.4965882669
 40
0.6320482742
 40
0.7629485808
 40
0.8864675634
 40
1.0
 40
1.0
 40
1.0
 40
1.0
 10
33.2153765867
 20
-5.8302252728
 30
0.0
 10
33.2159508901
 20
-5.8302252728
 30
0.0
 10
33.2171531762
 20
-5.8301706757
 30
0.0
 10
33.2190168631
 20
-5.829956527
 30
0.0
 10
33.2209975215
 20
-5.8296087829
 30
0.0
 10
33.2238021525
 20
-5.8289673183
 30
0.0
 10
33.2273916382
 20
-5.8278847998
 30
0.0
 10
33.2316593577
 20
-5.8262463616
 30
0.0
 10
33.2357964446
 20
-5.8243320262
 30
0.0
 10
33.2396756326
 20
-5.8222239012
 30
0.0
 10
33.2431954819
 20
-5.8199940597
 30
0.0
 10
33.2453527277
 20
-5.8183938271
 30
0.0
 10
33.2463478638
 20
-5.8175813019
 30
0.0
  0
SPLINE
  5
4DE
100
AcDbEntity
  8
0
100
AcDbSpline
 62
7
  6
CONTINUOUS
 70
0
 71
3
 72
15
 73
11
 74
0
 42
0.0000001
 43
0.0000001
 44
0.0000000001
 40
0.0
 40
0.0
 40
0.0
 40
0.0
 40
0.1453524083
 40
0.2868079831
 40
0.4230969843
 40
0.5529474777
 40
0.6754525845
 40
0.7903911539
 40
0.8982555593
 40
1.0
 40
1.0
 40
1.0
 40
1.0
 10
33.1085578542
 20
-6.0467316237
 30
0.0
 10
33.1014502384
 20
-6.0510841317
 30
0.0
 10
33.0875106958
 20
-6.0598130817
 30
0.0
 10
33.0672905583
 20
-6.0732245011
 30
0.0
 10
33.0482513849
 20
-6.0867883301
 30
0.0
 10
33.030641866
 20
-6.1004573443
 30
0.0
 10
33.014636059
 20
-6.1141589152
 30
0.0
 10
33.0002797275
 20
-6.1278080162
 30
0.0
 10
32.987482856
 20
-6.1413301086
 30
0.0
 10
32.9796650555
 20
-6.1504658301
 30
0.0
 10
32.9759753327
 20
-6.1549847992
 30
0.0
  0
SPLINE
  5
4DF
100
AcDbEntity
  8
0
100
AcDbSpline
 62
7
  6
CONTINUOUS
 70
0
 71
3
 72
21
 73
17
 74
0
 42
0.0000001
 43
0.0000001
 44
0.0000000001
 40
0.0
 40
0.0
 40
0.0
 40
0.0
 40
0.1409036607
 40
0.2094604769
 40
0.2767185847
 40
0.4072912582
 40
0.4707165708
 40
0.5329471585
 40
0.5940558339
 40
0.654131383
 40
0.7132818607
 40
0.7716318841
 40
0.8293207125
 40
0.8865018045
 40
0.9433379216
 40
1.0
 40
1.0
 40
1.0
 40
1.0
 10
33.241085592
 20
-5.7747317147
 30
0.0
 10
33.2368704892
 20
-5.7673795976
 30
0.0
 10
33.2300713268
 20
-5.7567397833
 30
0.0
 10
33.2200176074
 20
-5.7434678675
 30
0.0
 10
33.2096570395
 20
-5.7312386205
 30
0.0
 10
33.198493761
 20
-5.7201179303
 30
0.0
 10
33.1866063353
 20
-5.7102974033
 30
0.0
 10
33.1774998787
 20
-5.7037065097
 30
0.0
 10
33.1681475381
 20
-5.6978403301
 30
0.0
 10
33.1585769333
 20
-5.6927179703
 30
0.0
 10
33.1488179038
 20
-5.6883556976
 30
0.0
 10
33.138900897
 20
-5.6847665581
 30
0.0
 10
33.1288562432
 20
-5.6819638195
 30
0.0
 10
33.1187156501
 20
-5.679954603
 30
0.0
 10
33.1085113064
 20
-5.678747048
 30
0.0
 10
33.1016818754
 20
-5.6784785594
 30
0.0
 10
33.0982739106
 20
-5.6784786351
 30
0.0
  0
SPLINE
  5
4E0
100
AcDbEntity
  8
0
100
AcDbSpline
 62
7
  6
CONTINUOUS
 70
0
 71
3
 72
21
 73
17
 74
0
 42
0.0000001
 43
0.0000001
 44
0.0000000001
 40
0.0
 40
0.0
 40
0.0
 40
0.0
 40
0.0605764875
 40
0.1221305202
 40
0.1844937186
 40
0.2475318565
 40
0.3111059387
 40
0.3750570052
 40
0.4392220538
 40
0.5034375974
 40
0.5675398071
 40
0.6313651133
 40
0.7575094899
 40
0.8195724371
 40
0.880763366
 40
1.0
 40
1.0
 40
1.0
 40
1.0
 10
33.2574965371
 20
-5.8084784483
 30
0.0
 10
33.2597096215
 20
-5.8138993759
 30
0.0
 10
33.2638528851
 20
-5.8249614963
 30
0.0
 10
33.2691689245
 20
-5.8419926427
 30
0.0
 10
33.2736091878
 20
-5.8595186846
 30
0.0
 10
33.2771520898
 20
-5.8774465188
 30
0.0
 10
33.2797791731
 20
-5.8956861786
 30
0.0
 10
33.2814783526
 20
-5.9141447732
 30
0.0
 10
33.2822393953
 20
-5.9327278219
 30
0.0
 10
33.2820596151
 20
-5.9513399504
 30
0.0
 10
33.2809391182
 20
-5.969887125
 30
0.0
 10
33.2782105129
 20
-5.9943011845
 30
0.0
 10
33.2736429491
 20
-6.0182845364
 30
0.0
 10
33.2672392467
 20
-6.0415359683
 30
0.0
 10
33.2597821878
 20
-6.0637651581
 30
0.0
 10
33.252846076
 20
-6.0798237063
 30
0.0
 10
33.2476292416
 20
-6.0901007396
 30
0.0
  0
SPLINE
  5
4E1
100
AcDbEntity
  8
0
100
AcDbSpline
 62
7
  6
CONTINUOUS
 70
0
 71
3
 72
20
 73
16
 74
0
 42
0.0000001
 43
0.0000001
 44
0.0000000001
 40
0.0
 40
0.0
 40
0.0
 40
0.0
 40
0.141015485
 40
0.2768702674
 40
0.407502578
 40
0.4709449652
 40
0.5331837383
 40
0.5942895951
 40
0.6543536632
 40
0.713483101
 40
0.7718039065
 40
0.8294567009
 40
0.8865956693
 40
0.9433860732
 40
1.0
 40
1.0
 40
1.0
 40
1.0
 10
33.2417097297
 20
-6.101130217
 30
0.0
 10
33.2374977877
 20
-6.1085589018
 30
0.0
 10
33.2285160503
 20
-6.1227576633
 30
0.0
 10
33.2131751523
 20
-6.1421456375
 30
0.0
 10
33.199040131
 20
-6.1563407132
 30
0.0
 10
33.1871024444
 20
-6.1662753101
 30
0.0
 10
33.1779555755
 20
-6.1729441681
 30
0.0
 10
33.1685572912
 20
-6.1788791364
 30
0.0
 10
33.1589376219
 20
-6.1840632253
 30
0.0
 10
33.1491257644
 20
-6.1884782025
 30
0.0
 10
33.1391529277
 20
-6.1921106104
 30
0.0
 10
33.1290504793
 20
-6.1949487866
 30
0.0
 10
33.1188498597
 20
-6.1969821729
 30
0.0
 10
33.108584613
 20
-6.1982059483
 30
0.0
 10
33.1017139414
 20
-6.1984781853
 30
0.0
 10
33.0982854969
 20
-6.1984782615
 30
0.0
  0
SPLINE
  5
4E2
100
AcDbEntity
  8
0
100
AcDbSpline
 62
7
  6
CONTINUOUS
 70
0
 71
3
 72
45
 73
41
 74
0
 42
0.0000001
 43
0.0000001
 44
0.0000000001
 40
0.0
 40
0.0
 40
0.0
 40
0.0
 40
0.0128513267
 40
0.0257402646
 40
0.038691441
 40
0.051730823
 40
0.0648871307
 40
0.0781878531
 40
0.1053036192
 40
0.1332505709
 40
0.1621439873
 40
0.1920543393
 40
0.2230077703
 40
0.2549895349
 40
0.287948694
 40
0.3218028922
 40
0.3564428168
 40
0.3917370601
 40
0.4275370898
 40
0.4636814477
 40
0.5
 40
0.5363185523
 40
0.5724629102
 40
0.6082629399
 40
0.6435571832
 40
0.6781971078
 40
0.712051306
 40
0.7450104651
 40
0.7769922297
 40
0.8079456607
 40
0.8378560127
 40
0.8667494291
 40
0.8946963808
 40
0.9218121469
 40
0.9351128693
 40
0.948269177
 40
0.961308559
 40
0.9742597354
 40
0.9871486733
 40
1.0
 40
1.0
 40
1.0
 40
1.0
 10
32.9639294154
 20
-5.7514784483
 30
0.0
 10
32.9660926483
 20
-5.7514784483
 30
0.0
 10
32.9704269346
 20
-5.751629449
 30
0.0
 10
32.9769094324
 20
-5.7523063607
 30
0.0
 10
32.9833615828
 20
-5.7534325346
 30
0.0
 10
32.9897655411
 20
-5.7550060761
 30
0.0
 10
32.9961061754
 20
-5.7570219794
 30
0.0
 10
33.0045075044
 20
-5.7603137223
 30
0.0
 10
33.0147958332
 20
-5.7655416704
 30
0.0
 10
33.0265534547
 20
-5.7734389343
 30
0.0
 10
33.037697346
 20
-5.7829211358
 30
0.0
 10
33.0481217796
 20
-5.7938936907
 30
0.0
 10
33.0577296916
 20
-5.8062501147
 30
0.0
 10
33.0664317079
 20
-5.8198708084
 30
0.0
 10
33.0741467149
 20
-5.8346250601
 30
0.0
 10
33.0808021282
 20
-5.8503718897
 30
0.0
 10
33.0863352087
 20
-5.8669608446
 30
0.0
 10
33.0906941227
 20
-5.8842333058
 30
0.0
 10
33.0938376241
 20
-5.9020242906
 30
0.0
 10
33.0957355479
 20
-5.920163825
 30
0.0
 10
33.0963701287
 20
-5.9384784483
 30
0.0
 10
33.0957355479
 20
-5.9567930715
 30
0.0
 10
33.0938376241
 20
-5.974932606
 30
0.0
 10
33.0906941227
 20
-5.9927235907
 30
0.0
 10
33.0863352087
 20
-6.009996052
 30
0.0
 10
33.0808021282
 20
-6.0265850068
 30
0.0
 10
33.0741467149
 20
-6.0423318365
 30
0.0
 10
33.0664317079
 20
-6.0570860882
 30
0.0
 10
33.0577296916
 20
-6.0707067818
 30
0.0
 10
33.0481217796
 20
-6.0830632058
 30
0.0
 10
33.037697346
 20
-6.0940357607
 30
0.0
 10
33.0265534547
 20
-6.1035179623
 30
0.0
 10
33.0147958332
 20
-6.1114152262
 30
0.0
 10
33.0045075044
 20
-6.1166431743
 30
0.0
 10
32.9961061754
 20
-6.1199349172
 30
0.0
 10
32.9897655411
 20
-6.1219508204
 30
0.0
 10
32.9833615828
 20
-6.1235243619
 30
0.0
 10
32.9769094324
 20
-6.1246505359
 30
0.0
 10
32.9704269346
 20
-6.1253274476
 30
0.0
 10
32.9660926483
 20
-6.1254784483
 30
0.0
 10
32.9639294154
 20
-6.1254784483
 30
0.0
  0
SPLINE
  5
4E3
100
AcDbEntity
  8
0
100
AcDbSpline
 62
7
  6
CONTINUOUS
 70
0
 71
3
 72
15
 73
11
 74
0
 42
0.0000001
 43
0.0000001
 44
0.0000000001
 40
0.0
 40
0.0
 40
0.0
 40
0.0
 40
0.1093848924
 40
0.2247529651
 40
0.3455303054
 40
0.4709316038
 40
0.5999829275
 40
0.7318632405
 40
0.865594525
 40
1.0
 40
1.0
 40
1.0
 40
1.0
 10
33.089713976
 20
-6.1576500865
 30
0.0
 10
33.0904178566
 20
-6.1582240887
 30
0.0
 10
33.0917551651
 20
-6.1595406839
 30
0.0
 10
33.0934763096
 20
-6.1618468169
 30
0.0
 10
33.0949482717
 20
-6.1644717867
 30
0.0
 10
33.0961606138
 20
-6.1673480587
 30
0.0
 10
33.0971067867
 20
-6.1704182537
 30
0.0
 10
33.0977834118
 20
-6.1736290022
 30
0.0
 10
33.0981892218
 20
-6.1769292584
 30
0.0
 10
33.0982797038
 20
-6.1791567333
 30
0.0
 10
33.0982797038
 20
-6.180272741
 30
0.0
  0
SPLINE
  5
4E4
100
AcDbEntity
  8
0
100
AcDbSpline
 62
7
  6
CONTINUOUS
 70
0
 71
3
 72
15
 73
11
 74
0
 42
0.0000001
 43
0.0000001
 44
0.0000000001
 40
0.0
 40
0.0
 40
0.0
 40
0.0
 40
0.1017444407
 40
0.2096088461
 40
0.3245474155
 40
0.4470525223
 40
0.5769030157
 40
0.7131920169
 40
0.8546475917
 40
1.0
 40
1.0
 40
1.0
 40
1.0
 10
32.9759753327
 20
-5.7219720973
 30
0.0
 10
32.9796650555
 20
-5.7264910665
 30
0.0
 10
32.987482856
 20
-5.7356267879
 30
0.0
 10
33.0002797275
 20
-5.7491488803
 30
0.0
 10
33.014636059
 20
-5.7627979814
 30
0.0
 10
33.030641866
 20
-5.7764995522
 30
0.0
 10
33.0482513849
 20
-5.7901685665
 30
0.0
 10
33.0672905583
 20
-5.8037323954
 30
0.0
 10
33.0875106958
 20
-5.8171438148
 30
0.0
 10
33.1014502384
 20
-5.8258727648
 30
0.0
 10
33.1085578542
 20
-5.8302252728
 30
0.0
  0
SPLINE
  5
4E5
100
AcDbEntity
  8
0
100
AcDbSpline
 62
7
  6
CONTINUOUS
 70
0
 71
3
 72
15
 73
11
 74
0
 42
0.0000001
 43
0.0000001
 44
0.0000000001
 40
0.0
 40
0.0
 40
0.0
 40
0.0
 40
0.1093848924
 40
0.2247529651
 40
0.3455303054
 40
0.4709316038
 40
0.5999829275
 40
0.7318632405
 40
0.865594525
 40
1.0
 40
1.0
 40
1.0
 40
1.0
 10
33.089713976
 20
-5.71930681
 30
0.0
 10
33.0904178566
 20
-5.7187328079
 30
0.0
 10
33.0917551651
 20
-5.7174162127
 30
0.0
 10
33.0934763096
 20
-5.7151100796
 30
0.0
 10
33.0949482717
 20
-5.7124851099
 30
0.0
 10
33.0961606138
 20
-5.7096088378
 30
0.0
 10
33.0971067867
 20
-5.7065386428
 30
0.0
 10
33.0977834118
 20
-5.7033278944
 30
0.0
 10
33.0981892218
 20
-5.7000276382
 30
0.0
 10
33.0982797038
 20
-5.6978001633
 30
0.0
 10
33.0982797038
 20
-5.6966841555
 30
0.0
  0
SPLINE
  5
4E6
100
AcDbEntity
  8
0
100
AcDbSpline
 62
7
  6
CONTINUOUS
 70
0
 71
3
 72
45
 73
41
 74
0
 42
0.0000001
 43
0.0000001
 44
0.0000000001
 40
0.0
 40
0.0
 40
0.0
 40
0.0
 40
0.0128513267
 40
0.0257402646
 40
0.038691441
 40
0.051730823
 40
0.0648871307
 40
0.0781878531
 40
0.1053036192
 40
0.1332505709
 40
0.1621439873
 40
0.1920543393
 40
0.2230077703
 40
0.2549895349
 40
0.287948694
 40
0.3218028922
 40
0.3564428168
 40
0.3917370601
 40
0.4275370898
 40
0.4636814477
 40
0.5
 40
0.5363185523
 40
0.5724629102
 40
0.6082629399
 40
0.6435571832
 40
0.6781971078
 40
0.712051306
 40
0.7450104651
 40
0.7769922297
 40
0.8079456607
 40
0.8378560127
 40
0.8667494291
 40
0.8946963808
 40
0.9218121469
 40
0.9351128693
 40
0.948269177
 40
0.961308559
 40
0.9742597354
 40
0.9871486733
 40
1.0
 40
1.0
 40
1.0
 40
1.0
 10
32.9639294154
 20
-6.1254784483
 30
0.0
 10
32.9617661824
 20
-6.1254784483
 30
0.0
 10
32.9574318961
 20
-6.1253274476
 30
0.0
 10
32.9509493983
 20
-6.1246505359
 30
0.0
 10
32.9444972479
 20
-6.1235243619
 30
0.0
 10
32.9380932896
 20
-6.1219508204
 30
0.0
 10
32.9317526553
 20
-6.1199349172
 30
0.0
 10
32.9233513263
 20
-6.1166431743
 30
0.0
 10
32.9130629975
 20
-6.1114152262
 30
0.0
 10
32.901305376
 20
-6.1035179623
 30
0.0
 10
32.8901614848
 20
-6.0940357607
 30
0.0
 10
32.8797370511
 20
-6.0830632058
 30
0.0
 10
32.8701291391
 20
-6.0707067818
 30
0.0
 10
32.8614271228
 20
-6.0570860882
 30
0.0
 10
32.8537121158
 20
-6.0423318365
 30
0.0
 10
32.8470567025
 20
-6.0265850068
 30
0.0
 10
32.841523622
 20
-6.009996052
 30
0.0
 10
32.837164708
 20
-5.9927235907
 30
0.0
 10
32.8340212067
 20
-5.974932606
 30
0.0
 10
32.8321232828
 20
-5.9567930715
 30
0.0
 10
32.8314887021
 20
-5.9384784483
 30
0.0
 10
32.8321232828
 20
-5.920163825
 30
0.0
 10
32.8340212067
 20
-5.9020242906
 30
0.0
 10
32.837164708
 20
-5.8842333058
 30
0.0
 10
32.841523622
 20
-5.8669608446
 30
0.0
 10
32.8470567025
 20
-5.8503718897
 30
0.0
 10
32.8537121158
 20
-5.8346250601
 30
0.0
 10
32.8614271228
 20
-5.8198708084
 30
0.0
 10
32.8701291391
 20
-5.8062501147
 30
0.0
 10
32.8797370511
 20
-5.7938936907
 30
0.0
 10
32.8901614848
 20
-5.7829211358
 30
0.0
 10
32.901305376
 20
-5.7734389343
 30
0.0
 10
32.9130629975
 20
-5.7655416704
 30
0.0
 10
32.9233513263
 20
-5.7603137223
 30
0.0
 10
32.9317526553
 20
-5.7570219794
 30
0.0
 10
32.9380932896
 20
-5.7550060761
 30
0.0
 10
32.9444972479
 20
-5.7534325346
 30
0.0
 10
32.9509493983
 20
-5.7523063607
 30
0.0
 10
32.9574318961
 20
-5.751629449
 30
0.0
 10
32.9617661824
 20
-5.7514784483
 30
0.0
 10
32.9639294154
 20
-5.7514784483
 30
0.0
  0
SPLINE
  5
4E7
100
AcDbEntity
  8
0
100
AcDbSpline
 62
7
  6
CONTINUOUS
 70
0
 71
3
 72
15
 73
11
 74
0
 42
0.0000001
 43
0.0000001
 44
0.0000000001
 40
0.0
 40
0.0
 40
0.0
 40
0.0
 40
0.1453524083
 40
0.2868079831
 40
0.4230969843
 40
0.5529474777
 40
0.6754525845
 40
0.7903911539
 40
0.8982555593
 40
1.0
 40
1.0
 40
1.0
 40
1.0
 10
47.7162730892
 20
-5.7219720973
 30
0.0
 10
47.723380705
 20
-5.7263246053
 30
0.0
 10
47.7373202476
 20
-5.7350535553
 30
0.0
 10
47.7575403851
 20
-5.7484649747
 30
0.0
 10
47.7765795585
 20
-5.7620288036
 30
0.0
 10
47.7941890774
 20
-5.7756978179
 30
0.0
 10
47.8101948843
 20
-5.7893993887
 30
0.0
 10
47.8245512159
 20
-5.8030484898
 30
0.0
 10
47.8373480874
 20
-5.8165705822
 30
0.0
 10
47.8451658878
 20
-5.8257063037
 30
0.0
 10
47.8488556107
 20
-5.8302252728
 30
0.0
  0
SPLINE
  5
4E8
100
AcDbEntity
  8
0
100
AcDbSpline
 62
7
  6
CONTINUOUS
 70
0
 71
3
 72
19
 73
15
 74
0
 42
0.0000001
 43
0.0000001
 44
0.0000000001
 40
0.0
 40
0.0
 40
0.0
 40
0.0
 40
0.1239135187
 40
0.2486584689
 40
0.3113153546
 40
0.3741210923
 40
0.4370327446
 40
0.5
 40
0.5629672554
 40
0.6258789077
 40
0.6886846454
 40
0.7513415311
 40
0.8760864813
 40
1.0
 40
1.0
 40
1.0
 40
1.0
 10
47.8488556107
 20
-5.8302252728
 30
0.0
 10
47.8506578318
 20
-5.839054317
 30
0.0
 10
47.8539567992
 20
-5.8568387736
 30
0.0
 10
47.8571086104
 20
-5.8792669497
 30
0.0
 10
47.8589422983
 20
-5.8973715978
 30
0.0
 10
47.8599478027
 20
-5.9110352648
 30
0.0
 10
47.8605600171
 20
-5.9247448757
 30
0.0
 10
47.8607661276
 20
-5.9384784483
 30
0.0
 10
47.8605600171
 20
-5.9522120209
 30
0.0
 10
47.8599478027
 20
-5.9659216317
 30
0.0
 10
47.8589422983
 20
-5.9795852988
 30
0.0
 10
47.8571086104
 20
-5.9976899468
 30
0.0
 10
47.8539567992
 20
-6.0201181229
 30
0.0
 10
47.8506578318
 20
-6.0379025796
 30
0.0
 10
47.8488556107
 20
-6.0467316237
 30
0.0
  0
SPLINE
  5
4E9
100
AcDbEntity
  8
0
100
AcDbSpline
 62
7
  6
CONTINUOUS
 70
0
 71
3
 72
15
 73
11
 74
0
 42
0.0000001
 43
0.0000001
 44
0.0000000001
 40
0.0
 40
0.0
 40
0.0
 40
0.0
 40
0.1017444407
 40
0.2096088461
 40
0.3245474155
 40
0.4470525223
 40
0.5769030157
 40
0.7131920169
 40
0.8546475917
 40
1.0
 40
1.0
 40
1.0
 40
1.0
 10
47.8488556107
 20
-6.0467316237
 30
0.0
 10
47.8451658878
 20
-6.0512505929
 30
0.0
 10
47.8373480874
 20
-6.0603863143
 30
0.0
 10
47.8245512159
 20
-6.0739084068
 30
0.0
 10
47.8101948843
 20
-6.0875575078
 30
0.0
 10
47.7941890774
 20
-6.1012590786
 30
0.0
 10
47.7765795585
 20
-6.1149280929
 30
0.0
 10
47.7575403851
 20
-6.1284919218
 30
0.0
 10
47.7373202476
 20
-6.1419033413
 30
0.0
 10
47.723380705
 20
-6.1506322912
 30
0.0
 10
47.7162730892
 20
-6.1549847992
 30
0.0
  0
SPLINE
  5
4EA
100
AcDbEntity
  8
0
100
AcDbSpline
 62
7
  6
CONTINUOUS
 70
0
 71
3
 72
15
 73
11
 74
0
 42
0.0000001
 43
0.0000001
 44
0.0000000001
 40
0.0
 40
0.0
 40
0.0
 40
0.0
 40
0.1341084573
 40
0.2648959645
 40
0.3926219614
 40
0.517627337
 40
0.6403394988
 40
0.7612572922
 40
0.880942489
 40
1.0
 40
1.0
 40
1.0
 40
1.0
 10
47.6952487363
 20
-5.721488531
 30
0.0
 10
47.6915668484
 20
-5.7180515684
 30
0.0
 10
47.6840254972
 20
-5.7115429198
 30
0.0
 10
47.672085072
 20
-5.7028611652
 30
0.0
 10
47.6597237165
 20
-5.695429365
 30
0.0
 10
47.6470061276
 20
-5.6892916484
 30
0.0
 10
47.6340010418
 20
-5.6844799521
 30
0.0
 10
47.620776903
 20
-5.6810240867
 30
0.0
 10
47.6074078391
 20
-5.6789417627
 30
0.0
 10
47.5984344163
 20
-5.6784785358
 30
0.0
 10
47.593962925
 20
-5.6784786351
 30
0.0
  0
SPLINE
  5
4EB
100
AcDbEntity
  8
0
100
AcDbSpline
 62
7
  6
CONTINUOUS
 70
0
 71
3
 72
17
 73
13
 74
0
 42
0.0000001
 43
0.0000001
 44
0.0000000001
 40
0.0
 40
0.0
 40
0.0
 40
0.0
 40
0.1341655017
 40
0.2649905088
 40
0.3927303475
 40
0.4555651072
 40
0.5177644712
 40
0.6404514855
 40
0.7011012981
 40
0.7613669052
 40
0.8810005192
 40
1.0
 40
1.0
 40
1.0
 40
1.0
 10
47.6956796977
 20
-6.1550650364
 30
0.0
 10
47.6919876336
 20
-6.1585326301
 30
0.0
 10
47.6844229999
 20
-6.1650992998
 30
0.0
 10
47.6724417597
 20
-6.1738617608
 30
0.0
 10
47.6620417156
 20
-6.1801470673
 30
0.0
 10
47.6535498727
 20
-6.1845078085
 30
0.0
 10
47.6450368254
 20
-6.1883860507
 30
0.0
 10
47.6363319773
 20
-6.191622762
 30
0.0
 10
47.6274942006
 20
-6.1941782418
 30
0.0
 10
47.6186512088
 20
-6.196260565
 30
0.0
 10
47.6074826816
 20
-6.1980094489
 30
0.0
 10
47.5984670808
 20
-6.1984781617
 30
0.0
 10
47.5939745112
 20
-6.1984782615
 30
0.0
  0
SPLINE
  5
4EC
100
AcDbEntity
  8
0
100
AcDbSpline
 62
7
  6
CONTINUOUS
 70
0
 71
3
 72
11
 73
7
 74
0
 42
0.0000001
 43
0.0000001
 44
0.0000000001
 40
0.0
 40
0.0
 40
0.0
 40
0.0
 40
0.2401732686
 40
0.4850365616
 40
0.7374846583
 40
1.0
 40
1.0
 40
1.0
 40
1.0
 10
47.6094543566
 20
-6.1549847992
 30
0.0
 10
47.6088494868
 20
-6.1549847992
 30
0.0
 10
47.6076250928
 20
-6.1551046671
 30
0.0
 10
47.6058324524
 20
-6.1556267501
 30
0.0
 10
47.6041095667
 20
-6.1564795254
 30
0.0
 10
47.6030468155
 20
-6.1572322582
 30
0.0
 10
47.6025344459
 20
-6.1576500865
 30
0.0
  0
SPLINE
  5
4ED
100
AcDbEntity
  8
0
100
AcDbSpline
 62
7
  6
CONTINUOUS
 70
0
 71
3
 72
11
 73
7
 74
0
 42
0.0000001
 43
0.0000001
 44
0.0000000001
 40
0.0
 40
0.0
 40
0.0
 40
0.0
 40
0.2401732686
 40
0.4850365616
 40
0.7374846583
 40
1.0
 40
1.0
 40
1.0
 40
1.0
 10
47.6094543566
 20
-5.7219720973
 30
0.0
 10
47.6088494868
 20
-5.7219720973
 30
0.0
 10
47.6076250928
 20
-5.7218522294
 30
0.0
 10
47.6058324524
 20
-5.7213301465
 30
0.0
 10
47.6041095667
 20
-5.7204773712
 30
0.0
 10
47.6030468155
 20
-5.7197246383
 30
0.0
 10
47.6025344459
 20
-5.71930681
 30
0.0
  0
SPLINE
  5
4EE
100
AcDbEntity
  8
0
100
AcDbSpline
 62
7
  6
CONTINUOUS
 70
0
 71
3
 72
23
 73
19
 74
0
 42
0.0000001
 43
0.0000001
 44
0.0000000001
 40
0.0
 40
0.0
 40
0.0
 40
0.0
 40
0.0552200583
 40
0.1106748871
 40
0.1665926736
 40
0.2231878726
 40
0.2806564376
 40
0.3391704851
 40
0.3988763535
 40
0.4598908728
 40
0.5223035786
 40
0.5861741968
 40
0.6515348273
 40
0.7183856123
 40
0.7867085174
 40
0.8564722864
 40
0.9276136373
 40
1.0
 40
1.0
 40
1.0
 40
1.0
 10
47.5586191722
 20
-6.1984782615
 30
0.0
 10
47.5546066881
 20
-6.1984783506
 30
0.0
 10
47.5465596988
 20
-6.1981057548
 30
0.0
 10
47.5345546643
 20
-6.1964301362
 30
0.0
 10
47.5226539907
 20
-6.1936463002
 30
0.0
 10
47.5109109275
 20
-6.1897664764
 30
0.0
 10
47.499375917
 20
-6.1848085392
 30
0.0
 10
47.4880985219
 20
-6.1787949001
 30
0.0
 10
47.4771271793
 20
-6.1717519547
 30
0.0
 10
47.4665080185
 20
-6.1637113736
 30
0.0
 10
47.4562866651
 20
-6.1547073865
 30
0.0
 10
47.4465054472
 20
-6.1447798123
 30
0.0
 10
47.4372069238
 20
-6.133970667
 30
0.0
 10
47.4284288231
 20
-6.1223278278
 30
0.0
 10
47.4202093766
 20
-6.1098994134
 30
0.0
 10
47.4125817192
 20
-6.096738149
 30
0.0
 10
47.405581081
 20
-6.0829022492
 30
0.0
 10
47.4013845815
 20
-6.0733481215
 30
0.0
 10
47.3993965458
 20
-6.0684784483
 30
0.0
  0
SPLINE
  5
4EF
100
AcDbEntity
  8
0
100
AcDbSpline
 62
7
  6
CONTINUOUS
 70
0
 71
3
 72
21
 73
17
 74
0
 42
0.0000001
 43
0.0000001
 44
0.0000000001
 40
0.0
 40
0.0
 40
0.0
 40
0.0
 40
0.0548250608
 40
0.109904515
 40
0.165483949
 40
0.2217940386
 40
0.2790423615
 40
0.3374105747
 40
0.3970486317
 40
0.4580755823
 40
0.5205761134
 40
0.5846040636
 40
0.7172266186
 40
0.7858509789
 40
0.8559225352
 40
1.0
 40
1.0
 40
1.0
 40
1.0
 10
47.5586075859
 20
-5.6784786351
 30
0.0
 10
47.5544183219
 20
-5.6784787281
 30
0.0
 10
47.5460147437
 20
-5.6788860654
 30
0.0
 10
47.5334841136
 20
-5.6807140813
 30
0.0
 10
47.5210724228
 20
-5.6837492915
 30
0.0
 10
47.5088405255
 20
-5.6879775718
 30
0.0
 10
47.4968452194
 20
-5.6933766715
 30
0.0
 10
47.4851433132
 20
-5.6999211832
 30
0.0
 10
47.4737884836
 20
-5.7075783294
 30
0.0
 10
47.4628340847
 20
-5.716312193
 30
0.0
 10
47.4523292788
 20
-5.726081036
 30
0.0
 10
47.4388336753
 20
-5.740590909
 30
0.0
 10
47.4266120707
 20
-5.7568500764
 30
0.0
 10
47.4157465469
 20
-5.7745173172
 30
0.0
 10
47.4055510053
 20
-5.7935796153
 30
0.0
 10
47.3991064348
 20
-5.808669417
 30
0.0
 10
47.3953240339
 20
-5.8190084361
 30
0.0
  0
SPLINE
  5
4F0
100
AcDbEntity
  8
0
100
AcDbSpline
 62
7
  6
CONTINUOUS
 70
0
 71
3
 72
18
 73
14
 74
0
 42
0.0000001
 43
0.0000001
 44
0.0000000001
 40
0.0
 40
0.0
 40
0.0
 40
0.0
 40
0.1219502471
 40
0.2464702061
 40
0.3727579212
 40
0.4999456356
 40
0.563610267
 40
0.6271623561
 40
0.6904897049
 40
0.7534801597
 40
0.8160245412
 40
0.8780269029
 40
1.0
 40
1.0
 40
1.0
 40
1.0
 10
47.3953240339
 20
-5.8190084361
 30
0.0
 10
47.3919216191
 20
-5.8283087803
 30
0.0
 10
47.3859388844
 20
-5.8474438205
 30
0.0
 10
47.3795207481
 20
-5.8770639219
 30
0.0
 10
47.3756330769
 20
-5.9075499185
 30
0.0
 10
47.3745478774
 20
-5.9333141952
 30
0.0
 10
47.3749834174
 20
-5.9539739471
 30
0.0
 10
47.3759622763
 20
-5.9694212553
 30
0.0
 10
47.3775911851
 20
-5.9847583473
 30
0.0
 10
47.3798623697
 20
-5.9999307863
 30
0.0
 10
47.3827695413
 20
-6.0148854691
 30
0.0
 10
47.3874521038
 20
-6.034353357
 30
0.0
 10
47.3919191581
 20
-6.048639026
 30
0.0
 10
47.3953216025
 20
-6.0579413352
 30
0.0
  0
SPLINE
  5
4F1
100
AcDbEntity
  8
0
100
AcDbSpline
 62
7
  6
CONTINUOUS
 70
0
 71
3
 72
17
 73
13
 74
0
 42
0.0000001
 43
0.0000001
 44
0.0000000001
 40
0.0
 40
0.0
 40
0.0
 40
0.0
 40
0.0507521541
 40
0.1062279752
 40
0.1656818145
 40
0.2283685672
 40
0.3603916239
 40
0.4965882669
 40
0.6320482742
 40
0.7629485808
 40
0.8864675634
 40
1.0
 40
1.0
 40
1.0
 40
1.0
 10
47.4768718351
 20
-6.0467316237
 30
0.0
 10
47.4762975318
 20
-6.0467316237
 30
0.0
 10
47.4750952457
 20
-6.0467862209
 30
0.0
 10
47.4732315588
 20
-6.0470003695
 30
0.0
 10
47.4712509004
 20
-6.0473481137
 30
0.0
 10
47.4684462694
 20
-6.0479895783
 30
0.0
 10
47.4648567837
 20
-6.0490720967
 30
0.0
 10
47.4605890642
 20
-6.050710535
 30
0.0
 10
47.4564519773
 20
-6.0526248704
 30
0.0
 10
47.4525727893
 20
-6.0547329954
 30
0.0
 10
47.44905294
 20
-6.0569628368
 30
0.0
 10
47.4468956942
 20
-6.0585630695
 30
0.0
 10
47.4459005581
 20
-6.0593755946
 30
0.0
  0
SPLINE
  5
4F2
100
AcDbEntity
  8
0
100
AcDbSpline
 62
7
  6
CONTINUOUS
 70
0
 71
3
 72
45
 73
41
 74
0
 42
0.0000001
 43
0.0000001
 44
0.0000000001
 40
0.0
 40
0.0
 40
0.0
 40
0.0
 40
0.0128513267
 40
0.0257402646
 40
0.038691441
 40
0.051730823
 40
0.0648871307
 40
0.0781878531
 40
0.1053036192
 40
0.1332505709
 40
0.1621439873
 40
0.1920543393
 40
0.2230077703
 40
0.2549895349
 40
0.287948694
 40
0.3218028922
 40
0.3564428168
 40
0.3917370601
 40
0.4275370898
 40
0.4636814477
 40
0.5
 40
0.5363185523
 40
0.5724629102
 40
0.6082629399
 40
0.6435571832
 40
0.6781971078
 40
0.712051306
 40
0.7450104651
 40
0.7769922297
 40
0.8079456607
 40
0.8378560127
 40
0.8667494291
 40
0.8946963808
 40
0.9218121469
 40
0.9351128693
 40
0.948269177
 40
0.961308559
 40
0.9742597354
 40
0.9871486733
 40
1.0
 40
1.0
 40
1.0
 40
1.0
 10
47.7283190065
 20
-5.7514784483
 30
0.0
 10
47.7304822395
 20
-5.7514784483
 30
0.0
 10
47.7348165258
 20
-5.751629449
 30
0.0
 10
47.7412990236
 20
-5.7523063607
 30
0.0
 10
47.747751174
 20
-5.7534325346
 30
0.0
 10
47.7541551323
 20
-5.7550060761
 30
0.0
 10
47.7604957666
 20
-5.7570219794
 30
0.0
 10
47.7688970955
 20
-5.7603137223
 30
0.0
 10
47.7791854244
 20
-5.7655416704
 30
0.0
 10
47.7909430459
 20
-5.7734389343
 30
0.0
 10
47.8020869371
 20
-5.7829211358
 30
0.0
 10
47.8125113708
 20
-5.7938936907
 30
0.0
 10
47.8221192828
 20
-5.8062501147
 30
0.0
 10
47.8308212991
 20
-5.8198708084
 30
0.0
 10
47.8385363061
 20
-5.8346250601
 30
0.0
 10
47.8451917194
 20
-5.8503718897
 30
0.0
 10
47.8507247999
 20
-5.8669608446
 30
0.0
 10
47.8550837139
 20
-5.8842333058
 30
0.0
 10
47.8582272152
 20
-5.9020242906
 30
0.0
 10
47.8601251391
 20
-5.920163825
 30
0.0
 10
47.8607597198
 20
-5.9384784483
 30
0.0
 10
47.8601251391
 20
-5.9567930715
 30
0.0
 10
47.8582272152
 20
-5.974932606
 30
0.0
 10
47.8550837139
 20
-5.9927235907
 30
0.0
 10
47.8507247999
 20
-6.009996052
 30
0.0
 10
47.8451917194
 20
-6.0265850068
 30
0.0
 10
47.8385363061
 20
-6.0423318365
 30
0.0
 10
47.8308212991
 20
-6.0570860882
 30
0.0
 10
47.8221192828
 20
-6.0707067818
 30
0.0
 10
47.8125113708
 20
-6.0830632058
 30
0.0
 10
47.8020869371
 20
-6.0940357607
 30
0.0
 10
47.7909430459
 20
-6.1035179623
 30
0.0
 10
47.7791854244
 20
-6.1114152262
 30
0.0
 10
47.7688970955
 20
-6.1166431743
 30
0.0
 10
47.7604957666
 20
-6.1199349172
 30
0.0
 10
47.7541551323
 20
-6.1219508204
 30
0.0
 10
47.747751174
 20
-6.1235243619
 30
0.0
 10
47.7412990236
 20
-6.1246505359
 30
0.0
 10
47.7348165258
 20
-6.1253274476
 30
0.0
 10
47.7304822395
 20
-6.1254784483
 30
0.0
 10
47.7283190065
 20
-6.1254784483
 30
0.0
  0
SPLINE
  5
4F3
100
AcDbEntity
  8
0
100
AcDbSpline
 62
7
  6
CONTINUOUS
 70
0
 71
3
 72
17
 73
13
 74
0
 42
0.0000001
 43
0.0000001
 44
0.0000000001
 40
0.0
 40
0.0
 40
0.0
 40
0.0
 40
0.0507521541
 40
0.1062279752
 40
0.1656818145
 40
0.2283685672
 40
0.3603916239
 40
0.4965882669
 40
0.6320482742
 40
0.7629485808
 40
0.8864675634
 40
1.0
 40
1.0
 40
1.0
 40
1.0
 10
47.4768718351
 20
-5.8302252728
 30
0.0
 10
47.4762975318
 20
-5.8302252728
 30
0.0
 10
47.4750952457
 20
-5.8301706757
 30
0.0
 10
47.4732315588
 20
-5.829956527
 30
0.0
 10
47.4712509004
 20
-5.8296087829
 30
0.0
 10
47.4684462694
 20
-5.8289673183
 30
0.0
 10
47.4648567837
 20
-5.8278847998
 30
0.0
 10
47.4605890642
 20
-5.8262463616
 30
0.0
 10
47.4564519773
 20
-5.8243320262
 30
0.0
 10
47.4525727893
 20
-5.8222239012
 30
0.0
 10
47.44905294
 20
-5.8199940597
 30
0.0
 10
47.4468956942
 20
-5.8183938271
 30
0.0
 10
47.4459005581
 20
-5.8175813019
 30
0.0
  0
SPLINE
  5
4F4
100
AcDbEntity
  8
0
100
AcDbSpline
 62
7
  6
CONTINUOUS
 70
0
 71
3
 72
15
 73
11
 74
0
 42
0.0000001
 43
0.0000001
 44
0.0000000001
 40
0.0
 40
0.0
 40
0.0
 40
0.0
 40
0.1017444407
 40
0.2096088461
 40
0.3245474155
 40
0.4470525223
 40
0.5769030157
 40
0.7131920169
 40
0.8546475917
 40
1.0
 40
1.0
 40
1.0
 40
1.0
 10
47.7162730892
 20
-6.1549847992
 30
0.0
 10
47.7125833664
 20
-6.1504658301
 30
0.0
 10
47.7047655659
 20
-6.1413301086
 30
0.0
 10
47.6919686944
 20
-6.1278080162
 30
0.0
 10
47.6776123629
 20
-6.1141589152
 30
0.0
 10
47.6616065559
 20
-6.1004573443
 30
0.0
 10
47.643997037
 20
-6.0867883301
 30
0.0
 10
47.6249578636
 20
-6.0732245011
 30
0.0
 10
47.6047377261
 20
-6.0598130817
 30
0.0
 10
47.5907981835
 20
-6.0510841317
 30
0.0
 10
47.5836905677
 20
-6.0467316237
 30
0.0
  0
SPLINE
  5
4F5
100
AcDbEntity
  8
0
100
AcDbSpline
 62
7
  6
CONTINUOUS
 70
0
 71
3
 72
45
 73
41
 74
0
 42
0.0000001
 43
0.0000001
 44
0.0000000001
 40
0.0
 40
0.0
 40
0.0
 40
0.0
 40
0.0128513267
 40
0.0257402646
 40
0.038691441
 40
0.051730823
 40
0.0648871307
 40
0.0781878531
 40
0.1053036192
 40
0.1332505709
 40
0.1621439873
 40
0.1920543393
 40
0.2230077703
 40
0.2549895349
 40
0.287948694
 40
0.3218028922
 40
0.3564428168
 40
0.3917370601
 40
0.4275370898
 40
0.4636814477
 40
0.5
 40
0.5363185523
 40
0.5724629102
 40
0.6082629399
 40
0.6435571832
 40
0.6781971078
 40
0.712051306
 40
0.7450104651
 40
0.7769922297
 40
0.8079456607
 40
0.8378560127
 40
0.8667494291
 40
0.8946963808
 40
0.9218121469
 40
0.9351128693
 40
0.948269177
 40
0.961308559
 40
0.9742597354
 40
0.9871486733
 40
1.0
 40
1.0
 40
1.0
 40
1.0
 10
47.7283190065
 20
-6.1254784483
 30
0.0
 10
47.7261557736
 20
-6.1254784483
 30
0.0
 10
47.7218214873
 20
-6.1253274476
 30
0.0
 10
47.7153389895
 20
-6.1246505359
 30
0.0
 10
47.7088868391
 20
-6.1235243619
 30
0.0
 10
47.7024828808
 20
-6.1219508204
 30
0.0
 10
47.6961422465
 20
-6.1199349172
 30
0.0
 10
47.6877409175
 20
-6.1166431743
 30
0.0
 10
47.6774525887
 20
-6.1114152262
 30
0.0
 10
47.6656949672
 20
-6.1035179623
 30
0.0
 10
47.6545510759
 20
-6.0940357607
 30
0.0
 10
47.6441266422
 20
-6.0830632058
 30
0.0
 10
47.6345187303
 20
-6.0707067818
 30
0.0
 10
47.625816714
 20
-6.0570860882
 30
0.0
 10
47.618101707
 20
-6.0423318365
 30
0.0
 10
47.6114462937
 20
-6.0265850068
 30
0.0
 10
47.6059132131
 20
-6.009996052
 30
0.0
 10
47.6015542992
 20
-5.9927235907
 30
0.0
 10
47.5984107978
 20
-5.974932606
 30
0.0
 10
47.596512874
 20
-5.9567930715
 30
0.0
 10
47.5958782932
 20
-5.9384784483
 30
0.0
 10
47.596512874
 20
-5.920163825
 30
0.0
 10
47.5984107978
 20
-5.9020242906
 30
0.0
 10
47.6015542992
 20
-5.8842333058
 30
0.0
 10
47.6059132131
 20
-5.8669608446
 30
0.0
 10
47.6114462937
 20
-5.8503718897
 30
0.0
 10
47.618101707
 20
-5.8346250601
 30
0.0
 10
47.625816714
 20
-5.8198708084
 30
0.0
 10
47.6345187303
 20
-5.8062501147
 30
0.0
 10
47.6441266422
 20
-5.7938936907
 30
0.0
 10
47.6545510759
 20
-5.7829211358
 30
0.0
 10
47.6656949672
 20
-5.7734389343
 30
0.0
 10
47.6774525887
 20
-5.7655416704
 30
0.0
 10
47.6877409175
 20
-5.7603137223
 30
0.0
 10
47.6961422465
 20
-5.7570219794
 30
0.0
 10
47.7024828808
 20
-5.7550060761
 30
0.0
 10
47.7088868391
 20
-5.7534325346
 30
0.0
 10
47.7153389895
 20
-5.7523063607
 30
0.0
 10
47.7218214873
 20
-5.751629449
 30
0.0
 10
47.7261557736
 20
-5.7514784483
 30
0.0
 10
47.7283190065
 20
-5.7514784483
 30
0.0
  0
SPLINE
  5
4F6
100
AcDbEntity
  8
0
100
AcDbSpline
 62
7
  6
CONTINUOUS
 70
0
 71
3
 72
19
 73
15
 74
0
 42
0.0000001
 43
0.0000001
 44
0.0000000001
 40
0.0
 40
0.0
 40
0.0
 40
0.0
 40
0.1239135187
 40
0.2486584689
 40
0.3113153546
 40
0.3741210923
 40
0.4370327446
 40
0.5
 40
0.5629672554
 40
0.6258789077
 40
0.6886846454
 40
0.7513415311
 40
0.8760864813
 40
1.0
 40
1.0
 40
1.0
 40
1.0
 10
47.5836905677
 20
-6.0467316237
 30
0.0
 10
47.5854927888
 20
-6.0379025796
 30
0.0
 10
47.5887917562
 20
-6.0201181229
 30
0.0
 10
47.5919435674
 20
-5.9976899468
 30
0.0
 10
47.5937772553
 20
-5.9795852988
 30
0.0
 10
47.5947827598
 20
-5.9659216317
 30
0.0
 10
47.5953949741
 20
-5.9522120209
 30
0.0
 10
47.5956010847
 20
-5.9384784483
 30
0.0
 10
47.5953949741
 20
-5.9247448757
 30
0.0
 10
47.5947827598
 20
-5.9110352648
 30
0.0
 10
47.5937772553
 20
-5.8973715978
 30
0.0
 10
47.5919435674
 20
-5.8792669497
 30
0.0
 10
47.5887917562
 20
-5.8568387736
 30
0.0
 10
47.5854927888
 20
-5.839054317
 30
0.0
 10
47.5836905677
 20
-5.8302252728
 30
0.0
  0
SPLINE
  5
4F7
100
AcDbEntity
  8
0
100
AcDbSpline
 62
7
  6
CONTINUOUS
 70
0
 71
3
 72
21
 73
17
 74
0
 42
0.0000001
 43
0.0000001
 44
0.0000000001
 40
0.0
 40
0.0
 40
0.0
 40
0.0
 40
0.0566620784
 40
0.1134981955
 40
0.1706792875
 40
0.2283681159
 40
0.2867181393
 40
0.345868617
 40
0.4059441661
 40
0.4670528415
 40
0.5292834292
 40
0.5927087418
 40
0.7232814153
 40
0.7905395231
 40
0.8590963393
 40
1.0
 40
1.0
 40
1.0
 40
1.0
 10
47.5939745112
 20
-6.1984782615
 30
0.0
 10
47.5905665465
 20
-6.1984783372
 30
0.0
 10
47.5837371155
 20
-6.1982098485
 30
0.0
 10
47.5735327718
 20
-6.1970022935
 30
0.0
 10
47.5633921787
 20
-6.1949930771
 30
0.0
 10
47.5533475249
 20
-6.1921903384
 30
0.0
 10
47.5434305181
 20
-6.188601199
 30
0.0
 10
47.5336714886
 20
-6.1842389263
 30
0.0
 10
47.5241008838
 20
-6.1791165664
 30
0.0
 10
47.5147485432
 20
-6.1732503869
 30
0.0
 10
47.5056420866
 20
-6.1666594933
 30
0.0
 10
47.4937546608
 20
-6.1568389663
 30
0.0
 10
47.4825913824
 20
-6.1457182761
 30
0.0
 10
47.4722308145
 20
-6.133489029
 30
0.0
 10
47.4621770951
 20
-6.1202171133
 30
0.0
 10
47.4553779327
 20
-6.1095772989
 30
0.0
 10
47.4511628299
 20
-6.1022251819
 30
0.0
  0
SPLINE
  5
4F8
100
AcDbEntity
  8
0
100
AcDbSpline
 62
7
  6
CONTINUOUS
 70
0
 71
3
 72
15
 73
11
 74
0
 42
0.0000001
 43
0.0000001
 44
0.0000000001
 40
0.0
 40
0.0
 40
0.0
 40
0.0
 40
0.1453524083
 40
0.2868079831
 40
0.4230969843
 40
0.5529474777
 40
0.6754525845
 40
0.7903911539
 40
0.8982555593
 40
1.0
 40
1.0
 40
1.0
 40
1.0
 10
47.5836905677
 20
-5.8302252728
 30
0.0
 10
47.5907981835
 20
-5.8258727648
 30
0.0
 10
47.6047377261
 20
-5.8171438148
 30
0.0
 10
47.6249578636
 20
-5.8037323954
 30
0.0
 10
47.643997037
 20
-5.7901685665
 30
0.0
 10
47.6616065559
 20
-5.7764995522
 30
0.0
 10
47.6776123629
 20
-5.7627979814
 30
0.0
 10
47.6919686944
 20
-5.7491488803
 30
0.0
 10
47.7047655659
 20
-5.7356267879
 30
0.0
 10
47.7125833664
 20
-5.7264910665
 30
0.0
 10
47.7162730892
 20
-5.7219720973
 30
0.0
  0
SPLINE
  5
4F9
100
AcDbEntity
  8
0
100
AcDbSpline
 62
7
  6
CONTINUOUS
 70
0
 71
3
 72
20
 73
16
 74
0
 42
0.0000001
 43
0.0000001
 44
0.0000000001
 40
0.0
 40
0.0
 40
0.0
 40
0.0
 40
0.0566139268
 40
0.1134043307
 40
0.1705432991
 40
0.2281960935
 40
0.286516899
 40
0.3456463368
 40
0.4057104049
 40
0.4668162617
 40
0.5290550348
 40
0.592497422
 40
0.7231297326
 40
0.858984515
 40
1.0
 40
1.0
 40
1.0
 40
1.0
 10
47.593962925
 20
-5.6784786351
 30
0.0
 10
47.5905344805
 20
-5.6784787112
 30
0.0
 10
47.5836638088
 20
-5.6787509482
 30
0.0
 10
47.5733985622
 20
-5.6799747236
 30
0.0
 10
47.5631979425
 20
-5.6820081099
 30
0.0
 10
47.5530954942
 20
-5.6848462862
 30
0.0
 10
47.5431226575
 20
-5.6884786941
 30
0.0
 10
47.5333108
 20
-5.6928936712
 30
0.0
 10
47.5236911307
 20
-5.6980777602
 30
0.0
 10
47.5142928464
 20
-5.7040127284
 30
0.0
 10
47.5051459775
 20
-5.7106815865
 30
0.0
 10
47.4932082909
 20
-5.7206161833
 30
0.0
 10
47.4790732696
 20
-5.734811259
 30
0.0
 10
47.4637323716
 20
-5.7541992333
 30
0.0
 10
47.4547506342
 20
-5.7683979947
 30
0.0
 10
47.4505386922
 20
-5.7758266795
 30
0.0
  0
SPLINE
  5
4FA
100
AcDbEntity
  8
0
100
AcDbSpline
 62
7
  6
CONTINUOUS
 70
0
 71
3
 72
19
 73
15
 74
0
 42
0.0000001
 43
0.0000001
 44
0.0000000001
 40
0.0
 40
0.0
 40
0.0
 40
0.0
 40
0.1180282229
 40
0.1788064003
 40
0.2405798354
 40
0.3664843479
 40
0.4945195606
 40
0.6232859004
 40
0.6875162728
 40
0.7513905823
 40
0.8147322314
 40
0.8773845076
 40
0.9392010752
 40
1.0
 40
1.0
 40
1.0
 40
1.0
 10
47.4505386922
 20
-5.7758266795
 30
0.0
 10
47.4446695921
 20
-5.7861781263
 30
0.0
 10
47.4368213972
 20
-5.8024768631
 30
0.0
 10
47.4282984561
 20
-5.8251945403
 30
0.0
 10
47.4208821148
 20
-5.849134576
 30
0.0
 10
47.4140795949
 20
-5.880302199
 30
0.0
 10
47.4099649416
 20
-5.9187362451
 30
0.0
 10
47.4099380293
 20
-5.9511689367
 30
0.0
 10
47.411975878
 20
-5.9769962268
 30
0.0
 10
47.4145227611
 20
-5.9961388371
 30
0.0
 10
47.418074819
 20
-6.014958353
 30
0.0
 10
47.422612683
 20
-6.0333518887
 30
0.0
 10
47.428111843
 20
-6.0512127948
 30
0.0
 10
47.4324350729
 20
-6.0628034413
 30
0.0
 10
47.4347518848
 20
-6.0684784483
 30
0.0
  0
SPLINE
  5
4FB
100
AcDbEntity
  8
0
100
AcDbSpline
 62
7
  6
CONTINUOUS
 70
0
 71
3
 72
15
 73
11
 74
0
 42
0.0000001
 43
0.0000001
 44
0.0000000001
 40
0.0
 40
0.0
 40
0.0
 40
0.0
 40
0.1093848924
 40
0.2247529651
 40
0.3455303054
 40
0.4709316038
 40
0.5999829275
 40
0.7318632405
 40
0.865594525
 40
1.0
 40
1.0
 40
1.0
 40
1.0
 10
47.6025344459
 20
-6.1576500865
 30
0.0
 10
47.6018305653
 20
-6.1582240887
 30
0.0
 10
47.6004932567
 20
-6.1595406839
 30
0.0
 10
47.5987721123
 20
-6.1618468169
 30
0.0
 10
47.5973001502
 20
-6.1644717867
 30
0.0
 10
47.5960878081
 20
-6.1673480587
 30
0.0
 10
47.5951416351
 20
-6.1704182537
 30
0.0
 10
47.5944650101
 20
-6.1736290022
 30
0.0
 10
47.5940592001
 20
-6.1769292584
 30
0.0
 10
47.5939687181
 20
-6.1791567333
 30
0.0
 10
47.5939687181
 20
-6.180272741
 30
0.0
  0
SPLINE
  5
4FC
100
AcDbEntity
  8
0
100
AcDbSpline
 62
7
  6
CONTINUOUS
 70
0
 71
3
 72
15
 73
11
 74
0
 42
0.0000001
 43
0.0000001
 44
0.0000000001
 40
0.0
 40
0.0
 40
0.0
 40
0.0
 40
0.1093848924
 40
0.2247529651
 40
0.3455303054
 40
0.4709316038
 40
0.5999829275
 40
0.7318632405
 40
0.865594525
 40
1.0
 40
1.0
 40
1.0
 40
1.0
 10
47.6025344459
 20
-5.71930681
 30
0.0
 10
47.6018305653
 20
-5.7187328079
 30
0.0
 10
47.6004932567
 20
-5.7174162127
 30
0.0
 10
47.5987721123
 20
-5.7151100796
 30
0.0
 10
47.5973001502
 20
-5.7124851099
 30
0.0
 10
47.5960878081
 20
-5.7096088378
 30
0.0
 10
47.5951416351
 20
-5.7065386428
 30
0.0
 10
47.5944650101
 20
-5.7033278944
 30
0.0
 10
47.5940592001
 20
-5.7000276382
 30
0.0
 10
47.5939687181
 20
-5.6978001633
 30
0.0
 10
47.5939687181
 20
-5.6966841555
 30
0.0
  0
SPLINE
  5
4FD
100
AcDbEntity
  8
0
100
AcDbSpline
 62
7
  6
CONTINUOUS
 70
0
 71
3
 72
35
 73
31
 74
0
 42
0.0000001
 43
0.0000001
 44
0.0000000001
 40
0.0
 40
0.0
 40
0.0
 40
0.0
 40
0.0625961662
 40
0.0939150299
 40
0.1252262965
 40
0.187813484
 40
0.2503913256
 40
0.2816841774
 40
0.3129721426
 40
0.344255045
 40
0.3755327096
 40
0.4068051403
 40
0.4380720506
 40
0.4693331449
 40
0.5005884668
 40
0.5318379348
 40
0.5630815115
 40
0.5943194349
 40
0.6255517515
 40
0.6567785977
 40
0.6880003636
 40
0.7192172369
 40
0.7504295337
 40
0.7816377737
 40
0.8128422591
 40
0.8440434548
 40
0.8752419698
 40
0.9064381901
 40
0.9376326914
 40
1.0
 40
1.0
 40
1.0
 40
1.0
 10
41.640994387
 20
5.4910215517
 30
0.0
 10
41.640994387
 20
5.4790834284
 30
0.0
 10
41.6401155857
 20
5.4611562436
 30
0.0
 10
41.6372038256
 20
5.4374448788
 30
0.0
 10
41.6331344893
 20
5.4139042574
 30
0.0
 10
41.6258981551
 20
5.3849003463
 30
0.0
 10
41.6158614376
 20
5.3567458362
 30
0.0
 10
41.6062166896
 20
5.3349025988
 30
0.0
 10
41.5981886134
 20
5.3188939539
 30
0.0
 10
41.5893888452
 20
5.303299983
 30
0.0
 10
41.5798372057
 20
5.2881582141
 30
0.0
 10
41.5695562481
 20
5.2735056396
 30
0.0
 10
41.5585723638
 20
5.2593763309
 30
0.0
 10
41.5469106887
 20
5.2458053015
 30
0.0
 10
41.5345992098
 20
5.2328255046
 30
0.0
 10
41.5216689106
 20
5.2204668798
 30
0.0
 10
41.508149611
 20
5.208760504
 30
0.0
 10
41.4940741199
 20
5.1977344769
 30
0.0
 10
41.4794772797
 20
5.1874140457
 30
0.0
 10
41.4643930383
 20
5.1778257448
 30
0.0
 10
41.4488582022
 20
5.1689921529
 30
0.0
 10
41.4329107621
 20
5.1609333613
 30
0.0
 10
41.4165881456
 20
5.1536707375
 30
0.0
 10
41.3999302247
 20
5.1472207958
 30
0.0
 10
41.3829773966
 20
5.1415981296
 30
0.0
 10
41.3657697408
 20
5.1368184152
 30
0.0
 10
41.3483494903
 20
5.1328917484
 30
0.0
 10
41.3307575785
 20
5.1298269463
 30
0.0
 10
41.3071380193
 20
5.1269030922
 30
0.0
 10
41.2892777986
 20
5.1260215517
 30
0.0
 10
41.2773833222
 20
5.1260215517
 30
0.0
  0
SPLINE
  5
4FE
100
AcDbEntity
  8
0
100
AcDbSpline
 62
7
  6
CONTINUOUS
 70
0
 71
3
 72
35
 73
31
 74
0
 42
0.0000001
 43
0.0000001
 44
0.0000000001
 40
0.0
 40
0.0
 40
0.0
 40
0.0
 40
0.0623673086
 40
0.0935618099
 40
0.1247580302
 40
0.1559565452
 40
0.1871577409
 40
0.2183622263
 40
0.2495704663
 40
0.2807827631
 40
0.3119996364
 40
0.3432214023
 40
0.3744482485
 40
0.4056805651
 40
0.4369184885
 40
0.4681620652
 40
0.4994115332
 40
0.5306668551
 40
0.5619279494
 40
0.5931948597
 40
0.6244672904
 40
0.655744955
 40
0.6870278574
 40
0.7183158226
 40
0.7496086744
 40
0.812186516
 40
0.8747737035
 40
0.9060849701
 40
0.9374038338
 40
1.0
 40
1.0
 40
1.0
 40
1.0
 10
41.2773833222
 20
5.8560215517
 30
0.0
 10
41.2892777986
 20
5.8560215517
 30
0.0
 10
41.3071380193
 20
5.8551400113
 30
0.0
 10
41.3307575785
 20
5.8522161572
 30
0.0
 10
41.3483494903
 20
5.849151355
 30
0.0
 10
41.3657697408
 20
5.8452246883
 30
0.0
 10
41.3829773966
 20
5.8404449738
 30
0.0
 10
41.3999302247
 20
5.8348223077
 30
0.0
 10
41.4165881456
 20
5.828372366
 30
0.0
 10
41.4329107621
 20
5.8211097421
 30
0.0
 10
41.4488582022
 20
5.8130509505
 30
0.0
 10
41.4643930383
 20
5.8042173586
 30
0.0
 10
41.4794772797
 20
5.7946290577
 30
0.0
 10
41.4940741199
 20
5.7843086266
 30
0.0
 10
41.508149611
 20
5.7732825995
 30
0.0
 10
41.5216689106
 20
5.7615762236
 30
0.0
 10
41.5345992098
 20
5.7492175988
 30
0.0
 10
41.5469106887
 20
5.736237802
 30
0.0
 10
41.5585723638
 20
5.7226667726
 30
0.0
 10
41.5695562481
 20
5.7085374639
 30
0.0
 10
41.5798372057
 20
5.6938848893
 30
0.0
 10
41.5893888452
 20
5.6787431205
 30
0.0
 10
41.5981886134
 20
5.6631491496
 30
0.0
 10
41.6062166896
 20
5.6471405046
 30
0.0
 10
41.6158614376
 20
5.6252972673
 30
0.0
 10
41.6258981551
 20
5.5971427571
 30
0.0
 10
41.6331344893
 20
5.568138846
 30
0.0
 10
41.6372038256
 20
5.5445982246
 30
0.0
 10
41.6401155857
 20
5.5208868598
 30
0.0
 10
41.640994387
 20
5.502959675
 30
0.0
 10
41.640994387
 20
5.4910215517
 30
0.0
  0
SPLINE
  5
4FF
100
AcDbEntity
  8
0
100
AcDbSpline
 62
7
  6
CONTINUOUS
 70
0
 71
3
 72
35
 73
31
 74
0
 42
0.0000001
 43
0.0000001
 44
0.0000000001
 40
0.0
 40
0.0
 40
0.0
 40
0.0
 40
0.0625961662
 40
0.0939150299
 40
0.1252262965
 40
0.187813484
 40
0.2503913256
 40
0.2816841774
 40
0.3129721426
 40
0.344255045
 40
0.3755327096
 40
0.4068051403
 40
0.4380720506
 40
0.4693331449
 40
0.5005884668
 40
0.5318379348
 40
0.5630815115
 40
0.5943194349
 40
0.6255517515
 40
0.6567785977
 40
0.6880003636
 40
0.7192172369
 40
0.7504295337
 40
0.7816377737
 40
0.8128422591
 40
0.8440434548
 40
0.8752419698
 40
0.9064381901
 40
0.9376326914
 40
1.0
 40
1.0
 40
1.0
 40
1.0
 10
40.9137722574
 20
5.4910215517
 30
0.0
 10
40.9137722574
 20
5.502959675
 30
0.0
 10
40.9146510587
 20
5.5208868598
 30
0.0
 10
40.9175628188
 20
5.5445982246
 30
0.0
 10
40.9216321552
 20
5.568138846
 30
0.0
 10
40.9288684893
 20
5.5971427571
 30
0.0
 10
40.9389052069
 20
5.6252972673
 30
0.0
 10
40.9485499548
 20
5.6471405046
 30
0.0
 10
40.956578031
 20
5.6631491496
 30
0.0
 10
40.9653777992
 20
5.6787431205
 30
0.0
 10
40.9749294387
 20
5.6938848893
 30
0.0
 10
40.9852103964
 20
5.7085374639
 30
0.0
 10
40.9961942806
 20
5.7226667726
 30
0.0
 10
41.0078559557
 20
5.736237802
 30
0.0
 10
41.0201674346
 20
5.7492175988
 30
0.0
 10
41.0330977338
 20
5.7615762236
 30
0.0
 10
41.0466170334
 20
5.7732825995
 30
0.0
 10
41.0606925245
 20
5.7843086266
 30
0.0
 10
41.0752893647
 20
5.7946290577
 30
0.0
 10
41.0903736061
 20
5.8042173586
 30
0.0
 10
41.1059084422
 20
5.8130509505
 30
0.0
 10
41.1218558823
 20
5.8211097421
 30
0.0
 10
41.1381784988
 20
5.828372366
 30
0.0
 10
41.1548364197
 20
5.8348223077
 30
0.0
 10
41.1717892479
 20
5.8404449738
 30
0.0
 10
41.1889969036
 20
5.8452246883
 30
0.0
 10
41.2064171541
 20
5.849151355
 30
0.0
 10
41.2240090659
 20
5.8522161572
 30
0.0
 10
41.2476286252
 20
5.8551400113
 30
0.0
 10
41.2654888458
 20
5.8560215517
 30
0.0
 10
41.2773833222
 20
5.8560215517
 30
0.0
  0
SPLINE
  5
500
100
AcDbEntity
  8
0
100
AcDbSpline
 62
7
  6
CONTINUOUS
 70
0
 71
3
 72
35
 73
31
 74
0
 42
0.0000001
 43
0.0000001
 44
0.0000000001
 40
0.0
 40
0.0
 40
0.0
 40
0.0
 40
0.0623673086
 40
0.0935618099
 40
0.1247580302
 40
0.1559565452
 40
0.1871577409
 40
0.2183622263
 40
0.2495704663
 40
0.2807827631
 40
0.3119996364
 40
0.3432214023
 40
0.3744482485
 40
0.4056805651
 40
0.4369184885
 40
0.4681620652
 40
0.4994115332
 40
0.5306668551
 40
0.5619279494
 40
0.5931948597
 40
0.6244672904
 40
0.655744955
 40
0.6870278574
 40
0.7183158226
 40
0.7496086744
 40
0.812186516
 40
0.8747737035
 40
0.9060849701
 40
0.9374038338
 40
1.0
 40
1.0
 40
1.0
 40
1.0
 10
41.2773833222
 20
5.1260215517
 30
0.0
 10
41.2654888458
 20
5.1260215517
 30
0.0
 10
41.2476286252
 20
5.1269030922
 30
0.0
 10
41.2240090659
 20
5.1298269463
 30
0.0
 10
41.2064171541
 20
5.1328917484
 30
0.0
 10
41.1889969036
 20
5.1368184152
 30
0.0
 10
41.1717892479
 20
5.1415981296
 30
0.0
 10
41.1548364197
 20
5.1472207958
 30
0.0
 10
41.1381784988
 20
5.1536707375
 30
0.0
 10
41.1218558823
 20
5.1609333613
 30
0.0
 10
41.1059084422
 20
5.1689921529
 30
0.0
 10
41.0903736061
 20
5.1778257448
 30
0.0
 10
41.0752893647
 20
5.1874140457
 30
0.0
 10
41.0606925245
 20
5.1977344769
 30
0.0
 10
41.0466170334
 20
5.208760504
 30
0.0
 10
41.0330977338
 20
5.2204668798
 30
0.0
 10
41.0201674346
 20
5.2328255046
 30
0.0
 10
41.0078559557
 20
5.2458053015
 30
0.0
 10
40.9961942806
 20
5.2593763309
 30
0.0
 10
40.9852103964
 20
5.2735056396
 30
0.0
 10
40.9749294387
 20
5.2881582141
 30
0.0
 10
40.9653777992
 20
5.303299983
 30
0.0
 10
40.956578031
 20
5.3188939539
 30
0.0
 10
40.9485499548
 20
5.3349025988
 30
0.0
 10
40.9389052069
 20
5.3567458362
 30
0.0
 10
40.9288684893
 20
5.3849003463
 30
0.0
 10
40.9216321552
 20
5.4139042574
 30
0.0
 10
40.9175628188
 20
5.4374448788
 30
0.0
 10
40.9146510587
 20
5.4611562436
 30
0.0
 10
40.9137722574
 20
5.4790834284
 30
0.0
 10
40.9137722574
 20
5.4910215517
 30
0.0
  0
SPLINE
  5
501
100
AcDbEntity
  8
0
100
AcDbSpline
 62
7
  6
CONTINUOUS
 70
0
 71
3
 72
15
 73
11
 74
0
 42
0.0000001
 43
0.0000001
 44
0.0000000001
 40
0.0
 40
0.0
 40
0.0
 40
0.0
 40
0.1252329505
 40
0.2504328687
 40
0.37556308
 40
0.5006107027
 40
0.62556535
 40
0.7504307989
 40
0.8752344591
 40
1.0
 40
1.0
 40
1.0
 40
1.0
 10
50.481154374
 20
4.1510215517
 30
0.0
 10
50.481154374
 20
4.1464476091
 30
0.0
 10
50.4820530977
 20
4.137275764
 30
0.0
 10
50.4860458929
 20
4.1240653546
 30
0.0
 10
50.4925302173
 20
4.1118847005
 30
0.0
 10
50.50125743
 20
4.1012087362
 30
0.0
 10
50.5118920943
 20
4.0924461199
 30
0.0
 10
50.5240275941
 20
4.0859344475
 30
0.0
 10
50.5371905588
 20
4.0819243218
 30
0.0
 10
50.5463311317
 20
4.0810215517
 30
0.0
 10
50.5508880029
 20
4.0810215517
 30
0.0
  0
SPLINE
  5
502
100
AcDbEntity
  8
0
100
AcDbSpline
 62
7
  6
CONTINUOUS
 70
0
 71
3
 72
15
 73
11
 74
0
 42
0.0000001
 43
0.0000001
 44
0.0000000001
 40
0.0
 40
0.0
 40
0.0
 40
0.0
 40
0.1252329505
 40
0.2504328687
 40
0.37556308
 40
0.5006107027
 40
0.62556535
 40
0.7504307989
 40
0.8752344591
 40
1.0
 40
1.0
 40
1.0
 40
1.0
 10
30.2110940479
 20
4.1510215517
 30
0.0
 10
30.2110940479
 20
4.1464476091
 30
0.0
 10
30.2101953242
 20
4.137275764
 30
0.0
 10
30.206202529
 20
4.1240653546
 30
0.0
 10
30.1997182046
 20
4.1118847005
 30
0.0
 10
30.1909909919
 20
4.1012087362
 30
0.0
 10
30.1803563275
 20
4.0924461199
 30
0.0
 10
30.1682208277
 20
4.0859344475
 30
0.0
 10
30.1550578631
 20
4.0819243218
 30
0.0
 10
30.1459172902
 20
4.0810215517
 30
0.0
 10
30.141360419
 20
4.0810215517
 30
0.0
  0
SPLINE
  5
503
100
AcDbEntity
  8
0
100
AcDbSpline
 62
7
  6
CONTINUOUS
 70
0
 71
3
 72
15
 73
11
 74
0
 42
0.0000001
 43
0.0000001
 44
0.0000000001
 40
0.0
 40
0.0
 40
0.0
 40
0.0
 40
0.1247655409
 40
0.2495692011
 40
0.37443465
 40
0.4993892973
 40
0.62443692
 40
0.7495671313
 40
0.8747670495
 40
1.0
 40
1.0
 40
1.0
 40
1.0
 10
30.2285161618
 20
4.0810215517
 30
0.0
 10
30.233073033
 20
4.0810215517
 30
0.0
 10
30.2422136058
 20
4.0819243218
 30
0.0
 10
30.2553765705
 20
4.0859344475
 30
0.0
 10
30.2675120703
 20
4.0924461199
 30
0.0
 10
30.2781467346
 20
4.1012087362
 30
0.0
 10
30.2868739474
 20
4.1118847005
 30
0.0
 10
30.2933582717
 20
4.1240653546
 30
0.0
 10
30.297351067
 20
4.137275764
 30
0.0
 10
30.2982497906
 20
4.1464476091
 30
0.0
 10
30.2982497906
 20
4.1510215517
 30
0.0
  0
SPLINE
  5
504
100
AcDbEntity
  8
0
100
AcDbSpline
 62
7
  6
CONTINUOUS
 70
0
 71
3
 72
28
 73
24
 74
0
 42
0.0000001
 43
0.0000001
 44
0.0000000001
 40
0.0
 40
0.0
 40
0.0
 40
0.0
 40
0.0021305426
 40
0.0044214873
 40
0.0070014036
 40
0.0099605939
 40
0.0172256425
 40
0.0264982361
 40
0.0378928926
 40
0.0514488124
 40
0.0671722808
 40
0.0850543774
 40
0.1050744273
 40
0.1271929998
 40
0.1775366568
 40
0.2356686756
 40
0.301049768
 40
0.3730845067
 40
0.451087418
 40
0.5343299542
 40
0.6220067751
 40
0.807332104
 40
1.0
 40
1.0
 40
1.0
 40
1.0
 10
41.733210136
 20
4.0810215517
 30
0.0
 10
41.7331597967
 20
4.0810215517
 30
0.0
 10
41.7330548409
 20
4.0810369902
 30
0.0
 10
41.7329019808
 20
4.0811040911
 30
0.0
 10
41.7327512709
 20
4.0812132481
 30
0.0
 10
41.7325376947
 20
4.0814288895
 30
0.0
 10
41.7322792946
 20
4.0818142121
 30
0.0
 10
41.7319897398
 20
4.0824081623
 30
0.0
 10
41.7317022414
 20
4.0831648972
 30
0.0
 10
41.7314173688
 20
4.0840831196
 30
0.0
 10
41.7311359831
 20
4.0851616314
 30
0.0
 10
41.7308589882
 20
4.0863982155
 30
0.0
 10
41.7305872342
 20
4.0877902205
 30
0.0
 10
41.730216619
 20
4.0899438263
 30
0.0
 10
41.7297801624
 20
4.0929990119
 30
0.0
 10
41.7293068131
 20
4.0970797566
 30
0.0
 10
41.7288689779
 20
4.1016795396
 30
0.0
 10
41.7284716293
 20
4.106753995
 30
0.0
 10
41.7281185822
 20
4.1122546507
 30
0.0
 10
41.7278137931
 20
4.1181282795
 30
0.0
 10
41.7274691357
 20
4.1265385133
 30
0.0
 10
41.7271845464
 20
4.1375381118
 30
0.0
 10
41.727109234
 20
4.1464692998
 30
0.0
 10
41.727109234
 20
4.1510215517
 30
0.0
  0
SPLINE
  5
505
100
AcDbEntity
  8
0
100
AcDbSpline
 62
7
  6
CONTINUOUS
 70
0
 71
3
 72
28
 73
24
 74
0
 42
0.0000001
 43
0.0000001
 44
0.0000000001
 40
0.0
 40
0.0
 40
0.0
 40
0.0
 40
0.192667896
 40
0.3779932249
 40
0.4656700458
 40
0.548912582
 40
0.6269154933
 40
0.698950232
 40
0.7643313244
 40
0.8224633432
 40
0.8728070002
 40
0.8949255727
 40
0.9149456226
 40
0.9328277192
 40
0.9485511876
 40
0.9621071074
 40
0.9735017639
 40
0.9827743575
 40
0.9900394061
 40
0.9929985964
 40
0.9955785127
 40
0.9978694574
 40
1.0
 40
1.0
 40
1.0
 40
1.0
 10
40.7309145359
 20
4.1510215517
 30
0.0
 10
40.7309145359
 20
4.1464692998
 30
0.0
 10
40.7309898483
 20
4.1375381118
 30
0.0
 10
40.7312744376
 20
4.1265385133
 30
0.0
 10
40.731619095
 20
4.1181282795
 30
0.0
 10
40.7319238841
 20
4.1122546507
 30
0.0
 10
40.7322769312
 20
4.106753995
 30
0.0
 10
40.7326742798
 20
4.1016795396
 30
0.0
 10
40.733112115
 20
4.0970797566
 30
0.0
 10
40.7335854643
 20
4.0929990119
 30
0.0
 10
40.7340219209
 20
4.0899438263
 30
0.0
 10
40.7343925361
 20
4.0877902205
 30
0.0
 10
40.7346642901
 20
4.0863982155
 30
0.0
 10
40.734941285
 20
4.0851616314
 30
0.0
 10
40.7352226708
 20
4.0840831196
 30
0.0
 10
40.7355075433
 20
4.0831648972
 30
0.0
 10
40.7357950417
 20
4.0824081623
 30
0.0
 10
40.7360845965
 20
4.0818142121
 30
0.0
 10
40.7363429966
 20
4.0814288895
 30
0.0
 10
40.7365565728
 20
4.0812132481
 30
0.0
 10
40.7367072827
 20
4.0811040911
 30
0.0
 10
40.7368601428
 20
4.0810369902
 30
0.0
 10
40.7369650986
 20
4.0810215517
 30
0.0
 10
40.7370154379
 20
4.0810215517
 30
0.0
  0
SPLINE
  5
506
100
AcDbEntity
  8
0
100
AcDbSpline
 62
7
  6
CONTINUOUS
 70
0
 71
3
 72
9
 73
5
 74
0
 42
0.0000001
 43
0.0000001
 44
0.0000000001
 40
0.0
 40
0.0
 40
0.0
 40
0.0
 40
0.2463170966
 40
1.0
 40
1.0
 40
1.0
 40
1.0
 10
33.3007783419
 20
-6.0472894743
 30
0.0
 10
33.3015860917
 20
-6.0468890253
 30
0.0
 10
33.3048308271
 20
-6.0451941216
 30
0.0
 10
33.3079333751
 20
-6.0432296564
 30
0.0
 10
33.3101766769
 20
-6.0416241804
 30
0.0
  0
SPLINE
  5
507
100
AcDbEntity
  8
0
100
AcDbSpline
 62
3
  6
CONTINUOUS
 70
0
 71
3
 72
15
 73
11
 74
0
 42
0.0000001
 43
0.0000001
 44
0.0000000001
 40
0.0
 40
0.0
 40
0.0
 40
0.0
 40
0.1252329505
 40
0.2504328687
 40
0.37556308
 40
0.5006107027
 40
0.62556535
 40
0.7504307989
 40
0.8752344591
 40
1.0
 40
1.0
 40
1.0
 40
1.0
 10
50.4114207451
 20
4.1510215517
 30
0.0
 10
50.4114207451
 20
4.1418736665
 30
0.0
 10
50.4132181925
 20
4.1235299763
 30
0.0
 10
50.421203783
 20
4.0971091576
 30
0.0
 10
50.4341724316
 20
4.0727478493
 30
0.0
 10
50.4516268572
 20
4.0513959206
 30
0.0
 10
50.4728961858
 20
4.0338706881
 30
0.0
 10
50.4971671854
 20
4.0208473433
 30
0.0
 10
50.5234931147
 20
4.0128270918
 30
0.0
 10
50.5417742605
 20
4.0110215517
 30
0.0
 10
50.5508880029
 20
4.0110215517
 30
0.0
  0
SPLINE
  5
508
100
AcDbEntity
  8
0
100
AcDbSpline
 62
3
  6
CONTINUOUS
 70
0
 71
3
 72
15
 73
11
 74
0
 42
0.0000001
 43
0.0000001
 44
0.0000000001
 40
0.0
 40
0.0
 40
0.0
 40
0.0
 40
0.1247655409
 40
0.2495692011
 40
0.37443465
 40
0.4993892973
 40
0.62443692
 40
0.7495671313
 40
0.8747670495
 40
1.0
 40
1.0
 40
1.0
 40
1.0
 10
30.2285161618
 20
4.0110215517
 30
0.0
 10
30.2376299042
 20
4.0110215517
 30
0.0
 10
30.2559110499
 20
4.0128270918
 30
0.0
 10
30.2822369792
 20
4.0208473433
 30
0.0
 10
30.3065079788
 20
4.0338706881
 30
0.0
 10
30.3277773074
 20
4.0513959206
 30
0.0
 10
30.345231733
 20
4.0727478493
 30
0.0
 10
30.3582003817
 20
4.0971091576
 30
0.0
 10
30.3661859722
 20
4.1235299763
 30
0.0
 10
30.3679834195
 20
4.1418736665
 30
0.0
 10
30.3679834195
 20
4.1510215517
 30
0.0
  0
SPLINE
  5
509
100
AcDbEntity
  8
0
100
AcDbSpline
 62
3
  6
CONTINUOUS
 70
0
 71
3
 72
31
 73
27
 74
0
 42
0.0000001
 43
0.0000001
 44
0.0000000001
 40
0.0
 40
0.0
 40
0.0
 40
0.0
 40
0.192665234
 40
0.3779880023
 40
0.4656636119
 40
0.548904998
 40
0.6269068315
 40
0.698940575
 40
0.7643207641
 40
0.8224519797
 40
0.8486260807
 40
0.8727965254
 40
0.8949147923
 40
0.9149345655
 40
0.9328164152
 40
0.9485396663
 40
0.9620953988
 40
0.9734898979
 40
0.9783881466
 40
0.9827663539
 40
0.9866416585
 40
0.9900395437
 40
0.9929986931
 40
0.9955785738
 40
0.9978694868
 40
1.0
 40
1.0
 40
1.0
 40
1.0
 10
40.7248136339
 20
4.1510215517
 30
0.0
 10
40.7248136339
 20
4.1419170479
 30
0.0
 10
40.724964259
 20
4.124054672
 30
0.0
 10
40.7255334364
 20
4.1020554744
 30
0.0
 10
40.7262227534
 20
4.0852350079
 30
0.0
 10
40.7268323259
 20
4.0734877475
 30
0.0
 10
40.7275384394
 20
4.0624864459
 30
0.0
 10
40.728333073
 20
4.0523375021
 30
0.0
 10
40.7292089483
 20
4.0431380424
 30
0.0
 10
40.7300234873
 20
4.0361108603
 30
0.0
 10
40.7307196126
 20
4.0310320911
 30
0.0
 10
40.7312380277
 20
4.0276471215
 30
0.0
 10
40.7317696695
 20
4.0245588944
 30
0.0
 10
40.7323131312
 20
4.0217748762
 30
0.0
 10
40.7328671443
 20
4.0193017176
 30
0.0
 10
40.7334298711
 20
4.0171446679
 30
0.0
 10
40.7339997439
 20
4.0153083008
 30
0.0
 10
40.7345009269
 20
4.0139880814
 30
0.0
 10
40.7349128378
 20
4.0131018908
 30
0.0
 10
40.7352072346
 20
4.0125540589
 30
0.0
 10
40.7355026916
 20
4.012088734
 30
0.0
 10
40.7357993715
 20
4.01170577
 30
0.0
 10
40.7360977495
 20
4.0114049882
 30
0.0
 10
40.7363991181
 20
4.0111866207
 30
0.0
 10
40.7367048499
 20
4.0110524311
 30
0.0
 10
40.7369147593
 20
4.0110215517
 30
0.0
 10
40.7370154379
 20
4.0110215517
 30
0.0
  0
SPLINE
  5
50A
100
AcDbEntity
  8
0
100
AcDbSpline
 62
3
  6
CONTINUOUS
 70
0
 71
3
 72
23
 73
19
 74
0
 42
0.0000001
 43
0.0000001
 44
0.0000000001
 40
0.0
 40
0.0
 40
0.0
 40
0.0
 40
0.056087865
 40
0.1143025992
 40
0.1748755475
 40
0.237958019
 40
0.3029205888
 40
0.3686676648
 40
0.4344672882
 40
0.5000926691
 40
0.5653973571
 40
0.6305738962
 40
0.6958700354
 40
0.7607456135
 40
0.8241333733
 40
0.8852893956
 40
0.9439504092
 40
1.0
 40
1.0
 40
1.0
 40
1.0
 10
33.2971463587
 20
-5.8182915675
 30
0.0
 10
33.3003436828
 20
-5.8219344977
 30
0.0
 10
33.3064429348
 20
-5.8297321786
 30
0.0
 10
33.3145245132
 20
-5.8425290016
 30
0.0
 10
33.3216018074
 20
-5.8565899396
 30
0.0
 10
33.3275416086
 20
-5.8717929595
 30
0.0
 10
33.332273225
 20
-5.887878602
 30
0.0
 10
33.3356895267
 20
-5.9045340124
 30
0.0
 10
33.3377078341
 20
-5.9214726428
 30
0.0
 10
33.3383735842
 20
-5.9384778403
 30
0.0
 10
33.337722463
 20
-5.9554300267
 30
0.0
 10
33.3357157726
 20
-5.9722485126
 30
0.0
 10
33.3323348091
 20
-5.9888078136
 30
0.0
 10
33.3276427502
 20
-6.0048839693
 30
0.0
 10
33.3216959833
 20
-6.0201595138
 30
0.0
 10
33.3145698914
 20
-6.0343251655
 30
0.0
 10
33.3064581194
 20
-6.0472039998
 30
0.0
 10
33.3003434905
 20
-6.0550349697
 30
0.0
 10
33.2971487458
 20
-6.0586757628
 30
0.0
  0
LINE
  5
50B
100
AcDbEntity
  8
0
100
AcDbLine
 62
7
  6
CONTINUOUS
 10
-10.5965312034
 20
-40.4129746834
 11
-10.6091751743
 21
-40.4348746834
  0
LINE
  5
50C
100
AcDbEntity
  8
0
100
AcDbLine
 62
7
  6
CONTINUOUS
 10
-10.7047843789
 20
-40.2254746834
 11
-10.7300723206
 21
-40.2254746834
  0
LINE
  5
50D
100
AcDbEntity
  8
0
100
AcDbLine
 62
7
  6
CONTINUOUS
 10
-10.3800248524
 20
-40.4129746834
 11
-10.3673808815
 21
-40.4348746834
  0
LINE
  5
50E
100
AcDbEntity
  8
0
100
AcDbLine
 62
7
  6
CONTINUOUS
 10
-10.271771677
 20
-40.2254746834
 11
-10.2464837352
 21
-40.2254746834
  0
LINE
  5
50F
100
AcDbEntity
  8
0
100
AcDbLine
 62
7
  6
CONTINUOUS
 10
-10.3800248524
 20
-40.0379746834
 11
-10.3673808815
 21
-40.0160746834
  0
LINE
  5
510
100
AcDbEntity
  8
0
100
AcDbLine
 62
7
  6
CONTINUOUS
 10
-10.5965312034
 20
-40.0379746834
 11
-10.6091751743
 21
-40.0160746834
  0
LINE
  5
511
100
AcDbEntity
  8
0
100
AcDbLine
 62
7
  6
CONTINUOUS
 10
-9.5358710316
 20
-39.3523145116
 11
-9.5485150025
 21
-39.3742145116
  0
LINE
  5
512
100
AcDbEntity
  8
0
100
AcDbLine
 62
7
  6
CONTINUOUS
 10
-9.6441242071
 20
-39.1648145116
 11
-9.6694121489
 21
-39.1648145116
  0
LINE
  5
513
100
AcDbEntity
  8
0
100
AcDbLine
 62
7
  6
CONTINUOUS
 10
-9.3193646807
 20
-39.3523145116
 11
-9.3067207098
 21
-39.3742145116
  0
LINE
  5
514
100
AcDbEntity
  8
0
100
AcDbLine
 62
7
  6
CONTINUOUS
 10
-9.2111115052
 20
-39.1648145116
 11
-9.1858235634
 21
-39.1648145116
  0
LINE
  5
515
100
AcDbEntity
  8
0
100
AcDbLine
 62
7
  6
CONTINUOUS
 10
-9.3193646807
 20
-38.9773145116
 11
-9.3067207098
 21
-38.9554145116
  0
LINE
  5
516
100
AcDbEntity
  8
0
100
AcDbLine
 62
7
  6
CONTINUOUS
 10
-9.5358710316
 20
-38.9773145116
 11
-9.5485150025
 21
-38.9554145116
  0
LINE
  5
517
100
AcDbEntity
  8
0
100
AcDbLine
 62
7
  6
CONTINUOUS
 10
-9.5358710316
 20
-28.7457127938
 11
-9.5485150025
 21
-28.7676127938
  0
LINE
  5
518
100
AcDbEntity
  8
0
100
AcDbLine
 62
7
  6
CONTINUOUS
 10
-9.6441242071
 20
-28.5582127938
 11
-9.6694121489
 21
-28.5582127938
  0
LINE
  5
519
100
AcDbEntity
  8
0
100
AcDbLine
 62
7
  6
CONTINUOUS
 10
-9.3193646807
 20
-28.7457127938
 11
-9.3067207098
 21
-28.7676127938
  0
LINE
  5
51A
100
AcDbEntity
  8
0
100
AcDbLine
 62
7
  6
CONTINUOUS
 10
-9.2111115052
 20
-28.5582127938
 11
-9.1858235634
 21
-28.5582127938
  0
LINE
  5
51B
100
AcDbEntity
  8
0
100
AcDbLine
 62
7
  6
CONTINUOUS
 10
-9.3193646807
 20
-28.3707127938
 11
-9.3067207098
 21
-28.3488127938
  0
LINE
  5
51C
100
AcDbEntity
  8
0
100
AcDbLine
 62
7
  6
CONTINUOUS
 10
-9.5358710316
 20
-28.3707127938
 11
-9.5485150025
 21
-28.3488127938
  0
LINE
  5
51D
100
AcDbEntity
  8
0
100
AcDbLine
 62
7
  6
CONTINUOUS
 10
-10.5965312034
 20
-27.685052622
 11
-10.6091751743
 21
-27.706952622
  0
LINE
  5
51E
100
AcDbEntity
  8
0
100
AcDbLine
 62
7
  6
CONTINUOUS
 10
-10.7047843789
 20
-27.497552622
 11
-10.7300723206
 21
-27.497552622
  0
LINE
  5
51F
100
AcDbEntity
  8
0
100
AcDbLine
 62
7
  6
CONTINUOUS
 10
-10.3800248524
 20
-27.685052622
 11
-10.3673808815
 21
-27.706952622
  0
LINE
  5
520
100
AcDbEntity
  8
0
100
AcDbLine
 62
7
  6
CONTINUOUS
 10
-10.271771677
 20
-27.497552622
 11
-10.2464837352
 21
-27.497552622
  0
LINE
  5
521
100
AcDbEntity
  8
0
100
AcDbLine
 62
7
  6
CONTINUOUS
 10
-10.3800248524
 20
-27.310052622
 11
-10.3673808815
 21
-27.288152622
  0
LINE
  5
522
100
AcDbEntity
  8
0
100
AcDbLine
 62
7
  6
CONTINUOUS
 10
-10.5965312034
 20
-27.310052622
 11
-10.6091751743
 21
-27.288152622
  0
LINE
  5
523
100
AcDbEntity
  8
0
100
AcDbLine
 62
7
  6
CONTINUOUS
 10
1.0707306862
 20
-39.3523145116
 11
1.0580867153
 21
-39.3742145116
  0
LINE
  5
524
100
AcDbEntity
  8
0
100
AcDbLine
 62
7
  6
CONTINUOUS
 10
0.9624775107
 20
-39.1648145116
 11
0.9371895689
 21
-39.1648145116
  0
LINE
  5
525
100
AcDbEntity
  8
0
100
AcDbLine
 62
7
  6
CONTINUOUS
 10
1.2872370371
 20
-39.3523145116
 11
1.299881008
 21
-39.3742145116
  0
LINE
  5
526
100
AcDbEntity
  8
0
100
AcDbLine
 62
7
  6
CONTINUOUS
 10
1.3954902126
 20
-39.1648145116
 11
1.4207781544
 21
-39.1648145116
  0
LINE
  5
527
100
AcDbEntity
  8
0
100
AcDbLine
 62
7
  6
CONTINUOUS
 10
1.2872370371
 20
-38.9773145116
 11
1.299881008
 21
-38.9554145116
  0
LINE
  5
528
100
AcDbEntity
  8
0
100
AcDbLine
 62
7
  6
CONTINUOUS
 10
1.0707306862
 20
-38.9773145116
 11
1.0580867153
 21
-38.9554145116
  0
LINE
  5
529
100
AcDbEntity
  8
0
100
AcDbLine
 62
7
  6
CONTINUOUS
 10
2.131390858
 20
-27.685052622
 11
2.1187468871
 21
-27.706952622
  0
LINE
  5
52A
100
AcDbEntity
  8
0
100
AcDbLine
 62
7
  6
CONTINUOUS
 10
2.0231376825
 20
-27.497552622
 11
1.9978497407
 21
-27.497552622
  0
LINE
  5
52B
100
AcDbEntity
  8
0
100
AcDbLine
 62
7
  6
CONTINUOUS
 10
2.3478972089
 20
-27.685052622
 11
2.3605411798
 21
-27.706952622
  0
LINE
  5
52C
100
AcDbEntity
  8
0
100
AcDbLine
 62
7
  6
CONTINUOUS
 10
2.4561503844
 20
-27.497552622
 11
2.4814383262
 21
-27.497552622
  0
LINE
  5
52D
100
AcDbEntity
  8
0
100
AcDbLine
 62
7
  6
CONTINUOUS
 10
2.3478972089
 20
-27.310052622
 11
2.3605411798
 21
-27.288152622
  0
LINE
  5
52E
100
AcDbEntity
  8
0
100
AcDbLine
 62
7
  6
CONTINUOUS
 10
2.131390858
 20
-27.310052622
 11
2.1187468871
 21
-27.288152622
  0
LINE
  5
52F
100
AcDbEntity
  8
0
100
AcDbLine
 62
7
  6
CONTINUOUS
 10
2.131390858
 20
-40.4129746834
 11
2.1187468871
 21
-40.4348746834
  0
LINE
  5
530
100
AcDbEntity
  8
0
100
AcDbLine
 62
7
  6
CONTINUOUS
 10
2.0231376825
 20
-40.2254746834
 11
1.9978497407
 21
-40.2254746834
  0
LINE
  5
531
100
AcDbEntity
  8
0
100
AcDbLine
 62
7
  6
CONTINUOUS
 10
2.3478972089
 20
-40.4129746834
 11
2.3605411798
 21
-40.4348746834
  0
LINE
  5
532
100
AcDbEntity
  8
0
100
AcDbLine
 62
7
  6
CONTINUOUS
 10
2.4561503844
 20
-40.2254746834
 11
2.4814383262
 21
-40.2254746834
  0
LINE
  5
533
100
AcDbEntity
  8
0
100
AcDbLine
 62
7
  6
CONTINUOUS
 10
2.3478972089
 20
-40.0379746834
 11
2.3605411798
 21
-40.0160746834
  0
LINE
  5
534
100
AcDbEntity
  8
0
100
AcDbLine
 62
7
  6
CONTINUOUS
 10
2.131390858
 20
-40.0379746834
 11
2.1187468871
 21
-40.0160746834
  0
LINE
  5
535
100
AcDbEntity
  8
0
100
AcDbLine
 62
7
  6
CONTINUOUS
 10
1.0707306862
 20
-28.7457127938
 11
1.0580867153
 21
-28.7676127938
  0
LINE
  5
536
100
AcDbEntity
  8
0
100
AcDbLine
 62
7
  6
CONTINUOUS
 10
0.9624775107
 20
-28.5582127938
 11
0.9371895689
 21
-28.5582127938
  0
LINE
  5
537
100
AcDbEntity
  8
0
100
AcDbLine
 62
7
  6
CONTINUOUS
 10
1.2872370371
 20
-28.7457127938
 11
1.299881008
 21
-28.7676127938
  0
LINE
  5
538
100
AcDbEntity
  8
0
100
AcDbLine
 62
7
  6
CONTINUOUS
 10
1.3954902126
 20
-28.5582127938
 11
1.4207781544
 21
-28.5582127938
  0
LINE
  5
539
100
AcDbEntity
  8
0
100
AcDbLine
 62
7
  6
CONTINUOUS
 10
1.2872370371
 20
-28.3707127938
 11
1.299881008
 21
-28.3488127938
  0
LINE
  5
53A
100
AcDbEntity
  8
0
100
AcDbLine
 62
7
  6
CONTINUOUS
 10
1.0707306862
 20
-28.3707127938
 11
1.0580867153
 21
-28.3488127938
  0
SPLINE
  5
53B
100
AcDbEntity
  8
0
100
AcDbSpline
 62
7
  6
CONTINUOUS
 70
0
 71
3
 72
15
 73
11
 74
0
 42
0.0000001
 43
0.0000001
 44
0.0000000001
 40
0.0
 40
0.0
 40
0.0
 40
0.0
 40
0.1261099833
 40
0.2512738785
 40
0.3757984041
 40
0.5
 40
0.6242015959
 40
0.7487261215
 40
0.8738900167
 40
1.0
 40
1.0
 40
1.0
 40
1.0
 10
-4.1243169972
 20
-32.4729483583
 30
0.0
 10
-4.1332810412
 20
-32.4703234086
 30
0.0
 10
-4.1513291483
 20
-32.465708368
 30
0.0
 10
-4.1787367753
 20
-32.4607288823
 30
0.0
 10
-4.2062913336
 20
-32.4577354643
 30
0.0
 10
-4.2339185483
 20
-32.4567368189
 30
0.0
 10
-4.261545763
 20
-32.4577354643
 30
0.0
 10
-4.2891003213
 20
-32.4607288823
 30
0.0
 10
-4.3165079483
 20
-32.465708368
 30
0.0
 10
-4.3345560554
 20
-32.4703234086
 30
0.0
 10
-4.3435200994
 20
-32.4729483583
 30
0.0
  0
SPLINE
  5
53C
100
AcDbEntity
  8
0
100
AcDbSpline
 62
7
  6
CONTINUOUS
 70
0
 71
3
 72
15
 73
11
 74
0
 42
0.0000001
 43
0.0000001
 44
0.0000000001
 40
0.0
 40
0.0
 40
0.0
 40
0.0
 40
0.1252146822
 40
0.2499116931
 40
0.3743170529
 40
0.498661262
 40
0.6231754954
 40
0.7480888588
 40
0.8736249174
 40
1.0
 40
1.0
 40
1.0
 40
1.0
 10
-3.9388905519
 20
-32.4646278138
 30
0.0
 10
-3.9465606655
 20
-32.4630910298
 30
0.0
 10
-3.9619648112
 20
-32.4604798773
 30
0.0
 10
-3.985228258
 20
-32.4579701825
 30
0.0
 10
-4.0085478864
 20
-32.4568819891
 30
0.0
 10
-4.0318788676
 20
-32.4572175931
 30
0.0
 10
-4.0551776612
 20
-32.4589762648
 30
0.0
 10
-4.0784007533
 20
-32.4621547398
 30
0.0
 10
-4.101503651
 20
-32.4667466227
 30
0.0
 10
-4.1167401271
 20
-32.4707296161
 30
0.0
 10
-4.1243169972
 20
-32.4729483583
 30
0.0
  0
SPLINE
  5
53D
100
AcDbEntity
  8
0
100
AcDbSpline
 62
7
  6
CONTINUOUS
 70
0
 71
3
 72
15
 73
11
 74
0
 42
0.0000001
 43
0.0000001
 44
0.0000000001
 40
0.0
 40
0.0
 40
0.0
 40
0.0
 40
0.1261099833
 40
0.2512738785
 40
0.3757984041
 40
0.5
 40
0.6242015959
 40
0.7487261215
 40
0.8738900167
 40
1.0
 40
1.0
 40
1.0
 40
1.0
 10
-2.7357517028
 20
-33.8615136527
 30
0.0
 10
-2.7331267531
 20
-33.8525496087
 30
0.0
 10
-2.7285117126
 20
-33.8345015016
 30
0.0
 10
-2.7235322268
 20
-33.8070938746
 30
0.0
 10
-2.7205388088
 20
-33.7795393163
 30
0.0
 10
-2.7195401635
 20
-33.7519121016
 30
0.0
 10
-2.7205388088
 20
-33.7242848869
 30
0.0
 10
-2.7235322268
 20
-33.6967303286
 30
0.0
 10
-2.7285117126
 20
-33.6693227016
 30
0.0
 10
-2.7331267531
 20
-33.6512745945
 30
0.0
 10
-2.7357517028
 20
-33.6423105505
 30
0.0
  0
SPLINE
  5
53E
100
AcDbEntity
  8
0
100
AcDbSpline
 62
7
  6
CONTINUOUS
 70
0
 71
3
 72
15
 73
11
 74
0
 42
0.0000001
 43
0.0000001
 44
0.0000000001
 40
0.0
 40
0.0
 40
0.0
 40
0.0
 40
0.1252146822
 40
0.2499116931
 40
0.3743170529
 40
0.498661262
 40
0.6231754954
 40
0.7480888588
 40
0.8736249174
 40
1.0
 40
1.0
 40
1.0
 40
1.0
 10
-2.7274311583
 20
-34.046940098
 30
0.0
 10
-2.7258943743
 20
-34.0392699844
 30
0.0
 10
-2.7232832218
 20
-34.0238658387
 30
0.0
 10
-2.720773527
 20
-34.0006023919
 30
0.0
 10
-2.7196853336
 20
-33.9772827635
 30
0.0
 10
-2.7200209377
 20
-33.9539517823
 30
0.0
 10
-2.7217796093
 20
-33.9306529888
 30
0.0
 10
-2.7249580843
 20
-33.9074298967
 30
0.0
 10
-2.7295499672
 20
-33.8843269989
 30
0.0
 10
-2.7335329606
 20
-33.8690905228
 30
0.0
 10
-2.7357517028
 20
-33.8615136527
 30
0.0
  0
LINE
  5
53F
100
AcDbEntity
  8
0
100
AcDbLine
 62
7
  6
CONTINUOUS
 10
-4.6909295778
 20
-33.3645564527
 11
-5.6837607421
 21
-32.4181985615
  0
LINE
  5
540
100
AcDbEntity
  8
0
100
AcDbLine
 62
7
  6
CONTINUOUS
 10
-5.6837607421
 20
-32.4181985615
 11
-5.9411044662
 21
-32.172903294
  0
LINE
  5
541
100
AcDbEntity
  8
0
100
AcDbLine
 62
7
  6
CONTINUOUS
 10
-4.6212741972
 20
-33.2949010721
 11
-5.5676320885
 21
-32.3020699079
  0
LINE
  5
542
100
AcDbEntity
  8
0
100
AcDbLine
 62
7
  6
CONTINUOUS
 10
-5.5676320885
 20
-32.3020699079
 11
-5.812927356
 21
-32.0447261838
  0
LINE
  5
543
100
AcDbEntity
  8
0
100
AcDbLine
 62
7
  6
CONTINUOUS
 10
-4.6212741972
 20
-34.4281262333
 11
-5.5676320885
 21
-35.4209573975
  0
LINE
  5
544
100
AcDbEntity
  8
0
100
AcDbLine
 62
7
  6
CONTINUOUS
 10
-5.5676320885
 20
-35.4209573975
 11
-5.812927356
 21
-35.6783011216
  0
LINE
  5
545
100
AcDbEntity
  8
0
100
AcDbLine
 62
7
  6
CONTINUOUS
 10
-4.6909295778
 20
-34.3584708527
 11
-5.6837607421
 21
-35.3048287439
  0
LINE
  5
546
100
AcDbEntity
  8
0
100
AcDbLine
 62
7
  6
CONTINUOUS
 10
-5.6837607421
 20
-35.3048287439
 11
-5.9411044662
 21
-35.5501240114
  0
LINE
  5
547
100
AcDbEntity
  8
0
100
AcDbLine
 62
7
  6
CONTINUOUS
 10
-3.5577044167
 20
-34.3584708527
 11
-2.5648732524
 21
-35.3048287439
  0
LINE
  5
548
100
AcDbEntity
  8
0
100
AcDbLine
 62
7
  6
CONTINUOUS
 10
-2.5648732524
 20
-35.3048287439
 11
-2.3075295283
 21
-35.5501240114
  0
LINE
  5
549
100
AcDbEntity
  8
0
100
AcDbLine
 62
7
  6
CONTINUOUS
 10
-3.6273597973
 20
-34.4281262333
 11
-2.681001906
 21
-35.4209573975
  0
LINE
  5
54A
100
AcDbEntity
  8
0
100
AcDbLine
 62
7
  6
CONTINUOUS
 10
-2.681001906
 20
-35.4209573975
 11
-2.4357066385
 21
-35.6783011216
  0
LINE
  5
54B
100
AcDbEntity
  8
0
100
AcDbLine
 62
7
  6
CONTINUOUS
 10
-3.6273597973
 20
-33.2949010721
 11
-2.681001906
 21
-32.3020699079
  0
LINE
  5
54C
100
AcDbEntity
  8
0
100
AcDbLine
 62
7
  6
CONTINUOUS
 10
-2.681001906
 20
-32.3020699079
 11
-2.4357066385
 21
-32.0447261838
  0
LINE
  5
54D
100
AcDbEntity
  8
0
100
AcDbLine
 62
7
  6
CONTINUOUS
 10
-3.5577044167
 20
-33.3645564527
 11
-2.5648732524
 21
-32.4181985615
  0
LINE
  5
54E
100
AcDbEntity
  8
0
100
AcDbLine
 62
7
  6
CONTINUOUS
 10
-2.5648732524
 20
-32.4181985615
 11
-2.3075295283
 21
-32.172903294
  0
ELLIPSE
  5
54F
100
AcDbEntity
  8
0
100
AcDbEllipse
 62
7
  6
CONTINUOUS
 10
-4.1243169972
 20
-32.9000689851
 30
0.0
 11
0.155
 21
0.0
 31
0.0
 40
0.0524077793
 41
-3.1415926536
 42
-0.0
  0
ELLIPSE
  5
550
100
AcDbEntity
  8
0
100
AcDbEllipse
 62
7
  6
CONTINUOUS
 10
-3.1628723297
 20
-33.8615136527
 30
0.0
 11
0.0
 21
0.156
 31
0.0
 40
0.0524077793
 41
-0.0490108235
 42
3.1906034771
  0
ENDSEC
  0
SECTION
  2
OBJECTS
  0
DICTIONARY
  5
C
100
AcDbDictionary
280
0
281
1
  3
ACAD_GROUP
350
D
  3
ACAD_MLINESTYLE
350
17
  3
ACAD_LAYOUT
350
1A
  3
ACAD_PLOTSETTINGS
350
19
  3
ACAD_PLOTSTYLENAME
350
E
  0
DICTIONARY
  5
D
102
{ACAD_REACTORS
330
C
102
}
100
AcDbDictionary
280
0
281
1
  0
ACDBDICTIONARYWDFLT
  5
E
102
{ACAD_REACTORS
330
C
102
}
100
AcDbDictionary
281
1
  3
Normal
350
F
100
AcDbDictionaryWithDefault
340
F
  0
DICTIONARY
  5
17
102
{ACAD_REACTORS
330
C
102
}
100
AcDbDictionary
280
0
281
1
  3
Standard
350
18
  0
DICTIONARY
  5
19
102
{ACAD_REACTORS
330
C
102
}
100
AcDbDictionary
281
1
  0
DICTIONARY
  5
1A
102
{ACAD_REACTORS
330
C
102
}
100
AcDbDictionary
281
1
  3
Model
350
551
  3
Layout1
350
552
  0
ACDBPLACEHOLDER
  5
F
102
{ACAD_REACTORS
330
E
102
}
  0
MLINESTYLE
  5
18
102
{ACAD_REACTORS
330
17
102
}
100
AcDbMlineStyle
  2
STANDARD
 70
0
  3

 62
256
 51
90.0
 52
90.0
 71
2
 49
0.5
 62
256
  6
BYLAYER
 49
-0.5
 62
256
  6
BYLAYER
  0
LAYOUT
  5
551
102
{ACAD_REACTORS
330
1A
102
}
100
AcDbPlotSettings
  1

  2
none_device
  4

  6

 40
0.0
 41
0.0
 42
0.0
 43
0.0
 44
431.8
 45
279.4
 46
0.0
 47
0.0
 48
0.0
 49
0.0
140
0.0
141
0.0
142
1.0
143
1.0
 70
1024
 72
0
 73
0
 74
0
  7

 75
0
147
1.0
148
0.0
149
0.0
100
AcDbLayout
  1
Model
 70
0
 71
0
 10
0.0
 20
0.0
 11
17.0
 21
11.0
 12
0.0
 22
0.0
 32
0.0
 14
0.0
 24
0.0
 34
0.0
 15
0.0
 25
0.0
 35
0.0
146
0.0
 13
0.0
 23
0.0
 33
0.0
 16
1.0
 26
0.0
 36
0.0
 17
0.0
 27
1.0
 37
0.0
 76
0
330
23A
345
0
346
0
  0
LAYOUT
  5
552
102
{ACAD_REACTORS
330
1A
102
}
100
AcDbPlotSettings
  1

  2
none_device
  4

  6

 40
0.0
 41
0.0
 42
0.0
 43
0.0
 44
431.8
 45
279.4
 46
0.0
 47
0.0
 48
0.0
 49
0.0
140
0.0
141
0.0
142
1.0
143
1.0
 70
0
 72
0
 73
0
 74
0
  7

 75
0
147
1.0
148
0.0
149
0.0
100
AcDbLayout
  1
Layout1
 70
0
 71
1
 10
0.0
 20
0.0
 11
17.0
 21
11.0
 12
0.0
 22
0.0
 32
0.0
 14
0.0
 24
0.0
 34
0.0
 15
0.0
 25
0.0
 35
0.0
146
0.0
 13
0.0
 23
0.0
 33
0.0
 16
1.0
 26
0.0
 36
0.0
 17
0.0
 27
1.0
 37
0.0
 76
0
330
23B
345
0
346
0
  0
ENDSEC
  0
EOF
