999
DXF file: N:\Master\master\M3_ProE_files\Lenexa\MADAM DXF\49812.dxf
999
Pro/ENGINEER 2010280 by Parametric Technology Corporation
  0
SECTION
  2
HEADER
  9
$ACADVER
  1
AC1021
  9
$DWGCODEPAGE
  3
ANSI_1252
  9
$EXTMAX
 10
17.0
 20
11.0
 30
0.0
  9
$EXTMIN
 10
0.0
 20
-0.0
 30
0.0
  9
$LIMMIN
 10
0.0
 20
-0.0
  9
$LIMMAX
 10
17.0
 20
11.0
  9
$VIEWCTR
 10
8.5
 20
5.5
  9
$VIEWSIZE
 40
11.0
  9
$CLAYER
  8
0
  9
$LTSCALE
 40
0.935
  9
$CELTYPE
  6
BYLAYER
  9
$DIMSCALE
 40
1.0
  9
$DIMASZ
 40
0.125
  9
$DIMEXO
 40
0.10625
  9
$DIMDLI
 40
0.646
  9
$DIMEXE
 40
0.306
  9
$DIMCEN
 40
0.153
  9
$DIMLFAC
 40
1.0
  9
$DIMBLK
  1
_FILLED
  9
$DIMTXT
 40
0.125
  9
$DIMTOL
 70
1
  9
$DIMLIM
 70
0
  9
$DIMTFAC
 40
1.0
  9
$DIMTP
 40
0.01
  9
$DIMTM
 40
0.01
  9
$PDMODE
 70
3
  9
$PDSIZE
 40
0.3125
  9
$HANDSEED
  5
4D5
  9
$TILEMODE
 70
1
  9
$MEASUREMENT
 70
0
  9
$INSUNITS
 70
1
  0
ENDSEC
  0
SECTION
  2
CLASSES
  0
CLASS
  1
ACDBDICTIONARYWDFLT
  2
AcDbDictionaryWithDefault
  3
AutoCAD 2000
 90
0
 91
1
280
0
281
0
  0
CLASS
  1
ACDBPLACEHOLDER
  2
AcDbPlaceHolder
  3
AutoCAD 2000
 90
0
 91
1
280
0
281
0
  0
CLASS
  1
LAYOUT
  2
AcDbLayout
  3
AutoCAD 2000
 90
0
 91
0
280
0
281
0
  0
ENDSEC
  0
SECTION
  2
TABLES
  0
TABLE
  2
VPORT
  5
8
100
AcDbSymbolTable
 70
2
  0
VPORT
  5
1F4
100
AcDbSymbolTableRecord
100
AcDbViewportTableRecord
  2
*ACTIVE
 70
0
 10
0.0
 20
0.0
 11
1.0
 21
1.0
 12
8.5
 22
5.5
 13
0.0
 23
0.0
 14
1.0
 24
1.0
 15
0.0
 25
0.0
 16
0.0
 26
0.0
 36
1.0
 17
0.0
 27
0.0
 37
0.0
 40
11.0
 41
1.5454545455
 42
50.0
 43
0.0
 44
0.0
 50
0.0
 51
0.0
 71
0
 72
100
 73
1
 74
1
 75
0
 76
0
 77
0
 78
0
  0
ENDTAB
  0
TABLE
  2
LTYPE
  5
5
100
AcDbSymbolTable
 70
6
  0
LTYPE
  5
14
100
AcDbSymbolTableRecord
100
AcDbLinetypeTableRecord
  2
BYBLOCK
 70
0
  3

 72
65
 73
0
 40
0.0
  0
LTYPE
  5
15
100
AcDbSymbolTableRecord
100
AcDbLinetypeTableRecord
  2
BYLAYER
 70
0
  3

 72
65
 73
0
 40
0.0
  0
LTYPE
  5
16
100
AcDbSymbolTableRecord
100
AcDbLinetypeTableRecord
  2
CONTINUOUS
 70
64
  3
Solid line
 72
65
 73
0
 40
0.0
  0
LTYPE
  5
1F5
100
AcDbSymbolTableRecord
100
AcDbLinetypeTableRecord
  2
CENTER
 70
64
  3
____ _ ____ _ ____ _ ____ _ ____ _ ____ _ ____
 72
65
 73
4
 40
0.6
 49
0.375
 74
0
 49
-0.075
 74
0
 49
0.075
 74
0
 49
-0.075
 74
0
  0
LTYPE
  5
1F6
100
AcDbSymbolTableRecord
100
AcDbLinetypeTableRecord
  2
HIDDEN
 70
64
  3
- - - - - - - - - - - - - - - - - - - -
 72
65
 73
2
 40
0.2
 49
0.1
 74
0
 49
-0.1
 74
0
  0
LTYPE
  5
1F7
100
AcDbSymbolTableRecord
100
AcDbLinetypeTableRecord
  2
PHANTOM
 70
64
  3
_____ _ _ _____ _ _ _____ _ _ _____
 72
65
 73
6
 40
0.8
 49
0.45
 74
0
 49
-0.05
 74
0
 49
0.1
 74
0
 49
-0.05
 74
0
 49
0.1
 74
0
 49
-0.05
 74
0
  0
LTYPE
  5
1F8
100
AcDbSymbolTableRecord
100
AcDbLinetypeTableRecord
  2
DOT
 70
64
  3
. . . . . . . . . . . . . . . . . . . .
 72
65
 73
2
 40
0.2
 49
0.1
 74
0
 49
-0.1
 74
0
  0
LTYPE
  5
1F9
100
AcDbSymbolTableRecord
100
AcDbLinetypeTableRecord
  2
DASHED
 70
64
  3
- - - - - - - - - - - - - - - - - - - -
 72
65
 73
2
 40
0.2
 49
0.1
 74
0
 49
-0.1
 74
0
  0
ENDTAB
  0
TABLE
  2
LAYER
  5
2
100
AcDbSymbolTable
 70
36
  0
LAYER
  5
10
100
AcDbSymbolTableRecord
100
AcDbLayerTableRecord
  2
0
 70
0
 62
7
  6
CONTINUOUS
370
-3
390
F
  0
LAYER
  5
1FA
100
AcDbSymbolTableRecord
100
AcDbLayerTableRecord
  2
DEFAULT_1
 70
0
 62
7
  6
CENTER
370
-3
390
F
  0
LAYER
  5
1FB
100
AcDbSymbolTableRecord
100
AcDbLayerTableRecord
  2
DEFAULT_2
 70
0
 62
8
  6
HIDDEN
370
-3
390
F
  0
LAYER
  5
1FC
100
AcDbSymbolTableRecord
100
AcDbLayerTableRecord
  2
DEFAULT_3
 70
0
 62
7
  6
PHANTOM
370
-3
390
F
  0
LAYER
  5
1FD
100
AcDbSymbolTableRecord
100
AcDbLayerTableRecord
  2
01_ALL_DTM_PLN
 70
0
 62
7
  6
CONTINUOUS
370
-3
390
F
  0
LAYER
  5
1FE
100
AcDbSymbolTableRecord
100
AcDbLayerTableRecord
  2
01__ASM_ALL_DTM_PLN
 70
0
 62
7
  6
CONTINUOUS
370
-3
390
F
  0
LAYER
  5
1FF
100
AcDbSymbolTableRecord
100
AcDbLayerTableRecord
  2
01__ASM_DEF_DTM_PLN
 70
0
 62
7
  6
CONTINUOUS
370
-3
390
F
  0
LAYER
  5
200
100
AcDbSymbolTableRecord
100
AcDbLayerTableRecord
  2
01___PRT_ALL_DTM_PLN
 70
0
 62
7
  6
CONTINUOUS
370
-3
390
F
  0
LAYER
  5
201
100
AcDbSymbolTableRecord
100
AcDbLayerTableRecord
  2
01___PRT_DEF_DTM_PLN
 70
0
 62
7
  6
CONTINUOUS
370
-3
390
F
  0
LAYER
  5
202
100
AcDbSymbolTableRecord
100
AcDbLayerTableRecord
  2
02_ALL_AXES
 70
0
 62
7
  6
CONTINUOUS
370
-3
390
F
  0
LAYER
  5
203
100
AcDbSymbolTableRecord
100
AcDbLayerTableRecord
  2
02__ASM_ALL_AXES
 70
0
 62
7
  6
CONTINUOUS
370
-3
390
F
  0
LAYER
  5
204
100
AcDbSymbolTableRecord
100
AcDbLayerTableRecord
  2
02___PRT_ALL_AXES
 70
0
 62
7
  6
CONTINUOUS
370
-3
390
F
  0
LAYER
  5
205
100
AcDbSymbolTableRecord
100
AcDbLayerTableRecord
  2
03_ALL_CURVES
 70
0
 62
7
  6
CONTINUOUS
370
-3
390
F
  0
LAYER
  5
206
100
AcDbSymbolTableRecord
100
AcDbLayerTableRecord
  2
03__ASM_ALL_CURVES
 70
0
 62
7
  6
CONTINUOUS
370
-3
390
F
  0
LAYER
  5
207
100
AcDbSymbolTableRecord
100
AcDbLayerTableRecord
  2
03___PRT_ALL_CURVES
 70
0
 62
7
  6
CONTINUOUS
370
-3
390
F
  0
LAYER
  5
208
100
AcDbSymbolTableRecord
100
AcDbLayerTableRecord
  2
04_ALL_DTM_PNT
 70
0
 62
7
  6
CONTINUOUS
370
-3
390
F
  0
LAYER
  5
209
100
AcDbSymbolTableRecord
100
AcDbLayerTableRecord
  2
04__ASM_ALL_DTM_PNT
 70
0
 62
7
  6
CONTINUOUS
370
-3
390
F
  0
LAYER
  5
20A
100
AcDbSymbolTableRecord
100
AcDbLayerTableRecord
  2
04___PRT_ALL_DTM_PNT
 70
0
 62
7
  6
CONTINUOUS
370
-3
390
F
  0
LAYER
  5
20B
100
AcDbSymbolTableRecord
100
AcDbLayerTableRecord
  2
05_ALL_DTM_CSYS
 70
0
 62
7
  6
CONTINUOUS
370
-3
390
F
  0
LAYER
  5
20C
100
AcDbSymbolTableRecord
100
AcDbLayerTableRecord
  2
05__ASM_ALL_DTM_CSYS
 70
0
 62
7
  6
CONTINUOUS
370
-3
390
F
  0
LAYER
  5
20D
100
AcDbSymbolTableRecord
100
AcDbLayerTableRecord
  2
05__ASM_DEF_DTM_CSYS
 70
0
 62
7
  6
CONTINUOUS
370
-3
390
F
  0
LAYER
  5
20E
100
AcDbSymbolTableRecord
100
AcDbLayerTableRecord
  2
05___PRT_ALL_DTM_CSYS
 70
0
 62
7
  6
CONTINUOUS
370
-3
390
F
  0
LAYER
  5
20F
100
AcDbSymbolTableRecord
100
AcDbLayerTableRecord
  2
05___PRT_DEF_DTM_CSYS
 70
0
 62
7
  6
CONTINUOUS
370
-3
390
F
  0
LAYER
  5
210
100
AcDbSymbolTableRecord
100
AcDbLayerTableRecord
  2
06_ALL_SURFS
 70
0
 62
7
  6
CONTINUOUS
370
-3
390
F
  0
LAYER
  5
211
100
AcDbSymbolTableRecord
100
AcDbLayerTableRecord
  2
06__ASM_ALL_SURFS
 70
0
 62
7
  6
CONTINUOUS
370
-3
390
F
  0
LAYER
  5
212
100
AcDbSymbolTableRecord
100
AcDbLayerTableRecord
  2
06___PRT_ALL_SURFS
 70
0
 62
7
  6
CONTINUOUS
370
-3
390
F
  0
LAYER
  5
213
100
AcDbSymbolTableRecord
100
AcDbLayerTableRecord
  2
07__ASM_ALL_SKELETONS
 70
0
 62
7
  6
CONTINUOUS
370
-3
390
F
  0
LAYER
  5
214
100
AcDbSymbolTableRecord
100
AcDbLayerTableRecord
  2
904PLANES
 70
0
 62
7
  6
CONTINUOUS
370
-3
390
F
  0
LAYER
  5
215
100
AcDbSymbolTableRecord
100
AcDbLayerTableRecord
  2
90517DTMS
 70
0
 62
7
  6
CONTINUOUS
370
-3
390
F
  0
LAYER
  5
216
100
AcDbSymbolTableRecord
100
AcDbLayerTableRecord
  2
AXIS
 70
0
 62
7
  6
CONTINUOUS
370
-3
390
F
  0
LAYER
  5
217
100
AcDbSymbolTableRecord
100
AcDbLayerTableRecord
  2
BAFFLE_DTMS
 70
0
 62
7
  6
CONTINUOUS
370
-3
390
F
  0
LAYER
  5
218
100
AcDbSymbolTableRecord
100
AcDbLayerTableRecord
  2
BD_ANGLE
 70
0
 62
7
  6
CONTINUOUS
370
-3
390
F
  0
LAYER
  5
219
100
AcDbSymbolTableRecord
100
AcDbLayerTableRecord
  2
CONDUIT_DTMS
 70
0
 62
7
  6
CONTINUOUS
370
-3
390
F
  0
LAYER
  5
21A
100
AcDbSymbolTableRecord
100
AcDbLayerTableRecord
  2
CS
 70
0
 62
7
  6
CONTINUOUS
370
-3
390
F
  0
LAYER
  5
21B
100
AcDbSymbolTableRecord
100
AcDbLayerTableRecord
  2
CSYS
 70
0
 62
7
  6
CONTINUOUS
370
-3
390
F
  0
LAYER
  5
21C
100
AcDbSymbolTableRecord
100
AcDbLayerTableRecord
  2
CURVE
 70
0
 62
7
  6
CONTINUOUS
370
-3
390
F
  0
LAYER
  5
21D
100
AcDbSymbolTableRecord
100
AcDbLayerTableRecord
  2
CURVES
 70
0
 62
7
  6
CONTINUOUS
370
-3
390
F
  0
LAYER
  5
21E
100
AcDbSymbolTableRecord
100
AcDbLayerTableRecord
  2
DATUMS
 70
0
 62
7
  6
CONTINUOUS
370
-3
390
F
  0
LAYER
  5
21F
100
AcDbSymbolTableRecord
100
AcDbLayerTableRecord
  2
DEF_DTMS
 70
0
 62
7
  6
CONTINUOUS
370
-3
390
F
  0
LAYER
  5
220
100
AcDbSymbolTableRecord
100
AcDbLayerTableRecord
  2
G90581DTMS
 70
0
 62
7
  6
CONTINUOUS
370
-3
390
F
  0
LAYER
  5
221
100
AcDbSymbolTableRecord
100
AcDbLayerTableRecord
  2
GENPLANES
 70
0
 62
7
  6
CONTINUOUS
370
-3
390
F
  0
LAYER
  5
222
100
AcDbSymbolTableRecord
100
AcDbLayerTableRecord
  2
HEAD
 70
0
 62
7
  6
CONTINUOUS
370
-3
390
F
  0
LAYER
  5
223
100
AcDbSymbolTableRecord
100
AcDbLayerTableRecord
  2
HOOD_LOC_DTM
 70
0
 62
7
  6
CONTINUOUS
370
-3
390
F
  0
LAYER
  5
224
100
AcDbSymbolTableRecord
100
AcDbLayerTableRecord
  2
HUB_DTMS
 70
0
 62
7
  6
CONTINUOUS
370
-3
390
F
  0
LAYER
  5
225
100
AcDbSymbolTableRecord
100
AcDbLayerTableRecord
  2
IGES_ITEMS
 70
0
 62
7
  6
CONTINUOUS
370
-3
390
F
  0
LAYER
  5
226
100
AcDbSymbolTableRecord
100
AcDbLayerTableRecord
  2
IGS_ITEMS
 70
0
 62
7
  6
CONTINUOUS
370
-3
390
F
  0
LAYER
  5
227
100
AcDbSymbolTableRecord
100
AcDbLayerTableRecord
  2
INTF_1
 70
0
 62
7
  6
CONTINUOUS
370
-3
390
F
  0
LAYER
  5
228
100
AcDbSymbolTableRecord
100
AcDbLayerTableRecord
  2
J_BOX_ANGLE
 70
0
 62
7
  6
CONTINUOUS
370
-3
390
F
  0
LAYER
  5
229
100
AcDbSymbolTableRecord
100
AcDbLayerTableRecord
  2
LAY0001
 70
0
 62
7
  6
CONTINUOUS
370
-3
390
F
  0
LAYER
  5
22A
100
AcDbSymbolTableRecord
100
AcDbLayerTableRecord
  2
LAY0002
 70
0
 62
7
  6
CONTINUOUS
370
-3
390
F
  0
LAYER
  5
22B
100
AcDbSymbolTableRecord
100
AcDbLayerTableRecord
  2
MTR_HOLE_ANG_DTM
 70
0
 62
7
  6
CONTINUOUS
370
-3
390
F
  0
LAYER
  5
22C
100
AcDbSymbolTableRecord
100
AcDbLayerTableRecord
  2
PARTDTMS
 70
0
 62
7
  6
CONTINUOUS
370
-3
390
F
  0
LAYER
  5
22D
100
AcDbSymbolTableRecord
100
AcDbLayerTableRecord
  2
PLANE
 70
0
 62
7
  6
CONTINUOUS
370
-3
390
F
  0
LAYER
  5
22E
100
AcDbSymbolTableRecord
100
AcDbLayerTableRecord
  2
PLANES
 70
0
 62
7
  6
CONTINUOUS
370
-3
390
F
  0
LAYER
  5
22F
100
AcDbSymbolTableRecord
100
AcDbLayerTableRecord
  2
POINT
 70
0
 62
7
  6
CONTINUOUS
370
-3
390
F
  0
LAYER
  5
230
100
AcDbSymbolTableRecord
100
AcDbLayerTableRecord
  2
ROUND
 70
0
 62
7
  6
CONTINUOUS
370
-3
390
F
  0
LAYER
  5
231
100
AcDbSymbolTableRecord
100
AcDbLayerTableRecord
  2
STANDOFF_DTMS
 70
0
 62
7
  6
CONTINUOUS
370
-3
390
F
  0
LAYER
  5
232
100
AcDbSymbolTableRecord
100
AcDbLayerTableRecord
  2
STIFF_ANGLE
 70
0
 62
7
  6
CONTINUOUS
370
-3
390
F
  0
LAYER
  5
233
100
AcDbSymbolTableRecord
100
AcDbLayerTableRecord
  2
SURFACE
 70
0
 62
7
  6
CONTINUOUS
370
-3
390
F
  0
LAYER
  5
234
100
AcDbSymbolTableRecord
100
AcDbLayerTableRecord
  2
TOP_SURFACE
 70
0
 62
7
  6
CONTINUOUS
370
-3
390
F
  0
LAYER
  5
235
100
AcDbSymbolTableRecord
100
AcDbLayerTableRecord
  2
WITNESS
 70
0
 62
7
  6
CONTINUOUS
370
-3
390
F
  0
LAYER
  5
236
100
AcDbSymbolTableRecord
100
AcDbLayerTableRecord
  2
XSEC_DATUMS
 70
0
 62
7
  6
CONTINUOUS
370
-3
390
F
  0
ENDTAB
  0
TABLE
  2
STYLE
  5
3
100
AcDbSymbolTable
 70
1
  0
STYLE
  5
11
100
AcDbSymbolTableRecord
100
AcDbTextStyleTableRecord
  2
STANDARD
 70
0
 40
0.0
 41
0.8
 50
0.0
 71
0
 42
0.2
  3
txt
  4

  0
STYLE
  5
237
100
AcDbSymbolTableRecord
100
AcDbTextStyleTableRecord
  2
TEXTSTYLE_1
 70
0
 40
0.0
 41
0.8
 50
0.0
 71
0
 42
0.2
  3
gdt
  4

  0
ENDTAB
  0
TABLE
  2
VIEW
  5
6
100
AcDbSymbolTable
 70
0
  0
ENDTAB
  0
TABLE
  2
UCS
  5
7
100
AcDbSymbolTable
 70
0
  0
ENDTAB
  0
TABLE
  2
APPID
  5
9
100
AcDbSymbolTable
 70
1
  0
APPID
  5
238
100
AcDbSymbolTableRecord
100
AcDbRegAppTableRecord
  2
ACAD
 70
0
  0
ENDTAB
  0
TABLE
  2
BLOCK_RECORD
  5
1
100
AcDbSymbolTable
 70
0
  0
BLOCK_RECORD
  5
239
100
AcDbSymbolTableRecord
100
AcDbBlockTableRecord
  2
*Model_Space
  0
BLOCK_RECORD
  5
23A
100
AcDbSymbolTableRecord
100
AcDbBlockTableRecord
  2
*Paper_Space
  0
ENDTAB
  0
TABLE
  2
DIMSTYLE
  5
A
100
AcDbSymbolTable
 70
1
100
AcDbDimStyleTable
 71
0
  0
DIMSTYLE
105
23B
100
AcDbSymbolTableRecord
100
AcDbDimStyleTableRecord
  2
STANDARD
 70
0
  3

  4

 40
1.0
 41
0.125
 42
0.0625
 43
0.38
 44
0.18
 45
0.0
 46
0.0
 47
0.01
 48
0.01
140
0.125
141
0.09
142
0.0
143
25.4
144
1.0
145
0.0
146
1.0
147
0.09
 71
1.0
 72
0.0
 73
1
 74
1
 75
0
 76
0
 77
0
 78
4
170
0
171
2
172
0
173
0
174
0
175
0
176
0
177
0
178
0
270
2
271
2
272
2
273
2
274
2
275
0
280
0
281
0
282
0
283
1
284
4
285
0
286
0
287
3
288
0
340
11
  0
ENDTAB
  0
ENDSEC
  0
SECTION
  2
BLOCKS
  0
BLOCK
  5
20
100
AcDbEntity
  8
0
100
AcDbBlockBegin
  2
*Model_Space
 70
0
 10
0.0
 20
0.0
 30
0.0
  3
*Model_Space
  1

  0
ENDBLK
  5
21
100
AcDbEntity
  8
0
100
AcDbBlockEnd
  0
BLOCK
  5
1C
100
AcDbEntity
  8
0
100
AcDbBlockBegin
  2
*Paper_Space
 70
0
 10
0.0
 20
0.0
 30
0.0
  3
*Paper_Space
  1

  0
ENDBLK
  5
1D
100
AcDbEntity
  8
0
100
AcDbBlockEnd
  0
ENDSEC
  0
SECTION
  2
ENTITIES
  0
MTEXT
  5
23C
100
AcDbEntity
  8
0
100
AcDbMText
 62
2
  6
CONTINUOUS
  7
STANDARD
 71
1
 72
1
 10
34.2632370063
 20
-27.7846697474
 30
0.0
 11
1.0
 21
0.0
 31
0.0
 44
0.9
  1
49812
 40
5.0
 41
20.0
  0
LINE
  5
23D
100
AcDbEntity
  8
0
100
AcDbLine
 62
3
  6
CONTINUOUS
 10
-9.5134112531
 20
6.0662951732
 11
-9.6151176608
 21
3.1538047234
  0
LINE
  5
23E
100
AcDbEntity
  8
0
100
AcDbLine
 62
3
  6
CONTINUOUS
 10
-6.3738478532
 20
-0.7611952766
 11
-6.3738478532
 21
-2.1011952766
  0
LINE
  5
23F
100
AcDbEntity
  8
0
100
AcDbLine
 62
7
  6
CONTINUOUS
 10
-6.2938478532
 20
-0.7611952766
 11
-6.2938478532
 21
-2.1011952766
  0
LINE
  5
240
100
AcDbEntity
  8
0
100
AcDbLine
 62
3
  6
CONTINUOUS
 10
-6.2138478532
 20
-0.6011952766
 11
-6.2138478532
 21
-2.1011952766
  0
LINE
  5
241
100
AcDbEntity
  8
0
100
AcDbLine
 62
7
  6
CONTINUOUS
 10
-5.5073564686
 20
9.2983047234
 11
-5.5073564686
 21
9.2283047234
  0
LINE
  5
242
100
AcDbEntity
  8
0
100
AcDbLine
 62
7
  6
CONTINUOUS
 10
-5.1505779608
 20
9.8983048468
 11
-5.1311027241
 21
10.4560026557
  0
LINE
  5
243
100
AcDbEntity
  8
0
100
AcDbLine
 62
7
  6
CONTINUOUS
 10
-5.1130267321
 20
10.973631343
 11
-4.7315357462
 21
21.8981038402
  0
LINE
  5
244
100
AcDbEntity
  8
0
100
AcDbLine
 62
7
  6
CONTINUOUS
 10
-5.2623304092
 20
10.9237873368
 11
-5.2528643959
 21
10.9404378534
  0
LINE
  5
245
100
AcDbEntity
  8
0
100
AcDbLine
 62
7
  6
CONTINUOUS
 10
-4.6017325101
 20
9.4438047234
 11
-4.6017325101
 21
9.3683047234
  0
LINE
  5
246
100
AcDbEntity
  8
0
100
AcDbLine
 62
3
  6
CONTINUOUS
 10
-4.5755635819
 20
2.6538047234
 11
-4.5755635819
 21
-0.5961952766
  0
LINE
  5
247
100
AcDbEntity
  8
0
100
AcDbLine
 62
7
  6
CONTINUOUS
 10
-4.5145783812
 20
9.5183048468
 11
-4.5145783812
 21
9.3683047234
  0
LINE
  5
248
100
AcDbEntity
  8
0
100
AcDbLine
 62
3
  6
CONTINUOUS
 10
-4.4448447424
 20
9.5183048468
 11
-4.4448447424
 21
9.3683047234
  0
LINE
  5
249
100
AcDbEntity
  8
0
100
AcDbLine
 62
7
  6
CONTINUOUS
 10
15.9461521468
 20
-2.1011952766
 11
15.8661521468
 21
-2.1011952766
  0
LINE
  5
24A
100
AcDbEntity
  8
0
100
AcDbLine
 62
7
  6
CONTINUOUS
 10
-6.3738478532
 20
-2.1011952766
 11
-6.2938478532
 21
-2.1011952766
  0
LINE
  5
24B
100
AcDbEntity
  8
0
100
AcDbLine
 62
3
  6
CONTINUOUS
 10
15.7861521468
 20
-2.1011952766
 11
-6.2138478532
 21
-2.1011952766
  0
LINE
  5
24C
100
AcDbEntity
  8
0
100
AcDbLine
 62
3
  6
CONTINUOUS
 10
-6.2138478532
 20
-0.6011952766
 11
15.7861521468
 21
-0.6011952766
  0
LINE
  5
24D
100
AcDbEntity
  8
0
100
AcDbLine
 62
7
  6
CONTINUOUS
 10
-6.1238478532
 20
-0.5961952766
 11
-2.1238478532
 21
-0.5961952766
  0
LINE
  5
24E
100
AcDbEntity
  8
0
100
AcDbLine
 62
7
  6
CONTINUOUS
 10
12.0761521468
 20
-0.5961952766
 11
14.0761521468
 21
-0.5961952766
  0
LINE
  5
24F
100
AcDbEntity
  8
0
100
AcDbLine
 62
7
  6
CONTINUOUS
 10
14.0761521468
 20
-0.5511952766
 11
15.6961521468
 21
-0.5511952766
  0
LINE
  5
250
100
AcDbEntity
  8
0
100
AcDbLine
 62
7
  6
CONTINUOUS
 10
11.5036665681
 20
-0.0811952766
 11
11.468311229
 21
-0.0811952766
  0
LINE
  5
251
100
AcDbEntity
  8
0
100
AcDbLine
 62
7
  6
CONTINUOUS
 10
-1.9313622744
 20
-0.0811952766
 11
-1.8960069354
 21
-0.0811952766
  0
LINE
  5
252
100
AcDbEntity
  8
0
100
AcDbLine
 62
7
  6
CONTINUOUS
 10
11.6259709392
 20
-0.0377016276
 11
11.5191522066
 21
-0.0377016276
  0
LINE
  5
253
100
AcDbEntity
  8
0
100
AcDbLine
 62
7
  6
CONTINUOUS
 10
-2.0536666455
 20
-0.0377016276
 11
-1.9468479129
 21
-0.0377016276
  0
LINE
  5
254
100
AcDbEntity
  8
0
100
AcDbLine
 62
7
  6
CONTINUOUS
 10
11.4933884177
 20
0.0705515479
 11
11.3865696851
 21
0.0705515479
  0
LINE
  5
255
100
AcDbEntity
  8
0
100
AcDbLine
 62
7
  6
CONTINUOUS
 10
-1.9210841241
 20
0.0705515479
 11
-1.8142653915
 21
0.0705515479
  0
LINE
  5
256
100
AcDbEntity
  8
0
100
AcDbLine
 62
7
  6
CONTINUOUS
 10
11.4933884177
 20
0.2870578988
 11
11.3865696851
 21
0.2870578988
  0
LINE
  5
257
100
AcDbEntity
  8
0
100
AcDbLine
 62
7
  6
CONTINUOUS
 10
-1.9210841241
 20
0.2870578988
 11
-1.8142653915
 21
0.2870578988
  0
LINE
  5
258
100
AcDbEntity
  8
0
100
AcDbLine
 62
7
  6
CONTINUOUS
 10
-1.7296928288
 20
0.2883047234
 11
-1.7240025457
 21
0.2883047234
  0
LINE
  5
259
100
AcDbEntity
  8
0
100
AcDbLine
 62
7
  6
CONTINUOUS
 10
11.6259709392
 20
0.3953110743
 11
11.5191522066
 21
0.3953110743
  0
LINE
  5
25A
100
AcDbEntity
  8
0
100
AcDbLine
 62
7
  6
CONTINUOUS
 10
-2.0536666455
 20
0.3953110743
 11
-1.9468479129
 21
0.3953110743
  0
LINE
  5
25B
100
AcDbEntity
  8
0
100
AcDbLine
 62
7
  6
CONTINUOUS
 10
11.5036665681
 20
0.4388047234
 11
11.468311229
 21
0.4388047234
  0
LINE
  5
25C
100
AcDbEntity
  8
0
100
AcDbLine
 62
7
  6
CONTINUOUS
 10
-1.9313622744
 20
0.4388047234
 11
-1.8960069354
 21
0.4388047234
  0
LINE
  5
25D
100
AcDbEntity
  8
0
100
AcDbLine
 62
7
  6
CONTINUOUS
 10
-5.2623304092
 20
10.49282211
 11
-5.2528643959
 21
10.4761715934
  0
LINE
  5
25E
100
AcDbEntity
  8
0
100
AcDbLine
 62
3
  6
CONTINUOUS
 10
-9.8109164062
 20
2.6538047234
 11
19.3832206999
 21
2.6538047234
  0
LINE
  5
25F
100
AcDbEntity
  8
0
100
AcDbLine
 62
3
  6
CONTINUOUS
 10
-9.8109164062
 20
3.1538047234
 11
19.3832206999
 21
3.1538047234
  0
LINE
  5
260
100
AcDbEntity
  8
0
100
AcDbLine
 62
3
  6
CONTINUOUS
 10
5.0994596673
 20
9.5183048468
 11
5.0994596673
 21
9.3683047234
  0
LINE
  5
261
100
AcDbEntity
  8
0
100
AcDbLine
 62
7
  6
CONTINUOUS
 10
5.1055604563
 20
9.5183048468
 11
5.1055604563
 21
9.3683047234
  0
LINE
  5
262
100
AcDbEntity
  8
0
100
AcDbLine
 62
7
  6
CONTINUOUS
 10
6.1017552956
 20
9.5183048468
 11
6.1017552956
 21
9.3683047234
  0
LINE
  5
263
100
AcDbEntity
  8
0
100
AcDbLine
 62
7
  6
CONTINUOUS
 10
6.1619713934
 20
9.2983047234
 11
6.1619713934
 21
9.2283047234
  0
LINE
  5
264
100
AcDbEntity
  8
0
100
AcDbLine
 62
3
  6
CONTINUOUS
 10
16.0075909032
 20
9.0388047234
 11
-6.4352866095
 21
9.0388047234
  0
LINE
  5
265
100
AcDbEntity
  8
0
100
AcDbLine
 62
3
  6
CONTINUOUS
 10
5.1116612453
 20
9.2283047234
 11
6.1619686678
 21
9.2283047234
  0
LINE
  5
266
100
AcDbEntity
  8
0
100
AcDbLine
 62
3
  6
CONTINUOUS
 10
-4.5843120199
 20
9.2283047234
 11
-5.5073537429
 21
9.2283047234
  0
LINE
  5
267
100
AcDbEntity
  8
0
100
AcDbLine
 62
3
  6
CONTINUOUS
 10
14.1566163136
 20
9.2283047234
 11
15.0796580366
 21
9.2283047234
  0
LINE
  5
268
100
AcDbEntity
  8
0
100
AcDbLine
 62
7
  6
CONTINUOUS
 10
5.1116612453
 20
9.2983047234
 11
6.1619686678
 21
9.2983047234
  0
LINE
  5
269
100
AcDbEntity
  8
0
100
AcDbLine
 62
7
  6
CONTINUOUS
 10
-4.5843120199
 20
9.2983047234
 11
-5.5073537429
 21
9.2983047234
  0
LINE
  5
26A
100
AcDbEntity
  8
0
100
AcDbLine
 62
7
  6
CONTINUOUS
 10
14.2437704425
 20
9.2983047234
 11
15.0796580366
 21
9.2983047234
  0
LINE
  5
26B
100
AcDbEntity
  8
0
100
AcDbLine
 62
7
  6
CONTINUOUS
 10
-4.5581554456
 20
9.4438047234
 11
-4.6229081102
 21
9.4438047234
  0
LINE
  5
26C
100
AcDbEntity
  8
0
100
AcDbLine
 62
7
  6
CONTINUOUS
 10
14.1740368038
 20
9.4438047234
 11
14.1952124039
 21
9.4438047234
  0
LINE
  5
26D
100
AcDbEntity
  8
0
100
AcDbLine
 62
7
  6
CONTINUOUS
 10
-6.4038478532
 20
9.5183048468
 11
15.9761521468
 21
9.5183048468
  0
LINE
  5
26E
100
AcDbEntity
  8
0
100
AcDbLine
 62
7
  6
CONTINUOUS
 10
-6.4038478532
 20
9.8983048468
 11
15.9761521468
 21
9.8983048468
  0
LINE
  5
26F
100
AcDbEntity
  8
0
100
AcDbLine
 62
7
  6
CONTINUOUS
 10
-5.117991695
 20
10.4428047234
 11
-5.0881058498
 21
10.4428047234
  0
LINE
  5
270
100
AcDbEntity
  8
0
100
AcDbLine
 62
7
  6
CONTINUOUS
 10
14.8120267064
 20
10.4560026557
 11
14.7034070178
 21
10.4560026557
  0
LINE
  5
271
100
AcDbEntity
  8
0
100
AcDbLine
 62
7
  6
CONTINUOUS
 10
5.6632861464
 20
10.4560026557
 11
5.652944497
 21
10.4560026557
  0
LINE
  5
272
100
AcDbEntity
  8
0
100
AcDbLine
 62
7
  6
CONTINUOUS
 10
-5.2397224127
 20
10.4560026557
 11
-5.1215146138
 21
10.4560026557
  0
LINE
  5
273
100
AcDbEntity
  8
0
100
AcDbLine
 62
7
  6
CONTINUOUS
 10
14.8310698836
 20
10.5821536895
 11
14.7128620847
 21
10.5821536895
  0
LINE
  5
274
100
AcDbEntity
  8
0
100
AcDbLine
 62
7
  6
CONTINUOUS
 10
5.445617574
 20
10.5821536895
 11
5.4352759247
 21
10.5821536895
  0
LINE
  5
275
100
AcDbEntity
  8
0
100
AcDbLine
 62
7
  6
CONTINUOUS
 10
-5.2206792356
 20
10.5821536895
 11
-5.1024714367
 21
10.5821536895
  0
LINE
  5
276
100
AcDbEntity
  8
0
100
AcDbLine
 62
7
  6
CONTINUOUS
 10
14.8310698836
 20
10.8344557572
 11
14.7128620847
 21
10.8344557572
  0
LINE
  5
277
100
AcDbEntity
  8
0
100
AcDbLine
 62
7
  6
CONTINUOUS
 10
5.445617574
 20
10.8344557572
 11
5.4352759247
 21
10.8344557572
  0
LINE
  5
278
100
AcDbEntity
  8
0
100
AcDbLine
 62
7
  6
CONTINUOUS
 10
-5.2206792356
 20
10.8344557572
 11
-5.1024714367
 21
10.8344557572
  0
LINE
  5
279
100
AcDbEntity
  8
0
100
AcDbLine
 62
7
  6
CONTINUOUS
 10
14.8120267064
 20
10.960606791
 11
14.6974268367
 21
10.960606791
  0
LINE
  5
27A
100
AcDbEntity
  8
0
100
AcDbLine
 62
7
  6
CONTINUOUS
 10
5.6632861464
 20
10.960606791
 11
5.652944497
 21
10.960606791
  0
LINE
  5
27B
100
AcDbEntity
  8
0
100
AcDbLine
 62
7
  6
CONTINUOUS
 10
-5.2397224127
 20
10.960606791
 11
-5.1215146138
 21
10.960606791
  0
LINE
  5
27C
100
AcDbEntity
  8
0
100
AcDbLine
 62
7
  6
CONTINUOUS
 10
14.6902959886
 20
10.9738047234
 11
14.6853249712
 21
10.9738047234
  0
LINE
  5
27D
100
AcDbEntity
  8
0
100
AcDbLine
 62
7
  6
CONTINUOUS
 10
-5.117991695
 20
10.9738047234
 11
-5.0881058498
 21
10.9738047234
  0
LINE
  5
27E
100
AcDbEntity
  8
0
100
AcDbLine
 62
3
  6
CONTINUOUS
 10
11.7925663293
 20
-0.6011952766
 11
11.7925663293
 21
2.6538047234
  0
LINE
  5
27F
100
AcDbEntity
  8
0
100
AcDbLine
 62
7
  6
CONTINUOUS
 10
14.8346347029
 20
10.49282211
 11
14.8251686895
 21
10.4761715934
  0
LINE
  5
280
100
AcDbEntity
  8
0
100
AcDbLine
 62
7
  6
CONTINUOUS
 10
14.7079705853
 20
10.4974640749
 11
14.7026900314
 21
10.4765344585
  0
LINE
  5
281
100
AcDbEntity
  8
0
100
AcDbLine
 62
7
  6
CONTINUOUS
 10
14.7228822544
 20
9.8983048468
 11
14.3038400398
 21
21.8981038402
  0
LINE
  5
282
100
AcDbEntity
  8
0
100
AcDbLine
 62
7
  6
CONTINUOUS
 10
14.0761521468
 20
-0.6011952766
 11
14.0761521468
 21
-0.5511952766
  0
LINE
  5
283
100
AcDbEntity
  8
0
100
AcDbLine
 62
3
  6
CONTINUOUS
 10
14.0961521468
 20
9.5183048468
 11
14.0961521468
 21
9.2888047234
  0
LINE
  5
284
100
AcDbEntity
  8
0
100
AcDbLine
 62
3
  6
CONTINUOUS
 10
14.104303165
 20
9.5183048468
 11
14.104303165
 21
9.3683047234
  0
LINE
  5
285
100
AcDbEntity
  8
0
100
AcDbLine
 62
3
  6
CONTINUOUS
 10
14.1478678756
 20
2.6538047234
 11
14.1478678756
 21
-0.5511952766
  0
LINE
  5
286
100
AcDbEntity
  8
0
100
AcDbLine
 62
7
  6
CONTINUOUS
 10
14.1740368038
 20
9.5183048468
 11
14.1740368038
 21
9.3683047234
  0
LINE
  5
287
100
AcDbEntity
  8
0
100
AcDbLine
 62
7
  6
CONTINUOUS
 10
15.0796607623
 20
9.2983047234
 11
15.0796607623
 21
9.2283047234
  0
LINE
  5
288
100
AcDbEntity
  8
0
100
AcDbLine
 62
7
  6
CONTINUOUS
 10
15.6961521468
 20
-0.6011952766
 11
15.6961521468
 21
-0.5511952766
  0
LINE
  5
289
100
AcDbEntity
  8
0
100
AcDbLine
 62
3
  6
CONTINUOUS
 10
15.7861521468
 20
-0.6011952766
 11
15.7861521468
 21
-2.1011952766
  0
LINE
  5
28A
100
AcDbEntity
  8
0
100
AcDbLine
 62
7
  6
CONTINUOUS
 10
15.8661521468
 20
-0.7611952766
 11
15.8661521468
 21
-2.1011952766
  0
LINE
  5
28B
100
AcDbEntity
  8
0
100
AcDbLine
 62
3
  6
CONTINUOUS
 10
15.9461521468
 20
-0.7611952766
 11
15.9461521468
 21
-2.1011952766
  0
LINE
  5
28C
100
AcDbEntity
  8
0
100
AcDbLine
 62
7
  6
CONTINUOUS
 10
14.8346347029
 20
10.9237873368
 11
14.8251686895
 21
10.9404378534
  0
LINE
  5
28D
100
AcDbEntity
  8
0
100
AcDbLine
 62
7
  6
CONTINUOUS
 10
14.7079710229
 20
10.9191436373
 11
14.6978511496
 21
10.959254026
  0
LINE
  5
28E
100
AcDbEntity
  8
0
100
AcDbLine
 62
3
  6
CONTINUOUS
 10
19.0857155468
 20
6.0662951732
 11
19.1874219545
 21
3.1538047234
  0
LINE
  5
28F
100
AcDbEntity
  8
0
100
AcDbLine
 62
7
  6
CONTINUOUS
 10
-2.7327540921
 20
23.8283048468
 11
12.3050583858
 21
23.8283048468
  0
LINE
  5
290
100
AcDbEntity
  8
0
100
AcDbLine
 62
3
  6
CONTINUOUS
 10
28.100999199
 20
6.0662951732
 11
27.9992927913
 21
3.1538047234
  0
LINE
  5
291
100
AcDbEntity
  8
0
100
AcDbLine
 62
3
  6
CONTINUOUS
 10
31.240562599
 20
-0.7611952766
 11
31.240562599
 21
-2.1011952766
  0
LINE
  5
292
100
AcDbEntity
  8
0
100
AcDbLine
 62
7
  6
CONTINUOUS
 10
31.320562599
 20
-0.7611952766
 11
31.320562599
 21
-2.1011952766
  0
LINE
  5
293
100
AcDbEntity
  8
0
100
AcDbLine
 62
3
  6
CONTINUOUS
 10
31.400562599
 20
-0.6011952766
 11
31.400562599
 21
-2.1011952766
  0
LINE
  5
294
100
AcDbEntity
  8
0
100
AcDbLine
 62
7
  6
CONTINUOUS
 10
31.490562599
 20
-0.6011952766
 11
31.490562599
 21
-0.5511952766
  0
LINE
  5
295
100
AcDbEntity
  8
0
100
AcDbLine
 62
7
  6
CONTINUOUS
 10
32.3520800429
 20
10.9237873368
 11
32.3615460563
 21
10.9404378534
  0
LINE
  5
296
100
AcDbEntity
  8
0
100
AcDbLine
 62
7
  6
CONTINUOUS
 10
32.1070539835
 20
9.2983047234
 11
32.1070539835
 21
9.2283047234
  0
LINE
  5
297
100
AcDbEntity
  8
0
100
AcDbLine
 62
3
  6
CONTINUOUS
 10
32.9822783277
 20
2.6538047234
 11
32.9822783277
 21
-0.5511952766
  0
LINE
  5
298
100
AcDbEntity
  8
0
100
AcDbLine
 62
7
  6
CONTINUOUS
 10
33.012677942
 20
9.4438047234
 11
33.012677942
 21
9.3683047234
  0
LINE
  5
299
100
AcDbEntity
  8
0
100
AcDbLine
 62
7
  6
CONTINUOUS
 10
33.0998320709
 20
9.5183048468
 11
33.0998320709
 21
9.3683047234
  0
LINE
  5
29A
100
AcDbEntity
  8
0
100
AcDbLine
 62
3
  6
CONTINUOUS
 10
33.1695657097
 20
9.5183048468
 11
33.1695657097
 21
9.3683047234
  0
LINE
  5
29B
100
AcDbEntity
  8
0
100
AcDbLine
 62
7
  6
CONTINUOUS
 10
32.4638324914
 20
9.8983048468
 11
32.483307728
 21
10.4560026557
  0
LINE
  5
29C
100
AcDbEntity
  8
0
100
AcDbLine
 62
7
  6
CONTINUOUS
 10
32.5013837201
 20
10.973631343
 11
32.882874706
 21
21.8981038402
  0
LINE
  5
29D
100
AcDbEntity
  8
0
100
AcDbLine
 62
7
  6
CONTINUOUS
 10
53.560562599
 20
-2.1011952766
 11
53.480562599
 21
-2.1011952766
  0
LINE
  5
29E
100
AcDbEntity
  8
0
100
AcDbLine
 62
3
  6
CONTINUOUS
 10
53.400562599
 20
-2.1011952766
 11
31.400562599
 21
-2.1011952766
  0
LINE
  5
29F
100
AcDbEntity
  8
0
100
AcDbLine
 62
7
  6
CONTINUOUS
 10
31.240562599
 20
-2.1011952766
 11
31.320562599
 21
-2.1011952766
  0
LINE
  5
2A0
100
AcDbEntity
  8
0
100
AcDbLine
 62
7
  6
CONTINUOUS
 10
34.240562599
 20
-0.6011952766
 11
34.240562599
 21
-0.5511952766
  0
LINE
  5
2A1
100
AcDbEntity
  8
0
100
AcDbLine
 62
3
  6
CONTINUOUS
 10
53.400562599
 20
-0.6011952766
 11
31.400562599
 21
-0.6011952766
  0
LINE
  5
2A2
100
AcDbEntity
  8
0
100
AcDbLine
 62
7
  6
CONTINUOUS
 10
31.490562599
 20
-0.5511952766
 11
34.240562599
 21
-0.5511952766
  0
LINE
  5
2A3
100
AcDbEntity
  8
0
100
AcDbLine
 62
7
  6
CONTINUOUS
 10
49.1180770202
 20
-0.0811952766
 11
49.0827216812
 21
-0.0811952766
  0
LINE
  5
2A4
100
AcDbEntity
  8
0
100
AcDbLine
 62
7
  6
CONTINUOUS
 10
35.6830481777
 20
-0.0811952766
 11
35.7184035168
 21
-0.0811952766
  0
LINE
  5
2A5
100
AcDbEntity
  8
0
100
AcDbLine
 62
7
  6
CONTINUOUS
 10
49.2403813913
 20
-0.0377016276
 11
49.1335626587
 21
-0.0377016276
  0
LINE
  5
2A6
100
AcDbEntity
  8
0
100
AcDbLine
 62
7
  6
CONTINUOUS
 10
35.5607438066
 20
-0.0377016276
 11
35.6675625392
 21
-0.0377016276
  0
LINE
  5
2A7
100
AcDbEntity
  8
0
100
AcDbLine
 62
7
  6
CONTINUOUS
 10
49.1077988699
 20
0.0705515479
 11
49.0009801373
 21
0.0705515479
  0
LINE
  5
2A8
100
AcDbEntity
  8
0
100
AcDbLine
 62
7
  6
CONTINUOUS
 10
35.6933263281
 20
0.0705515479
 11
35.8001450607
 21
0.0705515479
  0
LINE
  5
2A9
100
AcDbEntity
  8
0
100
AcDbLine
 62
7
  6
CONTINUOUS
 10
49.1077988699
 20
0.2870578988
 11
49.0009801373
 21
0.2870578988
  0
LINE
  5
2AA
100
AcDbEntity
  8
0
100
AcDbLine
 62
7
  6
CONTINUOUS
 10
35.6933263281
 20
0.2870578988
 11
35.8001450607
 21
0.2870578988
  0
LINE
  5
2AB
100
AcDbEntity
  8
0
100
AcDbLine
 62
7
  6
CONTINUOUS
 10
49.2403813913
 20
0.3953110743
 11
49.1335626587
 21
0.3953110743
  0
LINE
  5
2AC
100
AcDbEntity
  8
0
100
AcDbLine
 62
7
  6
CONTINUOUS
 10
35.5607438066
 20
0.3953110743
 11
35.6675625392
 21
0.3953110743
  0
LINE
  5
2AD
100
AcDbEntity
  8
0
100
AcDbLine
 62
7
  6
CONTINUOUS
 10
49.1180770202
 20
0.4388047234
 11
49.0827216812
 21
0.4388047234
  0
LINE
  5
2AE
100
AcDbEntity
  8
0
100
AcDbLine
 62
7
  6
CONTINUOUS
 10
35.6830481777
 20
0.4388047234
 11
35.7184035168
 21
0.4388047234
  0
LINE
  5
2AF
100
AcDbEntity
  8
0
100
AcDbLine
 62
3
  6
CONTINUOUS
 10
36.089141934
 20
-0.6011952766
 11
36.089141934
 21
2.6538047234
  0
LINE
  5
2B0
100
AcDbEntity
  8
0
100
AcDbLine
 62
7
  6
CONTINUOUS
 10
36.1225984643
 20
-0.6011952766
 11
36.1225984643
 21
2.6538047234
  0
LINE
  5
2B1
100
AcDbEntity
  8
0
100
AcDbLine
 62
7
  6
CONTINUOUS
 10
32.3520800429
 20
10.49282211
 11
32.3615460563
 21
10.4761715934
  0
LINE
  5
2B2
100
AcDbEntity
  8
0
100
AcDbLine
 62
3
  6
CONTINUOUS
 10
27.8034940459
 20
2.6538047234
 11
56.997631152
 21
2.6538047234
  0
LINE
  5
2B3
100
AcDbEntity
  8
0
100
AcDbLine
 62
3
  6
CONTINUOUS
 10
27.8034940459
 20
3.1538047234
 11
56.997631152
 21
3.1538047234
  0
LINE
  5
2B4
100
AcDbEntity
  8
0
100
AcDbLine
 62
3
  6
CONTINUOUS
 10
42.7138701194
 20
9.5183048468
 11
42.7138701194
 21
9.3683047234
  0
LINE
  5
2B5
100
AcDbEntity
  8
0
100
AcDbLine
 62
7
  6
CONTINUOUS
 10
42.7199709085
 20
9.5183048468
 11
42.7199709085
 21
9.3683047234
  0
LINE
  5
2B6
100
AcDbEntity
  8
0
100
AcDbLine
 62
3
  6
CONTINUOUS
 10
53.6220022412
 20
9.0388047234
 11
31.1791229567
 21
9.0388047234
  0
LINE
  5
2B7
100
AcDbEntity
  8
0
100
AcDbLine
 62
3
  6
CONTINUOUS
 10
33.0300984322
 20
9.2283047234
 11
32.1070567092
 21
9.2283047234
  0
LINE
  5
2B8
100
AcDbEntity
  8
0
100
AcDbLine
 62
3
  6
CONTINUOUS
 10
42.7260716975
 20
9.2283047234
 11
43.7763791199
 21
9.2283047234
  0
LINE
  5
2B9
100
AcDbEntity
  8
0
100
AcDbLine
 62
3
  6
CONTINUOUS
 10
51.7710267657
 20
9.2283047234
 11
52.6940684887
 21
9.2283047234
  0
LINE
  5
2BA
100
AcDbEntity
  8
0
100
AcDbLine
 62
7
  6
CONTINUOUS
 10
43.7161657477
 20
9.5183048468
 11
43.7161657477
 21
9.3683047234
  0
LINE
  5
2BB
100
AcDbEntity
  8
0
100
AcDbLine
 62
7
  6
CONTINUOUS
 10
43.7763818456
 20
9.2983047234
 11
43.7763818456
 21
9.2283047234
  0
LINE
  5
2BC
100
AcDbEntity
  8
0
100
AcDbLine
 62
7
  6
CONTINUOUS
 10
33.0300984322
 20
9.2983047234
 11
32.1070567092
 21
9.2983047234
  0
LINE
  5
2BD
100
AcDbEntity
  8
0
100
AcDbLine
 62
7
  6
CONTINUOUS
 10
42.7260716975
 20
9.2983047234
 11
43.7763791199
 21
9.2983047234
  0
LINE
  5
2BE
100
AcDbEntity
  8
0
100
AcDbLine
 62
7
  6
CONTINUOUS
 10
51.8581808946
 20
9.2983047234
 11
52.6940684887
 21
9.2983047234
  0
LINE
  5
2BF
100
AcDbEntity
  8
0
100
AcDbLine
 62
7
  6
CONTINUOUS
 10
33.0562550065
 20
9.4438047234
 11
32.9915023419
 21
9.4438047234
  0
LINE
  5
2C0
100
AcDbEntity
  8
0
100
AcDbLine
 62
7
  6
CONTINUOUS
 10
51.7884472559
 20
9.4438047234
 11
51.809622856
 21
9.4438047234
  0
LINE
  5
2C1
100
AcDbEntity
  8
0
100
AcDbLine
 62
7
  6
CONTINUOUS
 10
31.2105636041
 20
9.5183048468
 11
53.590562599
 21
9.5183048468
  0
LINE
  5
2C2
100
AcDbEntity
  8
0
100
AcDbLine
 62
7
  6
CONTINUOUS
 10
31.210562599
 20
9.8983048468
 11
53.590562599
 21
9.8983048468
  0
LINE
  5
2C3
100
AcDbEntity
  8
0
100
AcDbLine
 62
7
  6
CONTINUOUS
 10
32.4964187572
 20
10.4428047234
 11
32.5263046023
 21
10.4428047234
  0
LINE
  5
2C4
100
AcDbEntity
  8
0
100
AcDbLine
 62
7
  6
CONTINUOUS
 10
52.4264371585
 20
10.4560026557
 11
52.3178174699
 21
10.4560026557
  0
LINE
  5
2C5
100
AcDbEntity
  8
0
100
AcDbLine
 62
7
  6
CONTINUOUS
 10
43.2776965986
 20
10.4560026557
 11
43.2673549492
 21
10.4560026557
  0
LINE
  5
2C6
100
AcDbEntity
  8
0
100
AcDbLine
 62
7
  6
CONTINUOUS
 10
32.3746880394
 20
10.4560026557
 11
32.4928958383
 21
10.4560026557
  0
LINE
  5
2C7
100
AcDbEntity
  8
0
100
AcDbLine
 62
7
  6
CONTINUOUS
 10
52.4454803357
 20
10.5821536895
 11
52.3272725368
 21
10.5821536895
  0
LINE
  5
2C8
100
AcDbEntity
  8
0
100
AcDbLine
 62
7
  6
CONTINUOUS
 10
43.0600280262
 20
10.5821536895
 11
43.0496863768
 21
10.5821536895
  0
LINE
  5
2C9
100
AcDbEntity
  8
0
100
AcDbLine
 62
7
  6
CONTINUOUS
 10
32.3937312166
 20
10.5821536895
 11
32.5119390155
 21
10.5821536895
  0
LINE
  5
2CA
100
AcDbEntity
  8
0
100
AcDbLine
 62
7
  6
CONTINUOUS
 10
52.4454803357
 20
10.8344557572
 11
52.3272725368
 21
10.8344557572
  0
LINE
  5
2CB
100
AcDbEntity
  8
0
100
AcDbLine
 62
7
  6
CONTINUOUS
 10
43.0600280262
 20
10.8344557572
 11
43.0496863768
 21
10.8344557572
  0
LINE
  5
2CC
100
AcDbEntity
  8
0
100
AcDbLine
 62
7
  6
CONTINUOUS
 10
32.3937312166
 20
10.8344557572
 11
32.5119390155
 21
10.8344557572
  0
LINE
  5
2CD
100
AcDbEntity
  8
0
100
AcDbLine
 62
7
  6
CONTINUOUS
 10
52.4264371585
 20
10.960606791
 11
52.3118372889
 21
10.960606791
  0
LINE
  5
2CE
100
AcDbEntity
  8
0
100
AcDbLine
 62
7
  6
CONTINUOUS
 10
43.2776965986
 20
10.960606791
 11
43.2673549492
 21
10.960606791
  0
LINE
  5
2CF
100
AcDbEntity
  8
0
100
AcDbLine
 62
7
  6
CONTINUOUS
 10
32.3746880394
 20
10.960606791
 11
32.4928958383
 21
10.960606791
  0
LINE
  5
2D0
100
AcDbEntity
  8
0
100
AcDbLine
 62
7
  6
CONTINUOUS
 10
52.3047064408
 20
10.9738047234
 11
52.2997354233
 21
10.9738047234
  0
LINE
  5
2D1
100
AcDbEntity
  8
0
100
AcDbLine
 62
7
  6
CONTINUOUS
 10
32.4964187572
 20
10.9738047234
 11
32.5263046023
 21
10.9738047234
  0
LINE
  5
2D2
100
AcDbEntity
  8
0
100
AcDbLine
 62
7
  6
CONTINUOUS
 10
52.449045155
 20
10.49282211
 11
52.4395791417
 21
10.4761715934
  0
LINE
  5
2D3
100
AcDbEntity
  8
0
100
AcDbLine
 62
3
  6
CONTINUOUS
 10
51.710562599
 20
9.5183048468
 11
51.710562599
 21
9.2888047234
  0
LINE
  5
2D4
100
AcDbEntity
  8
0
100
AcDbLine
 62
3
  6
CONTINUOUS
 10
51.7187136171
 20
9.5183048468
 11
51.7187136171
 21
9.3683047234
  0
LINE
  5
2D5
100
AcDbEntity
  8
0
100
AcDbLine
 62
7
  6
CONTINUOUS
 10
51.7884472559
 20
9.5183048468
 11
51.7884472559
 21
9.3683047234
  0
LINE
  5
2D6
100
AcDbEntity
  8
0
100
AcDbLine
 62
3
  6
CONTINUOUS
 10
51.8188468702
 20
2.6538047234
 11
51.8188468702
 21
-0.6011952766
  0
LINE
  5
2D7
100
AcDbEntity
  8
0
100
AcDbLine
 62
7
  6
CONTINUOUS
 10
52.3223810374
 20
10.4974640749
 11
52.3171004836
 21
10.4765344585
  0
LINE
  5
2D8
100
AcDbEntity
  8
0
100
AcDbLine
 62
7
  6
CONTINUOUS
 10
52.3372927066
 20
9.8983048468
 11
51.918250492
 21
21.8981038402
  0
LINE
  5
2D9
100
AcDbEntity
  8
0
100
AcDbLine
 62
7
  6
CONTINUOUS
 10
52.6940712144
 20
9.2983047234
 11
52.6940712144
 21
9.2283047234
  0
LINE
  5
2DA
100
AcDbEntity
  8
0
100
AcDbLine
 62
3
  6
CONTINUOUS
 10
53.400562599
 20
-0.6011952766
 11
53.400562599
 21
-2.1011952766
  0
LINE
  5
2DB
100
AcDbEntity
  8
0
100
AcDbLine
 62
7
  6
CONTINUOUS
 10
53.480562599
 20
-0.7611952766
 11
53.480562599
 21
-2.1011952766
  0
LINE
  5
2DC
100
AcDbEntity
  8
0
100
AcDbLine
 62
3
  6
CONTINUOUS
 10
53.560562599
 20
-0.7611952766
 11
53.560562599
 21
-2.1011952766
  0
LINE
  5
2DD
100
AcDbEntity
  8
0
100
AcDbLine
 62
7
  6
CONTINUOUS
 10
52.449045155
 20
10.9237873368
 11
52.4395791417
 21
10.9404378534
  0
LINE
  5
2DE
100
AcDbEntity
  8
0
100
AcDbLine
 62
7
  6
CONTINUOUS
 10
52.3223814751
 20
10.9191436373
 11
52.3122616017
 21
10.959254026
  0
LINE
  5
2DF
100
AcDbEntity
  8
0
100
AcDbLine
 62
3
  6
CONTINUOUS
 10
56.7001259989
 20
6.0662951732
 11
56.8018324066
 21
3.1538047234
  0
LINE
  5
2E0
100
AcDbEntity
  8
0
100
AcDbLine
 62
7
  6
CONTINUOUS
 10
34.88165636
 20
23.8283048468
 11
49.9194688379
 21
23.8283048468
  0
LINE
  5
2E1
100
AcDbEntity
  8
0
100
AcDbLine
 62
3
  6
CONTINUOUS
 10
-6.2138478532
 20
-41.8679774531
 11
15.7861521468
 21
-41.8679774531
  0
LINE
  5
2E2
100
AcDbEntity
  8
0
100
AcDbLine
 62
7
  6
CONTINUOUS
 10
-6.2138478532
 20
-41.7879774531
 11
15.7861521468
 21
-41.7879774531
  0
LINE
  5
2E3
100
AcDbEntity
  8
0
100
AcDbLine
 62
7
  6
CONTINUOUS
 10
-6.2138478532
 20
-41.7079774531
 11
-6.3738478532
 21
-41.7079774531
  0
LINE
  5
2E4
100
AcDbEntity
  8
0
100
AcDbLine
 62
7
  6
CONTINUOUS
 10
15.7861521468
 20
-41.7079774531
 11
15.9461521468
 21
-41.7079774531
  0
LINE
  5
2E5
100
AcDbEntity
  8
0
100
AcDbLine
 62
3
  6
CONTINUOUS
 10
-6.3738478532
 20
-19.7079774531
 11
-6.3738478532
 21
-41.7079774531
  0
LINE
  5
2E6
100
AcDbEntity
  8
0
100
AcDbLine
 62
7
  6
CONTINUOUS
 10
-6.2938478532
 20
-19.7079774531
 11
-6.2938478532
 21
-41.7079774531
  0
LINE
  5
2E7
100
AcDbEntity
  8
0
100
AcDbLine
 62
7
  6
CONTINUOUS
 10
-6.2138478532
 20
-19.5479774531
 11
-6.2138478532
 21
-19.7079774531
  0
LINE
  5
2E8
100
AcDbEntity
  8
0
100
AcDbLine
 62
7
  6
CONTINUOUS
 10
-6.2138478532
 20
-41.7079774531
 11
-6.2138478532
 21
-41.8679774531
  0
LINE
  5
2E9
100
AcDbEntity
  8
0
100
AcDbLine
 62
7
  6
CONTINUOUS
 10
-1.047478798
 20
-36.7581147488
 11
-1.234978798
 21
-36.6498615733
  0
LINE
  5
2EA
100
AcDbEntity
  8
0
100
AcDbLine
 62
7
  6
CONTINUOUS
 10
-1.047478798
 20
-36.3251020469
 11
-0.859978798
 21
-36.4333552224
  0
LINE
  5
2EB
100
AcDbEntity
  8
0
100
AcDbLine
 62
7
  6
CONTINUOUS
 10
0.0131813738
 20
-35.697454577
 11
-0.1743186262
 21
-35.5892014016
  0
LINE
  5
2EC
100
AcDbEntity
  8
0
100
AcDbLine
 62
7
  6
CONTINUOUS
 10
0.0131813738
 20
-35.2644418751
 11
0.2006813738
 21
-35.3726950506
  0
LINE
  5
2ED
100
AcDbEntity
  8
0
100
AcDbLine
 62
7
  6
CONTINUOUS
 10
-1.234978798
 20
-36.6498615733
 11
-1.234978798
 21
-36.4333552224
  0
LINE
  5
2EE
100
AcDbEntity
  8
0
100
AcDbLine
 62
7
  6
CONTINUOUS
 10
-1.234978798
 20
-24.9825996838
 11
-1.234978798
 21
-24.7660933328
  0
LINE
  5
2EF
100
AcDbEntity
  8
0
100
AcDbLine
 62
7
  6
CONTINUOUS
 10
-0.859978798
 20
-24.7660933328
 11
-0.859978798
 21
-24.9825996838
  0
LINE
  5
2F0
100
AcDbEntity
  8
0
100
AcDbLine
 62
7
  6
CONTINUOUS
 10
-0.859978798
 20
-36.4333552224
 11
-0.859978798
 21
-36.6498615733
  0
LINE
  5
2F1
100
AcDbEntity
  8
0
100
AcDbLine
 62
7
  6
CONTINUOUS
 10
-1.234978798
 20
-24.7660933328
 11
-1.047478798
 21
-24.6578401573
  0
LINE
  5
2F2
100
AcDbEntity
  8
0
100
AcDbLine
 62
7
  6
CONTINUOUS
 10
-0.859978798
 20
-24.9825996838
 11
-1.047478798
 21
-25.0908528592
  0
LINE
  5
2F3
100
AcDbEntity
  8
0
100
AcDbLine
 62
7
  6
CONTINUOUS
 10
-0.1743186262
 20
-35.5892014016
 11
-0.1743186262
 21
-35.3726950506
  0
LINE
  5
2F4
100
AcDbEntity
  8
0
100
AcDbLine
 62
7
  6
CONTINUOUS
 10
-0.1743186262
 20
-26.0432598555
 11
-0.1743186262
 21
-25.8267535046
  0
LINE
  5
2F5
100
AcDbEntity
  8
0
100
AcDbLine
 62
7
  6
CONTINUOUS
 10
0.2006813738
 20
-25.8267535046
 11
0.2006813738
 21
-26.0432598555
  0
LINE
  5
2F6
100
AcDbEntity
  8
0
100
AcDbLine
 62
7
  6
CONTINUOUS
 10
0.2006813738
 20
-35.3726950506
 11
0.2006813738
 21
-35.5892014016
  0
LINE
  5
2F7
100
AcDbEntity
  8
0
100
AcDbLine
 62
7
  6
CONTINUOUS
 10
-0.1743186262
 20
-25.8267535046
 11
0.0131813738
 21
-25.7185003291
  0
LINE
  5
2F8
100
AcDbEntity
  8
0
100
AcDbLine
 62
7
  6
CONTINUOUS
 10
0.2006813738
 20
-26.0432598555
 11
0.0131813738
 21
-26.151513031
  0
LINE
  5
2F9
100
AcDbEntity
  8
0
100
AcDbLine
 62
7
  6
CONTINUOUS
 10
10.6197830916
 20
-36.7581147488
 11
10.4322830916
 21
-36.6498615733
  0
LINE
  5
2FA
100
AcDbEntity
  8
0
100
AcDbLine
 62
7
  6
CONTINUOUS
 10
10.6197830916
 20
-36.3251020469
 11
10.8072830916
 21
-36.4333552224
  0
LINE
  5
2FB
100
AcDbEntity
  8
0
100
AcDbLine
 62
7
  6
CONTINUOUS
 10
9.5591229198
 20
-35.697454577
 11
9.3716229198
 21
-35.5892014016
  0
LINE
  5
2FC
100
AcDbEntity
  8
0
100
AcDbLine
 62
7
  6
CONTINUOUS
 10
9.5591229198
 20
-35.2644418751
 11
9.7466229198
 21
-35.3726950506
  0
LINE
  5
2FD
100
AcDbEntity
  8
0
100
AcDbLine
 62
7
  6
CONTINUOUS
 10
4.0220245922
 20
-30.5100968701
 11
3.9683318238
 21
-30.524483804
  0
LINE
  5
2FE
100
AcDbEntity
  8
0
100
AcDbLine
 62
7
  6
CONTINUOUS
 10
4.6024572571
 20
-30.4554774531
 11
4.9698470365
 21
-30.4554774531
  0
LINE
  5
2FF
100
AcDbEntity
  8
0
100
AcDbLine
 62
7
  6
CONTINUOUS
 10
3.9201267431
 20
-31.4602795207
 11
3.7016267431
 21
-31.3341284869
  0
LINE
  5
300
100
AcDbEntity
  8
0
100
AcDbLine
 62
7
  6
CONTINUOUS
 10
3.9201267431
 20
-30.9556753854
 11
4.1386267431
 21
-31.0818264193
  0
LINE
  5
301
100
AcDbEntity
  8
0
100
AcDbLine
 62
7
  6
CONTINUOUS
 10
3.9683318238
 20
-30.524483804
 11
4.1527277384
 21
-30.6309448349
  0
LINE
  5
302
100
AcDbEntity
  8
0
100
AcDbLine
 62
7
  6
CONTINUOUS
 10
3.6546406193
 20
-30.3078129081
 11
3.474017776
 21
-30.2035302609
  0
LINE
  5
303
100
AcDbEntity
  8
0
100
AcDbLine
 62
7
  6
CONTINUOUS
 10
5.6521775506
 20
-31.4602795207
 11
5.4336775506
 21
-31.3341284869
  0
LINE
  5
304
100
AcDbEntity
  8
0
100
AcDbLine
 62
7
  6
CONTINUOUS
 10
4.0220245922
 20
-30.5100968701
 11
4.1712221695
 21
-30.5962361315
  0
LINE
  5
305
100
AcDbEntity
  8
0
100
AcDbLine
 62
7
  6
CONTINUOUS
 10
4.0328517494
 20
-30.4520378493
 11
3.6867421704
 21
-30.2522113907
  0
LINE
  5
306
100
AcDbEntity
  8
0
100
AcDbLine
 62
7
  6
CONTINUOUS
 10
3.7642421704
 20
-30.1179774531
 11
3.5836193271
 21
-30.0136948059
  0
LINE
  5
307
100
AcDbEntity
  8
0
100
AcDbLine
 62
7
  6
CONTINUOUS
 10
4.1878517494
 20
-30.1835699741
 11
3.8417421704
 21
-29.9837435155
  0
LINE
  5
308
100
AcDbEntity
  8
0
100
AcDbLine
 62
7
  6
CONTINUOUS
 10
4.2327187577
 20
-30.1451638705
 11
4.381916335
 21
-30.2313031319
  0
LINE
  5
309
100
AcDbEntity
  8
0
100
AcDbLine
 62
7
  6
CONTINUOUS
 10
5.6521775506
 20
-30.9556753854
 11
5.8706775506
 21
-31.0818264193
  0
LINE
  5
30A
100
AcDbEntity
  8
0
100
AcDbLine
 62
7
  6
CONTINUOUS
 10
3.8738437215
 20
-29.928141998
 11
3.6932208781
 21
-29.8238593508
  0
LINE
  5
30B
100
AcDbEntity
  8
0
100
AcDbLine
 62
7
  6
CONTINUOUS
 10
4.2183318238
 20
-30.0914711021
 11
4.4027277384
 21
-30.1979321331
  0
LINE
  5
30C
100
AcDbEntity
  8
0
100
AcDbLine
 62
7
  6
CONTINUOUS
 10
3.7016267431
 20
-31.3341284869
 11
3.7016267431
 21
-31.0818264193
  0
LINE
  5
30D
100
AcDbEntity
  8
0
100
AcDbLine
 62
7
  6
CONTINUOUS
 10
4.1386267431
 20
-31.0818264193
 11
4.1386267431
 21
-31.3341284869
  0
LINE
  5
30E
100
AcDbEntity
  8
0
100
AcDbLine
 62
7
  6
CONTINUOUS
 10
10.4322830916
 20
-24.7660933328
 11
10.6197830916
 21
-24.6578401573
  0
LINE
  5
30F
100
AcDbEntity
  8
0
100
AcDbLine
 62
7
  6
CONTINUOUS
 10
4.7861521468
 20
-29.9602795207
 11
4.5676521468
 21
-29.8341284869
  0
LINE
  5
310
100
AcDbEntity
  8
0
100
AcDbLine
 62
7
  6
CONTINUOUS
 10
4.7861521468
 20
-29.4556753854
 11
5.0046521468
 21
-29.5818264193
  0
LINE
  5
311
100
AcDbEntity
  8
0
100
AcDbLine
 62
7
  6
CONTINUOUS
 10
0.0131813738
 20
-26.151513031
 11
-0.1743186262
 21
-26.0432598555
  0
LINE
  5
312
100
AcDbEntity
  8
0
100
AcDbLine
 62
7
  6
CONTINUOUS
 10
0.0131813738
 20
-25.7185003291
 11
0.2006813738
 21
-25.8267535046
  0
LINE
  5
313
100
AcDbEntity
  8
0
100
AcDbLine
 62
7
  6
CONTINUOUS
 10
-1.047478798
 20
-25.0908528592
 11
-1.234978798
 21
-24.9825996838
  0
LINE
  5
314
100
AcDbEntity
  8
0
100
AcDbLine
 62
7
  6
CONTINUOUS
 10
4.2183318238
 20
-30.0914711021
 11
4.2327187577
 21
-30.1451638705
  0
LINE
  5
315
100
AcDbEntity
  8
0
100
AcDbLine
 62
7
  6
CONTINUOUS
 10
4.5676521468
 20
-29.8341284869
 11
4.5676521468
 21
-29.5818264193
  0
LINE
  5
316
100
AcDbEntity
  8
0
100
AcDbLine
 62
7
  6
CONTINUOUS
 10
5.0046521468
 20
-29.5818264193
 11
5.0046521468
 21
-29.8341284869
  0
LINE
  5
317
100
AcDbEntity
  8
0
100
AcDbLine
 62
7
  6
CONTINUOUS
 10
5.4336775506
 20
-31.3341284869
 11
5.4336775506
 21
-31.0818264193
  0
LINE
  5
318
100
AcDbEntity
  8
0
100
AcDbLine
 62
7
  6
CONTINUOUS
 10
5.8706775506
 20
-31.0818264193
 11
5.8706775506
 21
-31.3341284869
  0
LINE
  5
319
100
AcDbEntity
  8
0
100
AcDbLine
 62
7
  6
CONTINUOUS
 10
3.6546406193
 20
-30.3078129081
 11
3.8738437215
 21
-29.928141998
  0
LINE
  5
31A
100
AcDbEntity
  8
0
100
AcDbLine
 62
7
  6
CONTINUOUS
 10
3.9683318238
 20
-30.524483804
 11
4.0158318238
 21
-30.4422113907
  0
LINE
  5
31B
100
AcDbEntity
  8
0
100
AcDbLine
 62
7
  6
CONTINUOUS
 10
4.1708318238
 20
-30.1737435155
 11
4.2183318238
 21
-30.0914711021
  0
LINE
  5
31C
100
AcDbEntity
  8
0
100
AcDbLine
 62
7
  6
CONTINUOUS
 10
4.2327187577
 20
-30.1451638705
 11
4.0220245922
 21
-30.5100968701
  0
LINE
  5
31D
100
AcDbEntity
  8
0
100
AcDbLine
 62
7
  6
CONTINUOUS
 10
10.8072830916
 20
-24.9825996838
 11
10.6197830916
 21
-25.0908528592
  0
LINE
  5
31E
100
AcDbEntity
  8
0
100
AcDbLine
 62
7
  6
CONTINUOUS
 10
9.3716229198
 20
-25.8267535046
 11
9.5591229198
 21
-25.7185003291
  0
LINE
  5
31F
100
AcDbEntity
  8
0
100
AcDbLine
 62
7
  6
CONTINUOUS
 10
9.7466229198
 20
-26.0432598555
 11
9.5591229198
 21
-26.151513031
  0
LINE
  5
320
100
AcDbEntity
  8
0
100
AcDbLine
 62
7
  6
CONTINUOUS
 10
4.5676521468
 20
-29.5818264193
 11
4.7861521468
 21
-29.4556753854
  0
LINE
  5
321
100
AcDbEntity
  8
0
100
AcDbLine
 62
7
  6
CONTINUOUS
 10
5.0046521468
 20
-29.8341284869
 11
4.7861521468
 21
-29.9602795207
  0
LINE
  5
322
100
AcDbEntity
  8
0
100
AcDbLine
 62
7
  6
CONTINUOUS
 10
-1.047478798
 20
-24.6578401573
 11
-0.859978798
 21
-24.7660933328
  0
LINE
  5
323
100
AcDbEntity
  8
0
100
AcDbLine
 62
7
  6
CONTINUOUS
 10
3.7016267431
 20
-31.0818264193
 11
3.9201267431
 21
-30.9556753854
  0
LINE
  5
324
100
AcDbEntity
  8
0
100
AcDbLine
 62
7
  6
CONTINUOUS
 10
4.1386267431
 20
-31.3341284869
 11
3.9201267431
 21
-31.4602795207
  0
LINE
  5
325
100
AcDbEntity
  8
0
100
AcDbLine
 62
7
  6
CONTINUOUS
 10
5.4336775506
 20
-31.0818264193
 11
5.6521775506
 21
-30.9556753854
  0
LINE
  5
326
100
AcDbEntity
  8
0
100
AcDbLine
 62
7
  6
CONTINUOUS
 10
5.8706775506
 20
-31.3341284869
 11
5.6521775506
 21
-31.4602795207
  0
LINE
  5
327
100
AcDbEntity
  8
0
100
AcDbLine
 62
7
  6
CONTINUOUS
 10
-0.1743186262
 20
-35.3726950506
 11
0.0131813738
 21
-35.2644418751
  0
LINE
  5
328
100
AcDbEntity
  8
0
100
AcDbLine
 62
7
  6
CONTINUOUS
 10
0.2006813738
 20
-35.5892014016
 11
0.0131813738
 21
-35.697454577
  0
LINE
  5
329
100
AcDbEntity
  8
0
100
AcDbLine
 62
7
  6
CONTINUOUS
 10
-1.234978798
 20
-36.4333552224
 11
-1.047478798
 21
-36.3251020469
  0
LINE
  5
32A
100
AcDbEntity
  8
0
100
AcDbLine
 62
7
  6
CONTINUOUS
 10
-0.859978798
 20
-36.6498615733
 11
-1.047478798
 21
-36.7581147488
  0
LINE
  5
32B
100
AcDbEntity
  8
0
100
AcDbLine
 62
7
  6
CONTINUOUS
 10
9.5591229198
 20
-26.151513031
 11
9.3716229198
 21
-26.0432598555
  0
LINE
  5
32C
100
AcDbEntity
  8
0
100
AcDbLine
 62
7
  6
CONTINUOUS
 10
9.3716229198
 20
-35.5892014016
 11
9.3716229198
 21
-35.3726950506
  0
LINE
  5
32D
100
AcDbEntity
  8
0
100
AcDbLine
 62
7
  6
CONTINUOUS
 10
9.3716229198
 20
-26.0432598555
 11
9.3716229198
 21
-25.8267535046
  0
LINE
  5
32E
100
AcDbEntity
  8
0
100
AcDbLine
 62
7
  6
CONTINUOUS
 10
9.7466229198
 20
-25.8267535046
 11
9.7466229198
 21
-26.0432598555
  0
LINE
  5
32F
100
AcDbEntity
  8
0
100
AcDbLine
 62
7
  6
CONTINUOUS
 10
9.7466229198
 20
-35.3726950506
 11
9.7466229198
 21
-35.5892014016
  0
LINE
  5
330
100
AcDbEntity
  8
0
100
AcDbLine
 62
7
  6
CONTINUOUS
 10
10.4322830916
 20
-36.6498615733
 11
10.4322830916
 21
-36.4333552224
  0
LINE
  5
331
100
AcDbEntity
  8
0
100
AcDbLine
 62
7
  6
CONTINUOUS
 10
10.4322830916
 20
-24.9825996838
 11
10.4322830916
 21
-24.7660933328
  0
LINE
  5
332
100
AcDbEntity
  8
0
100
AcDbLine
 62
7
  6
CONTINUOUS
 10
9.5591229198
 20
-25.7185003291
 11
9.7466229198
 21
-25.8267535046
  0
LINE
  5
333
100
AcDbEntity
  8
0
100
AcDbLine
 62
7
  6
CONTINUOUS
 10
10.6197830916
 20
-25.0908528592
 11
10.4322830916
 21
-24.9825996838
  0
LINE
  5
334
100
AcDbEntity
  8
0
100
AcDbLine
 62
7
  6
CONTINUOUS
 10
10.6197830916
 20
-24.6578401573
 11
10.8072830916
 21
-24.7660933328
  0
LINE
  5
335
100
AcDbEntity
  8
0
100
AcDbLine
 62
7
  6
CONTINUOUS
 10
10.8072830916
 20
-24.7660933328
 11
10.8072830916
 21
-24.9825996838
  0
LINE
  5
336
100
AcDbEntity
  8
0
100
AcDbLine
 62
7
  6
CONTINUOUS
 10
10.8072830916
 20
-36.4333552224
 11
10.8072830916
 21
-36.6498615733
  0
LINE
  5
337
100
AcDbEntity
  8
0
100
AcDbLine
 62
7
  6
CONTINUOUS
 10
9.3716229198
 20
-35.3726950506
 11
9.5591229198
 21
-35.2644418751
  0
LINE
  5
338
100
AcDbEntity
  8
0
100
AcDbLine
 62
7
  6
CONTINUOUS
 10
9.7466229198
 20
-35.5892014016
 11
9.5591229198
 21
-35.697454577
  0
LINE
  5
339
100
AcDbEntity
  8
0
100
AcDbLine
 62
7
  6
CONTINUOUS
 10
-6.2138478532
 20
-19.7079774531
 11
-6.3738478532
 21
-19.7079774531
  0
LINE
  5
33A
100
AcDbEntity
  8
0
100
AcDbLine
 62
7
  6
CONTINUOUS
 10
15.7861521468
 20
-19.7079774531
 11
15.9461521468
 21
-19.7079774531
  0
LINE
  5
33B
100
AcDbEntity
  8
0
100
AcDbLine
 62
7
  6
CONTINUOUS
 10
15.7861521468
 20
-19.6279774531
 11
-6.2138478532
 21
-19.6279774531
  0
LINE
  5
33C
100
AcDbEntity
  8
0
100
AcDbLine
 62
3
  6
CONTINUOUS
 10
15.7861521468
 20
-19.5479774531
 11
-6.2138478532
 21
-19.5479774531
  0
LINE
  5
33D
100
AcDbEntity
  8
0
100
AcDbLine
 62
7
  6
CONTINUOUS
 10
10.4322830916
 20
-36.4333552224
 11
10.6197830916
 21
-36.3251020469
  0
LINE
  5
33E
100
AcDbEntity
  8
0
100
AcDbLine
 62
7
  6
CONTINUOUS
 10
10.8072830916
 20
-36.6498615733
 11
10.6197830916
 21
-36.7581147488
  0
LINE
  5
33F
100
AcDbEntity
  8
0
100
AcDbLine
 62
7
  6
CONTINUOUS
 10
15.7861521468
 20
-19.5479774531
 11
15.7861521468
 21
-19.7079774531
  0
LINE
  5
340
100
AcDbEntity
  8
0
100
AcDbLine
 62
7
  6
CONTINUOUS
 10
15.7861521468
 20
-41.7079774531
 11
15.7861521468
 21
-41.8679774531
  0
LINE
  5
341
100
AcDbEntity
  8
0
100
AcDbLine
 62
7
  6
CONTINUOUS
 10
15.8661521468
 20
-41.7079774531
 11
15.8661521468
 21
-19.7079774531
  0
LINE
  5
342
100
AcDbEntity
  8
0
100
AcDbLine
 62
3
  6
CONTINUOUS
 10
15.9461521468
 20
-41.7079774531
 11
15.9461521468
 21
-19.7079774531
  0
ARC
  5
343
100
AcDbEntity
  8
0
100
AcDbCircle
 62
7
  6
CONTINUOUS
 10
-4.4781564003
 20
-6.7741418327
 40
19.9879218764
100
AcDbArc
 50
59.5450254831
 51
60.2661960907
  0
ARC
  5
344
100
AcDbEntity
  8
0
100
AcDbCircle
 62
3
  6
CONTINUOUS
 10
-6.4352875059
 20
5.9588047234
 40
3.08
100
AcDbArc
 50
90.0
 51
178.0
  0
ARC
  5
345
100
AcDbEntity
  8
0
100
AcDbCircle
 62
7
  6
CONTINUOUS
 10
-2.0190289323
 20
0.1936004091
 40
0.3048455204
100
AcDbArc
 50
20.0964013016
 51
22.2043123461
  0
ARC
  5
346
100
AcDbEntity
  8
0
100
AcDbCircle
 62
3
  6
CONTINUOUS
 10
-9.8109618379
 20
2.9038047234
 40
0.25
100
AcDbArc
 50
90.0
 51
270.0
  0
ARC
  5
347
100
AcDbEntity
  8
0
100
AcDbCircle
 62
3
  6
CONTINUOUS
 10
-4.7738478532
 20
9.2888047234
 40
0.25
100
AcDbArc
 50
270.0
 51
348.7096999765
  0
ARC
  5
348
100
AcDbEntity
  8
0
100
AcDbCircle
 62
7
  6
CONTINUOUS
 10
-6.4038478532
 20
9.7083048468
 40
0.19
100
AcDbArc
 50
90.0
 51
270.0
  0
ARC
  5
349
100
AcDbEntity
  8
0
100
AcDbCircle
 62
3
  6
CONTINUOUS
 10
-6.2138478532
 20
-0.7611952766
 40
0.16
100
AcDbArc
 50
90.0
 51
180.0
  0
CIRCLE
  5
34A
100
AcDbEntity
  8
0
100
AcDbCircle
 62
3
  6
CONTINUOUS
 10
-0.7138478532
 20
-1.3511952766
 40
0.155
  0
ARC
  5
34B
100
AcDbEntity
  8
0
100
AcDbCircle
 62
7
  6
CONTINUOUS
 10
-5.0320508829
 20
10.4807664201
 40
0.0963811746
100
AcDbArc
 50
194.9602517104
 51
195.5750591841
  0
ARC
  5
34C
100
AcDbEntity
  8
0
100
AcDbCircle
 62
7
  6
CONTINUOUS
 10
-6.2138478532
 20
-0.7611952766
 40
0.08
100
AcDbArc
 50
90.0
 51
180.0
  0
ARC
  5
34D
100
AcDbEntity
  8
0
100
AcDbCircle
 62
7
  6
CONTINUOUS
 10
-4.4781563886
 20
28.1907512573
 40
19.9879218514
100
AcDbArc
 50
299.7338039116
 51
300.4549745201
  0
ARC
  5
34E
100
AcDbEntity
  8
0
100
AcDbCircle
 62
7
  6
CONTINUOUS
 10
-4.644505662
 20
10.7083047234
 40
10.0805667869
100
AcDbArc
 50
359.2829661617
 51
0.7170338383
  0
ARC
  5
34F
100
AcDbEntity
  8
0
100
AcDbCircle
 62
7
  6
CONTINUOUS
 10
-8.0866825239
 20
10.7083501975
 40
3.0217160725
100
AcDbArc
 50
359.9990884414
 51
0.7625500021
  0
ARC
  5
350
100
AcDbEntity
  8
0
100
AcDbCircle
 62
7
  6
CONTINUOUS
 10
-2.7327540921
 20
21.8283048468
 40
2.0
100
AcDbArc
 50
90.0
 51
178.0
  0
ARC
  5
351
100
AcDbEntity
  8
0
100
AcDbCircle
 62
7
  6
CONTINUOUS
 10
-6.7874696226
 20
10.7554104618
 40
1.7215347682
100
AcDbArc
 50
2.8515724382
 51
3.8138396058
  0
ARC
  5
352
100
AcDbEntity
  8
0
100
AcDbCircle
 62
7
  6
CONTINUOUS
 10
-6.3408216918
 20
10.7858294914
 40
1.2738528131
100
AcDbArc
 50
3.7849223236
 51
5.1062138842
  0
ARC
  5
353
100
AcDbEntity
  8
0
100
AcDbCircle
 62
7
  6
CONTINUOUS
 10
-5.0340774798
 20
10.9363905202
 40
0.0942819278
100
AcDbArc
 50
164.2276072167
 51
164.9596111367
  0
ARC
  5
354
100
AcDbEntity
  8
0
100
AcDbCircle
 62
3
  6
CONTINUOUS
 10
16.0075917996
 20
5.9588047234
 40
3.08
100
AcDbArc
 50
2.0
 51
90.0
  0
ARC
  5
355
100
AcDbEntity
  8
0
100
AcDbCircle
 62
7
  6
CONTINUOUS
 10
5.6037376579
 20
9.8065065007
 40
0.3627056928
100
AcDbArc
 50
232.8081385374
 51
269.9873968945
  0
ARC
  5
356
100
AcDbEntity
  8
0
100
AcDbCircle
 62
7
  6
CONTINUOUS
 10
5.6092431131
 20
9.8065065038
 40
0.3627056928
100
AcDbArc
 50
270.0126029936
 51
307.191861079
  0
ARC
  5
357
100
AcDbEntity
  8
0
100
AcDbCircle
 62
7
  6
CONTINUOUS
 10
5.6094026763
 20
9.8065065007
 40
0.3627056928
100
AcDbArc
 50
232.8081385367
 51
269.9873968939
  0
ARC
  5
358
100
AcDbEntity
  8
0
100
AcDbCircle
 62
7
  6
CONTINUOUS
 10
5.6507394211
 20
10.7083045732
 40
0.2663883298
100
AcDbArc
 50
331.2816230954
 51
28.6782744837
  0
ARC
  5
359
100
AcDbEntity
  8
0
100
AcDbCircle
 62
3
  6
CONTINUOUS
 10
19.3832661316
 20
2.9038047234
 40
0.25
100
AcDbArc
 50
270.0
 51
90.0
  0
ARC
  5
35A
100
AcDbEntity
  8
0
100
AcDbCircle
 62
3
  6
CONTINUOUS
 10
14.3461521468
 20
9.2888047234
 40
0.25
100
AcDbArc
 50
180.0
 51
270.0
  0
ARC
  5
35B
100
AcDbEntity
  8
0
100
AcDbCircle
 62
7
  6
CONTINUOUS
 10
15.9761521468
 20
9.7083048468
 40
0.19
100
AcDbArc
 50
270.0
 51
90.0
  0
ARC
  5
35C
100
AcDbEntity
  8
0
100
AcDbCircle
 62
3
  6
CONTINUOUS
 10
15.7861521468
 20
-0.7611952766
 40
0.16
100
AcDbArc
 50
0.0
 51
90.0
  0
CIRCLE
  5
35D
100
AcDbEntity
  8
0
100
AcDbCircle
 62
3
  6
CONTINUOUS
 10
10.2861521468
 20
-1.3511952766
 40
0.155
  0
ARC
  5
35E
100
AcDbEntity
  8
0
100
AcDbCircle
 62
3
  6
CONTINUOUS
 10
14.1566215346
 20
9.3673112795
 40
0.1390061661
100
AcDbArc
 50
246.5643410322
 51
269.9978480051
  0
ARC
  5
35F
100
AcDbEntity
  8
0
100
AcDbCircle
 62
7
  6
CONTINUOUS
 10
15.7861521468
 20
-0.7611952766
 40
0.08
100
AcDbArc
 50
0.0
 51
90.0
  0
ARC
  5
360
100
AcDbEntity
  8
0
100
AcDbCircle
 62
7
  6
CONTINUOUS
 10
11.4190194004
 20
10.7298476708
 40
3.2729132406
100
AcDbArc
 50
1.9557540097
 51
2.3422918558
  0
ARC
  5
361
100
AcDbEntity
  8
0
100
AcDbCircle
 62
7
  6
CONTINUOUS
 10
12.3050583858
 20
21.8283048468
 40
2.0
100
AcDbArc
 50
2.0
 51
90.0
  0
ARC
  5
362
100
AcDbEntity
  8
0
100
AcDbCircle
 62
7
  6
CONTINUOUS
 10
5.6518555733
 20
10.7088664625
 40
0.2651379101
100
AcDbArc
 50
28.6874953658
 51
29.9050513268
  0
ARC
  5
363
100
AcDbEntity
  8
0
100
AcDbCircle
 62
7
  6
CONTINUOUS
 10
14.5921646874
 20
10.9325974195
 40
0.1089962936
100
AcDbArc
 50
14.1559894725
 51
15.0266315292
  0
ARC
  5
364
100
AcDbEntity
  8
0
100
AcDbCircle
 62
7
  6
CONTINUOUS
 10
14.6063817736
 20
10.9363905202
 40
0.0942819277
100
AcDbArc
 50
15.040388863
 51
15.7723927836
  0
ARC
  5
365
100
AcDbEntity
  8
0
100
AcDbCircle
 62
7
  6
CONTINUOUS
 10
33.1362540519
 20
-6.7741418325
 40
19.9879218763
100
AcDbArc
 50
59.5450254831
 51
60.2661960908
  0
ARC
  5
366
100
AcDbEntity
  8
0
100
AcDbCircle
 62
3
  6
CONTINUOUS
 10
31.1791229462
 20
5.9588047234
 40
3.08
100
AcDbArc
 50
90.0
 51
178.0
  0
ARC
  5
367
100
AcDbEntity
  8
0
100
AcDbCircle
 62
3
  6
CONTINUOUS
 10
27.8034486142
 20
2.9038047234
 40
0.25
100
AcDbArc
 50
90.0
 51
270.0
  0
ARC
  5
368
100
AcDbEntity
  8
0
100
AcDbCircle
 62
3
  6
CONTINUOUS
 10
32.840562599
 20
9.2888047234
 40
0.25
100
AcDbArc
 50
270.0
 51
348.7096999765
  0
ARC
  5
369
100
AcDbEntity
  8
0
100
AcDbCircle
 62
7
  6
CONTINUOUS
 10
31.210562599
 20
9.7083048468
 40
0.19
100
AcDbArc
 50
90.0
 51
270.0
  0
ARC
  5
36A
100
AcDbEntity
  8
0
100
AcDbCircle
 62
3
  6
CONTINUOUS
 10
31.400562599
 20
-0.7611952766
 40
0.16
100
AcDbArc
 50
90.0
 51
180.0
  0
CIRCLE
  5
36B
100
AcDbEntity
  8
0
100
AcDbCircle
 62
3
  6
CONTINUOUS
 10
36.900562599
 20
-1.3511952766
 40
0.155
  0
ARC
  5
36C
100
AcDbEntity
  8
0
100
AcDbCircle
 62
7
  6
CONTINUOUS
 10
32.5823595692
 20
10.4807664201
 40
0.0963811747
100
AcDbArc
 50
194.9602517107
 51
195.5750591842
  0
ARC
  5
36D
100
AcDbEntity
  8
0
100
AcDbCircle
 62
7
  6
CONTINUOUS
 10
31.400562599
 20
-0.7611952766
 40
0.08
100
AcDbArc
 50
90.0
 51
180.0
  0
ARC
  5
36E
100
AcDbEntity
  8
0
100
AcDbCircle
 62
7
  6
CONTINUOUS
 10
33.1362540637
 20
28.1907512571
 40
19.9879218511
100
AcDbArc
 50
299.7338039115
 51
300.4549745201
  0
ARC
  5
36F
100
AcDbEntity
  8
0
100
AcDbCircle
 62
7
  6
CONTINUOUS
 10
32.9699047901
 20
10.7083047234
 40
10.080566787
100
AcDbArc
 50
359.2829661617
 51
0.7170338383
  0
ARC
  5
370
100
AcDbEntity
  8
0
100
AcDbCircle
 62
7
  6
CONTINUOUS
 10
29.5276803874
 20
10.7083500815
 40
3.0217636134
100
AcDbArc
 50
359.9990906553
 51
0.7616807665
  0
ARC
  5
371
100
AcDbEntity
  8
0
100
AcDbCircle
 62
7
  6
CONTINUOUS
 10
34.88165636
 20
21.8283048468
 40
2.0
100
AcDbArc
 50
90.0
 51
178.0
  0
ARC
  5
372
100
AcDbEntity
  8
0
100
AcDbCircle
 62
7
  6
CONTINUOUS
 10
30.8268485694
 20
10.7554051979
 40
1.7216271758
100
AcDbArc
 50
2.8515946539
 51
3.8134987842
  0
ARC
  5
373
100
AcDbEntity
  8
0
100
AcDbCircle
 62
7
  6
CONTINUOUS
 10
31.2735166956
 20
10.7858236042
 40
1.2739251158
100
AcDbArc
 50
3.7845517537
 51
5.1061891447
  0
ARC
  5
374
100
AcDbEntity
  8
0
100
AcDbCircle
 62
7
  6
CONTINUOUS
 10
32.580332972
 20
10.9363905203
 40
0.0942819275
100
AcDbArc
 50
164.2276072157
 51
164.9596111379
  0
ARC
  5
375
100
AcDbEntity
  8
0
100
AcDbCircle
 62
3
  6
CONTINUOUS
 10
53.6220022517
 20
5.9588047234
 40
3.08
100
AcDbArc
 50
2.0
 51
90.0
  0
ARC
  5
376
100
AcDbEntity
  8
0
100
AcDbCircle
 62
7
  6
CONTINUOUS
 10
43.21814811
 20
9.8065065007
 40
0.3627056928
100
AcDbArc
 50
232.808138537
 51
269.9873968941
  0
ARC
  5
377
100
AcDbEntity
  8
0
100
AcDbCircle
 62
7
  6
CONTINUOUS
 10
43.2236535652
 20
9.8065065038
 40
0.3627056928
100
AcDbArc
 50
270.0126029936
 51
307.191861079
  0
ARC
  5
378
100
AcDbEntity
  8
0
100
AcDbCircle
 62
7
  6
CONTINUOUS
 10
43.2238131284
 20
9.8065065007
 40
0.3627056928
100
AcDbArc
 50
232.8081385357
 51
269.9873968929
  0
ARC
  5
379
100
AcDbEntity
  8
0
100
AcDbCircle
 62
7
  6
CONTINUOUS
 10
43.2651498732
 20
10.7083045732
 40
0.2663883298
100
AcDbArc
 50
331.2816230954
 51
28.6782744837
  0
ARC
  5
37A
100
AcDbEntity
  8
0
100
AcDbCircle
 62
3
  6
CONTINUOUS
 10
56.9976765837
 20
2.9038047234
 40
0.25
100
AcDbArc
 50
270.0
 51
90.0
  0
ARC
  5
37B
100
AcDbEntity
  8
0
100
AcDbCircle
 62
3
  6
CONTINUOUS
 10
51.960562599
 20
9.2888047234
 40
0.25
100
AcDbArc
 50
180.0
 51
270.0
  0
ARC
  5
37C
100
AcDbEntity
  8
0
100
AcDbCircle
 62
7
  6
CONTINUOUS
 10
53.590562599
 20
9.7083048468
 40
0.19
100
AcDbArc
 50
270.0
 51
90.0
  0
ARC
  5
37D
100
AcDbEntity
  8
0
100
AcDbCircle
 62
3
  6
CONTINUOUS
 10
53.400562599
 20
-0.7611952766
 40
0.16
100
AcDbArc
 50
0.0
 51
90.0
  0
CIRCLE
  5
37E
100
AcDbEntity
  8
0
100
AcDbCircle
 62
3
  6
CONTINUOUS
 10
47.900562599
 20
-1.3511952766
 40
0.155
  0
ARC
  5
37F
100
AcDbEntity
  8
0
100
AcDbCircle
 62
3
  6
CONTINUOUS
 10
51.7710319867
 20
9.3673112795
 40
0.1390061661
100
AcDbArc
 50
246.5643410332
 51
269.997848006
  0
ARC
  5
380
100
AcDbEntity
  8
0
100
AcDbCircle
 62
7
  6
CONTINUOUS
 10
53.400562599
 20
-0.7611952766
 40
0.08
100
AcDbArc
 50
0.0
 51
90.0
  0
ARC
  5
381
100
AcDbEntity
  8
0
100
AcDbCircle
 62
7
  6
CONTINUOUS
 10
49.033429852
 20
10.7298476708
 40
3.2729132411
100
AcDbArc
 50
1.9557540098
 51
2.3422918558
  0
ARC
  5
382
100
AcDbEntity
  8
0
100
AcDbCircle
 62
7
  6
CONTINUOUS
 10
49.9194688379
 20
21.8283048468
 40
2.0
100
AcDbArc
 50
2.0
 51
90.0
  0
ARC
  5
383
100
AcDbEntity
  8
0
100
AcDbCircle
 62
7
  6
CONTINUOUS
 10
43.2662660255
 20
10.7088664625
 40
0.26513791
100
AcDbArc
 50
28.6874953656
 51
29.905051327
  0
ARC
  5
384
100
AcDbEntity
  8
0
100
AcDbCircle
 62
7
  6
CONTINUOUS
 10
52.2065751397
 20
10.9325974196
 40
0.1089962933
100
AcDbArc
 50
14.1559894713
 51
15.0266315299
  0
ARC
  5
385
100
AcDbEntity
  8
0
100
AcDbCircle
 62
7
  6
CONTINUOUS
 10
52.2207922251
 20
10.9363905201
 40
0.0942819284
100
AcDbArc
 50
15.0403888656
 51
15.7723927815
  0
CIRCLE
  5
386
100
AcDbEntity
  8
0
100
AcDbCircle
 62
7
  6
CONTINUOUS
 10
-1.047478798
 20
-36.5416083979
 40
0.625
  0
CIRCLE
  5
387
100
AcDbEntity
  8
0
100
AcDbCircle
 62
7
  6
CONTINUOUS
 10
0.0131813738
 20
-35.4809482261
 40
0.625
  0
CIRCLE
  5
388
100
AcDbEntity
  8
0
100
AcDbCircle
 62
7
  6
CONTINUOUS
 10
3.9201267431
 20
-31.2079774531
 40
0.2655
  0
CIRCLE
  5
389
100
AcDbEntity
  8
0
100
AcDbCircle
 62
7
  6
CONTINUOUS
 10
0.0131813738
 20
-35.4809482261
 40
0.26
  0
CIRCLE
  5
38A
100
AcDbEntity
  8
0
100
AcDbCircle
 62
7
  6
CONTINUOUS
 10
-1.047478798
 20
-36.5416083979
 40
0.26
  0
CIRCLE
  5
38B
100
AcDbEntity
  8
0
100
AcDbCircle
 62
7
  6
CONTINUOUS
 10
3.9201267431
 20
-31.2079774531
 40
0.218
  0
CIRCLE
  5
38C
100
AcDbEntity
  8
0
100
AcDbCircle
 62
7
  6
CONTINUOUS
 10
0.0131813738
 20
-35.4809482261
 40
0.187
  0
CIRCLE
  5
38D
100
AcDbEntity
  8
0
100
AcDbCircle
 62
7
  6
CONTINUOUS
 10
-1.047478798
 20
-36.5416083979
 40
0.187
  0
ARC
  5
38E
100
AcDbEntity
  8
0
100
AcDbCircle
 62
7
  6
CONTINUOUS
 10
4.2318958884
 20
-30.3879774531
 40
0.78
100
AcDbArc
 50
133.6783348578
 51
166.3216651422
  0
CIRCLE
  5
38F
100
AcDbEntity
  8
0
100
AcDbCircle
 62
7
  6
CONTINUOUS
 10
0.0131813738
 20
-25.9350066801
 40
0.625
  0
CIRCLE
  5
390
100
AcDbEntity
  8
0
100
AcDbCircle
 62
7
  6
CONTINUOUS
 10
-1.047478798
 20
-24.8743465083
 40
0.625
  0
ARC
  5
391
100
AcDbEntity
  8
0
100
AcDbCircle
 62
7
  6
CONTINUOUS
 10
3.8620425311
 20
-30.2978688059
 40
0.3993281503
100
AcDbArc
 50
161.3423374087
 51
166.3350857521
  0
CIRCLE
  5
392
100
AcDbEntity
  8
0
100
AcDbCircle
 62
7
  6
CONTINUOUS
 10
0.0131813738
 20
-25.9350066801
 40
0.26
  0
CIRCLE
  5
393
100
AcDbEntity
  8
0
100
AcDbCircle
 62
7
  6
CONTINUOUS
 10
-1.047478798
 20
-24.8743465083
 40
0.26
  0
CIRCLE
  5
394
100
AcDbEntity
  8
0
100
AcDbCircle
 62
7
  6
CONTINUOUS
 10
0.0131813738
 20
-25.9350066801
 40
0.187
  0
CIRCLE
  5
395
100
AcDbEntity
  8
0
100
AcDbCircle
 62
7
  6
CONTINUOUS
 10
-1.047478798
 20
-24.8743465083
 40
0.187
  0
CIRCLE
  5
396
100
AcDbEntity
  8
0
100
AcDbCircle
 62
7
  6
CONTINUOUS
 10
10.6197830916
 20
-36.5416083979
 40
0.625
  0
CIRCLE
  5
397
100
AcDbEntity
  8
0
100
AcDbCircle
 62
7
  6
CONTINUOUS
 10
9.5591229198
 20
-35.4809482261
 40
0.625
  0
CIRCLE
  5
398
100
AcDbEntity
  8
0
100
AcDbCircle
 62
7
  6
CONTINUOUS
 10
8.7236521468
 20
-37.5279275079
 40
0.55
  0
CIRCLE
  5
399
100
AcDbEntity
  8
0
100
AcDbCircle
 62
7
  6
CONTINUOUS
 10
8.7236521468
 20
-37.5279275079
 40
0.5
  0
CIRCLE
  5
39A
100
AcDbEntity
  8
AXIS
100
AcDbCircle
 62
7
  6
CONTINUOUS
 10
8.7236521468
 20
-37.5279275079
 40
0.47
  0
CIRCLE
  5
39B
100
AcDbEntity
  8
0
100
AcDbCircle
 62
7
  6
CONTINUOUS
 10
8.7236521468
 20
-37.5279275079
 40
0.46
  0
CIRCLE
  5
39C
100
AcDbEntity
  8
0
100
AcDbCircle
 62
7
  6
CONTINUOUS
 10
8.7236521468
 20
-37.5279275079
 40
0.41
  0
CIRCLE
  5
39D
100
AcDbEntity
  8
0
100
AcDbCircle
 62
7
  6
CONTINUOUS
 10
5.6521775506
 20
-31.2079774531
 40
0.2655
  0
CIRCLE
  5
39E
100
AcDbEntity
  8
0
100
AcDbCircle
 62
7
  6
CONTINUOUS
 10
9.5591229198
 20
-35.4809482261
 40
0.26
  0
CIRCLE
  5
39F
100
AcDbEntity
  8
0
100
AcDbCircle
 62
7
  6
CONTINUOUS
 10
10.6197830916
 20
-36.5416083979
 40
0.26
  0
CIRCLE
  5
3A0
100
AcDbEntity
  8
0
100
AcDbCircle
 62
7
  6
CONTINUOUS
 10
5.6521775506
 20
-31.2079774531
 40
0.218
  0
CIRCLE
  5
3A1
100
AcDbEntity
  8
0
100
AcDbCircle
 62
7
  6
CONTINUOUS
 10
9.5591229198
 20
-35.4809482261
 40
0.187
  0
CIRCLE
  5
3A2
100
AcDbEntity
  8
0
100
AcDbCircle
 62
7
  6
CONTINUOUS
 10
10.6197830916
 20
-36.5416083979
 40
0.187
  0
ARC
  5
3A3
100
AcDbEntity
  8
0
100
AcDbCircle
 62
3
  6
CONTINUOUS
 10
4.7861521468
 20
-30.7079774531
 40
14.8471139848
100
AcDbArc
 50
228.7403930196
 51
311.2649803305
  0
ARC
  5
3A4
100
AcDbEntity
  8
0
100
AcDbCircle
 62
3
  6
CONTINUOUS
 10
4.7861521468
 20
-30.7079774531
 40
14.8471139848
100
AcDbArc
 50
318.7403930196
 51
41.2649803304
  0
ARC
  5
3A5
100
AcDbEntity
  8
0
100
AcDbCircle
 62
3
  6
CONTINUOUS
 10
4.7861521468
 20
-30.7079774531
 40
14.8471139848
100
AcDbArc
 50
48.7403930196
 51
131.2649803304
  0
ARC
  5
3A6
100
AcDbEntity
  8
0
100
AcDbCircle
 62
3
  6
CONTINUOUS
 10
4.7861521468
 20
-30.7079774531
 40
14.8471139848
100
AcDbArc
 50
138.7403930196
 51
221.2649803304
  0
ARC
  5
3A7
100
AcDbEntity
  8
0
100
AcDbCircle
 62
7
  6
CONTINUOUS
 10
4.7861521468
 20
-30.7079774531
 40
14.3470383779
100
AcDbArc
 50
321.0747396964
 51
38.9244992796
  0
ARC
  5
3A8
100
AcDbEntity
  8
0
100
AcDbCircle
 62
7
  6
CONTINUOUS
 10
4.7861521468
 20
-30.7079774531
 40
14.3470383779
100
AcDbArc
 50
51.0755027914
 51
128.9252579013
  0
ARC
  5
3A9
100
AcDbEntity
  8
0
100
AcDbCircle
 62
7
  6
CONTINUOUS
 10
4.7861521468
 20
-30.7079774531
 40
14.3470383779
100
AcDbArc
 50
141.0747396964
 51
218.9244992796
  0
ARC
  5
3AA
100
AcDbEntity
  8
0
100
AcDbCircle
 62
7
  6
CONTINUOUS
 10
4.7861521468
 20
-30.7079774531
 40
14.3470383779
100
AcDbArc
 50
231.0755027914
 51
308.9252579013
  0
CIRCLE
  5
3AB
100
AcDbEntity
  8
0
100
AcDbCircle
 62
7
  6
CONTINUOUS
 10
4.7861521468
 20
-30.7079774531
 40
5.4397239256
  0
CIRCLE
  5
3AC
100
AcDbEntity
  8
0
100
AcDbCircle
 62
7
  6
CONTINUOUS
 10
4.7861521468
 20
-30.7079774531
 40
5.1228209103
  0
CIRCLE
  5
3AD
100
AcDbEntity
  8
0
100
AcDbCircle
 62
7
  6
CONTINUOUS
 10
4.7861521468
 20
-30.7079774531
 40
4.4076486343
  0
ARC
  5
3AE
100
AcDbEntity
  8
0
100
AcDbCircle
 62
7
  6
CONTINUOUS
 10
4.7861521468
 20
-30.7079774531
 40
1.25
100
AcDbArc
 50
94.7539852488
 51
139.8964730224
  0
ARC
  5
3AF
100
AcDbEntity
  8
0
100
AcDbCircle
 62
7
  6
CONTINUOUS
 10
4.7861521468
 20
-30.7079774531
 40
1.25
100
AcDbArc
 50
160.1235393399
 51
205.1891239858
  0
ARC
  5
3B0
100
AcDbEntity
  8
0
100
AcDbCircle
 62
7
  6
CONTINUOUS
 10
4.7861521468
 20
-30.7079774531
 40
1.25
100
AcDbArc
 50
214.874742549
 51
325.1335038411
  0
ARC
  5
3B1
100
AcDbEntity
  8
0
100
AcDbCircle
 62
7
  6
CONTINUOUS
 10
4.7861521468
 20
-30.7079774531
 40
1.25
100
AcDbArc
 50
334.7353544735
 51
85.4991229413
  0
ARC
  5
3B2
100
AcDbEntity
  8
0
100
AcDbCircle
 62
7
  6
CONTINUOUS
 10
4.7861521468
 20
-30.7079774531
 40
1.2368456474
100
AcDbArc
 50
216.3295727514
 51
323.5754607678
  0
ARC
  5
3B3
100
AcDbEntity
  8
0
100
AcDbCircle
 62
7
  6
CONTINUOUS
 10
4.7861521468
 20
-30.7079774531
 40
1.2368456474
100
AcDbArc
 50
160.2322042645
 51
203.7760638916
  0
ARC
  5
3B4
100
AcDbEntity
  8
0
100
AcDbCircle
 62
7
  6
CONTINUOUS
 10
4.7861521468
 20
-30.7079774531
 40
1.2368456474
100
AcDbArc
 50
96.4195550169
 51
139.786641295
  0
ARC
  5
3B5
100
AcDbEntity
  8
0
100
AcDbCircle
 62
7
  6
CONTINUOUS
 10
4.7861521468
 20
-30.7079774531
 40
1.2368456474
100
AcDbArc
 50
336.1405136236
 51
83.6750871004
  0
ARC
  5
3B6
100
AcDbEntity
  8
0
100
AcDbCircle
 62
7
  6
CONTINUOUS
 10
4.7861521468
 20
-30.7079774531
 40
0.6380912987
100
AcDbArc
 50
173.0661400609
 51
126.9338599391
  0
ARC
  5
3B7
100
AcDbEntity
  8
0
100
AcDbCircle
 62
7
  6
CONTINUOUS
 10
4.7861521468
 20
-30.7079774531
 40
0.625
100
AcDbArc
 50
169.7009376039
 51
130.2990623961
  0
ARC
  5
3B8
100
AcDbEntity
  8
0
100
AcDbCircle
 62
7
  6
CONTINUOUS
 10
4.7861521468
 20
-30.7079774531
 40
0.313
100
AcDbArc
 50
54.1552426192
 51
126.0351812438
  0
ARC
  5
3B9
100
AcDbEntity
  8
0
100
AcDbCircle
 62
7
  6
CONTINUOUS
 10
4.7861521468
 20
-30.7079774531
 40
0.31225
100
AcDbArc
 50
126.0360585143
 51
125.9795240079
  0
ARC
  5
3BA
100
AcDbEntity
  8
0
100
AcDbCircle
 62
7
  6
CONTINUOUS
 10
4.7861521468
 20
-30.7079774531
 40
0.2822620834
100
AcDbArc
 50
116.5432889225
 51
63.4567110775
  0
CIRCLE
  5
3BB
100
AcDbEntity
  8
0
100
AcDbCircle
 62
7
  6
CONTINUOUS
 10
4.7861521468
 20
-29.7079774531
 40
0.2655
  0
CIRCLE
  5
3BC
100
AcDbEntity
  8
0
100
AcDbCircle
 62
7
  6
CONTINUOUS
 10
4.7861521468
 20
-29.7079774531
 40
0.218
  0
CIRCLE
  5
3BD
100
AcDbEntity
  8
0
100
AcDbCircle
 62
7
  6
CONTINUOUS
 10
9.5591229198
 20
-25.9350066801
 40
0.625
  0
CIRCLE
  5
3BE
100
AcDbEntity
  8
0
100
AcDbCircle
 62
7
  6
CONTINUOUS
 10
10.6197830916
 20
-24.8743465083
 40
0.625
  0
CIRCLE
  5
3BF
100
AcDbEntity
  8
0
100
AcDbCircle
 62
7
  6
CONTINUOUS
 10
9.5591229198
 20
-25.9350066801
 40
0.26
  0
CIRCLE
  5
3C0
100
AcDbEntity
  8
0
100
AcDbCircle
 62
7
  6
CONTINUOUS
 10
10.6197830916
 20
-24.8743465083
 40
0.26
  0
CIRCLE
  5
3C1
100
AcDbEntity
  8
0
100
AcDbCircle
 62
7
  6
CONTINUOUS
 10
9.5591229198
 20
-25.9350066801
 40
0.187
  0
CIRCLE
  5
3C2
100
AcDbEntity
  8
0
100
AcDbCircle
 62
7
  6
CONTINUOUS
 10
10.6197830916
 20
-24.8743465083
 40
0.187
  0
SPLINE
  5
3C3
100
AcDbEntity
  8
0
100
AcDbSpline
 62
7
  6
CONTINUOUS
 70
0
 71
3
 72
30
 73
26
 74
0
 42
0.0000001
 43
0.0000001
 44
0.0000000001
 40
0.0
 40
0.0
 40
0.0
 40
0.0
 40
0.1118199296
 40
0.2174484888
 40
0.3167210576
 40
0.4094996367
 40
0.4956539445
 40
0.5750601336
 40
0.6476224156
 40
0.7132712945
 40
0.7719525507
 40
0.7986722373
 40
0.8236469378
 40
0.8468838677
 40
0.868394104
 40
0.8881939303
 40
0.9063067795
 40
0.922766097
 40
0.9376205342
 40
0.9509422052
 40
0.9628333508
 40
0.9734391409
 40
0.9829653442
 40
0.9916962128
 40
1.0
 40
1.0
 40
1.0
 40
1.0
 10
14.2143872337
 20
9.5175658894
 30
0.0
 10
14.2140541607
 20
9.5146789184
 30
0.0
 10
14.2133804246
 20
9.5090677781
 30
0.0
 10
14.2123123311
 20
9.5009058441
 30
0.0
 10
14.2112166328
 20
9.4932471297
 30
0.0
 10
14.2100953947
 20
9.4861039766
 30
0.0
 10
14.208950633
 20
9.4794879151
 30
0.0
 10
14.2077841639
 20
9.4734097928
 30
0.0
 10
14.2065981429
 20
9.4678792684
 30
0.0
 10
14.2053948681
 20
9.4629050015
 30
0.0
 10
14.2043497385
 20
9.4591199638
 30
0.0
 10
14.2034989367
 20
9.4563802252
 30
0.0
 10
14.2028776919
 20
9.4545343447
 30
0.0
 10
14.2022535103
 20
9.4528329527
 30
0.0
 10
14.2016266332
 20
9.4512766102
 30
0.0
 10
14.2009973275
 20
9.4498658387
 30
0.0
 10
14.2003658279
 20
9.4486011143
 30
0.0
 10
14.199732311
 20
9.4474828251
 30
0.0
 10
14.1990967909
 20
9.4465112092
 30
0.0
 10
14.198459225
 20
9.4456862194
 30
0.0
 10
14.1978191603
 20
9.4450077126
 30
0.0
 10
14.197175653
 20
9.4444757972
 30
0.0
 10
14.1965270175
 20
9.4440914964
 30
0.0
 10
14.195872456
 20
9.4438576984
 30
0.0
 10
14.1954282134
 20
9.4438047234
 30
0.0
 10
14.1952124039
 20
9.4438047234
 30
0.0
  0
SPLINE
  5
3C4
100
AcDbEntity
  8
0
100
AcDbSpline
 62
7
  6
CONTINUOUS
 70
0
 71
3
 72
30
 73
26
 74
0
 42
0.0000001
 43
0.0000001
 44
0.0000000001
 40
0.0
 40
0.0
 40
0.0
 40
0.0
 40
0.1118199296
 40
0.2174484888
 40
0.3167210576
 40
0.4094996367
 40
0.4956539445
 40
0.5750601336
 40
0.6476224156
 40
0.7132712945
 40
0.7719525507
 40
0.7986722373
 40
0.8236469378
 40
0.8468838677
 40
0.868394104
 40
0.8881939303
 40
0.9063067795
 40
0.922766097
 40
0.9376205342
 40
0.9509422052
 40
0.9628333508
 40
0.9734391409
 40
0.9829653442
 40
0.9916962128
 40
1.0
 40
1.0
 40
1.0
 40
1.0
 10
-4.64208294
 20
9.5175658894
 30
0.0
 10
-4.641749867
 20
9.5146789184
 30
0.0
 10
-4.6410761309
 20
9.5090677781
 30
0.0
 10
-4.6400080374
 20
9.5009058441
 30
0.0
 10
-4.6389123391
 20
9.4932471297
 30
0.0
 10
-4.637791101
 20
9.4861039766
 30
0.0
 10
-4.6366463393
 20
9.4794879151
 30
0.0
 10
-4.6354798702
 20
9.4734097928
 30
0.0
 10
-4.6342938492
 20
9.4678792684
 30
0.0
 10
-4.6330905744
 20
9.4629050015
 30
0.0
 10
-4.6320454448
 20
9.4591199638
 30
0.0
 10
-4.6311946431
 20
9.4563802252
 30
0.0
 10
-4.6305733983
 20
9.4545343447
 30
0.0
 10
-4.6299492166
 20
9.4528329527
 30
0.0
 10
-4.6293223396
 20
9.4512766102
 30
0.0
 10
-4.6286930338
 20
9.4498658387
 30
0.0
 10
-4.6280615342
 20
9.4486011143
 30
0.0
 10
-4.6274280174
 20
9.4474828251
 30
0.0
 10
-4.6267924973
 20
9.4465112092
 30
0.0
 10
-4.6261549313
 20
9.4456862194
 30
0.0
 10
-4.6255148666
 20
9.4450077126
 30
0.0
 10
-4.6248713593
 20
9.4444757972
 30
0.0
 10
-4.6242227238
 20
9.4440914964
 30
0.0
 10
-4.6235681623
 20
9.4438576984
 30
0.0
 10
-4.6231239198
 20
9.4438047234
 30
0.0
 10
-4.6229081102
 20
9.4438047234
 30
0.0
  0
SPLINE
  5
3C5
100
AcDbEntity
  8
0
100
AcDbSpline
 62
7
  6
CONTINUOUS
 70
0
 71
3
 72
30
 73
26
 74
0
 42
0.0000001
 43
0.0000001
 44
0.0000000001
 40
0.0
 40
0.0
 40
0.0
 40
0.0
 40
0.0083037872
 40
0.0170346558
 40
0.0265608591
 40
0.0371666492
 40
0.0490577948
 40
0.0623794658
 40
0.077233903
 40
0.0936932205
 40
0.1118060697
 40
0.131605896
 40
0.1531161323
 40
0.1763530622
 40
0.2013277627
 40
0.2280474493
 40
0.2867287055
 40
0.3523775844
 40
0.4249398664
 40
0.5043460555
 40
0.5905003633
 40
0.6832789424
 40
0.7825515112
 40
0.8881800704
 40
1.0
 40
1.0
 40
1.0
 40
1.0
 10
-4.5581554456
 20
9.4438047234
 30
0.0
 10
-4.5579396361
 20
9.4438047234
 30
0.0
 10
-4.5574953936
 20
9.4438576984
 30
0.0
 10
-4.556840832
 20
9.4440914964
 30
0.0
 10
-4.5561921965
 20
9.4444757972
 30
0.0
 10
-4.5555486893
 20
9.4450077126
 30
0.0
 10
-4.5549086245
 20
9.4456862194
 30
0.0
 10
-4.5542710586
 20
9.4465112092
 30
0.0
 10
-4.5536355385
 20
9.4474828251
 30
0.0
 10
-4.5530020216
 20
9.4486011143
 30
0.0
 10
-4.552370522
 20
9.4498658387
 30
0.0
 10
-4.5517412163
 20
9.4512766102
 30
0.0
 10
-4.5511143393
 20
9.4528329527
 30
0.0
 10
-4.5504901576
 20
9.4545343447
 30
0.0
 10
-4.5498689128
 20
9.4563802252
 30
0.0
 10
-4.549018111
 20
9.4591199638
 30
0.0
 10
-4.5479729814
 20
9.4629050015
 30
0.0
 10
-4.5467697066
 20
9.4678792684
 30
0.0
 10
-4.5455836856
 20
9.4734097928
 30
0.0
 10
-4.5444172166
 20
9.4794879151
 30
0.0
 10
-4.5432724548
 20
9.4861039766
 30
0.0
 10
-4.5421512167
 20
9.4932471297
 30
0.0
 10
-4.5410555184
 20
9.5009058441
 30
0.0
 10
-4.5399874249
 20
9.5090677781
 30
0.0
 10
-4.5393136888
 20
9.5146789184
 30
0.0
 10
-4.5389806158
 20
9.5175658894
 30
0.0
  0
SPLINE
  5
3C6
100
AcDbEntity
  8
0
100
AcDbSpline
 62
7
  6
CONTINUOUS
 70
0
 71
3
 72
30
 73
26
 74
0
 42
0.0000001
 43
0.0000001
 44
0.0000000001
 40
0.0
 40
0.0
 40
0.0
 40
0.0
 40
0.0083037872
 40
0.0170346558
 40
0.0265608591
 40
0.0371666492
 40
0.0490577948
 40
0.0623794658
 40
0.077233903
 40
0.0936932205
 40
0.1118060697
 40
0.131605896
 40
0.1531161323
 40
0.1763530622
 40
0.2013277627
 40
0.2280474493
 40
0.2867287055
 40
0.3523775844
 40
0.4249398664
 40
0.5043460555
 40
0.5905003633
 40
0.6832789424
 40
0.7825515112
 40
0.8881800704
 40
1.0
 40
1.0
 40
1.0
 40
1.0
 10
-4.6229081102
 20
9.4438047234
 30
0.0
 10
-4.6226923006
 20
9.4438047234
 30
0.0
 10
-4.6222480581
 20
9.4438576984
 30
0.0
 10
-4.6215934965
 20
9.4440914964
 30
0.0
 10
-4.6209448611
 20
9.4444757972
 30
0.0
 10
-4.6203013538
 20
9.4450077126
 30
0.0
 10
-4.6196612891
 20
9.4456862194
 30
0.0
 10
-4.6190237231
 20
9.4465112092
 30
0.0
 10
-4.618388203
 20
9.4474828251
 30
0.0
 10
-4.6177546862
 20
9.4486011143
 30
0.0
 10
-4.6171231865
 20
9.4498658387
 30
0.0
 10
-4.6164938808
 20
9.4512766102
 30
0.0
 10
-4.6158670038
 20
9.4528329527
 30
0.0
 10
-4.6152428221
 20
9.4545343447
 30
0.0
 10
-4.6146215773
 20
9.4563802252
 30
0.0
 10
-4.6137707756
 20
9.4591199638
 30
0.0
 10
-4.612725646
 20
9.4629050015
 30
0.0
 10
-4.6115223712
 20
9.4678792684
 30
0.0
 10
-4.6103363502
 20
9.4734097928
 30
0.0
 10
-4.6091698811
 20
9.4794879151
 30
0.0
 10
-4.6080251194
 20
9.4861039766
 30
0.0
 10
-4.6069038813
 20
9.4932471297
 30
0.0
 10
-4.605808183
 20
9.5009058441
 30
0.0
 10
-4.6047400895
 20
9.5090677781
 30
0.0
 10
-4.6040663534
 20
9.5146789184
 30
0.0
 10
-4.6037332804
 20
9.5175658894
 30
0.0
  0
SPLINE
  5
3C7
100
AcDbEntity
  8
0
100
AcDbSpline
 62
7
  6
CONTINUOUS
 70
0
 71
3
 72
31
 73
27
 74
0
 42
0.0000001
 43
0.0000001
 44
0.0000000001
 40
0.0
 40
0.0
 40
0.0
 40
0.0
 40
0.111641578
 40
0.2173880933
 40
0.3170231375
 40
0.4103364836
 40
0.497131009
 40
0.5772420545
 40
0.6505153529
 40
0.7168146744
 40
0.7760463633
 40
0.8029904048
 40
0.8281437303
 40
0.8515039891
 40
0.8730759534
 40
0.8928693659
 40
0.9108999481
 40
0.9271919734
 40
0.9417822687
 40
0.9547276562
 40
0.9661172921
 40
0.9760852375
 40
0.984833365
 40
0.9926609861
 40
0.9963631019
 40
1.0
 40
1.0
 40
1.0
 40
1.0
 10
-5.1098845373
 20
10.9743522384
 30
0.0
 10
-5.1095293967
 20
10.9781797404
 30
0.0
 10
-5.108806428
 20
10.9856297767
 30
0.0
 10
-5.1076477777
 20
10.996483746
 30
0.0
 10
-5.1064464497
 20
11.0066979615
 30
0.0
 10
-5.1052052024
 20
11.0162497767
 30
0.0
 10
-5.1039266844
 20
11.0251180517
 30
0.0
 10
-5.1026142237
 20
11.0332832819
 30
0.0
 10
-5.1012710564
 20
11.0407276026
 30
0.0
 10
-5.0999000383
 20
11.0474346308
 30
0.0
 10
-5.098702987
 20
11.0525472951
 30
0.0
 10
-5.0977248338
 20
11.0562538103
 30
0.0
 10
-5.0970094498
 20
11.0587516957
 30
0.0
 10
-5.0962893374
 20
11.0610551484
 30
0.0
 10
-5.0955649593
 20
11.0631630711
 30
0.0
 10
-5.0948367691
 20
11.0650745713
 30
0.0
 10
-5.0941051926
 20
11.0667888451
 30
0.0
 10
-5.0933706147
 20
11.0683051873
 30
0.0
 10
-5.0926333137
 20
11.0696230785
 30
0.0
 10
-5.091893214
 20
11.0707422941
 30
0.0
 10
-5.0911500397
 20
11.0716631339
 30
0.0
 10
-5.0904022522
 20
11.0723859385
 30
0.0
 10
-5.0896476166
 20
11.072910088
 30
0.0
 10
-5.0889969873
 20
11.0731824449
 30
0.0
 10
-5.0884840964
 20
11.0732874238
 30
0.0
 10
-5.0882310722
 20
11.0733047234
 30
0.0
 10
-5.0881058498
 20
11.0733047234
 30
0.0
  0
SPLINE
  5
3C8
100
AcDbEntity
  8
0
100
AcDbSpline
 62
7
  6
CONTINUOUS
 70
0
 71
3
 72
31
 73
27
 74
0
 42
0.0000001
 43
0.0000001
 44
0.0000000001
 40
0.0
 40
0.0
 40
0.0
 40
0.0
 40
0.0036368981
 40
0.0073390139
 40
0.015166635
 40
0.0239147625
 40
0.0338827079
 40
0.0452723438
 40
0.0582177313
 40
0.0728080266
 40
0.0891000519
 40
0.1071306341
 40
0.1269240466
 40
0.1484960109
 40
0.1718562697
 40
0.1970095952
 40
0.2239536367
 40
0.2831853256
 40
0.3494846471
 40
0.4227579455
 40
0.502868991
 40
0.5896635164
 40
0.6829768625
 40
0.7826119067
 40
0.888358422
 40
1.0
 40
1.0
 40
1.0
 40
1.0
 10
-5.0881058498
 20
10.3433047234
 30
0.0
 10
-5.0882310722
 20
10.3433047234
 30
0.0
 10
-5.0884840964
 20
10.3433220229
 30
0.0
 10
-5.0889969873
 20
10.3434270018
 30
0.0
 10
-5.0896476166
 20
10.3436993587
 30
0.0
 10
-5.0904022522
 20
10.3442235082
 30
0.0
 10
-5.0911500397
 20
10.3449463128
 30
0.0
 10
-5.091893214
 20
10.3458671527
 30
0.0
 10
-5.0926333137
 20
10.3469863682
 30
0.0
 10
-5.0933706147
 20
10.3483042595
 30
0.0
 10
-5.0941051926
 20
10.3498206016
 30
0.0
 10
-5.0948367691
 20
10.3515348755
 30
0.0
 10
-5.0955649593
 20
10.3534463757
 30
0.0
 10
-5.0962893374
 20
10.3555542983
 30
0.0
 10
-5.0970094498
 20
10.357857751
 30
0.0
 10
-5.0977248338
 20
10.3603556365
 30
0.0
 10
-5.098702987
 20
10.3640621516
 30
0.0
 10
-5.0999000383
 20
10.3691748159
 30
0.0
 10
-5.1012710564
 20
10.3758818441
 30
0.0
 10
-5.1026142237
 20
10.3833261648
 30
0.0
 10
-5.1039266844
 20
10.391491395
 30
0.0
 10
-5.1052052024
 20
10.40035967
 30
0.0
 10
-5.1064464497
 20
10.4099114852
 30
0.0
 10
-5.1076477777
 20
10.4201257007
 30
0.0
 10
-5.108806428
 20
10.4309796701
 30
0.0
 10
-5.1095293967
 20
10.4384297063
 30
0.0
 10
-5.1098845373
 20
10.4422572083
 30
0.0
  0
SPLINE
  5
3C9
100
AcDbEntity
  8
0
100
AcDbSpline
 62
7
  6
CONTINUOUS
 70
0
 71
3
 72
43
 73
39
 74
0
 42
0.0000001
 43
0.0000001
 44
0.0000000001
 40
0.0
 40
0.0
 40
0.0
 40
0.0
 40
0.0967818639
 40
0.1926694648
 40
0.2866923273
 40
0.3779817862
 40
0.465663021
 40
0.548899173
 40
0.5886014298
 40
0.6269012241
 40
0.6637066348
 40
0.6989309058
 40
0.7324931119
 40
0.764313323
 40
0.7943183756
 40
0.8224412918
 40
0.8486166944
 40
0.8727880323
 40
0.8949056659
 40
0.9149232432
 40
0.924133631
 40
0.9328072092
 40
0.940941159
 40
0.9485331819
 40
0.9555817501
 40
0.9620873162
 40
0.9680523008
 40
0.9734808491
 40
0.9783795636
 40
0.9806335124
 40
0.9827592652
 40
0.9866346869
 40
0.99003195
 40
0.9929903403
 40
0.9955699911
 40
0.9978618572
 40
0.9989412144
 40
1.0
 40
1.0
 40
1.0
 40
1.0
 10
-5.0562945927
 20
10.7083047234
 30
0.0
 10
-5.0562945927
 20
10.6963807702
 30
0.0
 10
-5.0563958565
 20
10.6726429147
 30
0.0
 10
-5.0568500726
 20
10.6373236483
 30
0.0
 10
-5.0576024892
 20
10.6026862706
 30
0.0
 10
-5.0586452467
 20
10.5690679048
 30
0.0
 10
-5.0599681627
 20
10.5367894084
 30
0.0
 10
-5.0613129945
 20
10.5108743603
 30
0.0
 10
-5.0625279111
 20
10.4910461676
 30
0.0
 10
-5.063485907
 20
10.4769337471
 30
0.0
 10
-5.0645028503
 20
10.4633786384
 30
0.0
 10
-5.0655763191
 20
10.4504134741
 30
0.0
 10
-5.0667034232
 20
10.4380694732
 30
0.0
 10
-5.0678815929
 20
10.426376329
 30
0.0
 10
-5.0691078971
 20
10.4153621471
 30
0.0
 10
-5.0703790019
 20
10.4050533939
 30
0.0
 10
-5.0716919853
 20
10.3954748192
 30
0.0
 10
-5.0730433813
 20
10.3866493128
 30
0.0
 10
-5.0744294604
 20
10.3785979786
 30
0.0
 10
-5.0756417817
 20
10.3723884599
 30
0.0
 10
-5.0766341675
 20
10.3678253299
 30
0.0
 10
-5.0773643531
 20
10.3647039269
 30
0.0
 10
-5.0781007647
 20
10.3617892065
 30
0.0
 10
-5.0788429446
 20
10.3590829907
 30
0.0
 10
-5.0795904745
 20
10.3565869508
 30
0.0
 10
-5.0803428561
 20
10.3543024757
 30
0.0
 10
-5.0810995392
 20
10.3522306241
 30
0.0
 10
-5.0818600471
 20
10.3503724031
 30
0.0
 10
-5.0825135021
 20
10.3489659437
 30
0.0
 10
-5.083040969
 20
10.3479515507
 30
0.0
 10
-5.0835395682
 20
10.3470649423
 30
0.0
 10
-5.0841606303
 20
10.346086045
 30
0.0
 10
-5.0849337402
 20
10.3450875285
 30
0.0
 10
-5.0857117688
 20
10.34430353
 30
0.0
 10
-5.0864972149
 20
10.3437344557
 30
0.0
 10
-5.0871763485
 20
10.3434377125
 30
0.0
 10
-5.0877115996
 20
10.3433235222
 30
0.0
 10
-5.0879754027
 20
10.3433047234
 30
0.0
 10
-5.0881058498
 20
10.3433047234
 30
0.0
  0
SPLINE
  5
3CA
100
AcDbEntity
  8
0
100
AcDbSpline
 62
7
  6
CONTINUOUS
 70
0
 71
3
 72
43
 73
39
 74
0
 42
0.0000001
 43
0.0000001
 44
0.0000000001
 40
0.0
 40
0.0
 40
0.0
 40
0.0
 40
0.0010587856
 40
0.0021381428
 40
0.0044300089
 40
0.0070096597
 40
0.00996805
 40
0.0133653131
 40
0.0172407348
 40
0.0193664876
 40
0.0216204364
 40
0.0265191509
 40
0.0319476992
 40
0.0379126838
 40
0.0444182499
 40
0.0514668181
 40
0.059058841
 40
0.0671927908
 40
0.075866369
 40
0.0850767568
 40
0.1050943341
 40
0.1272119677
 40
0.1513833056
 40
0.1775587082
 40
0.2056816244
 40
0.235686677
 40
0.2675068881
 40
0.3010690942
 40
0.3362933652
 40
0.3730987759
 40
0.4113985702
 40
0.451100827
 40
0.534336979
 40
0.6220182138
 40
0.7133076727
 40
0.8073305352
 40
0.9032181361
 40
1.0
 40
1.0
 40
1.0
 40
1.0
 10
-5.0881058498
 20
11.0733047234
 30
0.0
 10
-5.0879754027
 20
11.0733047234
 30
0.0
 10
-5.0877115996
 20
11.0732859245
 30
0.0
 10
-5.0871763485
 20
11.0731717342
 30
0.0
 10
-5.0864972149
 20
11.072874991
 30
0.0
 10
-5.0857117688
 20
11.0723059167
 30
0.0
 10
-5.0849337402
 20
11.0715219182
 30
0.0
 10
-5.0841606303
 20
11.0705234018
 30
0.0
 10
-5.0835395682
 20
11.0695445044
 30
0.0
 10
-5.083040969
 20
11.068657896
 30
0.0
 10
-5.0825135021
 20
11.0676435031
 30
0.0
 10
-5.0818600471
 20
11.0662370437
 30
0.0
 10
-5.0810995392
 20
11.0643788226
 30
0.0
 10
-5.0803428561
 20
11.062306971
 30
0.0
 10
-5.0795904745
 20
11.0600224959
 30
0.0
 10
-5.0788429446
 20
11.057526456
 30
0.0
 10
-5.0781007647
 20
11.0548202402
 30
0.0
 10
-5.0773643531
 20
11.0519055198
 30
0.0
 10
-5.0766341675
 20
11.0487841168
 30
0.0
 10
-5.0756417817
 20
11.0442209868
 30
0.0
 10
-5.0744294604
 20
11.0380114682
 30
0.0
 10
-5.0730433813
 20
11.0299601339
 30
0.0
 10
-5.0716919853
 20
11.0211346276
 30
0.0
 10
-5.0703790019
 20
11.0115560528
 30
0.0
 10
-5.0691078971
 20
11.0012472996
 30
0.0
 10
-5.0678815929
 20
10.9902331177
 30
0.0
 10
-5.0667034232
 20
10.9785399736
 30
0.0
 10
-5.0655763191
 20
10.9661959726
 30
0.0
 10
-5.0645028503
 20
10.9532308083
 30
0.0
 10
-5.063485907
 20
10.9396756996
 30
0.0
 10
-5.0625279111
 20
10.9255632791
 30
0.0
 10
-5.0613129945
 20
10.9057350864
 30
0.0
 10
-5.0599681627
 20
10.8798200383
 30
0.0
 10
-5.0586452467
 20
10.847541542
 30
0.0
 10
-5.0576024892
 20
10.8139231761
 30
0.0
 10
-5.0568500726
 20
10.7792857984
 30
0.0
 10
-5.0563958565
 20
10.743966532
 30
0.0
 10
-5.0562945927
 20
10.7202286765
 30
0.0
 10
-5.0562945927
 20
10.7083047234
 30
0.0
  0
SPLINE
  5
3CB
100
AcDbEntity
  8
0
100
AcDbSpline
 62
7
  6
CONTINUOUS
 70
0
 71
3
 72
13
 73
9
 74
0
 42
0.0000001
 43
0.0000001
 44
0.0000000001
 40
0.0
 40
0.0
 40
0.0
 40
0.0
 40
0.2515721043
 40
0.3786772753
 40
0.5058489261
 40
0.6322146208
 40
0.7569721283
 40
1.0
 40
1.0
 40
1.0
 40
1.0
 10
5.6632861464
 20
10.960606791
 30
0.0
 10
5.6816693615
 20
10.9502545907
 30
0.0
 10
5.7093058461
 20
10.9346100748
 30
0.0
 10
5.7461240614
 20
10.9135373204
 30
0.0
 10
5.7737727503
 20
10.8975822981
 30
0.0
 10
5.8011916557
 20
10.8816234294
 30
0.0
 10
5.8369317559
 20
10.8606468761
 30
0.0
 10
5.8634546782
 20
10.8449026593
 30
0.0
 10
5.8809547188
 20
10.8344557572
 30
0.0
  0
SPLINE
  5
3CC
100
AcDbEntity
  8
0
100
AcDbSpline
 62
7
  6
CONTINUOUS
 70
0
 71
3
 72
13
 73
9
 74
0
 42
0.0000001
 43
0.0000001
 44
0.0000000001
 40
0.0
 40
0.0
 40
0.0
 40
0.0
 40
0.2473154933
 40
0.3732415121
 40
0.5
 40
0.6267584879
 40
0.7526845067
 40
1.0
 40
1.0
 40
1.0
 40
1.0
 10
5.8809547188
 20
10.8344557572
 30
0.0
 10
5.88147791
 20
10.8136605575
 30
0.0
 10
5.8821207445
 20
10.7822728212
 30
0.0
 10
5.8825768599
 20
10.7402198642
 30
0.0
 10
5.8826950799
 20
10.7083047234
 30
0.0
 10
5.8825768599
 20
10.6763895825
 30
0.0
 10
5.8821207445
 20
10.6343366255
 30
0.0
 10
5.88147791
 20
10.6029488893
 30
0.0
 10
5.8809547188
 20
10.5821536895
 30
0.0
  0
SPLINE
  5
3CD
100
AcDbEntity
  8
0
100
AcDbSpline
 62
7
  6
CONTINUOUS
 70
0
 71
3
 72
13
 73
9
 74
0
 42
0.0000001
 43
0.0000001
 44
0.0000000001
 40
0.0
 40
0.0
 40
0.0
 40
0.0
 40
0.2430278717
 40
0.3677853792
 40
0.4941510739
 40
0.6213227247
 40
0.7484278957
 40
1.0
 40
1.0
 40
1.0
 40
1.0
 10
5.8809547188
 20
10.5821536895
 30
0.0
 10
5.8634546782
 20
10.5717067874
 30
0.0
 10
5.8369317559
 20
10.5559625706
 30
0.0
 10
5.8011916557
 20
10.5349860174
 30
0.0
 10
5.7737727503
 20
10.5190271486
 30
0.0
 10
5.7461240614
 20
10.5030721263
 30
0.0
 10
5.7093058461
 20
10.4819993719
 30
0.0
 10
5.6816693615
 20
10.466354856
 30
0.0
 10
5.6632861464
 20
10.4560026557
 30
0.0
  0
SPLINE
  5
3CE
100
AcDbEntity
  8
0
100
AcDbSpline
 62
7
  6
CONTINUOUS
 70
0
 71
3
 72
38
 73
34
 74
0
 42
0.0000001
 43
0.0000001
 44
0.0000000001
 40
0.0
 40
0.0
 40
0.0
 40
0.0
 40
0.0625123862
 40
0.0938030325
 40
0.1250905267
 40
0.1563799674
 40
0.1876746253
 40
0.2189724139
 40
0.2502708229
 40
0.2815688937
 40
0.3128657863
 40
0.3441609144
 40
0.3754530534
 40
0.4067412737
 40
0.4380248038
 40
0.4693027216
 40
0.5005746012
 40
0.5318396372
 40
0.5630975427
 40
0.5943479329
 40
0.6255905322
 40
0.6568254537
 40
0.6880525238
 40
0.7192721761
 40
0.7504845699
 40
0.7816902066
 40
0.8128897215
 40
0.8440836068
 40
0.87527287
 40
0.9064581249
 40
0.9376404568
 40
0.9688207707
 40
1.0
 40
1.0
 40
1.0
 40
1.0
 10
5.4209668384
 20
10.5755547234
 30
0.0
 10
5.4152000067
 20
10.5855813216
 30
0.0
 10
5.4075195591
 20
10.6012185959
 30
0.0
 10
5.3993894644
 20
10.6229010538
 30
0.0
 10
5.3943616561
 20
10.6395398255
 30
0.0
 10
5.3904288978
 20
10.6564702426
 30
0.0
 10
5.3876086592
 20
10.6736233628
 30
0.0
 10
5.3859096724
 20
10.6909251361
 30
0.0
 10
5.3853434524
 20
10.7083015947
 30
0.0
 10
5.3859096958
 20
10.7256778264
 30
0.0
 10
5.3876068134
 20
10.7429796978
 30
0.0
 10
5.3904284615
 20
10.7601329311
 30
0.0
 10
5.3943599031
 20
10.7770646858
 30
0.0
 10
5.3993880813
 20
10.7937014988
 30
0.0
 10
5.4054877603
 20
10.8099731831
 30
0.0
 10
5.4126354655
 20
10.8258092501
 30
0.0
 10
5.4207995855
 20
10.841142129
 30
0.0
 10
5.4299443752
 20
10.8559068261
 30
0.0
 10
5.4400329917
 20
10.870038509
 30
0.0
 10
5.4510191681
 20
10.8834789232
 30
0.0
 10
5.4628588535
 20
10.8961681455
 30
0.0
 10
5.4754992039
 20
10.9080536344
 30
0.0
 10
5.4888869429
 20
10.9190839013
 30
0.0
 10
5.5029652432
 20
10.9292107842
 30
0.0
 10
5.517672321
 20
10.938393266
 30
0.0
 10
5.5329471952
 20
10.9465887166
 30
0.0
 10
5.5487225831
 20
10.9537654045
 30
0.0
 10
5.5649322211
 20
10.9598901265
 30
0.0
 10
5.5815061625
 20
10.9649375286
 30
0.0
 10
5.5983732675
 20
10.9688870281
 30
0.0
 10
5.6154620624
 20
10.9717189476
 30
0.0
 10
5.6326978109
 20
10.9734248828
 30
0.0
 10
5.6442398623
 20
10.9738042499
 30
0.0
 10
5.6500089819
 20
10.9738043872
 30
0.0
  0
SPLINE
  5
3CF
100
AcDbEntity
  8
0
100
AcDbSpline
 62
7
  6
CONTINUOUS
 70
0
 71
3
 72
22
 73
18
 74
0
 42
0.0000001
 43
0.0000001
 44
0.0000000001
 40
0.0
 40
0.0
 40
0.0
 40
0.0
 40
0.1251231256
 40
0.1877142671
 40
0.2502741568
 40
0.3128145723
 40
0.3753439957
 40
0.4378605951
 40
0.5003619734
 40
0.5628491587
 40
0.6253236289
 40
0.687787548
 40
0.750241932
 40
0.8126884438
 40
0.8751290629
 40
0.9375654169
 40
1.0
 40
1.0
 40
1.0
 40
1.0
 10
5.4209668384
 20
10.5755547234
 30
0.0
 10
5.4267315847
 20
10.5655317508
 30
0.0
 10
5.4363800836
 20
10.5510376831
 30
0.0
 10
5.4510253034
 20
10.533123526
 30
0.0
 10
5.4628671662
 20
10.5204323044
 30
0.0
 10
5.4755083308
 20
10.5085473244
 30
0.0
 10
5.4888980489
 20
10.4975182606
 30
0.0
 10
5.502976775
 20
10.4873897615
 30
0.0
 10
5.5176864513
 20
10.4782088327
 30
0.0
 10
5.5329622636
 20
10.4700126892
 30
0.0
 10
5.548739445
 20
10.4628370344
 30
0.0
 10
5.5649507083
 20
10.4567135004
 30
0.0
 10
5.5815258347
 20
10.4516657116
 30
0.0
 10
5.5983948166
 20
10.4477190494
 30
0.0
 10
5.6154847186
 20
10.444886682
 30
0.0
 10
5.6327219737
 20
10.4431833984
 30
0.0
 10
5.6442648103
 20
10.4428049221
 30
0.0
 10
5.6500343451
 20
10.4428050595
 30
0.0
  0
SPLINE
  5
3D0
100
AcDbEntity
  8
0
100
AcDbSpline
 62
7
  6
CONTINUOUS
 70
0
 71
3
 72
22
 73
18
 74
0
 42
0.0000001
 43
0.0000001
 44
0.0000000001
 40
0.0
 40
0.0
 40
0.0
 40
0.0
 40
0.0624345802
 40
0.1248709325
 40
0.1873115514
 40
0.2497580634
 40
0.3122124485
 40
0.3746763688
 40
0.4371508404
 40
0.4996380274
 40
0.5621394073
 40
0.6246560074
 40
0.68718543
 40
0.7497258446
 40
0.8122857348
 40
0.8748768766
 40
1.0
 40
1.0
 40
1.0
 40
1.0
 10
5.6526362873
 20
10.9738043872
 30
0.0
 10
5.6584055581
 20
10.9738042471
 30
0.0
 10
5.6699478482
 20
10.973425251
 30
0.0
 10
5.6871842393
 20
10.9717212919
 30
0.0
 10
5.704273244
 20
10.9688883616
 30
0.0
 10
5.7211413054
 20
10.9649412455
 30
0.0
 10
5.7377154986
 20
10.9598931144
 30
0.0
 10
5.7539258273
 20
10.95376935
 30
0.0
 10
5.7697020815
 20
10.9465935722
 30
0.0
 10
5.7849769862
 20
10.9383974146
 30
0.0
 10
5.7996857824
 20
10.9292165741
 30
0.0
 10
5.8137636667
 20
10.9190882643
 30
0.0
 10
5.8271525902
 20
10.9080594848
 30
0.0
 10
5.8397930155
 20
10.8961748781
 30
0.0
 10
5.8516342033
 20
10.8834841136
 30
0.0
 10
5.8662786184
 20
10.8655706663
 30
0.0
 10
5.8759266297
 20
10.8510772376
 30
0.0
 10
5.8816911124
 20
10.8410547234
 30
0.0
  0
SPLINE
  5
3D1
100
AcDbEntity
  8
0
100
AcDbSpline
 62
7
  6
CONTINUOUS
 70
0
 71
3
 72
23
 73
19
 74
0
 42
0.0000001
 43
0.0000001
 44
0.0000000001
 40
0.0
 40
0.0
 40
0.0
 40
0.0
 40
0.0624280805
 40
0.124858422
 40
0.1872929365
 40
0.2497335689
 40
0.3121824889
 40
0.3746410178
 40
0.4371112296
 40
0.4995940446
 40
0.5620909175
 40
0.6246026334
 40
0.6871296909
 40
0.7496727752
 40
0.8122314978
 40
0.8748061458
 40
0.9373958175
 40
1.0
 40
1.0
 40
1.0
 40
1.0
 10
5.6526362873
 20
10.4428050595
 30
0.0
 10
5.658518641
 20
10.4428049166
 30
0.0
 10
5.670287408
 20
10.4431987857
 30
0.0
 10
5.6878586453
 20
10.4449713936
 30
0.0
 10
5.7052741821
 20
10.4479142811
 30
0.0
 10
5.7224547815
 20
10.4520183286
 30
0.0
 10
5.739324905
 20
10.4572619349
 30
0.0
 10
5.7558089796
 20
10.4636236528
 30
0.0
 10
5.7718334722
 20
10.4710749998
 30
0.0
 10
5.7873279687
 20
10.479581262
 30
0.0
 10
5.8022217884
 20
10.489107394
 30
0.0
 10
5.8164508525
 20
10.4996075742
 30
0.0
 10
5.829949526
 20
10.5110382541
 30
0.0
 10
5.8426595318
 20
10.5233461999
 30
0.0
 10
5.8545234883
 20
10.5364776377
 30
0.0
 10
5.8654881488
 20
10.5503745851
 30
0.0
 10
5.875506163
 20
10.5649729465
 30
0.0
 10
5.8815225626
 20
10.5751319293
 30
0.0
 10
5.8843581579
 20
10.5803046439
 30
0.0
  0
SPLINE
  5
3D2
100
AcDbEntity
  8
0
100
AcDbSpline
 62
7
  6
CONTINUOUS
 70
0
 71
3
 72
13
 73
9
 74
0
 42
0.0000001
 43
0.0000001
 44
0.0000000001
 40
0.0
 40
0.0
 40
0.0
 40
0.0
 40
0.2473154933
 40
0.3732415121
 40
0.5
 40
0.6267584879
 40
0.7526845067
 40
1.0
 40
1.0
 40
1.0
 40
1.0
 10
5.445617574
 20
10.5821536895
 30
0.0
 10
5.4461407652
 20
10.6029488893
 30
0.0
 10
5.4467835997
 20
10.6343366255
 30
0.0
 10
5.4472397152
 20
10.6763895825
 30
0.0
 10
5.4473579351
 20
10.7083047234
 30
0.0
 10
5.4472397152
 20
10.7402198642
 30
0.0
 10
5.4467835997
 20
10.7822728212
 30
0.0
 10
5.4461407652
 20
10.8136605575
 30
0.0
 10
5.445617574
 20
10.8344557572
 30
0.0
  0
SPLINE
  5
3D3
100
AcDbEntity
  8
0
100
AcDbSpline
 62
7
  6
CONTINUOUS
 70
0
 71
3
 72
38
 73
34
 74
0
 42
0.0000001
 43
0.0000001
 44
0.0000000001
 40
0.0
 40
0.0
 40
0.0
 40
0.0
 40
0.062512389
 40
0.0938030368
 40
0.1250905326
 40
0.1563799754
 40
0.1876746356
 40
0.2189724262
 40
0.2502708369
 40
0.2815689092
 40
0.3128658032
 40
0.3441609324
 40
0.3754530722
 40
0.4067412929
 40
0.4380248231
 40
0.4693027407
 40
0.5005746197
 40
0.5318396548
 40
0.563097559
 40
0.5943479476
 40
0.6255905452
 40
0.6568254648
 40
0.6880525327
 40
0.7192721829
 40
0.7504845746
 40
0.7816902095
 40
0.8128897225
 40
0.8440836064
 40
0.8752728686
 40
0.9064581228
 40
0.9376404549
 40
0.9688207692
 40
1.0
 40
1.0
 40
1.0
 40
1.0
 10
5.4235814623
 20
10.5755547234
 30
0.0
 10
5.4178144987
 20
10.585581551
 30
0.0
 10
5.4101338973
 20
10.6012191971
 30
0.0
 10
5.4020036977
 20
10.622902182
 30
0.0
 10
5.396975861
 20
10.6395413613
 30
0.0
 10
5.3930431265
 20
10.6564721931
 30
0.0
 10
5.3902229639
 20
10.6736257298
 30
0.0
 10
5.3885241058
 20
10.6909279162
 30
0.0
 10
5.3879580678
 20
10.7083047794
 30
0.0
 10
5.3885245441
 20
10.7256814021
 30
0.0
 10
5.3902219466
 20
10.7429836458
 30
0.0
 10
5.3930439277
 20
10.7601372277
 30
0.0
 10
5.3969757502
 20
10.7770693024
 30
0.0
 10
5.4020043543
 20
10.793706402
 30
0.0
 10
5.4081045004
 20
10.8099783357
 30
0.0
 10
5.415252713
 20
10.8258146093
 30
0.0
 10
5.423417374
 20
10.8411476497
 30
0.0
 10
5.4325627375
 20
10.8559124578
 30
0.0
 10
5.4426519541
 20
10.8700441992
 30
0.0
 10
5.4536387533
 20
10.883484616
 30
0.0
 10
5.4654790799
 20
10.8961737812
 30
0.0
 10
5.4781200829
 20
10.9080591537
 30
0.0
 10
5.4915084836
 20
10.9190892395
 30
0.0
 10
5.505587446
 20
10.9292158788
 30
0.0
 10
5.5202951833
 20
10.938398051
 30
0.0
 10
5.5355707074
 20
10.9465931261
 30
0.0
 10
5.5513467296
 20
10.9537693745
 30
0.0
 10
5.5675569819
 20
10.9598935892
 30
0.0
 10
5.5841315099
 20
10.9649404229
 30
0.0
 10
5.6009991698
 20
10.9688892887
 30
0.0
 10
5.618088481
 20
10.9717205154
 30
0.0
 10
5.6353247021
 20
10.9734256996
 30
0.0
 10
5.6468670358
 20
10.9738045274
 30
0.0
 10
5.6526362873
 20
10.9738043872
 30
0.0
  0
SPLINE
  5
3D4
100
AcDbEntity
  8
0
100
AcDbSpline
 62
7
  6
CONTINUOUS
 70
0
 71
3
 72
22
 73
18
 74
0
 42
0.0000001
 43
0.0000001
 44
0.0000000001
 40
0.0
 40
0.0
 40
0.0
 40
0.0
 40
0.1251231234
 40
0.1877142652
 40
0.2502741554
 40
0.31281457
 40
0.3753439926
 40
0.4378605927
 40
0.5003619726
 40
0.5628491596
 40
0.6253236312
 40
0.6877875515
 40
0.7502419366
 40
0.8126884486
 40
0.8751290675
 40
0.9375654198
 40
1.0
 40
1.0
 40
1.0
 40
1.0
 10
5.4235814623
 20
10.5755547234
 30
0.0
 10
5.429345945
 20
10.5655322091
 30
0.0
 10
5.4389939562
 20
10.5510387804
 30
0.0
 10
5.4536383714
 20
10.5331253331
 30
0.0
 10
5.4654795592
 20
10.5204345686
 30
0.0
 10
5.4781199845
 20
10.5085499619
 30
0.0
 10
5.4915089079
 20
10.4975211824
 30
0.0
 10
5.5055867923
 20
10.4873928726
 30
0.0
 10
5.5202955885
 20
10.4782120321
 30
0.0
 10
5.5355704931
 20
10.4700158745
 30
0.0
 10
5.5513467474
 20
10.4628400968
 30
0.0
 10
5.567557076
 20
10.4567163323
 30
0.0
 10
5.5841312692
 20
10.4516682012
 30
0.0
 10
5.6009993307
 20
10.4477210852
 30
0.0
 10
5.6180883354
 20
10.4448881548
 30
0.0
 10
5.6353247265
 20
10.4431841957
 30
0.0
 10
5.6468670166
 20
10.4428051996
 30
0.0
 10
5.6526362873
 20
10.4428050595
 30
0.0
  0
SPLINE
  5
3D5
100
AcDbEntity
  8
0
100
AcDbSpline
 62
7
  6
CONTINUOUS
 70
0
 71
3
 72
13
 73
9
 74
0
 42
0.0000001
 43
0.0000001
 44
0.0000000001
 40
0.0
 40
0.0
 40
0.0
 40
0.0
 40
0.2515721043
 40
0.3786772753
 40
0.5058489261
 40
0.6322146208
 40
0.7569721283
 40
1.0
 40
1.0
 40
1.0
 40
1.0
 10
5.445617574
 20
10.8344557572
 30
0.0
 10
5.4640007891
 20
10.8448079575
 30
0.0
 10
5.4916372737
 20
10.8604524734
 30
0.0
 10
5.528455489
 20
10.8815252278
 30
0.0
 10
5.5561041779
 20
10.89748025
 30
0.0
 10
5.5835230833
 20
10.9134391188
 30
0.0
 10
5.6192631835
 20
10.9344156721
 30
0.0
 10
5.6457861058
 20
10.9501598888
 30
0.0
 10
5.6632861464
 20
10.960606791
 30
0.0
  0
SPLINE
  5
3D6
100
AcDbEntity
  8
0
100
AcDbSpline
 62
7
  6
CONTINUOUS
 70
0
 71
3
 72
47
 73
43
 74
0
 42
0.0000001
 43
0.0000001
 44
0.0000000001
 40
0.0
 40
0.0
 40
0.0
 40
0.0
 40
0.0312670784
 40
0.0469087572
 40
0.0625447422
 40
0.093792587
 40
0.1250300887
 40
0.1406498431
 40
0.1562666719
 40
0.187482807
 40
0.2186897021
 40
0.234294914
 40
0.2498983853
 40
0.2810917911
 40
0.3122813953
 40
0.327880226
 40
0.3434789273
 40
0.3746678189
 40
0.4058596836
 40
0.4370567058
 40
0.4682609193
 40
0.4994738589
 40
0.5306969184
 40
0.5619311076
 40
0.5931768056
 40
0.6244341662
 40
0.655702857
 40
0.6713458381
 40
0.6869913345
 40
0.7182796914
 40
0.7495757788
 40
0.7652307854
 40
0.7808870313
 40
0.8121926258
 40
0.8434997058
 40
0.8591579575
 40
0.874815919
 40
0.9061188237
 40
0.937415259
 40
0.9530686138
 40
0.9687228166
 40
1.0
 40
1.0
 40
1.0
 40
1.0
 10
5.4769370254
 20
10.8173047234
 30
0.0
 10
5.4804878627
 20
10.823478446
 30
0.0
 10
5.4862752487
 20
10.8324870301
 30
0.0
 10
5.4948357987
 20
10.8438797629
 30
0.0
 10
5.5039434703
 20
10.8548358839
 30
0.0
 10
5.5163144872
 20
10.8676687082
 30
0.0
 10
5.529882633
 20
10.8792230383
 30
0.0
 10
5.5413698969
 20
10.8876307118
 30
0.0
 10
5.5532528967
 20
10.8954602777
 30
0.0
 10
5.5688026609
 20
10.904136348
 30
0.0
 10
5.5851280938
 20
10.91123962
 30
0.0
 10
5.5985518027
 20
10.9159376444
 30
0.0
 10
5.6121877672
 20
10.9199675951
 30
0.0
 10
5.6295778711
 20
10.9237389949
 30
0.0
 10
5.6472538225
 20
10.9257791168
 30
0.0
 10
5.6614574413
 20
10.9263631232
 30
0.0
 10
5.6756723144
 20
10.9262462135
 30
0.0
 10
5.6934058615
 20
10.9247871863
 30
0.0
 10
5.7144071808
 20
10.9209503962
 30
0.0
 10
5.7349339002
 20
10.9150665473
 30
0.0
 10
5.7547867923
 20
10.9071910276
 30
0.0
 10
5.7737747763
 20
10.8973996765
 30
0.0
 10
5.791715582
 20
10.8857879622
 30
0.0
 10
5.8084357573
 20
10.8724666737
 30
0.0
 10
5.8237744053
 20
10.8575640563
 30
0.0
 10
5.8375842218
 20
10.8412256134
 30
0.0
 10
5.847707976
 20
10.8265406982
 30
0.0
 10
5.8549154658
 20
10.8142429624
 30
0.0
 10
5.8615136842
 20
10.8016026885
 30
0.0
 10
5.8685913838
 20
10.7852163667
 30
0.0
 10
5.8740323077
 20
10.7682140547
 30
0.0
 10
5.87737348
 20
10.7543451359
 30
0.0
 10
5.880032086
 20
10.7403271511
 30
0.0
 10
5.8820665501
 20
10.7225850631
 30
0.0
 10
5.8823566095
 20
10.7047286049
 30
0.0
 10
5.8815433181
 20
10.69048246
 30
0.0
 10
5.8800336628
 20
10.6762941689
 30
0.0
 10
5.8768504036
 20
10.658724493
 30
0.0
 10
5.8719645649
 20
10.6415514026
 30
0.0
 10
5.8670656273
 20
10.6281537866
 30
0.0
 10
5.861518051
 20
10.61501754
 30
0.0
 10
5.8566393068
 20
10.6054804412
 30
0.0
 10
5.8530873219
 20
10.5993047234
 30
0.0
  0
SPLINE
  5
3D7
100
AcDbEntity
  8
0
100
AcDbSpline
 62
7
  6
CONTINUOUS
 70
0
 71
3
 72
13
 73
9
 74
0
 42
0.0000001
 43
0.0000001
 44
0.0000000001
 40
0.0
 40
0.0
 40
0.0
 40
0.0
 40
0.2430278717
 40
0.3677853792
 40
0.4941510739
 40
0.6213227247
 40
0.7484278957
 40
1.0
 40
1.0
 40
1.0
 40
1.0
 10
5.6632861464
 20
10.4560026557
 30
0.0
 10
5.6457861058
 20
10.4664495579
 30
0.0
 10
5.6192631835
 20
10.4821937746
 30
0.0
 10
5.5835230833
 20
10.5031703279
 30
0.0
 10
5.5561041779
 20
10.5191291967
 30
0.0
 10
5.528455489
 20
10.535084219
 30
0.0
 10
5.4916372737
 20
10.5561569733
 30
0.0
 10
5.4640007891
 20
10.5718014893
 30
0.0
 10
5.445617574
 20
10.5821536895
 30
0.0
  0
SPLINE
  5
3D8
100
AcDbEntity
  8
0
100
AcDbSpline
 62
7
  6
CONTINUOUS
 70
0
 71
3
 72
47
 73
43
 74
0
 42
0.0000001
 43
0.0000001
 44
0.0000000001
 40
0.0
 40
0.0
 40
0.0
 40
0.0
 40
0.0312670784
 40
0.0469087572
 40
0.0625447422
 40
0.093792587
 40
0.1250300887
 40
0.1406498431
 40
0.1562666719
 40
0.187482807
 40
0.2186897021
 40
0.234294914
 40
0.2498983853
 40
0.2810917911
 40
0.3122813953
 40
0.327880226
 40
0.3434789273
 40
0.3746678189
 40
0.4058596836
 40
0.4370567058
 40
0.4682609193
 40
0.4994738589
 40
0.5306969184
 40
0.5619311076
 40
0.5931768056
 40
0.6244341662
 40
0.655702857
 40
0.6713458381
 40
0.6869913345
 40
0.7182796914
 40
0.7495757788
 40
0.7652307854
 40
0.7808870313
 40
0.8121926258
 40
0.8434997058
 40
0.8591579575
 40
0.874815919
 40
0.9061188237
 40
0.937415259
 40
0.9530686138
 40
0.9687228166
 40
1.0
 40
1.0
 40
1.0
 40
1.0
 10
5.8530873219
 20
10.5993047234
 30
0.0
 10
5.8495364846
 20
10.5931310007
 30
0.0
 10
5.8437490986
 20
10.5841224166
 30
0.0
 10
5.8351885485
 20
10.5727296838
 30
0.0
 10
5.826080877
 20
10.5617735629
 30
0.0
 10
5.81370986
 20
10.5489407385
 30
0.0
 10
5.8001417143
 20
10.5373864084
 30
0.0
 10
5.7886544504
 20
10.5289787349
 30
0.0
 10
5.7767714506
 20
10.521149169
 30
0.0
 10
5.7612216864
 20
10.5124730987
 30
0.0
 10
5.7448962534
 20
10.5053698267
 30
0.0
 10
5.7314725446
 20
10.5006718023
 30
0.0
 10
5.7178365801
 20
10.4966418516
 30
0.0
 10
5.7004464762
 20
10.4928704518
 30
0.0
 10
5.6827705247
 20
10.49083033
 30
0.0
 10
5.668566906
 20
10.4902463235
 30
0.0
 10
5.6543520328
 20
10.4903632332
 30
0.0
 10
5.6366184858
 20
10.4918222604
 30
0.0
 10
5.6156171665
 20
10.4956590506
 30
0.0
 10
5.595090447
 20
10.5015428994
 30
0.0
 10
5.5752375549
 20
10.5094184191
 30
0.0
 10
5.556249571
 20
10.5192097702
 30
0.0
 10
5.5383087653
 20
10.5308214845
 30
0.0
 10
5.5215885899
 20
10.544142773
 30
0.0
 10
5.506249942
 20
10.5590453904
 30
0.0
 10
5.4924401254
 20
10.5753838333
 30
0.0
 10
5.4823163713
 20
10.5900687485
 30
0.0
 10
5.4751088814
 20
10.6023664843
 30
0.0
 10
5.4685106631
 20
10.6150067582
 30
0.0
 10
5.4614329634
 20
10.63139308
 30
0.0
 10
5.4559920396
 20
10.6483953921
 30
0.0
 10
5.4526508673
 20
10.6622643109
 30
0.0
 10
5.4499922613
 20
10.6762822956
 30
0.0
 10
5.4479577972
 20
10.6940243837
 30
0.0
 10
5.4476677377
 20
10.7118808418
 30
0.0
 10
5.4484810291
 20
10.7261269867
 30
0.0
 10
5.4499906845
 20
10.7403152778
 30
0.0
 10
5.4531739437
 20
10.7578849537
 30
0.0
 10
5.4580597824
 20
10.7750580441
 30
0.0
 10
5.46295872
 20
10.7884556602
 30
0.0
 10
5.4685062963
 20
10.8015919068
 30
0.0
 10
5.4733850405
 20
10.8111290055
 30
0.0
 10
5.4769370254
 20
10.8173047234
 30
0.0
  0
SPLINE
  5
3D9
100
AcDbEntity
  8
0
100
AcDbSpline
 62
7
  6
CONTINUOUS
 70
0
 71
3
 72
24
 73
20
 74
0
 42
0.0000001
 43
0.0000001
 44
0.0000000001
 40
0.0
 40
0.0
 40
0.0
 40
0.0
 40
0.1896348566
 40
0.3644455398
 40
0.4455750699
 40
0.5222010633
 40
0.5940983048
 40
0.661050759
 40
0.7228526023
 40
0.7793336974
 40
0.8303378655
 40
0.8757327934
 40
0.9154253341
 40
0.9331117309
 40
0.9493514416
 40
0.9641478999
 40
0.9775095524
 40
0.9894516696
 40
1.0
 40
1.0
 40
1.0
 40
1.0
 10
14.8482097922
 20
10.8173047234
 30
0.0
 10
14.8478675798
 20
10.8241056547
 30
0.0
 10
14.8471285867
 20
10.8371719737
 30
0.0
 10
14.8459893854
 20
10.8531321572
 30
0.0
 10
14.8449761906
 20
10.8650312755
 30
0.0
 10
14.8441943864
 20
10.8732408148
 30
0.0
 10
14.8433742918
 20
10.8809348616
 30
0.0
 10
14.8425187085
 20
10.8880892421
 30
0.0
 10
14.8416301852
 20
10.8946814813
 30
0.0
 10
14.8407120106
 20
10.9006909838
 30
0.0
 10
14.8397674003
 20
10.9060993714
 30
0.0
 10
14.8387993512
 20
10.9108900369
 30
0.0
 10
14.8379472142
 20
10.9144819181
 30
0.0
 10
14.8372467914
 20
10.9170312543
 30
0.0
 10
14.8367377957
 20
10.9187054055
 30
0.0
 10
14.8362252742
 20
10.9202153798
 30
0.0
 10
14.8357096251
 20
10.9215603315
 30
0.0
 10
14.8351913346
 20
10.9227393766
 30
0.0
 10
14.8348217412
 20
10.9234583497
 30
0.0
 10
14.8346345354
 20
10.9237876302
 30
0.0
  0
SPLINE
  5
3DA
100
AcDbEntity
  8
0
100
AcDbSpline
 62
7
  6
CONTINUOUS
 70
0
 71
3
 72
9
 73
5
 74
0
 42
0.0000001
 43
0.0000001
 44
0.0000000001
 40
0.0
 40
0.0
 40
0.0
 40
0.0
 40
0.5066195038
 40
1.0
 40
1.0
 40
1.0
 40
1.0
 10
14.8120267064
 20
10.4560026557
 30
0.0
 10
14.814442163
 20
10.4593292327
 30
0.0
 10
14.8190648166
 20
10.466002645
 30
0.0
 10
14.8233169826
 20
10.4729207757
 30
0.0
 10
14.8252983268
 20
10.4763997223
 30
0.0
  0
SPLINE
  5
3DB
100
AcDbEntity
  8
0
100
AcDbSpline
 62
7
  6
CONTINUOUS
 70
0
 71
3
 72
34
 73
30
 74
0
 42
0.0000001
 43
0.0000001
 44
0.0000000001
 40
0.0
 40
0.0
 40
0.0
 40
0.0
 40
0.0038050564
 40
0.0081536181
 40
0.0130559092
 40
0.0185176785
 40
0.0245418428
 40
0.0311288065
 40
0.038276026
 40
0.0459797716
 40
0.0630382912
 40
0.0822601711
 40
0.1035828517
 40
0.1269377115
 40
0.1522439707
 40
0.1794125408
 40
0.2083488975
 40
0.2389475346
 40
0.2711001273
 40
0.3046897236
 40
0.37568804
 40
0.450911729
 40
0.5292654213
 40
0.6096061149
 40
0.6907603129
 40
0.771544276
 40
0.8507720382
 40
0.9273038776
 40
1.0
 40
1.0
 40
1.0
 40
1.0
 10
14.8346345354
 20
10.4928218167
 30
0.0
 10
14.8348387728
 20
10.4931810552
 30
0.0
 10
14.8352411693
 20
10.4939709867
 30
0.0
 10
14.8358025618
 20
10.4952737086
 30
0.0
 10
14.8363608401
 20
10.4967714231
 30
0.0
 10
14.8369153841
 20
10.4984630142
 30
0.0
 10
14.8374655947
 20
10.5003473772
 30
0.0
 10
14.8380108343
 20
10.5024229763
 30
0.0
 10
14.8385506696
 20
10.504687913
 30
0.0
 10
14.8392877467
 20
10.5080742461
 30
0.0
 10
14.8401816001
 20
10.5127674748
 30
0.0
 10
14.8411921854
 20
10.518941638
 30
0.0
 10
14.8421699383
 20
10.5258124629
 30
0.0
 10
14.8431106023
 20
10.5333547355
 30
0.0
 10
14.8440105749
 20
10.5415409352
 30
0.0
 10
14.8448663828
 20
10.550341056
 30
0.0
 10
14.8456744949
 20
10.5597226824
 30
0.0
 10
14.8464321264
 20
10.5696514337
 30
0.0
 10
14.8471361416
 20
10.5800906739
 30
0.0
 10
14.8480162561
 20
10.5949150233
 30
0.0
 10
14.8489541139
 20
10.6144211219
 30
0.0
 10
14.8498123399
 20
10.6387960079
 30
0.0
 10
14.8504094511
 20
10.6641935564
 30
0.0
 10
14.8507363353
 20
10.6902400884
 30
0.0
 10
14.8507879554
 20
10.7165525442
 30
0.0
 10
14.8505634585
 20
10.7427432222
 30
0.0
 10
14.8500665091
 20
10.7684281021
 30
0.0
 10
14.8493044018
 20
10.7932277234
 30
0.0
 10
14.8486065524
 20
10.8094197399
 30
0.0
 10
14.8482097922
 20
10.8173047234
 30
0.0
  0
SPLINE
  5
3DC
100
AcDbEntity
  8
0
100
AcDbSpline
 62
7
  6
CONTINUOUS
 70
0
 71
3
 72
9
 73
5
 74
0
 42
0.0000001
 43
0.0000001
 44
0.0000000001
 40
0.0
 40
0.0
 40
0.0
 40
0.0
 40
0.4933804962
 40
1.0
 40
1.0
 40
1.0
 40
1.0
 10
14.8252983268
 20
10.9402097244
 30
0.0
 10
14.8233169826
 20
10.943688671
 30
0.0
 10
14.8190648166
 20
10.9506068017
 30
0.0
 10
14.814442163
 20
10.957280214
 30
0.0
 10
14.8120267064
 20
10.960606791
 30
0.0
  0
SPLINE
  5
3DD
100
AcDbEntity
  8
0
100
AcDbSpline
 62
7
  6
CONTINUOUS
 70
0
 71
3
 72
20
 73
16
 74
0
 42
0.0000001
 43
0.0000001
 44
0.0000000001
 40
0.0
 40
0.0
 40
0.0
 40
0.0
 40
0.2020065414
 40
0.3802232924
 40
0.5348214024
 40
0.6034151897
 40
0.6663281764
 40
0.7237010459
 40
0.7757253342
 40
0.8226646511
 40
0.8648852788
 40
0.902898317
 40
0.9374121187
 40
0.9693809691
 40
1.0
 40
1.0
 40
1.0
 40
1.0
 10
14.6971138997
 20
10.9620179117
 30
0.0
 10
14.6968536957
 20
10.9629384226
 30
0.0
 10
14.6963359444
 20
10.9646634461
 30
0.0
 10
14.6955035406
 20
10.9670562239
 30
0.0
 10
14.6947789499
 20
10.9688152768
 30
0.0
 10
14.6941891265
 20
10.9700353888
 30
0.0
 10
14.6937632708
 20
10.9708223414
 30
0.0
 10
14.6933362336
 20
10.9715181916
 30
0.0
 10
14.6929080017
 20
10.9721228717
 30
0.0
 10
14.6924784844
 20
10.972636354
 30
0.0
 10
14.692047369
 20
10.9730585686
 30
0.0
 10
14.6916141022
 20
10.9733892554
 30
0.0
 10
14.6911777793
 20
10.9736275723
 30
0.0
 10
14.6907382616
 20
10.9737719418
 30
0.0
 10
14.6904409818
 20
10.9738044275
 30
0.0
 10
14.6902959886
 20
10.9738043872
 30
0.0
  0
SPLINE
  5
3DE
100
AcDbEntity
  8
0
100
AcDbSpline
 62
7
  6
CONTINUOUS
 70
0
 71
3
 72
28
 73
24
 74
0
 42
0.0000001
 43
0.0000001
 44
0.0000000001
 40
0.0
 40
0.0
 40
0.0
 40
0.0
 40
0.0678455031
 40
0.1390463981
 40
0.2127060149
 40
0.2879646453
 40
0.3639128537
 40
0.4396362921
 40
0.5142265389
 40
0.5867864663
 40
0.6564458884
 40
0.7223705187
 40
0.7837712914
 40
0.8125456163
 40
0.8399193279
 40
0.8658139384
 40
0.890152581
 40
0.9128640079
 40
0.9338857806
 40
0.9531575261
 40
0.9706275262
 40
0.9862540354
 40
1.0
 40
1.0
 40
1.0
 40
1.0
 10
14.7103353153
 20
10.5755547234
 30
0.0
 10
14.7107724077
 20
10.5842412468
 30
0.0
 10
14.7115519576
 20
10.6020498807
 30
0.0
 10
14.712435955
 20
10.6293040771
 30
0.0
 10
14.7130553467
 20
10.6575161401
 30
0.0
 10
14.7134026727
 20
10.6863414506
 30
0.0
 10
14.7134734802
 20
10.7154333335
 30
0.0
 10
14.7132669453
 20
10.7444388852
 30
0.0
 10
14.7127856359
 20
10.7730067764
 30
0.0
 10
14.7120354943
 20
10.80079125
 30
0.0
 10
14.7110261564
 20
10.8274559337
 30
0.0
 10
14.7097703198
 20
10.8526779594
 30
0.0
 10
14.7085060352
 20
10.8726501306
 30
0.0
 10
14.7073717709
 20
10.8876768135
 30
0.0
 10
14.706488108
 20
10.8981573064
 30
0.0
 10
14.7055561317
 20
10.9080626246
 30
0.0
 10
14.7045786083
 20
10.9173628106
 30
0.0
 10
14.7035584678
 20
10.9260297646
 30
0.0
 10
14.7024993452
 20
10.9340373248
 30
0.0
 10
14.7014044567
 20
10.94136139
 30
0.0
 10
14.7002773803
 20
10.947980095
 30
0.0
 10
14.6991224046
 20
10.9538736576
 30
0.0
 10
14.6982822741
 20
10.95754522
 30
0.0
 10
14.697851144
 20
10.9592538425
 30
0.0
  0
SPLINE
  5
3DF
100
AcDbEntity
  8
0
100
AcDbSpline
 62
7
  6
CONTINUOUS
 70
0
 71
3
 72
15
 73
11
 74
0
 42
0.0000001
 43
0.0000001
 44
0.0000000001
 40
0.0
 40
0.0
 40
0.0
 40
0.0
 40
0.1490698013
 40
0.2923501365
 40
0.4291996026
 40
0.5590666057
 40
0.6815024651
 40
0.7960713691
 40
0.9023676538
 40
1.0
 40
1.0
 40
1.0
 40
1.0
 10
14.7103353153
 20
10.5755547234
 30
0.0
 10
14.7101023423
 20
10.5709247538
 30
0.0
 10
14.7096136096
 20
10.561846191
 30
0.0
 10
14.7087941782
 20
10.5485238258
 30
0.0
 10
14.7079051876
 20
10.5358044597
 30
0.0
 10
14.7069501058
 20
10.5237400135
 30
0.0
 10
14.7059330411
 20
10.5123761006
 30
0.0
 10
14.7048575599
 20
10.5017540218
 30
0.0
 10
14.7037282549
 20
10.491913549
 30
0.0
 10
14.7029067147
 20
10.4856247557
 30
0.0
 10
14.7024837986
 20
10.4826181477
 30
0.0
  0
SPLINE
  5
3E0
100
AcDbEntity
  8
0
100
AcDbSpline
 62
7
  6
CONTINUOUS
 70
0
 71
3
 72
21
 73
17
 74
0
 42
0.0000001
 43
0.0000001
 44
0.0000000001
 40
0.0
 40
0.0
 40
0.0
 40
0.0
 40
0.1249717233
 40
0.1874684367
 40
0.2499692886
 40
0.3124732591
 40
0.3749805625
 40
0.4374896612
 40
0.5
 40
0.5625103388
 40
0.6250194375
 40
0.6875267409
 40
0.7500307114
 40
0.8125315633
 40
0.8750282767
 40
1.0
 40
1.0
 40
1.0
 40
1.0
 10
14.8310698836
 20
10.5821536895
 30
0.0
 10
14.8340185897
 20
10.5924073239
 30
0.0
 10
14.8380704246
 20
10.6079015345
 30
0.0
 10
14.8425350274
 20
10.6287728181
 30
0.0
 10
14.8453647633
 20
10.644531642
 30
0.0
 10
14.8476275951
 20
10.6603830607
 30
0.0
 10
14.8492795236
 20
10.6763109834
 30
0.0
 10
14.850285474
 20
10.692293593
 30
0.0
 10
14.8506241486
 20
10.7083047234
 30
0.0
 10
14.850285474
 20
10.7243158537
 30
0.0
 10
14.8492795236
 20
10.7402984633
 30
0.0
 10
14.8476275951
 20
10.756226386
 30
0.0
 10
14.8453647633
 20
10.7720778047
 30
0.0
 10
14.8425350274
 20
10.7878366286
 30
0.0
 10
14.8380704246
 20
10.8087079122
 30
0.0
 10
14.8340185897
 20
10.8242021228
 30
0.0
 10
14.8310698836
 20
10.8344557572
 30
0.0
  0
SPLINE
  5
3E1
100
AcDbEntity
  8
0
100
AcDbSpline
 62
7
  6
CONTINUOUS
 70
0
 71
3
 72
9
 73
5
 74
0
 42
0.0000001
 43
0.0000001
 44
0.0000000001
 40
0.0
 40
0.0
 40
0.0
 40
0.0
 40
0.2545918989
 40
1.0
 40
1.0
 40
1.0
 40
1.0
 10
14.8252983268
 20
10.4763997223
 30
0.0
 10
14.8260900835
 20
10.4777899298
 30
0.0
 10
14.8291265166
 20
10.4832915271
 30
0.0
 10
14.8318495533
 20
10.4889696409
 30
0.0
 10
14.8336455816
 20
10.4932957993
 30
0.0
  0
LINE
  5
3E2
100
AcDbEntity
  8
0
100
AcDbLine
 62
7
  6
CONTINUOUS
 10
14.8336455816
 20
10.4932957993
 11
14.833788669
 21
10.4936418642
  0
SPLINE
  5
3E3
100
AcDbEntity
  8
0
100
AcDbSpline
 62
7
  6
CONTINUOUS
 70
0
 71
3
 72
19
 73
15
 74
0
 42
0.0000001
 43
0.0000001
 44
0.0000000001
 40
0.0
 40
0.0
 40
0.0
 40
0.0
 40
0.1296331746
 40
0.1931206136
 40
0.2558526181
 40
0.3179625945
 40
0.3796012857
 40
0.4409268894
 40
0.5020962281
 40
0.5632602961
 40
0.6245528286
 40
0.7479349191
 40
0.8729649692
 40
1.0
 40
1.0
 40
1.0
 40
1.0
 10
14.833788669
 20
10.4936418642
 30
0.0
 10
14.8352889034
 20
10.4972851267
 30
0.0
 10
14.8372790518
 20
10.5028207556
 30
0.0
 10
14.8393203309
 20
10.5103274263
 30
0.0
 10
14.8405168449
 20
10.5159282866
 30
0.0
 10
14.8413835202
 20
10.52153266
 30
0.0
 10
14.8419188194
 20
10.527135464
 30
0.0
 10
14.8421268851
 20
10.5327312865
 30
0.0
 10
14.8420120031
 20
10.5383152118
 30
0.0
 10
14.8415859576
 20
10.5438829249
 30
0.0
 10
14.8406156273
 20
10.5512946895
 30
0.0
 10
14.8386802699
 20
10.5605231132
 30
0.0
 10
14.8353533655
 20
10.5714509558
 30
0.0
 10
14.8325776983
 20
10.5785991825
 30
0.0
 10
14.8310698836
 20
10.5821536895
 30
0.0
  0
SPLINE
  5
3E4
100
AcDbEntity
  8
0
100
AcDbSpline
 62
7
  6
CONTINUOUS
 70
0
 71
3
 72
14
 73
10
 74
0
 42
0.0000001
 43
0.0000001
 44
0.0000000001
 40
0.0
 40
0.0
 40
0.0
 40
0.0
 40
0.2479351964
 40
0.3719122344
 40
0.4961186958
 40
0.6207839825
 40
0.7461604627
 40
0.8724959321
 40
1.0
 40
1.0
 40
1.0
 40
1.0
 10
14.7128620847
 20
10.8344557572
 30
0.0
 10
14.7136706327
 20
10.8414275484
 30
0.0
 10
14.714541133
 20
10.8519326681
 30
0.0
 10
14.714822967
 20
10.8659775822
 30
0.0
 10
14.7145516026
 20
10.8765327908
 30
0.0
 10
14.7137621648
 20
10.8871018624
 30
0.0
 10
14.71243252
 20
10.8976777112
 30
0.0
 10
14.7105544343
 20
10.908251316
 30
0.0
 10
14.7089526353
 20
10.9152594246
 30
0.0
 10
14.7080680032
 20
10.918758707
 30
0.0
  0
SPLINE
  5
3E5
100
AcDbEntity
  8
0
100
AcDbSpline
 62
7
  6
CONTINUOUS
 70
0
 71
3
 72
19
 73
15
 74
0
 42
0.0000001
 43
0.0000001
 44
0.0000000001
 40
0.0
 40
0.0
 40
0.0
 40
0.0
 40
0.1270350308
 40
0.2520650809
 40
0.3754471714
 40
0.4367397039
 40
0.4979037719
 40
0.5590731106
 40
0.6203987143
 40
0.6820374055
 40
0.7441473819
 40
0.8068793864
 40
0.8703668254
 40
1.0
 40
1.0
 40
1.0
 40
1.0
 10
14.8310698836
 20
10.8344557572
 30
0.0
 10
14.8325776983
 20
10.8380102643
 30
0.0
 10
14.8353533655
 20
10.8451584909
 30
0.0
 10
14.8386802699
 20
10.8560863335
 30
0.0
 10
14.8406156273
 20
10.8653147572
 30
0.0
 10
14.8415859576
 20
10.8727265219
 30
0.0
 10
14.8420120031
 20
10.878294235
 30
0.0
 10
14.8421268851
 20
10.8838781603
 30
0.0
 10
14.8419188194
 20
10.8894739827
 30
0.0
 10
14.8413835202
 20
10.8950767867
 30
0.0
 10
14.8405168449
 20
10.9006811601
 30
0.0
 10
14.8393203309
 20
10.9062820204
 30
0.0
 10
14.8372790518
 20
10.9137886911
 30
0.0
 10
14.8352889034
 20
10.91932432
 30
0.0
 10
14.833788669
 20
10.9229675825
 30
0.0
  0
LINE
  5
3E6
100
AcDbEntity
  8
0
100
AcDbLine
 62
7
  6
CONTINUOUS
 10
14.833788669
 20
10.9229675825
 11
14.8336455816
 21
10.9233136474
  0
SPLINE
  5
3E7
100
AcDbEntity
  8
0
100
AcDbSpline
 62
7
  6
CONTINUOUS
 70
0
 71
3
 72
9
 73
5
 74
0
 42
0.0000001
 43
0.0000001
 44
0.0000000001
 40
0.0
 40
0.0
 40
0.0
 40
0.0
 40
0.2455498839
 40
1.0
 40
1.0
 40
1.0
 40
1.0
 10
14.8336455816
 20
10.9233136474
 30
0.0
 10
14.8330539226
 20
10.9247387977
 30
0.0
 10
14.8305414438
 20
10.9304998463
 30
0.0
 10
14.8276446635
 20
10.9360899049
 30
0.0
 10
14.8252983268
 20
10.9402097244
 30
0.0
  0
SPLINE
  5
3E8
100
AcDbEntity
  8
0
100
AcDbSpline
 62
7
  6
CONTINUOUS
 70
0
 71
3
 72
15
 73
11
 74
0
 42
0.0000001
 43
0.0000001
 44
0.0000000001
 40
0.0
 40
0.0
 40
0.0
 40
0.0
 40
0.1249964676
 40
0.2499956901
 40
0.3749971619
 40
0.4999999975
 40
0.6250028276
 40
0.7500042897
 40
0.8750035086
 40
1.0
 40
1.0
 40
1.0
 40
1.0
 10
14.7128620847
 20
10.5821536895
 30
0.0
 10
14.7142573084
 20
10.5926075602
 30
0.0
 10
14.7167926133
 20
10.6135509461
 30
0.0
 10
14.7196714203
 20
10.6450652553
 30
0.0
 10
14.7214747505
 20
10.6766616389
 30
0.0
 10
14.7220899115
 20
10.7083047223
 30
0.0
 10
14.7214747508
 20
10.7399478049
 30
0.0
 10
14.7196714208
 20
10.7715441869
 30
0.0
 10
14.7167926146
 20
10.803058497
 30
0.0
 10
14.7142573087
 20
10.8240018845
 30
0.0
 10
14.7128620847
 20
10.8344557572
 30
0.0
  0
SPLINE
  5
3E9
100
AcDbEntity
  8
0
100
AcDbSpline
 62
7
  6
CONTINUOUS
 70
0
 71
3
 72
14
 73
10
 74
0
 42
0.0000001
 43
0.0000001
 44
0.0000000001
 40
0.0
 40
0.0
 40
0.0
 40
0.0
 40
0.1275040503
 40
0.2538395089
 40
0.3792159868
 40
0.5038812922
 40
0.6280877791
 40
0.7520648318
 40
1.0
 40
1.0
 40
1.0
 40
1.0
 10
14.7080680929
 20
10.4978510989
 30
0.0
 10
14.7089527152
 20
10.501350367
 30
0.0
 10
14.7105544996
 20
10.5083584459
 30
0.0
 10
14.7124325606
 20
10.5189320068
 30
0.0
 10
14.7137621835
 20
10.5295078115
 30
0.0
 10
14.7145516134
 20
10.5400768386
 30
0.0
 10
14.7148229652
 20
10.5506320031
 30
0.0
 10
14.7145411281
 20
10.5646768562
 30
0.0
 10
14.7136706291
 20
10.5751819295
 30
0.0
 10
14.7128620847
 20
10.5821536895
 30
0.0
  0
SPLINE
  5
3EA
100
AcDbEntity
  8
0
100
AcDbSpline
 62
7
  6
CONTINUOUS
 70
0
 71
3
 72
24
 73
20
 74
0
 42
0.0000001
 43
0.0000001
 44
0.0000000001
 40
0.0
 40
0.0
 40
0.0
 40
0.0
 40
0.1896348566
 40
0.3644455398
 40
0.4455750699
 40
0.5222010633
 40
0.5940983048
 40
0.661050759
 40
0.7228526023
 40
0.7793336974
 40
0.8303378655
 40
0.8757327934
 40
0.9154253341
 40
0.9331117309
 40
0.9493514416
 40
0.9641478999
 40
0.9775095524
 40
0.9894516696
 40
1.0
 40
1.0
 40
1.0
 40
1.0
 10
-5.2759054985
 20
10.8173047234
 30
0.0
 10
-5.2755632861
 20
10.8241056547
 30
0.0
 10
-5.274824293
 20
10.8371719737
 30
0.0
 10
-5.2736850918
 20
10.8531321572
 30
0.0
 10
-5.2726718969
 20
10.8650312755
 30
0.0
 10
-5.2718900927
 20
10.8732408148
 30
0.0
 10
-5.2710699981
 20
10.8809348616
 30
0.0
 10
-5.2702144148
 20
10.8880892421
 30
0.0
 10
-5.2693258915
 20
10.8946814813
 30
0.0
 10
-5.2684077169
 20
10.9006909838
 30
0.0
 10
-5.2674631066
 20
10.9060993714
 30
0.0
 10
-5.2664950575
 20
10.9108900369
 30
0.0
 10
-5.2656429205
 20
10.9144819181
 30
0.0
 10
-5.2649424977
 20
10.9170312543
 30
0.0
 10
-5.264433502
 20
10.9187054055
 30
0.0
 10
-5.2639209805
 20
10.9202153798
 30
0.0
 10
-5.2634053314
 20
10.9215603315
 30
0.0
 10
-5.2628870409
 20
10.9227393766
 30
0.0
 10
-5.2625174475
 20
10.9234583497
 30
0.0
 10
-5.2623302418
 20
10.9237876302
 30
0.0
  0
SPLINE
  5
3EB
100
AcDbEntity
  8
0
100
AcDbSpline
 62
7
  6
CONTINUOUS
 70
0
 71
3
 72
9
 73
5
 74
0
 42
0.0000001
 43
0.0000001
 44
0.0000000001
 40
0.0
 40
0.0
 40
0.0
 40
0.0
 40
0.5066195038
 40
1.0
 40
1.0
 40
1.0
 40
1.0
 10
-5.2397224127
 20
10.4560026557
 30
0.0
 10
-5.2421378694
 20
10.4593292327
 30
0.0
 10
-5.2467605229
 20
10.466002645
 30
0.0
 10
-5.2510126889
 20
10.4729207757
 30
0.0
 10
-5.2529940331
 20
10.4763997223
 30
0.0
  0
SPLINE
  5
3EC
100
AcDbEntity
  8
0
100
AcDbSpline
 62
7
  6
CONTINUOUS
 70
0
 71
3
 72
34
 73
30
 74
0
 42
0.0000001
 43
0.0000001
 44
0.0000000001
 40
0.0
 40
0.0
 40
0.0
 40
0.0
 40
0.0038050564
 40
0.0081536181
 40
0.0130559092
 40
0.0185176785
 40
0.0245418428
 40
0.0311288065
 40
0.038276026
 40
0.0459797716
 40
0.0630382912
 40
0.0822601711
 40
0.1035828517
 40
0.1269377115
 40
0.1522439707
 40
0.1794125408
 40
0.2083488975
 40
0.2389475346
 40
0.2711001273
 40
0.3046897236
 40
0.37568804
 40
0.450911729
 40
0.5292654213
 40
0.6096061149
 40
0.6907603129
 40
0.771544276
 40
0.8507720382
 40
0.9273038776
 40
1.0
 40
1.0
 40
1.0
 40
1.0
 10
-5.2623302418
 20
10.4928218167
 30
0.0
 10
-5.2625344791
 20
10.4931810552
 30
0.0
 10
-5.2629368756
 20
10.4939709867
 30
0.0
 10
-5.2634982681
 20
10.4952737086
 30
0.0
 10
-5.2640565464
 20
10.4967714231
 30
0.0
 10
-5.2646110904
 20
10.4984630142
 30
0.0
 10
-5.2651613011
 20
10.5003473772
 30
0.0
 10
-5.2657065407
 20
10.5024229763
 30
0.0
 10
-5.2662463759
 20
10.504687913
 30
0.0
 10
-5.266983453
 20
10.5080742461
 30
0.0
 10
-5.2678773064
 20
10.5127674748
 30
0.0
 10
-5.2688878917
 20
10.518941638
 30
0.0
 10
-5.2698656446
 20
10.5258124629
 30
0.0
 10
-5.2708063086
 20
10.5333547355
 30
0.0
 10
-5.2717062813
 20
10.5415409352
 30
0.0
 10
-5.2725620891
 20
10.550341056
 30
0.0
 10
-5.2733702013
 20
10.5597226824
 30
0.0
 10
-5.2741278327
 20
10.5696514337
 30
0.0
 10
-5.2748318479
 20
10.5800906739
 30
0.0
 10
-5.2757119625
 20
10.5949150233
 30
0.0
 10
-5.2766498203
 20
10.6144211219
 30
0.0
 10
-5.2775080462
 20
10.6387960079
 30
0.0
 10
-5.2781051574
 20
10.6641935564
 30
0.0
 10
-5.2784320416
 20
10.6902400884
 30
0.0
 10
-5.2784836617
 20
10.7165525442
 30
0.0
 10
-5.2782591649
 20
10.7427432222
 30
0.0
 10
-5.2777622154
 20
10.7684281021
 30
0.0
 10
-5.2770001081
 20
10.7932277234
 30
0.0
 10
-5.2763022587
 20
10.8094197399
 30
0.0
 10
-5.2759054985
 20
10.8173047234
 30
0.0
  0
SPLINE
  5
3ED
100
AcDbEntity
  8
0
100
AcDbSpline
 62
7
  6
CONTINUOUS
 70
0
 71
3
 72
9
 73
5
 74
0
 42
0.0000001
 43
0.0000001
 44
0.0000000001
 40
0.0
 40
0.0
 40
0.0
 40
0.0
 40
0.4933804962
 40
1.0
 40
1.0
 40
1.0
 40
1.0
 10
-5.2529940331
 20
10.9402097244
 30
0.0
 10
-5.2510126889
 20
10.943688671
 30
0.0
 10
-5.2467605229
 20
10.9506068017
 30
0.0
 10
-5.2421378694
 20
10.957280214
 30
0.0
 10
-5.2397224127
 20
10.960606791
 30
0.0
  0
SPLINE
  5
3EE
100
AcDbEntity
  8
0
100
AcDbSpline
 62
7
  6
CONTINUOUS
 70
0
 71
3
 72
28
 73
24
 74
0
 42
0.0000001
 43
0.0000001
 44
0.0000000001
 40
0.0
 40
0.0
 40
0.0
 40
0.0
 40
0.0072117986
 40
0.0149369085
 40
0.0235974846
 40
0.0334959881
 40
0.0448353793
 40
0.0577467482
 40
0.0723140485
 40
0.0885925328
 40
0.1066189675
 40
0.1264178851
 40
0.1480054954
 40
0.1713906957
 40
0.2235477071
 40
0.2828546526
 40
0.3492424329
 40
0.4226072125
 40
0.5028027976
 40
0.5896720658
 40
0.6830434162
 40
0.7827051583
 40
1.0
 40
1.0
 40
1.0
 40
1.0
 10
-5.0881069593
 20
10.9738043872
 30
0.0
 10
-5.0879200128
 20
10.9738044381
 30
0.0
 10
-5.0875310469
 20
10.9737489873
 30
0.0
 10
-5.0869634859
 20
10.9735066
 30
0.0
 10
-5.0864038524
 20
10.9731110705
 30
0.0
 10
-5.0858498796
 20
10.9725654508
 30
0.0
 10
-5.0852993091
 20
10.9718701174
 30
0.0
 10
-5.0847511058
 20
10.9710249529
 30
0.0
 10
-5.0842048917
 20
10.9700299361
 30
0.0
 10
-5.0836607487
 20
10.9688852336
 30
0.0
 10
-5.0831189058
 20
10.9675911737
 30
0.0
 10
-5.0825796772
 20
10.9661481928
 30
0.0
 10
-5.0820433762
 20
10.9645568473
 30
0.0
 10
-5.0813056601
 20
10.9621492441
 30
0.0
 10
-5.0804036677
 20
10.9587708446
 30
0.0
 10
-5.0793722939
 20
10.9542766797
 30
0.0
 10
-5.0783595344
 20
10.9492163818
 30
0.0
 10
-5.0773680632
 20
10.9436012859
 30
0.0
 10
-5.0764001851
 20
10.9374440912
 30
0.0
 10
-5.0754584424
 20
10.9307587447
 30
0.0
 10
-5.0745453426
 20
10.9235605061
 30
0.0
 10
-5.0733335392
 20
10.9129929261
 30
0.0
 10
-5.0725301075
 20
10.9048153719
 30
0.0
 10
-5.0720242671
 20
10.8992053467
 30
0.0
  0
SPLINE
  5
3EF
100
AcDbEntity
  8
0
100
AcDbSpline
 62
7
  6
CONTINUOUS
 70
0
 71
3
 72
20
 73
16
 74
0
 42
0.0000001
 43
0.0000001
 44
0.0000000001
 40
0.0
 40
0.0
 40
0.0
 40
0.0
 40
0.2020065414
 40
0.3802232924
 40
0.5348214024
 40
0.6034151897
 40
0.6663281764
 40
0.7237010459
 40
0.7757253342
 40
0.8226646511
 40
0.8648852788
 40
0.902898317
 40
0.9374121187
 40
0.9693809691
 40
1.0
 40
1.0
 40
1.0
 40
1.0
 10
-5.124809606
 20
10.9620179117
 30
0.0
 10
-5.124549402
 20
10.9629384226
 30
0.0
 10
-5.1240316508
 20
10.9646634461
 30
0.0
 10
-5.1231992469
 20
10.9670562239
 30
0.0
 10
-5.1224746562
 20
10.9688152768
 30
0.0
 10
-5.1218848328
 20
10.9700353888
 30
0.0
 10
-5.1214589771
 20
10.9708223414
 30
0.0
 10
-5.12103194
 20
10.9715181916
 30
0.0
 10
-5.120603708
 20
10.9721228717
 30
0.0
 10
-5.1201741907
 20
10.972636354
 30
0.0
 10
-5.1197430753
 20
10.9730585686
 30
0.0
 10
-5.1193098085
 20
10.9733892554
 30
0.0
 10
-5.1188734857
 20
10.9736275723
 30
0.0
 10
-5.1184339679
 20
10.9737719418
 30
0.0
 10
-5.1181366881
 20
10.9738044275
 30
0.0
 10
-5.117991695
 20
10.9738043872
 30
0.0
  0
SPLINE
  5
3F0
100
AcDbEntity
  8
0
100
AcDbSpline
 62
7
  6
CONTINUOUS
 70
0
 71
3
 72
11
 73
7
 74
0
 42
0.0000001
 43
0.0000001
 44
0.0000000001
 40
0.0
 40
0.0
 40
0.0
 40
0.0
 40
0.2610711159
 40
0.5162012836
 40
0.7632770482
 40
1.0
 40
1.0
 40
1.0
 40
1.0
 10
-5.0652340652
 20
10.7485650544
 30
0.0
 10
-5.0653417129
 20
10.7566173216
 30
0.0
 10
-5.0656197562
 20
10.7725378317
 30
0.0
 10
-5.0662322971
 20
10.7960741644
 30
0.0
 10
-5.0670315406
 20
10.8188534235
 30
0.0
 10
-5.0676995649
 20
10.8337620055
 30
0.0
 10
-5.0680665232
 20
10.8410547234
 30
0.0
  0
SPLINE
  5
3F1
100
AcDbEntity
  8
0
100
AcDbSpline
 62
7
  6
CONTINUOUS
 70
0
 71
3
 72
20
 73
16
 74
0
 42
0.0000001
 43
0.0000001
 44
0.0000000001
 40
0.0
 40
0.0
 40
0.0
 40
0.0
 40
0.2024590711
 40
0.3809921891
 40
0.5358185491
 40
0.6044957914
 40
0.6674617641
 40
0.7248491705
 40
0.7768418469
 40
0.8236969101
 40
0.8657827081
 40
0.9036188972
 40
0.9379209947
 40
0.9696465394
 40
1.0
 40
1.0
 40
1.0
 40
1.0
 10
-5.1248928961
 20
10.4548880235
 30
0.0
 10
-5.1246297635
 20
10.4539445369
 30
0.0
 10
-5.1241062152
 20
10.4521766534
 30
0.0
 10
-5.123263865
 20
10.4497241525
 30
0.0
 10
-5.122530508
 20
10.4479209063
 30
0.0
 10
-5.1219334944
 20
10.4466697293
 30
0.0
 10
-5.1215024612
 20
10.445862729
 30
0.0
 10
-5.1210702139
 20
10.4451491434
 30
0.0
 10
-5.1206367457
 20
10.4445291247
 30
0.0
 10
-5.120201925
 20
10.444002771
 30
0.0
 10
-5.1197654293
 20
10.4435701195
 30
0.0
 10
-5.1193267301
 20
10.4432312792
 30
0.0
 10
-5.1188849283
 20
10.4429869065
 30
0.0
 10
-5.1184397932
 20
10.4428386247
 30
0.0
 10
-5.1181385444
 20
10.4428051003
 30
0.0
 10
-5.117991695
 20
10.4428050595
 30
0.0
  0
SPLINE
  5
3F2
100
AcDbEntity
  8
0
100
AcDbSpline
 62
7
  6
CONTINUOUS
 70
0
 71
3
 72
15
 73
11
 74
0
 42
0.0000001
 43
0.0000001
 44
0.0000000001
 40
0.0
 40
0.0
 40
0.0
 40
0.0
 40
0.1220924646
 40
0.2441336407
 40
0.3665138762
 40
0.4897523094
 40
0.6143953533
 40
0.7408753124
 40
0.8694108864
 40
1.0
 40
1.0
 40
1.0
 40
1.0
 10
-5.1215146138
 20
10.960606791
 30
0.0
 10
-5.1221201741
 20
10.9553852833
 30
0.0
 10
-5.1230753741
 20
10.9449120559
 30
0.0
 10
-5.1235759637
 20
10.9291297957
 30
0.0
 10
-5.1229905781
 20
10.9132976353
 30
0.0
 10
-5.1212077581
 20
10.8974409571
 30
0.0
 10
-5.1181909905
 20
10.8815929973
 30
0.0
 10
-5.1139906426
 20
10.8657833238
 30
0.0
 10
-5.1087259318
 20
10.850029194
 30
0.0
 10
-5.1046392497
 20
10.8396433402
 30
0.0
 10
-5.1024714367
 20
10.8344557572
 30
0.0
  0
SPLINE
  5
3F3
100
AcDbEntity
  8
0
100
AcDbSpline
 62
7
  6
CONTINUOUS
 70
0
 71
3
 72
25
 73
21
 74
0
 42
0.0000001
 43
0.0000001
 44
0.0000000001
 40
0.0
 40
0.0
 40
0.0
 40
0.0
 40
0.0616191363
 40
0.1225255592
 40
0.1827757134
 40
0.2424804553
 40
0.3018069094
 40
0.3609830165
 40
0.3906059406
 40
0.4202991652
 40
0.4800387391
 40
0.5405242251
 40
0.5711405922
 40
0.602043134
 40
0.6647934434
 40
0.7289332327
 40
0.7945368463
 40
0.8616143713
 40
0.9301275978
 40
1.0
 40
1.0
 40
1.0
 40
1.0
 10
-5.2397224127
 20
10.960606791
 30
0.0
 10
-5.2408033359
 20
10.9580586338
 30
0.0
 10
-5.2428410791
 20
10.9529432906
 30
0.0
 10
-5.2454885113
 20
10.9451674169
 30
0.0
 10
-5.2476601796
 20
10.9373334285
 30
0.0
 10
-5.2493049211
 20
10.9294433897
 30
0.0
 10
-5.2503749259
 20
10.921502806
 30
0.0
 10
-5.2507502482
 20
10.9148518552
 30
0.0
 10
-5.2507253551
 20
10.909527897
 30
0.0
 10
-5.2504787036
 20
10.904184246
 30
0.0
 10
-5.2497480896
 20
10.8974812582
 30
0.0
 10
-5.2484564118
 20
10.8908216813
 30
0.0
 10
-5.2470969892
 20
10.8855113108
 30
0.0
 10
-5.2455049852
 20
10.88015967
 30
0.0
 10
-5.2431067346
 20
10.8734827129
 30
0.0
 10
-5.2396397339
 20
10.8655551827
 30
0.0
 10
-5.2356152425
 20
10.8576777224
 30
0.0
 10
-5.2310819412
 20
10.8498549858
 30
0.0
 10
-5.2260907171
 20
10.8420883633
 30
0.0
 10
-5.2225233839
 20
10.836995526
 30
0.0
 10
-5.2206792356
 20
10.8344557572
 30
0.0
  0
SPLINE
  5
3F4
100
AcDbEntity
  8
0
100
AcDbSpline
 62
7
  6
CONTINUOUS
 70
0
 71
3
 72
41
 73
37
 74
0
 42
0.0000001
 43
0.0000001
 44
0.0000000001
 40
0.0
 40
0.0
 40
0.0
 40
0.0
 40
0.1196887454
 40
0.2335462139
 40
0.3408403133
 40
0.4409961463
 40
0.533487642
 40
0.6178222441
 40
0.6935401364
 40
0.728049182
 40
0.760266283
 40
0.7901518665
 40
0.8176768176
 40
0.8428167046
 40
0.86555113
 40
0.8858683295
 40
0.9037748394
 40
0.9192940054
 40
0.9261737259
 40
0.932478371
 40
0.9382220703
 40
0.9434253751
 40
0.9481165894
 40
0.9523347682
 40
0.9561340623
 40
0.9595889061
 40
0.9627983638
 40
0.96588581
 40
0.9689897409
 40
0.9722464558
 40
0.9757740855
 40
0.9796656998
 40
0.9839905132
 40
0.9887986918
 40
0.9941264253
 40
1.0
 40
1.0
 40
1.0
 40
1.0
 10
-5.2429972258
 20
10.5993047234
 30
0.0
 10
-5.2432292096
 20
10.5946944119
 30
0.0
 10
-5.2437200511
 20
10.5857002636
 30
0.0
 10
-5.2445605257
 20
10.5725814523
 30
0.0
 10
-5.2454837492
 20
10.5602234731
 30
0.0
 10
-5.2464837665
 20
10.5486983509
 30
0.0
 10
-5.2475549666
 20
10.5380691646
 30
0.0
 10
-5.2486905851
 20
10.5283950184
 30
0.0
 10
-5.2497141242
 20
10.5209605822
 30
0.0
 10
-5.250569568
 20
10.5155336638
 30
0.0
 10
-5.2512032903
 20
10.511861683
 30
0.0
 10
-5.2518482875
 20
10.5084654503
 30
0.0
 10
-5.2525035033
 20
10.505349561
 30
0.0
 10
-5.2531678665
 20
10.502518154
 30
0.0
 10
-5.2538403251
 20
10.4999751511
 30
0.0
 10
-5.2545199067
 20
10.4977238395
 30
0.0
 10
-5.2552054127
 20
10.4957669537
 30
0.0
 10
-5.255802117
 20
10.4943300768
 30
0.0
 10
-5.2562878606
 20
10.4933349424
 30
0.0
 10
-5.2566384617
 20
10.4926942697
 30
0.0
 10
-5.2569900689
 20
10.4921289182
 30
0.0
 10
-5.2573426744
 20
10.4916389139
 30
0.0
 10
-5.257696365
 20
10.4912242091
 30
0.0
 10
-5.2580514119
 20
10.490884793
 30
0.0
 10
-5.2584083127
 20
10.490620848
 30
0.0
 10
-5.2587677122
 20
10.4904330473
 30
0.0
 10
-5.2591299229
 20
10.4903228419
 30
0.0
 10
-5.2594940639
 20
10.4902920912
 30
0.0
 10
-5.2598579164
 20
10.490341605
 30
0.0
 10
-5.2602194899
 20
10.4904701616
 30
0.0
 10
-5.2605782506
 20
10.490675906
 30
0.0
 10
-5.2609346607
 20
10.4909575736
 30
0.0
 10
-5.2612893536
 20
10.4913146381
 30
0.0
 10
-5.2616427747
 20
10.4917469886
 30
0.0
 10
-5.2619951374
 20
10.4922546341
 30
0.0
 10
-5.2622182815
 20
10.4926248867
 30
0.0
 10
-5.2623302418
 20
10.4928218167
 30
0.0
  0
SPLINE
  5
3F5
100
AcDbEntity
  8
0
100
AcDbSpline
 62
7
  6
CONTINUOUS
 70
0
 71
3
 72
47
 73
43
 74
0
 42
0.0000001
 43
0.0000001
 44
0.0000000001
 40
0.0
 40
0.0
 40
0.0
 40
0.0
 40
0.0036572566
 40
0.0052443511
 40
0.0066820691
 40
0.0079836822
 40
0.009167183
 40
0.0102565784
 40
0.0112826572
 40
0.0122822364
 40
0.0132951502
 40
0.0155012651
 40
0.016761208
 40
0.0181518454
 40
0.0196878774
 40
0.0213801263
 40
0.0252618581
 40
0.0298403648
 40
0.0351366368
 40
0.041161637
 40
0.0479206163
 40
0.0554143898
 40
0.0636389988
 40
0.0725885413
 40
0.0822560627
 40
0.0926334428
 40
0.1154716602
 40
0.1410042923
 40
0.1691171554
 40
0.1996773811
 40
0.232542338
 40
0.2675526252
 40
0.3045417717
 40
0.3433288521
 40
0.383727346
 40
0.4685615914
 40
0.5573930195
 40
0.6484881328
 40
0.7400689117
 40
0.8303444336
 40
0.9175573065
 40
1.0
 40
1.0
 40
1.0
 40
1.0
 10
-5.2623302418
 20
10.9237876302
 30
0.0
 10
-5.2621291326
 20
10.9241413657
 30
0.0
 10
-5.2618177041
 20
10.9246371455
 30
0.0
 10
-5.2613543964
 20
10.925219454
 30
0.0
 10
-5.2610224377
 20
10.9255690749
 30
0.0
 10
-5.2606892353
 20
10.9258525155
 30
0.0
 10
-5.2603543305
 20
10.9260694904
 30
0.0
 10
-5.260017312
 20
10.9262192791
 30
0.0
 10
-5.259678205
 20
10.9263006643
 30
0.0
 10
-5.2593379531
 20
10.9263123256
 30
0.0
 10
-5.2588723798
 20
10.9262326223
 30
0.0
 10
-5.2584169582
 20
10.9260046909
 30
0.0
 10
-5.257991463
 20
10.9256710563
 30
0.0
 10
-5.2576588911
 20
10.9253434003
 30
0.0
 10
-5.2573277079
 20
10.9249497463
 30
0.0
 10
-5.2568659134
 20
10.9243066703
 30
0.0
 10
-5.2562986676
 20
10.9233270133
 30
0.0
 10
-5.2556491889
 20
10.9219398021
 30
0.0
 10
-5.2550034058
 20
10.9202918206
 30
0.0
 10
-5.254362146
 20
10.9183845208
 30
0.0
 10
-5.2537263935
 20
10.9162193642
 30
0.0
 10
-5.253097149
 20
10.9137986444
 30
0.0
 10
-5.252475161
 20
10.9111252338
 30
0.0
 10
-5.2518613132
 20
10.9082023903
 30
0.0
 10
-5.2512564209
 20
10.9050335176
 30
0.0
 10
-5.2504366944
 20
10.9003331067
 30
0.0
 10
-5.2494509726
 20
10.8938707559
 30
0.0
 10
-5.2483491154
 20
10.8854323069
 30
0.0
 10
-5.247300121
 20
10.8761220468
 30
0.0
 10
-5.2463091514
 20
10.8659855122
 30
0.0
 10
-5.2453818138
 20
10.8550726275
 30
0.0
 10
-5.2445225077
 20
10.8434368611
 30
0.0
 10
-5.2437360318
 20
10.8311356583
 30
0.0
 10
-5.2430259775
 20
10.8182293825
 30
0.0
 10
-5.2421725646
 20
10.8000002877
 30
0.0
 10
-5.2413318937
 20
10.7761973877
 30
0.0
 10
-5.2406868258
 20
10.74674631
 30
0.0
 10
-5.240403566
 20
10.7165388809
 30
0.0
 10
-5.240487951
 20
10.6861696033
 30
0.0
 10
-5.2409381521
 20
10.6562354722
 30
0.0
 10
-5.2417449644
 20
10.6273259275
 30
0.0
 10
-5.242536258
 20
10.6084657316
 30
0.0
 10
-5.2429972258
 20
10.5993047234
 30
0.0
  0
SPLINE
  5
3F6
100
AcDbEntity
  8
0
100
AcDbSpline
 62
7
  6
CONTINUOUS
 70
0
 71
3
 72
15
 73
11
 74
0
 42
0.0000001
 43
0.0000001
 44
0.0000000001
 40
0.0
 40
0.0
 40
0.0
 40
0.0
 40
0.1249964676
 40
0.2499956901
 40
0.3749971619
 40
0.4999999975
 40
0.6250028276
 40
0.7500042897
 40
0.8750035086
 40
1.0
 40
1.0
 40
1.0
 40
1.0
 10
-5.1024714367
 20
10.8344557572
 30
0.0
 10
-5.1038666604
 20
10.8240018865
 30
0.0
 10
-5.1064019653
 20
10.8030585006
 30
0.0
 10
-5.1092807723
 20
10.7715441914
 30
0.0
 10
-5.1110841025
 20
10.7399478079
 30
0.0
 10
-5.1116992635
 20
10.7083047244
 30
0.0
 10
-5.1110841028
 20
10.6766616418
 30
0.0
 10
-5.1092807728
 20
10.6450652598
 30
0.0
 10
-5.1064019666
 20
10.6135509497
 30
0.0
 10
-5.1038666607
 20
10.5926075622
 30
0.0
 10
-5.1024714367
 20
10.5821536895
 30
0.0
  0
SPLINE
  5
3F7
100
AcDbEntity
  8
0
100
AcDbSpline
 62
7
  6
CONTINUOUS
 70
0
 71
3
 72
21
 73
17
 74
0
 42
0.0000001
 43
0.0000001
 44
0.0000000001
 40
0.0
 40
0.0
 40
0.0
 40
0.0
 40
0.1249717233
 40
0.1874684367
 40
0.2499692886
 40
0.3124732591
 40
0.3749805625
 40
0.4374896612
 40
0.5
 40
0.5625103388
 40
0.6250194375
 40
0.6875267409
 40
0.7500307114
 40
0.8125315633
 40
0.8750282767
 40
1.0
 40
1.0
 40
1.0
 40
1.0
 10
-5.2206792356
 20
10.8344557572
 30
0.0
 10
-5.2236279417
 20
10.8242021228
 30
0.0
 10
-5.2276797766
 20
10.8087079122
 30
0.0
 10
-5.2321443794
 20
10.7878366286
 30
0.0
 10
-5.2349741153
 20
10.7720778047
 30
0.0
 10
-5.2372369471
 20
10.756226386
 30
0.0
 10
-5.2388888756
 20
10.7402984633
 30
0.0
 10
-5.239894826
 20
10.7243158537
 30
0.0
 10
-5.2402335006
 20
10.7083047234
 30
0.0
 10
-5.239894826
 20
10.692293593
 30
0.0
 10
-5.2388888756
 20
10.6763109834
 30
0.0
 10
-5.2372369471
 20
10.6603830607
 30
0.0
 10
-5.2349741153
 20
10.644531642
 30
0.0
 10
-5.2321443794
 20
10.6287728181
 30
0.0
 10
-5.2276797766
 20
10.6079015345
 30
0.0
 10
-5.2236279417
 20
10.5924073239
 30
0.0
 10
-5.2206792356
 20
10.5821536895
 30
0.0
  0
SPLINE
  5
3F8
100
AcDbEntity
  8
0
100
AcDbSpline
 62
7
  6
CONTINUOUS
 70
0
 71
3
 72
15
 73
11
 74
0
 42
0.0000001
 43
0.0000001
 44
0.0000000001
 40
0.0
 40
0.0
 40
0.0
 40
0.0
 40
0.1305891503
 40
0.2591247296
 40
0.3856046735
 40
0.510247709
 40
0.6334861385
 40
0.7558663678
 40
0.8779075341
 40
1.0
 40
1.0
 40
1.0
 40
1.0
 10
-5.1024714367
 20
10.5821536895
 30
0.0
 10
-5.1046392503
 20
10.5769661051
 30
0.0
 10
-5.108725934
 20
10.5665802499
 30
0.0
 10
-5.1139906442
 20
10.5508261187
 30
0.0
 10
-5.1181909917
 20
10.5350164459
 30
0.0
 10
-5.1212077584
 20
10.5191684871
 30
0.0
 10
-5.1229905779
 20
10.5033118096
 30
0.0
 10
-5.1235759635
 20
10.4874796501
 30
0.0
 10
-5.1230753741
 20
10.4716973905
 30
0.0
 10
-5.1221201741
 20
10.4612241635
 30
0.0
 10
-5.1215146138
 20
10.4560026557
 30
0.0
  0
SPLINE
  5
3F9
100
AcDbEntity
  8
0
100
AcDbSpline
 62
7
  6
CONTINUOUS
 70
0
 71
3
 72
25
 73
21
 74
0
 42
0.0000001
 43
0.0000001
 44
0.0000000001
 40
0.0
 40
0.0
 40
0.0
 40
0.0
 40
0.0698724022
 40
0.1383856287
 40
0.2054631537
 40
0.2710667673
 40
0.3352065566
 40
0.397956866
 40
0.4288594078
 40
0.4594757749
 40
0.5199612609
 40
0.5797008348
 40
0.6093940594
 40
0.6390169835
 40
0.6981930906
 40
0.7575195447
 40
0.8172242866
 40
0.8774744408
 40
0.9383808637
 40
1.0
 40
1.0
 40
1.0
 40
1.0
 10
-5.2206792356
 20
10.5821536895
 30
0.0
 10
-5.2225233839
 20
10.5796139207
 30
0.0
 10
-5.2260907171
 20
10.5745210834
 30
0.0
 10
-5.2310819412
 20
10.5667544609
 30
0.0
 10
-5.2356152425
 20
10.5589317243
 30
0.0
 10
-5.2396397339
 20
10.551054264
 30
0.0
 10
-5.2431067346
 20
10.5431267338
 30
0.0
 10
-5.2455049852
 20
10.5364497767
 30
0.0
 10
-5.2470969892
 20
10.5310981359
 30
0.0
 10
-5.2484564118
 20
10.5257877654
 30
0.0
 10
-5.2497480896
 20
10.5191281885
 30
0.0
 10
-5.2504787036
 20
10.5124252008
 30
0.0
 10
-5.2507253551
 20
10.5070815497
 30
0.0
 10
-5.2507502482
 20
10.5017575915
 30
0.0
 10
-5.2503749259
 20
10.4951066408
 30
0.0
 10
-5.2493049211
 20
10.487166057
 30
0.0
 10
-5.2476601796
 20
10.4792760182
 30
0.0
 10
-5.2454885113
 20
10.4714420298
 30
0.0
 10
-5.2428410791
 20
10.4636661561
 30
0.0
 10
-5.2408033359
 20
10.4585508129
 30
0.0
 10
-5.2397224127
 20
10.4560026557
 30
0.0
  0
SPLINE
  5
3FA
100
AcDbEntity
  8
0
100
AcDbSpline
 62
7
  6
CONTINUOUS
 70
0
 71
3
 72
34
 73
30
 74
0
 42
0.0000001
 43
0.0000001
 44
0.0000000001
 40
0.0
 40
0.0
 40
0.0
 40
0.0
 40
0.0027949545
 40
0.0056851443
 40
0.0087567188
 40
0.0120816541
 40
0.0157168127
 40
0.0197057262
 40
0.0240812657
 40
0.0288676749
 40
0.0397363675
 40
0.0524115617
 40
0.0669471397
 40
0.0833740709
 40
0.1017079827
 40
0.1219491969
 40
0.1440905762
 40
0.168121064
 40
0.1940268684
 40
0.2217896175
 40
0.2827799667
 40
0.3508702388
 40
0.4258028603
 40
0.5072635804
 40
0.5949238959
 40
0.6884308691
 40
0.7874179891
 40
0.8914493904
 40
1.0
 40
1.0
 40
1.0
 40
1.0
 10
-5.117991695
 20
10.9738043872
 30
0.0
 10
-5.1178649373
 20
10.973804352
 30
0.0
 10
-5.1176065005
 20
10.9737796253
 30
0.0
 10
-5.1172228632
 20
10.9736697236
 30
0.0
 10
-5.116841086
 20
10.9734878902
 30
0.0
 10
-5.1164612908
 20
10.9732350741
 30
0.0
 10
-5.1160830707
 20
10.9729118046
 30
0.0
 10
-5.1157061084
 20
10.9725182707
 30
0.0
 10
-5.1153301684
 20
10.972054521
 30
0.0
 10
-5.1148078508
 20
10.97131055
 30
0.0
 10
-5.1141648323
 20
10.9701954344
 30
0.0
 10
-5.1134262083
 20
10.9686330308
 30
0.0
 10
-5.1126915882
 20
10.9667942676
 30
0.0
 10
-5.1119617941
 20
10.9646803493
 30
0.0
 10
-5.1112378387
 20
10.9622927349
 30
0.0
 10
-5.1105204504
 20
10.9596338237
 30
0.0
 10
-5.1098105023
 20
10.9567064194
 30
0.0
 10
-5.1091088612
 20
10.9535134993
 30
0.0
 10
-5.1084163711
 20
10.9500582017
 30
0.0
 10
-5.1074767492
 20
10.9449435666
 30
0.0
 10
-5.1063423516
 20
10.9379205455
 30
0.0
 10
-5.1050671364
 20
10.9287558232
 30
0.0
 10
-5.1038455045
 20
10.9186480612
 30
0.0
 10
-5.1026824111
 20
10.9076405956
 30
0.0
 10
-5.1015837357
 20
10.8957803012
 30
0.0
 10
-5.1005539916
 20
10.8831162144
 30
0.0
 10
-5.099597986
 20
10.8697019203
 30
0.0
 10
-5.0987201245
 20
10.8555986717
 30
0.0
 10
-5.0981997742
 20
10.8459715232
 30
0.0
 10
-5.0979523684
 20
10.8410547234
 30
0.0
  0
SPLINE
  5
3FB
100
AcDbEntity
  8
0
100
AcDbSpline
 62
7
  6
CONTINUOUS
 70
0
 71
3
 72
42
 73
38
 74
0
 42
0.0000001
 43
0.0000001
 44
0.0000000001
 40
0.0
 40
0.0
 40
0.0
 40
0.0
 40
0.0009467186
 40
0.0019256487
 40
0.0029660961
 40
0.0040925906
 40
0.005324365
 40
0.0066759767
 40
0.0081583224
 40
0.0097795422
 40
0.0134604358
 40
0.0177534277
 40
0.0226777785
 40
0.0282432337
 40
0.0344534429
 40
0.0413090457
 40
0.0488087478
 40
0.056949669
 40
0.0657259296
 40
0.0751300347
 40
0.0957889966
 40
0.1188549683
 40
0.1442355609
 40
0.17183108
 40
0.2015282562
 40
0.2332034344
 40
0.2667265129
 40
0.3019546674
 40
0.3387416653
 40
0.4163610305
 40
0.4982730703
 40
0.5830895335
 40
0.6693703883
 40
0.755652809
 40
0.8404651478
 40
0.9223851568
 40
1.0
 40
1.0
 40
1.0
 40
1.0
 10
-5.117991695
 20
10.4428050595
 30
0.0
 10
-5.1178649437
 20
10.4428050243
 30
0.0
 10
-5.1176065104
 20
10.442829605
 30
0.0
 10
-5.1172228491
 20
10.4429393654
 30
0.0
 10
-5.1168410476
 20
10.4431211938
 30
0.0
 10
-5.1164612683
 20
10.4433741833
 30
0.0
 10
-5.1160830831
 20
10.4436976991
 30
0.0
 10
-5.115706153
 20
10.4440914398
 30
0.0
 10
-5.1153302129
 20
10.4445552612
 30
0.0
 10
-5.1148078903
 20
10.4452991051
 30
0.0
 10
-5.1141647975
 20
10.4464139402
 30
0.0
 10
-5.1134260966
 20
10.4479761901
 30
0.0
 10
-5.1126915723
 20
10.4498151278
 30
0.0
 10
-5.1119619012
 20
10.4519292691
 30
0.0
 10
-5.1112378749
 20
10.4543168335
 30
0.0
 10
-5.1105204188
 20
10.4569754971
 30
0.0
 10
-5.109810426
 20
10.4599028079
 30
0.0
 10
-5.1091088715
 20
10.4630959151
 30
0.0
 10
-5.1084164435
 20
10.46655142
 30
0.0
 10
-5.1074767439
 20
10.4716659929
 30
0.0
 10
-5.1063422317
 20
10.4786889647
 30
0.0
 10
-5.1050673055
 20
10.4878534388
 30
0.0
 10
-5.1038453686
 20
10.4979611999
 30
0.0
 10
-5.102682452
 20
10.5089689962
 30
0.0
 10
-5.1015837087
 20
10.520829954
 30
0.0
 10
-5.1005539826
 20
10.5334934583
 30
0.0
 10
-5.0995981932
 20
10.5469052223
 30
0.0
 10
-5.0987200869
 20
10.5610080625
 30
0.0
 10
-5.0976393312
 20
10.5810128767
 30
0.0
 10
-5.0965225639
 20
10.6072741881
 30
0.0
 10
-5.0955640444
 20
10.6399754533
 30
0.0
 10
-5.0949820506
 20
10.6738453785
 30
0.0
 10
-5.0947868471
 20
10.7083048274
 30
0.0
 10
-5.0949821165
 20
10.7427637205
 30
0.0
 10
-5.0955640241
 20
10.7766343789
 30
0.0
 10
-5.096522607
 20
10.8093355271
 30
0.0
 10
-5.097430147
 20
10.8306763986
 30
0.0
 10
-5.0979523684
 20
10.8410547234
 30
0.0
  0
SPLINE
  5
3FC
100
AcDbEntity
  8
0
100
AcDbSpline
 62
7
  6
CONTINUOUS
 70
0
 71
3
 72
15
 73
11
 74
0
 42
0.0000001
 43
0.0000001
 44
0.0000000001
 40
0.0
 40
0.0
 40
0.0
 40
0.0
 40
0.1453524083
 40
0.2868079831
 40
0.4230969843
 40
0.5529474777
 40
0.6754525845
 40
0.7903911539
 40
0.8982555593
 40
1.0
 40
1.0
 40
1.0
 40
1.0
 10
-2.0536666455
 20
-0.0377016276
 30
0.0
 10
-2.0607742613
 20
-0.0333491196
 30
0.0
 10
-2.0747138039
 20
-0.0246201696
 30
0.0
 10
-2.0949339414
 20
-0.0112087502
 30
0.0
 10
-2.1139731148
 20
0.0023550787
 30
0.0
 10
-2.1315826337
 20
0.016024093
 30
0.0
 10
-2.1475884407
 20
0.0297256638
 30
0.0
 10
-2.1619447722
 20
0.0433747649
 30
0.0
 10
-2.1747416437
 20
0.0568968573
 30
0.0
 10
-2.1825594442
 20
0.0660325788
 30
0.0
 10
-2.186249167
 20
0.0705515479
 30
0.0
  0
SPLINE
  5
3FD
100
AcDbEntity
  8
0
100
AcDbSpline
 62
7
  6
CONTINUOUS
 70
0
 71
3
 72
19
 73
15
 74
0
 42
0.0000001
 43
0.0000001
 44
0.0000000001
 40
0.0
 40
0.0
 40
0.0
 40
0.0
 40
0.1239135187
 40
0.2486584689
 40
0.3113153546
 40
0.3741210923
 40
0.4370327446
 40
0.5
 40
0.5629672554
 40
0.6258789077
 40
0.6886846454
 40
0.7513415311
 40
0.8760864813
 40
1.0
 40
1.0
 40
1.0
 40
1.0
 10
-2.186249167
 20
0.0705515479
 30
0.0
 10
-2.1880513881
 20
0.079380592
 30
0.0
 10
-2.1913503555
 20
0.0971650487
 30
0.0
 10
-2.1945021667
 20
0.1195932248
 30
0.0
 10
-2.1963358546
 20
0.1376978729
 30
0.0
 10
-2.197341359
 20
0.1513615399
 30
0.0
 10
-2.1979535734
 20
0.1650711508
 30
0.0
 10
-2.1981596839
 20
0.1788047234
 30
0.0
 10
-2.1979535734
 20
0.192538296
 30
0.0
 10
-2.197341359
 20
0.2062479068
 30
0.0
 10
-2.1963358546
 20
0.2199115738
 30
0.0
 10
-2.1945021667
 20
0.2380162219
 30
0.0
 10
-2.1913503555
 20
0.260444398
 30
0.0
 10
-2.1880513881
 20
0.2782288547
 30
0.0
 10
-2.186249167
 20
0.2870578988
 30
0.0
  0
SPLINE
  5
3FE
100
AcDbEntity
  8
0
100
AcDbSpline
 62
7
  6
CONTINUOUS
 70
0
 71
3
 72
15
 73
11
 74
0
 42
0.0000001
 43
0.0000001
 44
0.0000000001
 40
0.0
 40
0.0
 40
0.0
 40
0.0
 40
0.1017444407
 40
0.2096088461
 40
0.3245474155
 40
0.4470525223
 40
0.5769030157
 40
0.7131920169
 40
0.8546475917
 40
1.0
 40
1.0
 40
1.0
 40
1.0
 10
-2.186249167
 20
0.2870578988
 30
0.0
 10
-2.1825594442
 20
0.291576868
 30
0.0
 10
-2.1747416437
 20
0.3007125894
 30
0.0
 10
-2.1619447722
 20
0.3142346818
 30
0.0
 10
-2.1475884407
 20
0.3278837829
 30
0.0
 10
-2.1315826337
 20
0.3415853537
 30
0.0
 10
-2.1139731148
 20
0.355254368
 30
0.0
 10
-2.0949339414
 20
0.3688181969
 30
0.0
 10
-2.0747138039
 20
0.3822296164
 30
0.0
 10
-2.0607742613
 20
0.3909585663
 30
0.0
 10
-2.0536666455
 20
0.3953110743
 30
0.0
  0
SPLINE
  5
3FF
100
AcDbEntity
  8
0
100
AcDbSpline
 62
7
  6
CONTINUOUS
 70
0
 71
3
 72
18
 73
14
 74
0
 42
0.0000001
 43
0.0000001
 44
0.0000000001
 40
0.0
 40
0.0
 40
0.0
 40
0.0
 40
0.1219690361
 40
0.1839708425
 40
0.2465153938
 40
0.3095066389
 40
0.3728352556
 40
0.4363889226
 40
0.5000552733
 40
0.6272461297
 40
0.7535355339
 40
0.8780544894
 40
1.0
 40
1.0
 40
1.0
 40
1.0
 10
-1.7327436768
 20
0.2983455465
 30
0.0
 10
-1.7293364467
 20
0.2890378454
 30
0.0
 10
-1.7248631179
 20
0.2747433395
 30
0.0
 10
-1.720174017
 20
0.2552627567
 30
0.0
 10
-1.7172627638
 20
0.2402977975
 30
0.0
 10
-1.7149884143
 20
0.2251146195
 30
0.0
 10
-1.713357273
 20
0.2097664395
 30
0.0
 10
-1.7123771328
 20
0.1943078132
 30
0.0
 10
-1.7119411671
 20
0.1736328529
 30
0.0
 10
-1.7130282253
 20
0.1478497323
 30
0.0
 10
-1.7169218935
 20
0.1173421151
 30
0.0
 10
-1.7233496252
 20
0.087702335
 30
0.0
 10
-1.7293412094
 20
0.068555565
 30
0.0
 10
-1.7327486087
 20
0.0592499617
 30
0.0
  0
SPLINE
  5
400
100
AcDbEntity
  8
0
100
AcDbSpline
 62
7
  6
CONTINUOUS
 70
0
 71
3
 72
21
 73
17
 74
0
 42
0.0000001
 43
0.0000001
 44
0.0000000001
 40
0.0
 40
0.0
 40
0.0
 40
0.0
 40
0.1440731398
 40
0.2141423639
 40
0.2827644762
 40
0.4153833666
 40
0.479410101
 40
0.541909948
 40
0.6029368125
 40
0.6625754048
 40
0.7209447789
 40
0.7781948503
 40
0.8345072118
 40
0.890089341
 40
0.9451717899
 40
1.0
 40
1.0
 40
1.0
 40
1.0
 10
-1.7327486087
 20
0.0592499617
 30
0.0
 10
-1.7365324056
 20
0.0489164171
 30
0.0
 10
-1.7429784792
 20
0.033834847
 30
0.0
 10
-1.7531747862
 20
0.0147833785
 30
0.0
 10
-1.7640402772
 20
-0.0028735604
 30
0.0
 10
-1.7762607044
 20
-0.0191228889
 30
0.0
 10
-1.7897539821
 20
-0.033623691
 30
0.0
 10
-1.8002566178
 20
-0.0433863496
 30
0.0
 10
-1.8112084034
 20
-0.0521146112
 30
0.0
 10
-1.8225602319
 20
-0.0597667787
 30
0.0
 10
-1.8342587887
 20
-0.0663069956
 30
0.0
 10
-1.8462504551
 20
-0.0717025156
 30
0.0
 10
-1.8584784721
 20
-0.0759279766
 30
0.0
 10
-1.8708861012
 20
-0.0789611487
 30
0.0
 10
-1.8834125474
 20
-0.0807879349
 30
0.0
 10
-1.8918132857
 20
-0.0811949968
 30
0.0
 10
-1.8960011422
 20
-0.0811950898
 30
0.0
  0
SPLINE
  5
401
100
AcDbEntity
  8
0
100
AcDbSpline
 62
7
  6
CONTINUOUS
 70
0
 71
3
 72
23
 73
19
 74
0
 42
0.0000001
 43
0.0000001
 44
0.0000000001
 40
0.0
 40
0.0
 40
0.0
 40
0.0
 40
0.0723863627
 40
0.1435277136
 40
0.2132914826
 40
0.2816143877
 40
0.3484651727
 40
0.4138258032
 40
0.4776964214
 40
0.5401091272
 40
0.6011236465
 40
0.6608295149
 40
0.7193435624
 40
0.7768121274
 40
0.8334073264
 40
0.8893251129
 40
0.9447799417
 40
1.0
 40
1.0
 40
1.0
 40
1.0
 10
-1.7367901021
 20
0.3088047234
 30
0.0
 10
-1.7387781379
 20
0.3136743966
 30
0.0
 10
-1.7429746373
 20
0.3232285243
 30
0.0
 10
-1.7499752755
 20
0.337064424
 30
0.0
 10
-1.7576029329
 20
0.3502256885
 30
0.0
 10
-1.7658223794
 20
0.3626541029
 30
0.0
 10
-1.7746004801
 20
0.3742969421
 30
0.0
 10
-1.7838990036
 20
0.3851060874
 30
0.0
 10
-1.7936802214
 20
0.3950336616
 30
0.0
 10
-1.8039015749
 20
0.4040376487
 30
0.0
 10
-1.8145207356
 20
0.4120782298
 30
0.0
 10
-1.8254920782
 20
0.4191211752
 30
0.0
 10
-1.8367694733
 20
0.4251348143
 30
0.0
 10
-1.8483044839
 20
0.4300927515
 30
0.0
 10
-1.860047547
 20
0.4339725753
 30
0.0
 10
-1.8719482206
 20
0.4367564113
 30
0.0
 10
-1.8839532551
 20
0.4384320298
 30
0.0
 10
-1.8920002445
 20
0.4388046257
 30
0.0
 10
-1.8960127285
 20
0.4388045366
 30
0.0
  0
SPLINE
  5
402
100
AcDbEntity
  8
0
100
AcDbSpline
 62
7
  6
CONTINUOUS
 70
0
 71
3
 72
11
 73
7
 74
0
 42
0.0000001
 43
0.0000001
 44
0.0000000001
 40
0.0
 40
0.0
 40
0.0
 40
0.0
 40
0.2401732686
 40
0.4850365616
 40
0.7374846583
 40
1.0
 40
1.0
 40
1.0
 40
1.0
 10
-1.9468479129
 20
-0.0377016276
 30
0.0
 10
-1.9462430431
 20
-0.0377016276
 30
0.0
 10
-1.9450186491
 20
-0.0378214955
 30
0.0
 10
-1.9432260087
 20
-0.0383435784
 30
0.0
 10
-1.941503123
 20
-0.0391963537
 30
0.0
 10
-1.9404403718
 20
-0.0399490866
 30
0.0
 10
-1.9399280023
 20
-0.0403669149
 30
0.0
  0
SPLINE
  5
403
100
AcDbEntity
  8
0
100
AcDbSpline
 62
7
  6
CONTINUOUS
 70
0
 71
3
 72
11
 73
7
 74
0
 42
0.0000001
 43
0.0000001
 44
0.0000000001
 40
0.0
 40
0.0
 40
0.0
 40
0.0
 40
0.2401732686
 40
0.4850365616
 40
0.7374846583
 40
1.0
 40
1.0
 40
1.0
 40
1.0
 10
-1.9468479129
 20
0.3953110743
 30
0.0
 10
-1.9462430431
 20
0.3953110743
 30
0.0
 10
-1.9450186491
 20
0.3954309422
 30
0.0
 10
-1.9432260087
 20
0.3959530252
 30
0.0
 10
-1.941503123
 20
0.3968058005
 30
0.0
 10
-1.9404403718
 20
0.3975585333
 30
0.0
 10
-1.9399280023
 20
0.3979763616
 30
0.0
  0
SPLINE
  5
404
100
AcDbEntity
  8
0
100
AcDbSpline
 62
7
  6
CONTINUOUS
 70
0
 71
3
 72
15
 73
11
 74
0
 42
0.0000001
 43
0.0000001
 44
0.0000000001
 40
0.0
 40
0.0
 40
0.0
 40
0.0
 40
0.119057511
 40
0.2387427078
 40
0.3596605012
 40
0.482372663
 40
0.6073780386
 40
0.7351040355
 40
0.8658915427
 40
1.0
 40
1.0
 40
1.0
 40
1.0
 10
-1.9313564813
 20
-0.0811950898
 30
0.0
 10
-1.9358279727
 20
-0.0811951892
 30
0.0
 10
-1.9448013954
 20
-0.0807319622
 30
0.0
 10
-1.9581704593
 20
-0.0786496382
 30
0.0
 10
-1.9713945981
 20
-0.0751937729
 30
0.0
 10
-1.984399684
 20
-0.0703820765
 30
0.0
 10
-1.9971172728
 20
-0.06424436
 30
0.0
 10
-2.0094786283
 20
-0.0568125597
 30
0.0
 10
-2.0214190535
 20
-0.0481308051
 30
0.0
 10
-2.0289604047
 20
-0.0416221565
 30
0.0
 10
-2.0326422926
 20
-0.0381851939
 30
0.0
  0
SPLINE
  5
405
100
AcDbEntity
  8
0
100
AcDbSpline
 62
7
  6
CONTINUOUS
 70
0
 71
3
 72
17
 73
13
 74
0
 42
0.0000001
 43
0.0000001
 44
0.0000000001
 40
0.0
 40
0.0
 40
0.0
 40
0.0
 40
0.1189994808
 40
0.2386330948
 40
0.2988987019
 40
0.3595485145
 40
0.4822355288
 40
0.5444348928
 40
0.6072696525
 40
0.7350094912
 40
0.8658344983
 40
1.0
 40
1.0
 40
1.0
 40
1.0
 10
-1.9313680676
 20
0.4388045366
 30
0.0
 10
-1.9358606371
 20
0.4388044368
 30
0.0
 10
-1.9448762379
 20
0.4383357239
 30
0.0
 10
-1.9560447651
 20
0.4365868401
 30
0.0
 10
-1.9648877569
 20
0.4345045169
 30
0.0
 10
-1.9737255336
 20
0.4319490371
 30
0.0
 10
-1.9824303817
 20
0.4287123258
 30
0.0
 10
-1.990943429
 20
0.4248340836
 30
0.0
 10
-1.999435272
 20
0.4204733424
 30
0.0
 10
-2.009835316
 20
0.4141880359
 30
0.0
 10
-2.0218165563
 20
0.4054255749
 30
0.0
 10
-2.0293811899
 20
0.3988589051
 30
0.0
 10
-2.033073254
 20
0.3953913115
 30
0.0
  0
SPLINE
  5
406
100
AcDbEntity
  8
0
100
AcDbSpline
 62
7
  6
CONTINUOUS
 70
0
 71
3
 72
19
 73
15
 74
0
 42
0.0000001
 43
0.0000001
 44
0.0000000001
 40
0.0
 40
0.0
 40
0.0
 40
0.0
 40
0.1239135187
 40
0.2486584689
 40
0.3113153546
 40
0.3741210923
 40
0.4370327446
 40
0.5
 40
0.5629672554
 40
0.6258789077
 40
0.6886846454
 40
0.7513415311
 40
0.8760864813
 40
1.0
 40
1.0
 40
1.0
 40
1.0
 10
-1.9210841241
 20
0.2870578988
 30
0.0
 10
-1.9228863451
 20
0.2782288547
 30
0.0
 10
-1.9261853125
 20
0.260444398
 30
0.0
 10
-1.9293371238
 20
0.2380162219
 30
0.0
 10
-1.9311708116
 20
0.2199115738
 30
0.0
 10
-1.9321763161
 20
0.2062479068
 30
0.0
 10
-1.9327885305
 20
0.192538296
 30
0.0
 10
-1.932994641
 20
0.1788047234
 30
0.0
 10
-1.9327885305
 20
0.1650711508
 30
0.0
 10
-1.9321763161
 20
0.1513615399
 30
0.0
 10
-1.9311708116
 20
0.1376978729
 30
0.0
 10
-1.9293371238
 20
0.1195932248
 30
0.0
 10
-1.9261853125
 20
0.0971650487
 30
0.0
 10
-1.9228863451
 20
0.079380592
 30
0.0
 10
-1.9210841241
 20
0.0705515479
 30
0.0
  0
SPLINE
  5
407
100
AcDbEntity
  8
0
100
AcDbSpline
 62
7
  6
CONTINUOUS
 70
0
 71
3
 72
17
 73
13
 74
0
 42
0.0000001
 43
0.0000001
 44
0.0000000001
 40
0.0
 40
0.0
 40
0.0
 40
0.0
 40
0.0507521541
 40
0.1062279752
 40
0.1656818145
 40
0.2283685672
 40
0.3603916239
 40
0.4965882669
 40
0.6320482742
 40
0.7629485808
 40
0.8864675634
 40
1.0
 40
1.0
 40
1.0
 40
1.0
 10
-1.8142653915
 20
0.0705515479
 30
0.0
 10
-1.8136910881
 20
0.0705515479
 30
0.0
 10
-1.812488802
 20
0.0704969507
 30
0.0
 10
-1.8106251152
 20
0.0702828021
 30
0.0
 10
-1.8086444567
 20
0.069935058
 30
0.0
 10
-1.8058398257
 20
0.0692935934
 30
0.0
 10
-1.80225034
 20
0.0682110749
 30
0.0
 10
-1.7979826205
 20
0.0665726366
 30
0.0
 10
-1.7938455336
 20
0.0646583012
 30
0.0
 10
-1.7899663457
 20
0.0625501762
 30
0.0
 10
-1.7864464963
 20
0.0603203348
 30
0.0
 10
-1.7842892505
 20
0.0587201022
 30
0.0
 10
-1.7832941145
 20
0.057907577
 30
0.0
  0
SPLINE
  5
408
100
AcDbEntity
  8
0
100
AcDbSpline
 62
7
  6
CONTINUOUS
 70
0
 71
3
 72
17
 73
13
 74
0
 42
0.0000001
 43
0.0000001
 44
0.0000000001
 40
0.0
 40
0.0
 40
0.0
 40
0.0
 40
0.0507521541
 40
0.1062279752
 40
0.1656818145
 40
0.2283685672
 40
0.3603916239
 40
0.4965882669
 40
0.6320482742
 40
0.7629485808
 40
0.8864675634
 40
1.0
 40
1.0
 40
1.0
 40
1.0
 10
-1.8142653915
 20
0.2870578988
 30
0.0
 10
-1.8136910881
 20
0.2870578988
 30
0.0
 10
-1.812488802
 20
0.287112496
 30
0.0
 10
-1.8106251152
 20
0.2873266446
 30
0.0
 10
-1.8086444567
 20
0.2876743887
 30
0.0
 10
-1.8058398257
 20
0.2883158534
 30
0.0
 10
-1.80225034
 20
0.2893983718
 30
0.0
 10
-1.7979826205
 20
0.2910368101
 30
0.0
 10
-1.7938455336
 20
0.2929511455
 30
0.0
 10
-1.7899663457
 20
0.2950592705
 30
0.0
 10
-1.7864464963
 20
0.2972891119
 30
0.0
 10
-1.7842892505
 20
0.2988893445
 30
0.0
 10
-1.7832941145
 20
0.2997018697
 30
0.0
  0
SPLINE
  5
409
100
AcDbEntity
  8
0
100
AcDbSpline
 62
7
  6
CONTINUOUS
 70
0
 71
3
 72
15
 73
11
 74
0
 42
0.0000001
 43
0.0000001
 44
0.0000000001
 40
0.0
 40
0.0
 40
0.0
 40
0.0
 40
0.1453524083
 40
0.2868079831
 40
0.4230969843
 40
0.5529474777
 40
0.6754525845
 40
0.7903911539
 40
0.8982555593
 40
1.0
 40
1.0
 40
1.0
 40
1.0
 10
-1.9210841241
 20
0.0705515479
 30
0.0
 10
-1.9281917399
 20
0.0661990399
 30
0.0
 10
-1.9421312824
 20
0.0574700899
 30
0.0
 10
-1.9623514199
 20
0.0440586705
 30
0.0
 10
-1.9813905933
 20
0.0304948416
 30
0.0
 10
-1.9990001122
 20
0.0168258273
 30
0.0
 10
-2.0150059192
 20
0.0031242565
 30
0.0
 10
-2.0293622507
 20
-0.0105248446
 30
0.0
 10
-2.0421591222
 20
-0.024046937
 30
0.0
 10
-2.0499769227
 20
-0.0331826585
 30
0.0
 10
-2.0536666455
 20
-0.0377016276
 30
0.0
  0
SPLINE
  5
40A
100
AcDbEntity
  8
0
100
AcDbSpline
 62
7
  6
CONTINUOUS
 70
0
 71
3
 72
9
 73
5
 74
0
 42
0.0000001
 43
0.0000001
 44
0.0000000001
 40
0.0
 40
0.0
 40
0.0
 40
0.0
 40
0.5053699307
 40
1.0
 40
1.0
 40
1.0
 40
1.0
 10
-1.7721454412
 20
0.3088047234
 30
0.0
 10
-1.7745359269
 20
0.3146601936
 30
0.0
 10
-1.7796332369
 20
0.3261005922
 30
0.0
 10
-1.7854767688
 20
0.3371798147
 30
0.0
 10
-1.7885555939
 20
0.342550075
 30
0.0
  0
SPLINE
  5
40B
100
AcDbEntity
  8
0
100
AcDbSpline
 62
7
  6
CONTINUOUS
 70
0
 71
3
 72
21
 73
17
 74
0
 42
0.0000001
 43
0.0000001
 44
0.0000000001
 40
0.0
 40
0.0
 40
0.0
 40
0.0
 40
0.1409037921
 40
0.2094606649
 40
0.2767188217
 40
0.4072915637
 40
0.4707168939
 40
0.532947487
 40
0.5940561555
 40
0.6541316856
 40
0.7132821329
 40
0.7716321156
 40
0.8293208944
 40
0.8865019298
 40
0.9433379855
 40
1.0
 40
1.0
 40
1.0
 40
1.0
 10
-1.7885555939
 20
0.342550075
 30
0.0
 10
-1.7927706934
 20
0.3499022892
 30
0.0
 10
-1.7995698596
 20
0.360542247
 30
0.0
 10
-1.8096236023
 20
0.3738143474
 30
0.0
 10
-1.8199842029
 20
0.3860437659
 30
0.0
 10
-1.8311475299
 20
0.3971646165
 30
0.0
 10
-1.8430350197
 20
0.4069852882
 30
0.0
 10
-1.8521415294
 20
0.4135762795
 30
0.0
 10
-1.8614939286
 20
0.4194425467
 30
0.0
 10
-1.871064597
 20
0.4245649838
 30
0.0
 10
-1.8808236944
 20
0.4289273226
 30
0.0
 10
-1.8907407728
 20
0.4325165169
 30
0.0
 10
-1.9007855011
 20
0.4353192985
 30
0.0
 10
-1.9109261709
 20
0.4373285458
 30
0.0
 10
-1.9211305928
 20
0.4385361195
 30
0.0
 10
-1.9279600766
 20
0.4388046123
 30
0.0
 10
-1.9313680676
 20
0.4388045366
 30
0.0
  0
SPLINE
  5
40C
100
AcDbEntity
  8
0
100
AcDbSpline
 62
7
  6
CONTINUOUS
 70
0
 71
3
 72
19
 73
15
 74
0
 42
0.0000001
 43
0.0000001
 44
0.0000000001
 40
0.0
 40
0.0
 40
0.0
 40
0.0
 40
0.0607988999
 40
0.1226154382
 40
0.1852676822
 40
0.2486092977
 40
0.3124835742
 40
0.376713916
 40
0.5054802096
 40
0.6335154076
 40
0.7594199491
 40
0.8211934175
 40
0.8819716417
 40
1.0
 40
1.0
 40
1.0
 40
1.0
 10
-1.7721454412
 20
0.3088047234
 30
0.0
 10
-1.7698286405
 20
0.303129744
 30
0.0
 10
-1.7655054301
 20
0.2915391551
 30
0.0
 10
-1.7600062897
 20
0.2736783393
 30
0.0
 10
-1.7554684358
 20
0.2552848981
 30
0.0
 10
-1.7519163781
 20
0.2364654793
 30
0.0
 10
-1.7493694853
 20
0.2173229671
 30
0.0
 10
-1.74733161
 20
0.1914958062
 30
0.0
 10
-1.7473584643
 20
0.159063269
 30
0.0
 10
-1.75147301
 20
0.1206293887
 30
0.0
 10
-1.7582754096
 20
0.0894618811
 30
0.0
 10
-1.765691638
 20
0.065521916
 30
0.0
 10
-1.7742144607
 20
0.0428042869
 30
0.0
 10
-1.7820625546
 20
0.0265055715
 30
0.0
 10
-1.7879315825
 20
0.0161541292
 30
0.0
  0
SPLINE
  5
40D
100
AcDbEntity
  8
0
100
AcDbSpline
 62
7
  6
CONTINUOUS
 70
0
 71
3
 72
20
 73
16
 74
0
 42
0.0000001
 43
0.0000001
 44
0.0000000001
 40
0.0
 40
0.0
 40
0.0
 40
0.0
 40
0.1410155942
 40
0.276870466
 40
0.4075028347
 40
0.4709452369
 40
0.5331840148
 40
0.594289866
 40
0.6543539183
 40
0.7134833306
 40
0.7718041018
 40
0.8294568544
 40
0.8865957751
 40
0.9433861272
 40
1.0
 40
1.0
 40
1.0
 40
1.0
 10
-1.7879315825
 20
0.0161541292
 30
0.0
 10
-1.7921435213
 20
0.008725362
 30
0.0
 10
-1.8011252616
 20
-0.0054735597
 30
0.0
 10
-1.8164661936
 20
-0.0248617614
 30
0.0
 10
-1.8306012669
 20
-0.0390570099
 30
0.0
 10
-1.8425390073
 20
-0.0489917298
 30
0.0
 10
-1.8516859208
 20
-0.0556606709
 30
0.0
 10
-1.8610842545
 20
-0.0615957138
 30
0.0
 10
-1.8707039775
 20
-0.0667798684
 30
0.0
 10
-1.8805158924
 20
-0.0711949019
 30
0.0
 10
-1.8904887895
 20
-0.0748273564
 30
0.0
 10
-1.9005913009
 20
-0.0776655693
 30
0.0
 10
-1.9107919855
 20
-0.0796989819
 30
0.0
 10
-1.9210572983
 20
-0.0809227731
 30
0.0
 10
-1.9279280147
 20
-0.0811950137
 30
0.0
 10
-1.9313564813
 20
-0.0811950898
 30
0.0
  0
SPLINE
  5
40E
100
AcDbEntity
  8
0
100
AcDbSpline
 62
7
  6
CONTINUOUS
 70
0
 71
3
 72
45
 73
41
 74
0
 42
0.0000001
 43
0.0000001
 44
0.0000000001
 40
0.0
 40
0.0
 40
0.0
 40
0.0
 40
0.0128513267
 40
0.0257402646
 40
0.038691441
 40
0.051730823
 40
0.0648871307
 40
0.0781878531
 40
0.1053036192
 40
0.1332505709
 40
0.1621439873
 40
0.1920543393
 40
0.2230077703
 40
0.2549895349
 40
0.287948694
 40
0.3218028922
 40
0.3564428168
 40
0.3917370601
 40
0.4275370898
 40
0.4636814477
 40
0.5
 40
0.5363185523
 40
0.5724629102
 40
0.6082629399
 40
0.6435571832
 40
0.6781971078
 40
0.712051306
 40
0.7450104651
 40
0.7769922297
 40
0.8079456607
 40
0.8378560127
 40
0.8667494291
 40
0.8946963808
 40
0.9218121469
 40
0.9351128693
 40
0.948269177
 40
0.961308559
 40
0.9742597354
 40
0.9871486733
 40
1.0
 40
1.0
 40
1.0
 40
1.0
 10
-2.0657125629
 20
0.3658047234
 30
0.0
 10
-2.0635493299
 20
0.3658047234
 30
0.0
 10
-2.0592150436
 20
0.3656537227
 30
0.0
 10
-2.0527325458
 20
0.364976811
 30
0.0
 10
-2.0462803954
 20
0.363850637
 30
0.0
 10
-2.0398764371
 20
0.3622770955
 30
0.0
 10
-2.0335358028
 20
0.3602611923
 30
0.0
 10
-2.0251344738
 20
0.3569694494
 30
0.0
 10
-2.014846145
 20
0.3517415012
 30
0.0
 10
-2.0030885235
 20
0.3438442374
 30
0.0
 10
-1.9919446323
 20
0.3343620358
 30
0.0
 10
-1.9815201986
 20
0.3233894809
 30
0.0
 10
-1.9719122866
 20
0.3110330569
 30
0.0
 10
-1.9632102703
 20
0.2974123633
 30
0.0
 10
-1.9554952633
 20
0.2826581116
 30
0.0
 10
-1.94883985
 20
0.2669112819
 30
0.0
 10
-1.9433067695
 20
0.2503223271
 30
0.0
 10
-1.9389478555
 20
0.2330498658
 30
0.0
 10
-1.9358043542
 20
0.2152588811
 30
0.0
 10
-1.9339064303
 20
0.1971193466
 30
0.0
 10
-1.9332718496
 20
0.1788047234
 30
0.0
 10
-1.9339064303
 20
0.1604901001
 30
0.0
 10
-1.9358043542
 20
0.1423505657
 30
0.0
 10
-1.9389478555
 20
0.1245595809
 30
0.0
 10
-1.9433067695
 20
0.1072871196
 30
0.0
 10
-1.94883985
 20
0.0906981648
 30
0.0
 10
-1.9554952633
 20
0.0749513352
 30
0.0
 10
-1.9632102703
 20
0.0601970834
 30
0.0
 10
-1.9719122866
 20
0.0465763898
 30
0.0
 10
-1.9815201986
 20
0.0342199658
 30
0.0
 10
-1.9919446323
 20
0.0232474109
 30
0.0
 10
-2.0030885235
 20
0.0137652094
 30
0.0
 10
-2.014846145
 20
0.0058679455
 30
0.0
 10
-2.0251344738
 20
0.0006399974
 30
0.0
 10
-2.0335358028
 20
-0.0026517455
 30
0.0
 10
-2.0398764371
 20
-0.0046676488
 30
0.0
 10
-2.0462803954
 20
-0.0062411903
 30
0.0
 10
-2.0527325458
 20
-0.0073673642
 30
0.0
 10
-2.0592150436
 20
-0.0080442759
 30
0.0
 10
-2.0635493299
 20
-0.0081952766
 30
0.0
 10
-2.0657125629
 20
-0.0081952766
 30
0.0
  0
SPLINE
  5
40F
100
AcDbEntity
  8
0
100
AcDbSpline
 62
7
  6
CONTINUOUS
 70
0
 71
3
 72
15
 73
11
 74
0
 42
0.0000001
 43
0.0000001
 44
0.0000000001
 40
0.0
 40
0.0
 40
0.0
 40
0.0
 40
0.1093848924
 40
0.2247529651
 40
0.3455303054
 40
0.4709316038
 40
0.5999829275
 40
0.7318632405
 40
0.865594525
 40
1.0
 40
1.0
 40
1.0
 40
1.0
 10
-1.9399280023
 20
-0.0403669149
 30
0.0
 10
-1.9392241216
 20
-0.0409409171
 30
0.0
 10
-1.9378868131
 20
-0.0422575122
 30
0.0
 10
-1.9361656686
 20
-0.0445636453
 30
0.0
 10
-1.9346937065
 20
-0.047188615
 30
0.0
 10
-1.9334813644
 20
-0.0500648871
 30
0.0
 10
-1.9325351915
 20
-0.0531350821
 30
0.0
 10
-1.9318585664
 20
-0.0563458305
 30
0.0
 10
-1.9314527565
 20
-0.0596460867
 30
0.0
 10
-1.9313622744
 20
-0.0618735616
 30
0.0
 10
-1.9313622744
 20
-0.0629895694
 30
0.0
  0
SPLINE
  5
410
100
AcDbEntity
  8
0
100
AcDbSpline
 62
7
  6
CONTINUOUS
 70
0
 71
3
 72
15
 73
11
 74
0
 42
0.0000001
 43
0.0000001
 44
0.0000000001
 40
0.0
 40
0.0
 40
0.0
 40
0.0
 40
0.1017444407
 40
0.2096088461
 40
0.3245474155
 40
0.4470525223
 40
0.5769030157
 40
0.7131920169
 40
0.8546475917
 40
1.0
 40
1.0
 40
1.0
 40
1.0
 10
-2.0536666455
 20
0.3953110743
 30
0.0
 10
-2.0499769227
 20
0.3907921052
 30
0.0
 10
-2.0421591222
 20
0.3816563837
 30
0.0
 10
-2.0293622507
 20
0.3681342913
 30
0.0
 10
-2.0150059192
 20
0.3544851902
 30
0.0
 10
-1.9990001122
 20
0.3407836194
 30
0.0
 10
-1.9813905933
 20
0.3271146051
 30
0.0
 10
-1.9623514199
 20
0.3135507762
 30
0.0
 10
-1.9421312824
 20
0.3001393568
 30
0.0
 10
-1.9281917399
 20
0.2914104068
 30
0.0
 10
-1.9210841241
 20
0.2870578988
 30
0.0
  0
SPLINE
  5
411
100
AcDbEntity
  8
0
100
AcDbSpline
 62
7
  6
CONTINUOUS
 70
0
 71
3
 72
15
 73
11
 74
0
 42
0.0000001
 43
0.0000001
 44
0.0000000001
 40
0.0
 40
0.0
 40
0.0
 40
0.0
 40
0.1093848924
 40
0.2247529651
 40
0.3455303054
 40
0.4709316038
 40
0.5999829275
 40
0.7318632405
 40
0.865594525
 40
1.0
 40
1.0
 40
1.0
 40
1.0
 10
-1.9399280023
 20
0.3979763616
 30
0.0
 10
-1.9392241216
 20
0.3985503638
 30
0.0
 10
-1.9378868131
 20
0.399866959
 30
0.0
 10
-1.9361656686
 20
0.402173092
 30
0.0
 10
-1.9346937065
 20
0.4047980618
 30
0.0
 10
-1.9334813644
 20
0.4076743338
 30
0.0
 10
-1.9325351915
 20
0.4107445288
 30
0.0
 10
-1.9318585664
 20
0.4139552773
 30
0.0
 10
-1.9314527565
 20
0.4172555334
 30
0.0
 10
-1.9313622744
 20
0.4194830083
 30
0.0
 10
-1.9313622744
 20
0.4205990161
 30
0.0
  0
SPLINE
  5
412
100
AcDbEntity
  8
0
100
AcDbSpline
 62
7
  6
CONTINUOUS
 70
0
 71
3
 72
45
 73
41
 74
0
 42
0.0000001
 43
0.0000001
 44
0.0000000001
 40
0.0
 40
0.0
 40
0.0
 40
0.0
 40
0.0128513267
 40
0.0257402646
 40
0.038691441
 40
0.051730823
 40
0.0648871307
 40
0.0781878531
 40
0.1053036192
 40
0.1332505709
 40
0.1621439873
 40
0.1920543393
 40
0.2230077703
 40
0.2549895349
 40
0.287948694
 40
0.3218028922
 40
0.3564428168
 40
0.3917370601
 40
0.4275370898
 40
0.4636814477
 40
0.5
 40
0.5363185523
 40
0.5724629102
 40
0.6082629399
 40
0.6435571832
 40
0.6781971078
 40
0.712051306
 40
0.7450104651
 40
0.7769922297
 40
0.8079456607
 40
0.8378560127
 40
0.8667494291
 40
0.8946963808
 40
0.9218121469
 40
0.9351128693
 40
0.948269177
 40
0.961308559
 40
0.9742597354
 40
0.9871486733
 40
1.0
 40
1.0
 40
1.0
 40
1.0
 10
-2.0657125629
 20
-0.0081952766
 30
0.0
 10
-2.0678757958
 20
-0.0081952766
 30
0.0
 10
-2.0722100821
 20
-0.0080442759
 30
0.0
 10
-2.0786925799
 20
-0.0073673642
 30
0.0
 10
-2.0851447303
 20
-0.0062411903
 30
0.0
 10
-2.0915486886
 20
-0.0046676488
 30
0.0
 10
-2.0978893229
 20
-0.0026517455
 30
0.0
 10
-2.1062906519
 20
0.0006399974
 30
0.0
 10
-2.1165789807
 20
0.0058679455
 30
0.0
 10
-2.1283366022
 20
0.0137652094
 30
0.0
 10
-2.1394804935
 20
0.0232474109
 30
0.0
 10
-2.1499049271
 20
0.0342199658
 30
0.0
 10
-2.1595128391
 20
0.0465763898
 30
0.0
 10
-2.1682148554
 20
0.0601970834
 30
0.0
 10
-2.1759298624
 20
0.0749513352
 30
0.0
 10
-2.1825852757
 20
0.0906981648
 30
0.0
 10
-2.1881183562
 20
0.1072871196
 30
0.0
 10
-2.1924772702
 20
0.1245595809
 30
0.0
 10
-2.1956207716
 20
0.1423505657
 30
0.0
 10
-2.1975186954
 20
0.1604901001
 30
0.0
 10
-2.1981532762
 20
0.1788047234
 30
0.0
 10
-2.1975186954
 20
0.1971193466
 30
0.0
 10
-2.1956207716
 20
0.2152588811
 30
0.0
 10
-2.1924772702
 20
0.2330498658
 30
0.0
 10
-2.1881183562
 20
0.2503223271
 30
0.0
 10
-2.1825852757
 20
0.2669112819
 30
0.0
 10
-2.1759298624
 20
0.2826581116
 30
0.0
 10
-2.1682148554
 20
0.2974123633
 30
0.0
 10
-2.1595128391
 20
0.3110330569
 30
0.0
 10
-2.1499049271
 20
0.3233894809
 30
0.0
 10
-2.1394804935
 20
0.3343620358
 30
0.0
 10
-2.1283366022
 20
0.3438442374
 30
0.0
 10
-2.1165789807
 20
0.3517415012
 30
0.0
 10
-2.1062906519
 20
0.3569694494
 30
0.0
 10
-2.0978893229
 20
0.3602611923
 30
0.0
 10
-2.0915486886
 20
0.3622770955
 30
0.0
 10
-2.0851447303
 20
0.363850637
 30
0.0
 10
-2.0786925799
 20
0.364976811
 30
0.0
 10
-2.0722100821
 20
0.3656537227
 30
0.0
 10
-2.0678757958
 20
0.3658047234
 30
0.0
 10
-2.0657125629
 20
0.3658047234
 30
0.0
  0
SPLINE
  5
413
100
AcDbEntity
  8
0
100
AcDbSpline
 62
7
  6
CONTINUOUS
 70
0
 71
3
 72
15
 73
11
 74
0
 42
0.0000001
 43
0.0000001
 44
0.0000000001
 40
0.0
 40
0.0
 40
0.0
 40
0.0
 40
0.1453524083
 40
0.2868079831
 40
0.4230969843
 40
0.5529474777
 40
0.6754525845
 40
0.7903911539
 40
0.8982555593
 40
1.0
 40
1.0
 40
1.0
 40
1.0
 10
11.6259709392
 20
0.3953110743
 30
0.0
 10
11.633078555
 20
0.3909585663
 30
0.0
 10
11.6470180976
 20
0.3822296164
 30
0.0
 10
11.6672382351
 20
0.3688181969
 30
0.0
 10
11.6862774085
 20
0.355254368
 30
0.0
 10
11.7038869274
 20
0.3415853537
 30
0.0
 10
11.7198927343
 20
0.3278837829
 30
0.0
 10
11.7342490659
 20
0.3142346818
 30
0.0
 10
11.7470459374
 20
0.3007125894
 30
0.0
 10
11.7548637378
 20
0.291576868
 30
0.0
 10
11.7585534607
 20
0.2870578988
 30
0.0
  0
SPLINE
  5
414
100
AcDbEntity
  8
0
100
AcDbSpline
 62
7
  6
CONTINUOUS
 70
0
 71
3
 72
19
 73
15
 74
0
 42
0.0000001
 43
0.0000001
 44
0.0000000001
 40
0.0
 40
0.0
 40
0.0
 40
0.0
 40
0.1239135187
 40
0.2486584689
 40
0.3113153546
 40
0.3741210923
 40
0.4370327446
 40
0.5
 40
0.5629672554
 40
0.6258789077
 40
0.6886846454
 40
0.7513415311
 40
0.8760864813
 40
1.0
 40
1.0
 40
1.0
 40
1.0
 10
11.7585534607
 20
0.2870578988
 30
0.0
 10
11.7603556818
 20
0.2782288547
 30
0.0
 10
11.7636546492
 20
0.260444398
 30
0.0
 10
11.7668064604
 20
0.2380162219
 30
0.0
 10
11.7686401483
 20
0.2199115738
 30
0.0
 10
11.7696456527
 20
0.2062479068
 30
0.0
 10
11.7702578671
 20
0.192538296
 30
0.0
 10
11.7704639776
 20
0.1788047234
 30
0.0
 10
11.7702578671
 20
0.1650711508
 30
0.0
 10
11.7696456527
 20
0.1513615399
 30
0.0
 10
11.7686401483
 20
0.1376978729
 30
0.0
 10
11.7668064604
 20
0.1195932248
 30
0.0
 10
11.7636546492
 20
0.0971650487
 30
0.0
 10
11.7603556818
 20
0.079380592
 30
0.0
 10
11.7585534607
 20
0.0705515479
 30
0.0
  0
SPLINE
  5
415
100
AcDbEntity
  8
0
100
AcDbSpline
 62
7
  6
CONTINUOUS
 70
0
 71
3
 72
15
 73
11
 74
0
 42
0.0000001
 43
0.0000001
 44
0.0000000001
 40
0.0
 40
0.0
 40
0.0
 40
0.0
 40
0.1017444407
 40
0.2096088461
 40
0.3245474155
 40
0.4470525223
 40
0.5769030157
 40
0.7131920169
 40
0.8546475917
 40
1.0
 40
1.0
 40
1.0
 40
1.0
 10
11.7585534607
 20
0.0705515479
 30
0.0
 10
11.7548637378
 20
0.0660325788
 30
0.0
 10
11.7470459374
 20
0.0568968573
 30
0.0
 10
11.7342490659
 20
0.0433747649
 30
0.0
 10
11.7198927343
 20
0.0297256638
 30
0.0
 10
11.7038869274
 20
0.016024093
 30
0.0
 10
11.6862774085
 20
0.0023550787
 30
0.0
 10
11.6672382351
 20
-0.0112087502
 30
0.0
 10
11.6470180976
 20
-0.0246201696
 30
0.0
 10
11.633078555
 20
-0.0333491196
 30
0.0
 10
11.6259709392
 20
-0.0377016276
 30
0.0
  0
SPLINE
  5
416
100
AcDbEntity
  8
0
100
AcDbSpline
 62
7
  6
CONTINUOUS
 70
0
 71
3
 72
15
 73
11
 74
0
 42
0.0000001
 43
0.0000001
 44
0.0000000001
 40
0.0
 40
0.0
 40
0.0
 40
0.0
 40
0.1341084573
 40
0.2648959645
 40
0.3926219614
 40
0.517627337
 40
0.6403394988
 40
0.7612572922
 40
0.880942489
 40
1.0
 40
1.0
 40
1.0
 40
1.0
 10
11.6049465863
 20
0.3957946407
 30
0.0
 10
11.6012646984
 20
0.3992316032
 30
0.0
 10
11.5937233472
 20
0.4057402519
 30
0.0
 10
11.581782922
 20
0.4144220065
 30
0.0
 10
11.5694215665
 20
0.4218538067
 30
0.0
 10
11.5567039776
 20
0.4279915232
 30
0.0
 10
11.5436988918
 20
0.4328032196
 30
0.0
 10
11.530474753
 20
0.4362590849
 30
0.0
 10
11.5171056891
 20
0.438341409
 30
0.0
 10
11.5081322663
 20
0.4388046359
 30
0.0
 10
11.503660775
 20
0.4388045366
 30
0.0
  0
SPLINE
  5
417
100
AcDbEntity
  8
0
100
AcDbSpline
 62
7
  6
CONTINUOUS
 70
0
 71
3
 72
17
 73
13
 74
0
 42
0.0000001
 43
0.0000001
 44
0.0000000001
 40
0.0
 40
0.0
 40
0.0
 40
0.0
 40
0.1341655017
 40
0.2649905088
 40
0.3927303475
 40
0.4555651072
 40
0.5177644712
 40
0.6404514855
 40
0.7011012981
 40
0.7613669052
 40
0.8810005192
 40
1.0
 40
1.0
 40
1.0
 40
1.0
 10
11.6053775477
 20
-0.0377818648
 30
0.0
 10
11.6016854836
 20
-0.0412494584
 30
0.0
 10
11.5941208499
 20
-0.0478161282
 30
0.0
 10
11.5821396097
 20
-0.0565785892
 30
0.0
 10
11.5717395656
 20
-0.0628638957
 30
0.0
 10
11.5632477227
 20
-0.0672246369
 30
0.0
 10
11.5547346754
 20
-0.071102879
 30
0.0
 10
11.5460298273
 20
-0.0743395904
 30
0.0
 10
11.5371920506
 20
-0.0768950701
 30
0.0
 10
11.5283490588
 20
-0.0789773933
 30
0.0
 10
11.5171805316
 20
-0.0807262772
 30
0.0
 10
11.5081649308
 20
-0.0811949901
 30
0.0
 10
11.5036723612
 20
-0.0811950898
 30
0.0
  0
SPLINE
  5
418
100
AcDbEntity
  8
0
100
AcDbSpline
 62
7
  6
CONTINUOUS
 70
0
 71
3
 72
11
 73
7
 74
0
 42
0.0000001
 43
0.0000001
 44
0.0000000001
 40
0.0
 40
0.0
 40
0.0
 40
0.0
 40
0.2401732686
 40
0.4850365616
 40
0.7374846583
 40
1.0
 40
1.0
 40
1.0
 40
1.0
 10
11.5191522066
 20
-0.0377016276
 30
0.0
 10
11.5185473368
 20
-0.0377016276
 30
0.0
 10
11.5173229428
 20
-0.0378214955
 30
0.0
 10
11.5155303024
 20
-0.0383435784
 30
0.0
 10
11.5138074167
 20
-0.0391963537
 30
0.0
 10
11.5127446655
 20
-0.0399490866
 30
0.0
 10
11.5122322959
 20
-0.0403669149
 30
0.0
  0
SPLINE
  5
419
100
AcDbEntity
  8
0
100
AcDbSpline
 62
7
  6
CONTINUOUS
 70
0
 71
3
 72
11
 73
7
 74
0
 42
0.0000001
 43
0.0000001
 44
0.0000000001
 40
0.0
 40
0.0
 40
0.0
 40
0.0
 40
0.2401732686
 40
0.4850365616
 40
0.7374846583
 40
1.0
 40
1.0
 40
1.0
 40
1.0
 10
11.5191522066
 20
0.3953110743
 30
0.0
 10
11.5185473368
 20
0.3953110743
 30
0.0
 10
11.5173229428
 20
0.3954309422
 30
0.0
 10
11.5155303024
 20
0.3959530252
 30
0.0
 10
11.5138074167
 20
0.3968058005
 30
0.0
 10
11.5127446655
 20
0.3975585333
 30
0.0
 10
11.5122322959
 20
0.3979763616
 30
0.0
  0
SPLINE
  5
41A
100
AcDbEntity
  8
0
100
AcDbSpline
 62
7
  6
CONTINUOUS
 70
0
 71
3
 72
23
 73
19
 74
0
 42
0.0000001
 43
0.0000001
 44
0.0000000001
 40
0.0
 40
0.0
 40
0.0
 40
0.0
 40
0.0552200583
 40
0.1106748871
 40
0.1665926736
 40
0.2231878726
 40
0.2806564376
 40
0.3391704851
 40
0.3988763535
 40
0.4598908728
 40
0.5223035786
 40
0.5861741968
 40
0.6515348273
 40
0.7183856123
 40
0.7867085174
 40
0.8564722864
 40
0.9276136373
 40
1.0
 40
1.0
 40
1.0
 40
1.0
 10
11.4683170222
 20
-0.0811950898
 30
0.0
 10
11.4643045381
 20
-0.081195179
 30
0.0
 10
11.4562575488
 20
-0.0808225831
 30
0.0
 10
11.4442525143
 20
-0.0791469646
 30
0.0
 10
11.4323518407
 20
-0.0763631285
 30
0.0
 10
11.4206087775
 20
-0.0724833048
 30
0.0
 10
11.409073767
 20
-0.0675253676
 30
0.0
 10
11.3977963719
 20
-0.0615117284
 30
0.0
 10
11.3868250293
 20
-0.054468783
 30
0.0
 10
11.3762058685
 20
-0.046428202
 30
0.0
 10
11.3659845151
 20
-0.0374242148
 30
0.0
 10
11.3562032972
 20
-0.0274966406
 30
0.0
 10
11.3469047738
 20
-0.0166874954
 30
0.0
 10
11.3381266731
 20
-0.0050446562
 30
0.0
 10
11.3299072266
 20
0.0073837582
 30
0.0
 10
11.3222795692
 20
0.0205450227
 30
0.0
 10
11.315278931
 20
0.0343809224
 30
0.0
 10
11.3110824315
 20
0.0439350502
 30
0.0
 10
11.3090943958
 20
0.0488047234
 30
0.0
  0
SPLINE
  5
41B
100
AcDbEntity
  8
0
100
AcDbSpline
 62
7
  6
CONTINUOUS
 70
0
 71
3
 72
33
 73
29
 74
0
 42
0.0000001
 43
0.0000001
 44
0.0000000001
 40
0.0
 40
0.0
 40
0.0
 40
0.0
 40
0.0248617031
 40
0.0498293083
 40
0.0750052916
 40
0.1004865152
 40
0.1263607673
 40
0.1527060222
 40
0.1795875392
 40
0.2070587667
 40
0.2351590604
 40
0.2639158084
 40
0.293342707
 40
0.3234424266
 40
0.3855854026
 40
0.4501825721
 40
0.5169033937
 40
0.585309275
 40
0.6548820701
 40
0.7250511664
 40
0.7601826356
 40
0.7952393726
 40
0.8301469022
 40
0.8648309296
 40
0.8992215798
 40
0.9332580601
 40
0.9668772299
 40
1.0
 40
1.0
 40
1.0
 40
1.0
 10
11.4683054359
 20
0.4388045366
 30
0.0
 10
11.4642931329
 20
0.4388044475
 30
0.0
 10
11.4562464966
 20
0.4384309939
 30
0.0
 10
11.4442421317
 20
0.4367543291
 30
0.0
 10
11.4323419981
 20
0.4339700193
 30
0.0
 10
11.420599797
 20
0.4300890271
 30
0.0
 10
11.4090652133
 20
0.4251310693
 30
0.0
 10
11.3977889032
 20
0.4191163369
 30
0.0
 10
11.3868177871
 20
0.412073718
 30
0.0
 10
11.3761999065
 20
0.4040321559
 30
0.0
 10
11.3659786376
 20
0.3950286754
 30
0.0
 10
11.3561988995
 20
0.3851006041
 30
0.0
 10
11.346899978
 20
0.3742919327
 30
0.0
 10
11.3350737264
 20
0.358602947
 30
0.0
 10
11.3217525553
 20
0.337003496
 30
0.0
 10
11.3084456295
 20
0.3086936623
 30
0.0
 10
11.2978591558
 20
0.2781893597
 30
0.0
 10
11.2901698079
 20
0.2460075789
 30
0.0
 10
11.2855045049
 20
0.2126923459
 30
0.0
 10
11.284201584
 20
0.1844564906
 30
0.0
 10
11.2847256736
 20
0.1618044328
 30
0.0
 10
11.2859030492
 20
0.144878057
 30
0.0
 10
11.2878605446
 20
0.1280970931
 30
0.0
 10
11.2905880978
 20
0.1115326713
 30
0.0
 10
11.2940759136
 20
0.0952551346
 30
0.0
 10
11.2983084626
 20
0.0793325669
 30
0.0
 10
11.3032684274
 20
0.0638363412
 30
0.0
 10
11.3070739813
 20
0.0537537079
 30
0.0
 10
11.3090943958
 20
0.0488047234
 30
0.0
  0
SPLINE
  5
41C
100
AcDbEntity
  8
0
100
AcDbSpline
 62
7
  6
CONTINUOUS
 70
0
 71
3
 72
17
 73
13
 74
0
 42
0.0000001
 43
0.0000001
 44
0.0000000001
 40
0.0
 40
0.0
 40
0.0
 40
0.0
 40
0.0507521541
 40
0.1062279752
 40
0.1656818145
 40
0.2283685672
 40
0.3603916239
 40
0.4965882669
 40
0.6320482742
 40
0.7629485808
 40
0.8864675634
 40
1.0
 40
1.0
 40
1.0
 40
1.0
 10
11.3865696851
 20
0.0705515479
 30
0.0
 10
11.3859953818
 20
0.0705515479
 30
0.0
 10
11.3847930957
 20
0.0704969507
 30
0.0
 10
11.3829294088
 20
0.0702828021
 30
0.0
 10
11.3809487504
 20
0.069935058
 30
0.0
 10
11.3781441194
 20
0.0692935934
 30
0.0
 10
11.3745546337
 20
0.0682110749
 30
0.0
 10
11.3702869142
 20
0.0665726366
 30
0.0
 10
11.3661498273
 20
0.0646583012
 30
0.0
 10
11.3622706393
 20
0.0625501762
 30
0.0
 10
11.35875079
 20
0.0603203348
 30
0.0
 10
11.3565935442
 20
0.0587201022
 30
0.0
 10
11.3555984081
 20
0.057907577
 30
0.0
  0
SPLINE
  5
41D
100
AcDbEntity
  8
0
100
AcDbSpline
 62
7
  6
CONTINUOUS
 70
0
 71
3
 72
45
 73
41
 74
0
 42
0.0000001
 43
0.0000001
 44
0.0000000001
 40
0.0
 40
0.0
 40
0.0
 40
0.0
 40
0.0128513267
 40
0.0257402646
 40
0.038691441
 40
0.051730823
 40
0.0648871307
 40
0.0781878531
 40
0.1053036192
 40
0.1332505709
 40
0.1621439873
 40
0.1920543393
 40
0.2230077703
 40
0.2549895349
 40
0.287948694
 40
0.3218028922
 40
0.3564428168
 40
0.3917370601
 40
0.4275370898
 40
0.4636814477
 40
0.5
 40
0.5363185523
 40
0.5724629102
 40
0.6082629399
 40
0.6435571832
 40
0.6781971078
 40
0.712051306
 40
0.7450104651
 40
0.7769922297
 40
0.8079456607
 40
0.8378560127
 40
0.8667494291
 40
0.8946963808
 40
0.9218121469
 40
0.9351128693
 40
0.948269177
 40
0.961308559
 40
0.9742597354
 40
0.9871486733
 40
1.0
 40
1.0
 40
1.0
 40
1.0
 10
11.6380168565
 20
0.3658047234
 30
0.0
 10
11.6401800895
 20
0.3658047234
 30
0.0
 10
11.6445143758
 20
0.3656537227
 30
0.0
 10
11.6509968736
 20
0.364976811
 30
0.0
 10
11.657449024
 20
0.363850637
 30
0.0
 10
11.6638529823
 20
0.3622770955
 30
0.0
 10
11.6701936166
 20
0.3602611923
 30
0.0
 10
11.6785949455
 20
0.3569694494
 30
0.0
 10
11.6888832744
 20
0.3517415012
 30
0.0
 10
11.7006408959
 20
0.3438442374
 30
0.0
 10
11.7117847871
 20
0.3343620358
 30
0.0
 10
11.7222092208
 20
0.3233894809
 30
0.0
 10
11.7318171328
 20
0.3110330569
 30
0.0
 10
11.7405191491
 20
0.2974123633
 30
0.0
 10
11.7482341561
 20
0.2826581116
 30
0.0
 10
11.7548895694
 20
0.2669112819
 30
0.0
 10
11.7604226499
 20
0.2503223271
 30
0.0
 10
11.7647815639
 20
0.2330498658
 30
0.0
 10
11.7679250652
 20
0.2152588811
 30
0.0
 10
11.7698229891
 20
0.1971193466
 30
0.0
 10
11.7704575698
 20
0.1788047234
 30
0.0
 10
11.7698229891
 20
0.1604901001
 30
0.0
 10
11.7679250652
 20
0.1423505657
 30
0.0
 10
11.7647815639
 20
0.1245595809
 30
0.0
 10
11.7604226499
 20
0.1072871196
 30
0.0
 10
11.7548895694
 20
0.0906981648
 30
0.0
 10
11.7482341561
 20
0.0749513352
 30
0.0
 10
11.7405191491
 20
0.0601970834
 30
0.0
 10
11.7318171328
 20
0.0465763898
 30
0.0
 10
11.7222092208
 20
0.0342199658
 30
0.0
 10
11.7117847871
 20
0.0232474109
 30
0.0
 10
11.7006408959
 20
0.0137652094
 30
0.0
 10
11.6888832744
 20
0.0058679455
 30
0.0
 10
11.6785949455
 20
0.0006399974
 30
0.0
 10
11.6701936166
 20
-0.0026517455
 30
0.0
 10
11.6638529823
 20
-0.0046676488
 30
0.0
 10
11.657449024
 20
-0.0062411903
 30
0.0
 10
11.6509968736
 20
-0.0073673642
 30
0.0
 10
11.6445143758
 20
-0.0080442759
 30
0.0
 10
11.6401800895
 20
-0.0081952766
 30
0.0
 10
11.6380168565
 20
-0.0081952766
 30
0.0
  0
SPLINE
  5
41E
100
AcDbEntity
  8
0
100
AcDbSpline
 62
7
  6
CONTINUOUS
 70
0
 71
3
 72
17
 73
13
 74
0
 42
0.0000001
 43
0.0000001
 44
0.0000000001
 40
0.0
 40
0.0
 40
0.0
 40
0.0
 40
0.0507521541
 40
0.1062279752
 40
0.1656818145
 40
0.2283685672
 40
0.3603916239
 40
0.4965882669
 40
0.6320482742
 40
0.7629485808
 40
0.8864675634
 40
1.0
 40
1.0
 40
1.0
 40
1.0
 10
11.3865696851
 20
0.2870578988
 30
0.0
 10
11.3859953818
 20
0.2870578988
 30
0.0
 10
11.3847930957
 20
0.287112496
 30
0.0
 10
11.3829294088
 20
0.2873266446
 30
0.0
 10
11.3809487504
 20
0.2876743887
 30
0.0
 10
11.3781441194
 20
0.2883158534
 30
0.0
 10
11.3745546337
 20
0.2893983718
 30
0.0
 10
11.3702869142
 20
0.2910368101
 30
0.0
 10
11.3661498273
 20
0.2929511455
 30
0.0
 10
11.3622706393
 20
0.2950592705
 30
0.0
 10
11.35875079
 20
0.2972891119
 30
0.0
 10
11.3565935442
 20
0.2988893445
 30
0.0
 10
11.3555984081
 20
0.2997018697
 30
0.0
  0
SPLINE
  5
41F
100
AcDbEntity
  8
0
100
AcDbSpline
 62
7
  6
CONTINUOUS
 70
0
 71
3
 72
15
 73
11
 74
0
 42
0.0000001
 43
0.0000001
 44
0.0000000001
 40
0.0
 40
0.0
 40
0.0
 40
0.0
 40
0.1017444407
 40
0.2096088461
 40
0.3245474155
 40
0.4470525223
 40
0.5769030157
 40
0.7131920169
 40
0.8546475917
 40
1.0
 40
1.0
 40
1.0
 40
1.0
 10
11.6259709392
 20
-0.0377016276
 30
0.0
 10
11.6222812164
 20
-0.0331826585
 30
0.0
 10
11.6144634159
 20
-0.024046937
 30
0.0
 10
11.6016665444
 20
-0.0105248446
 30
0.0
 10
11.5873102129
 20
0.0031242565
 30
0.0
 10
11.5713044059
 20
0.0168258273
 30
0.0
 10
11.553694887
 20
0.0304948416
 30
0.0
 10
11.5346557136
 20
0.0440586705
 30
0.0
 10
11.5144355761
 20
0.0574700899
 30
0.0
 10
11.5004960335
 20
0.0661990399
 30
0.0
 10
11.4933884177
 20
0.0705515479
 30
0.0
  0
SPLINE
  5
420
100
AcDbEntity
  8
0
100
AcDbSpline
 62
7
  6
CONTINUOUS
 70
0
 71
3
 72
45
 73
41
 74
0
 42
0.0000001
 43
0.0000001
 44
0.0000000001
 40
0.0
 40
0.0
 40
0.0
 40
0.0
 40
0.0128513267
 40
0.0257402646
 40
0.038691441
 40
0.051730823
 40
0.0648871307
 40
0.0781878531
 40
0.1053036192
 40
0.1332505709
 40
0.1621439873
 40
0.1920543393
 40
0.2230077703
 40
0.2549895349
 40
0.287948694
 40
0.3218028922
 40
0.3564428168
 40
0.3917370601
 40
0.4275370898
 40
0.4636814477
 40
0.5
 40
0.5363185523
 40
0.5724629102
 40
0.6082629399
 40
0.6435571832
 40
0.6781971078
 40
0.712051306
 40
0.7450104651
 40
0.7769922297
 40
0.8079456607
 40
0.8378560127
 40
0.8667494291
 40
0.8946963808
 40
0.9218121469
 40
0.9351128693
 40
0.948269177
 40
0.961308559
 40
0.9742597354
 40
0.9871486733
 40
1.0
 40
1.0
 40
1.0
 40
1.0
 10
11.6380168565
 20
-0.0081952766
 30
0.0
 10
11.6358536236
 20
-0.0081952766
 30
0.0
 10
11.6315193373
 20
-0.0080442759
 30
0.0
 10
11.6250368395
 20
-0.0073673642
 30
0.0
 10
11.6185846891
 20
-0.0062411903
 30
0.0
 10
11.6121807308
 20
-0.0046676488
 30
0.0
 10
11.6058400965
 20
-0.0026517455
 30
0.0
 10
11.5974387675
 20
0.0006399974
 30
0.0
 10
11.5871504387
 20
0.0058679455
 30
0.0
 10
11.5753928172
 20
0.0137652094
 30
0.0
 10
11.5642489259
 20
0.0232474109
 30
0.0
 10
11.5538244923
 20
0.0342199658
 30
0.0
 10
11.5442165803
 20
0.0465763898
 30
0.0
 10
11.535514564
 20
0.0601970834
 30
0.0
 10
11.527799557
 20
0.0749513352
 30
0.0
 10
11.5211441437
 20
0.0906981648
 30
0.0
 10
11.5156110632
 20
0.1072871196
 30
0.0
 10
11.5112521492
 20
0.1245595809
 30
0.0
 10
11.5081086478
 20
0.1423505657
 30
0.0
 10
11.506210724
 20
0.1604901001
 30
0.0
 10
11.5055761432
 20
0.1788047234
 30
0.0
 10
11.506210724
 20
0.1971193466
 30
0.0
 10
11.5081086478
 20
0.2152588811
 30
0.0
 10
11.5112521492
 20
0.2330498658
 30
0.0
 10
11.5156110632
 20
0.2503223271
 30
0.0
 10
11.5211441437
 20
0.2669112819
 30
0.0
 10
11.527799557
 20
0.2826581116
 30
0.0
 10
11.535514564
 20
0.2974123633
 30
0.0
 10
11.5442165803
 20
0.3110330569
 30
0.0
 10
11.5538244923
 20
0.3233894809
 30
0.0
 10
11.5642489259
 20
0.3343620358
 30
0.0
 10
11.5753928172
 20
0.3438442374
 30
0.0
 10
11.5871504387
 20
0.3517415012
 30
0.0
 10
11.5974387675
 20
0.3569694494
 30
0.0
 10
11.6058400965
 20
0.3602611923
 30
0.0
 10
11.6121807308
 20
0.3622770955
 30
0.0
 10
11.6185846891
 20
0.363850637
 30
0.0
 10
11.6250368395
 20
0.364976811
 30
0.0
 10
11.6315193373
 20
0.3656537227
 30
0.0
 10
11.6358536236
 20
0.3658047234
 30
0.0
 10
11.6380168565
 20
0.3658047234
 30
0.0
  0
SPLINE
  5
421
100
AcDbEntity
  8
0
100
AcDbSpline
 62
7
  6
CONTINUOUS
 70
0
 71
3
 72
19
 73
15
 74
0
 42
0.0000001
 43
0.0000001
 44
0.0000000001
 40
0.0
 40
0.0
 40
0.0
 40
0.0
 40
0.1239135187
 40
0.2486584689
 40
0.3113153546
 40
0.3741210923
 40
0.4370327446
 40
0.5
 40
0.5629672554
 40
0.6258789077
 40
0.6886846454
 40
0.7513415311
 40
0.8760864813
 40
1.0
 40
1.0
 40
1.0
 40
1.0
 10
11.4933884177
 20
0.0705515479
 30
0.0
 10
11.4951906388
 20
0.079380592
 30
0.0
 10
11.4984896062
 20
0.0971650487
 30
0.0
 10
11.5016414174
 20
0.1195932248
 30
0.0
 10
11.5034751053
 20
0.1376978729
 30
0.0
 10
11.5044806098
 20
0.1513615399
 30
0.0
 10
11.5050928241
 20
0.1650711508
 30
0.0
 10
11.5052989347
 20
0.1788047234
 30
0.0
 10
11.5050928241
 20
0.192538296
 30
0.0
 10
11.5044806098
 20
0.2062479068
 30
0.0
 10
11.5034751053
 20
0.2199115738
 30
0.0
 10
11.5016414174
 20
0.2380162219
 30
0.0
 10
11.4984896062
 20
0.260444398
 30
0.0
 10
11.4951906388
 20
0.2782288547
 30
0.0
 10
11.4933884177
 20
0.2870578988
 30
0.0
  0
SPLINE
  5
422
100
AcDbEntity
  8
0
100
AcDbSpline
 62
7
  6
CONTINUOUS
 70
0
 71
3
 72
21
 73
17
 74
0
 42
0.0000001
 43
0.0000001
 44
0.0000000001
 40
0.0
 40
0.0
 40
0.0
 40
0.0
 40
0.0566620145
 40
0.1134980702
 40
0.1706791056
 40
0.2283678844
 40
0.2867178671
 40
0.3458683144
 40
0.4059438445
 40
0.467052513
 40
0.5292831061
 40
0.5927084363
 40
0.7232811783
 40
0.7905393351
 40
0.8590962079
 40
1.0
 40
1.0
 40
1.0
 40
1.0
 10
11.5036723612
 20
-0.0811950898
 30
0.0
 10
11.5002643703
 20
-0.0811951655
 30
0.0
 10
11.4934348865
 20
-0.0809266727
 30
0.0
 10
11.4832304646
 20
-0.0797190991
 30
0.0
 10
11.4730897947
 20
-0.0777098518
 30
0.0
 10
11.4630450665
 20
-0.0749070701
 30
0.0
 10
11.4531279881
 20
-0.0713178759
 30
0.0
 10
11.4433688906
 20
-0.0669555371
 30
0.0
 10
11.4337982223
 20
-0.0618330999
 30
0.0
 10
11.4244458231
 20
-0.0559668328
 30
0.0
 10
11.4153393134
 20
-0.0493758415
 30
0.0
 10
11.4034518235
 20
-0.0395551697
 30
0.0
 10
11.3922884965
 20
-0.0284343192
 30
0.0
 10
11.381927896
 20
-0.0162049006
 30
0.0
 10
11.3718741533
 20
-0.0029328003
 30
0.0
 10
11.3650749871
 20
0.0077071575
 30
0.0
 10
11.3608598875
 20
0.0150593718
 30
0.0
  0
SPLINE
  5
423
100
AcDbEntity
  8
0
100
AcDbSpline
 62
7
  6
CONTINUOUS
 70
0
 71
3
 72
9
 73
5
 74
0
 42
0.0000001
 43
0.0000001
 44
0.0000000001
 40
0.0
 40
0.0
 40
0.0
 40
0.0
 40
0.4946300693
 40
1.0
 40
1.0
 40
1.0
 40
1.0
 10
11.3608598875
 20
0.0150593718
 30
0.0
 10
11.3577810625
 20
0.020429632
 30
0.0
 10
11.3519375305
 20
0.0315088545
 30
0.0
 10
11.3468402205
 20
0.0429492532
 30
0.0
 10
11.3444497348
 20
0.0488047234
 30
0.0
  0
SPLINE
  5
424
100
AcDbEntity
  8
0
100
AcDbSpline
 62
7
  6
CONTINUOUS
 70
0
 71
3
 72
15
 73
11
 74
0
 42
0.0000001
 43
0.0000001
 44
0.0000000001
 40
0.0
 40
0.0
 40
0.0
 40
0.0
 40
0.1453524083
 40
0.2868079831
 40
0.4230969843
 40
0.5529474777
 40
0.6754525845
 40
0.7903911539
 40
0.8982555593
 40
1.0
 40
1.0
 40
1.0
 40
1.0
 10
11.4933884177
 20
0.2870578988
 30
0.0
 10
11.5004960335
 20
0.2914104068
 30
0.0
 10
11.5144355761
 20
0.3001393568
 30
0.0
 10
11.5346557136
 20
0.3135507762
 30
0.0
 10
11.553694887
 20
0.3271146051
 30
0.0
 10
11.5713044059
 20
0.3407836194
 30
0.0
 10
11.5873102129
 20
0.3544851902
 30
0.0
 10
11.6016665444
 20
0.3681342913
 30
0.0
 10
11.6144634159
 20
0.3816563837
 30
0.0
 10
11.6222812164
 20
0.3907921052
 30
0.0
 10
11.6259709392
 20
0.3953110743
 30
0.0
  0
SPLINE
  5
425
100
AcDbEntity
  8
0
100
AcDbSpline
 62
7
  6
CONTINUOUS
 70
0
 71
3
 72
20
 73
16
 74
0
 42
0.0000001
 43
0.0000001
 44
0.0000000001
 40
0.0
 40
0.0
 40
0.0
 40
0.0
 40
0.0566138728
 40
0.1134042249
 40
0.1705431456
 40
0.2281958982
 40
0.2865166694
 40
0.3456460817
 40
0.405710134
 40
0.4668159852
 40
0.5290547631
 40
0.5924971653
 40
0.723129534
 40
0.8589844058
 40
1.0
 40
1.0
 40
1.0
 40
1.0
 10
11.503660775
 20
0.4388045366
 30
0.0
 10
11.5002323083
 20
0.4388044604
 30
0.0
 10
11.493361592
 20
0.4385322199
 30
0.0
 10
11.4830962792
 20
0.4373084286
 30
0.0
 10
11.4728955946
 20
0.435275016
 30
0.0
 10
11.4627930832
 20
0.4324368032
 30
0.0
 10
11.4528201861
 20
0.4288043487
 30
0.0
 10
11.4430082712
 20
0.4243893151
 30
0.0
 10
11.4333885482
 20
0.4192051605
 30
0.0
 10
11.4239902145
 20
0.4132701177
 30
0.0
 10
11.4148433009
 20
0.4066011765
 30
0.0
 10
11.4029055605
 20
0.3966664566
 30
0.0
 10
11.3887704873
 20
0.3824712081
 30
0.0
 10
11.3734295553
 20
0.3630830064
 30
0.0
 10
11.364447815
 20
0.3488840847
 30
0.0
 10
11.3602358762
 20
0.3414553175
 30
0.0
  0
SPLINE
  5
426
100
AcDbEntity
  8
0
100
AcDbSpline
 62
7
  6
CONTINUOUS
 70
0
 71
3
 72
19
 73
15
 74
0
 42
0.0000001
 43
0.0000001
 44
0.0000000001
 40
0.0
 40
0.0
 40
0.0
 40
0.0
 40
0.1180283583
 40
0.1788065825
 40
0.2405800509
 40
0.3664845924
 40
0.4945197904
 40
0.623286084
 40
0.6875164258
 40
0.7513907023
 40
0.8147323178
 40
0.8773845618
 40
0.9392011001
 40
1.0
 40
1.0
 40
1.0
 40
1.0
 10
11.3602358762
 20
0.3414553175
 30
0.0
 10
11.3543668483
 20
0.3311038752
 30
0.0
 10
11.3465187544
 20
0.3148051599
 30
0.0
 10
11.3379959317
 20
0.2920875307
 30
0.0
 10
11.3305797033
 20
0.2681475656
 30
0.0
 10
11.3237773037
 20
0.236980058
 30
0.0
 10
11.319662758
 20
0.1985461777
 30
0.0
 10
11.3196359036
 20
0.1661136405
 30
0.0
 10
11.3216737789
 20
0.1402864796
 30
0.0
 10
11.3242206718
 20
0.1211439675
 30
0.0
 10
11.3277727294
 20
0.1023245486
 30
0.0
 10
11.3323105834
 20
0.0839311075
 30
0.0
 10
11.3378097238
 20
0.0660702917
 30
0.0
 10
11.3421329342
 20
0.0544797027
 30
0.0
 10
11.3444497348
 20
0.0488047234
 30
0.0
  0
SPLINE
  5
427
100
AcDbEntity
  8
0
100
AcDbSpline
 62
7
  6
CONTINUOUS
 70
0
 71
3
 72
15
 73
11
 74
0
 42
0.0000001
 43
0.0000001
 44
0.0000000001
 40
0.0
 40
0.0
 40
0.0
 40
0.0
 40
0.1093848924
 40
0.2247529651
 40
0.3455303054
 40
0.4709316038
 40
0.5999829275
 40
0.7318632405
 40
0.865594525
 40
1.0
 40
1.0
 40
1.0
 40
1.0
 10
11.5122322959
 20
-0.0403669149
 30
0.0
 10
11.5115284153
 20
-0.0409409171
 30
0.0
 10
11.5101911067
 20
-0.0422575122
 30
0.0
 10
11.5084699623
 20
-0.0445636453
 30
0.0
 10
11.5069980002
 20
-0.047188615
 30
0.0
 10
11.5057856581
 20
-0.0500648871
 30
0.0
 10
11.5048394851
 20
-0.0531350821
 30
0.0
 10
11.5041628601
 20
-0.0563458305
 30
0.0
 10
11.5037570501
 20
-0.0596460867
 30
0.0
 10
11.5036665681
 20
-0.0618735616
 30
0.0
 10
11.5036665681
 20
-0.0629895694
 30
0.0
  0
SPLINE
  5
428
100
AcDbEntity
  8
0
100
AcDbSpline
 62
7
  6
CONTINUOUS
 70
0
 71
3
 72
15
 73
11
 74
0
 42
0.0000001
 43
0.0000001
 44
0.0000000001
 40
0.0
 40
0.0
 40
0.0
 40
0.0
 40
0.1093848924
 40
0.2247529651
 40
0.3455303054
 40
0.4709316038
 40
0.5999829275
 40
0.7318632405
 40
0.865594525
 40
1.0
 40
1.0
 40
1.0
 40
1.0
 10
11.5122322959
 20
0.3979763616
 30
0.0
 10
11.5115284153
 20
0.3985503638
 30
0.0
 10
11.5101911067
 20
0.399866959
 30
0.0
 10
11.5084699623
 20
0.402173092
 30
0.0
 10
11.5069980002
 20
0.4047980618
 30
0.0
 10
11.5057856581
 20
0.4076743338
 30
0.0
 10
11.5048394851
 20
0.4107445288
 30
0.0
 10
11.5041628601
 20
0.4139552773
 30
0.0
 10
11.5037570501
 20
0.4172555334
 30
0.0
 10
11.5036665681
 20
0.4194830083
 30
0.0
 10
11.5036665681
 20
0.4205990161
 30
0.0
  0
SPLINE
  5
429
100
AcDbEntity
  8
0
100
AcDbSpline
 62
7
  6
CONTINUOUS
 70
0
 71
3
 72
15
 73
11
 74
0
 42
0.0000001
 43
0.0000001
 44
0.0000000001
 40
0.0
 40
0.0
 40
0.0
 40
0.0
 40
0.1252329418
 40
0.2504328526
 40
0.375563059
 40
0.50061068
 40
0.625565329
 40
0.7504307829
 40
0.8752344504
 40
1.0
 40
1.0
 40
1.0
 40
1.0
 10
14.1740368038
 20
9.3683047234
 30
0.0
 10
14.1740368038
 20
9.3637307807
 30
0.0
 10
14.1749355276
 20
9.3545589356
 30
0.0
 10
14.1789283234
 20
9.3413485262
 30
0.0
 10
14.1854126487
 20
9.329167872
 30
0.0
 10
14.1941398628
 20
9.3184919077
 30
0.0
 10
14.2047745286
 20
9.3097292915
 30
0.0
 10
14.2169100301
 20
9.3032176191
 30
0.0
 10
14.2300729966
 20
9.2992074934
 30
0.0
 10
14.2392135707
 20
9.2983047234
 30
0.0
 10
14.2437704425
 20
9.2983047234
 30
0.0
  0
SPLINE
  5
42A
100
AcDbEntity
  8
0
100
AcDbSpline
 62
7
  6
CONTINUOUS
 70
0
 71
3
 72
15
 73
11
 74
0
 42
0.0000001
 43
0.0000001
 44
0.0000000001
 40
0.0
 40
0.0
 40
0.0
 40
0.0
 40
0.1252329418
 40
0.2504328526
 40
0.375563059
 40
0.50061068
 40
0.625565329
 40
0.7504307829
 40
0.8752344504
 40
1.0
 40
1.0
 40
1.0
 40
1.0
 10
-4.6017325101
 20
9.3683047234
 30
0.0
 10
-4.6017325101
 20
9.3637307807
 30
0.0
 10
-4.6026312339
 20
9.3545589356
 30
0.0
 10
-4.6066240298
 20
9.3413485262
 30
0.0
 10
-4.6131083551
 20
9.329167872
 30
0.0
 10
-4.6218355691
 20
9.3184919077
 30
0.0
 10
-4.632470235
 20
9.3097292915
 30
0.0
 10
-4.6446057365
 20
9.3032176191
 30
0.0
 10
-4.6577687029
 20
9.2992074934
 30
0.0
 10
-4.666909277
 20
9.2983047234
 30
0.0
 10
-4.6714661488
 20
9.2983047234
 30
0.0
  0
SPLINE
  5
42B
100
AcDbEntity
  8
0
100
AcDbSpline
 62
7
  6
CONTINUOUS
 70
0
 71
3
 72
15
 73
11
 74
0
 42
0.0000001
 43
0.0000001
 44
0.0000000001
 40
0.0
 40
0.0
 40
0.0
 40
0.0
 40
0.1247655496
 40
0.2495692171
 40
0.374434671
 40
0.49938932
 40
0.624436941
 40
0.7495671474
 40
0.8747670582
 40
1.0
 40
1.0
 40
1.0
 40
1.0
 10
-4.5843120199
 20
9.2983047234
 30
0.0
 10
-4.5797551481
 20
9.2983047234
 30
0.0
 10
-4.570614574
 20
9.2992074934
 30
0.0
 10
-4.5574516075
 20
9.3032176191
 30
0.0
 10
-4.545316106
 20
9.3097292915
 30
0.0
 10
-4.5346814402
 20
9.3184919077
 30
0.0
 10
-4.5259542262
 20
9.329167872
 30
0.0
 10
-4.5194699009
 20
9.3413485262
 30
0.0
 10
-4.515477105
 20
9.3545589356
 30
0.0
 10
-4.5145783812
 20
9.3637307807
 30
0.0
 10
-4.5145783812
 20
9.3683047234
 30
0.0
  0
SPLINE
  5
42C
100
AcDbEntity
  8
0
100
AcDbSpline
 62
7
  6
CONTINUOUS
 70
0
 71
3
 72
28
 73
24
 74
0
 42
0.0000001
 43
0.0000001
 44
0.0000000001
 40
0.0
 40
0.0
 40
0.0
 40
0.0
 40
0.0021305048
 40
0.0044214144
 40
0.0070012998
 40
0.0099604635
 40
0.0172254701
 40
0.0264980328
 40
0.0378926661
 40
0.0514485686
 40
0.0671720242
 40
0.0850541119
 40
0.1050741558
 40
0.1271927251
 40
0.1775363827
 40
0.2356684096
 40
0.3010495167
 40
0.3730842755
 40
0.4510872115
 40
0.5343297763
 40
0.622006629
 40
0.8073320284
 40
1.0
 40
1.0
 40
1.0
 40
1.0
 10
6.1078560846
 20
9.2983047234
 30
0.0
 10
6.1078057462
 20
9.2983047234
 30
0.0
 10
6.1077007921
 20
9.2983201619
 30
0.0
 10
6.1075479348
 20
9.2983872629
 30
0.0
 10
6.1073972278
 20
9.2984964199
 30
0.0
 10
6.1071836553
 20
9.2987120616
 30
0.0
 10
6.1069252601
 20
9.2990973844
 30
0.0
 10
6.1066357108
 20
9.2996913344
 30
0.0
 10
6.1063482178
 20
9.3004480691
 30
0.0
 10
6.1060633506
 20
9.3013662915
 30
0.0
 10
6.1057819701
 20
9.3024448032
 30
0.0
 10
6.1055049803
 20
9.3036813873
 30
0.0
 10
6.1052332314
 20
9.3050733922
 30
0.0
 10
6.104862623
 20
9.3072269981
 30
0.0
 10
6.1044261745
 20
9.3102821838
 30
0.0
 10
6.103952834
 20
9.3143629284
 30
0.0
 10
6.1035150069
 20
9.3189627113
 30
0.0
 10
6.1031176657
 20
9.3240371667
 30
0.0
 10
6.1027646251
 20
9.3295378224
 30
0.0
 10
6.1024598417
 20
9.3354114512
 30
0.0
 10
6.1021151906
 20
9.343821685
 30
0.0
 10
6.1018306066
 20
9.3548212835
 30
0.0
 10
6.1017552956
 20
9.3637524714
 30
0.0
 10
6.1017552956
 20
9.3683047234
 30
0.0
  0
SPLINE
  5
42D
100
AcDbEntity
  8
0
100
AcDbSpline
 62
7
  6
CONTINUOUS
 70
0
 71
3
 72
28
 73
24
 74
0
 42
0.0000001
 43
0.0000001
 44
0.0000000001
 40
0.0
 40
0.0
 40
0.0
 40
0.0
 40
0.1926679716
 40
0.377993371
 40
0.4656702237
 40
0.5489127885
 40
0.6269157245
 40
0.6989504833
 40
0.7643315904
 40
0.8224636173
 40
0.8728072749
 40
0.8949258442
 40
0.9149458881
 40
0.9328279758
 40
0.9485514314
 40
0.9621073339
 40
0.9735019672
 40
0.9827745299
 40
0.9900395365
 40
0.9929987002
 40
0.9955785856
 40
0.9978694952
 40
1.0
 40
1.0
 40
1.0
 40
1.0
 10
5.1055604563
 20
9.3683047234
 30
0.0
 10
5.1055604563
 20
9.3637524714
 30
0.0
 10
5.1056357673
 20
9.3548212835
 30
0.0
 10
5.1059203513
 20
9.343821685
 30
0.0
 10
5.1062650024
 20
9.3354114512
 30
0.0
 10
5.1065697858
 20
9.3295378224
 30
0.0
 10
5.1069228264
 20
9.3240371667
 30
0.0
 10
5.1073201676
 20
9.3189627113
 30
0.0
 10
5.1077579947
 20
9.3143629284
 30
0.0
 10
5.1082313352
 20
9.3102821838
 30
0.0
 10
5.1086677837
 20
9.3072269981
 30
0.0
 10
5.1090383921
 20
9.3050733922
 30
0.0
 10
5.109310141
 20
9.3036813873
 30
0.0
 10
5.1095871308
 20
9.3024448032
 30
0.0
 10
5.1098685113
 20
9.3013662915
 30
0.0
 10
5.1101533785
 20
9.3004480691
 30
0.0
 10
5.1104408715
 20
9.2996913344
 30
0.0
 10
5.1107304208
 20
9.2990973844
 30
0.0
 10
5.1109888161
 20
9.2987120616
 30
0.0
 10
5.1112023885
 20
9.2984964199
 30
0.0
 10
5.1113530955
 20
9.2983872629
 30
0.0
 10
5.1115059529
 20
9.2983201619
 30
0.0
 10
5.111610907
 20
9.2983047234
 30
0.0
 10
5.1116612453
 20
9.2983047234
 30
0.0
  0
SPLINE
  5
42E
100
AcDbEntity
  8
0
100
AcDbSpline
 62
7
  6
CONTINUOUS
 70
0
 71
3
 72
9
 73
5
 74
0
 42
0.0000001
 43
0.0000001
 44
0.0000000001
 40
0.0
 40
0.0
 40
0.0
 40
0.0
 40
0.2462729443
 40
1.0
 40
1.0
 40
1.0
 40
1.0
 10
-1.7288636363
 20
0.0699936973
 30
0.0
 10
-1.7280465536
 20
0.0703987732
 30
0.0
 10
-1.7247641444
 20
0.0721143741
 30
0.0
 10
-1.7216273222
 20
0.0741057586
 30
0.0
 10
-1.7193604363
 20
0.0757341808
 30
0.0
  0
SPLINE
  5
42F
100
AcDbEntity
  8
0
100
AcDbSpline
 62
3
  6
CONTINUOUS
 70
0
 71
3
 72
15
 73
11
 74
0
 42
0.0000001
 43
0.0000001
 44
0.0000000001
 40
0.0
 40
0.0
 40
0.0
 40
0.0
 40
0.1252329418
 40
0.2504328526
 40
0.375563059
 40
0.50061068
 40
0.625565329
 40
0.7504307829
 40
0.8752344504
 40
1.0
 40
1.0
 40
1.0
 40
1.0
 10
14.104303165
 20
9.3683047234
 30
0.0
 10
14.104303165
 20
9.3591568381
 30
0.0
 10
14.1061006126
 20
9.3408131478
 30
0.0
 10
14.1140862044
 20
9.314392329
 30
0.0
 10
14.127054855
 20
9.2900310206
 30
0.0
 10
14.1445092831
 20
9.268679092
 30
0.0
 10
14.1657786147
 20
9.2511538595
 30
0.0
 10
14.1900496177
 20
9.2381305149
 30
0.0
 10
14.2163755507
 20
9.2301102635
 30
0.0
 10
14.2346566989
 20
9.2283047234
 30
0.0
 10
14.2437704425
 20
9.2283047234
 30
0.0
  0
SPLINE
  5
430
100
AcDbEntity
  8
0
100
AcDbSpline
 62
3
  6
CONTINUOUS
 70
0
 71
3
 72
15
 73
11
 74
0
 42
0.0000001
 43
0.0000001
 44
0.0000000001
 40
0.0
 40
0.0
 40
0.0
 40
0.0
 40
0.1247655496
 40
0.2495692171
 40
0.374434671
 40
0.49938932
 40
0.624436941
 40
0.7495671474
 40
0.8747670582
 40
1.0
 40
1.0
 40
1.0
 40
1.0
 10
-4.5843120199
 20
9.2283047234
 30
0.0
 10
-4.5751982763
 20
9.2283047234
 30
0.0
 10
-4.5569171281
 20
9.2301102635
 30
0.0
 10
-4.5305911952
 20
9.2381305149
 30
0.0
 10
-4.5063201922
 20
9.2511538595
 30
0.0
 10
-4.4850508605
 20
9.268679092
 30
0.0
 10
-4.4675964324
 20
9.2900310206
 30
0.0
 10
-4.4546277818
 20
9.314392329
 30
0.0
 10
-4.4466421901
 20
9.3408131478
 30
0.0
 10
-4.4448447424
 20
9.3591568381
 30
0.0
 10
-4.4448447424
 20
9.3683047234
 30
0.0
  0
SPLINE
  5
431
100
AcDbEntity
  8
0
100
AcDbSpline
 62
3
  6
CONTINUOUS
 70
0
 71
3
 72
31
 73
27
 74
0
 42
0.0000001
 43
0.0000001
 44
0.0000000001
 40
0.0
 40
0.0
 40
0.0
 40
0.0
 40
0.1926653097
 40
0.3779881486
 40
0.46566379
 40
0.5489052046
 40
0.6269070629
 40
0.6989408265
 40
0.7643210303
 40
0.8224522541
 40
0.8486263564
 40
0.8727968003
 40
0.894915064
 40
0.9149348313
 40
0.9328166719
 40
0.9485399103
 40
0.9620956255
 40
0.9734901014
 40
0.9783883358
 40
0.9827665264
 40
0.9866418115
 40
0.9900396741
 40
0.9929987969
 40
0.9955786467
 40
0.9978695246
 40
1.0
 40
1.0
 40
1.0
 40
1.0
 10
5.0994596673
 20
9.3683047234
 30
0.0
 10
5.0994596673
 20
9.3592002195
 30
0.0
 10
5.0996102895
 20
9.3413378438
 30
0.0
 10
5.1001794565
 20
9.3193386462
 30
0.0
 10
5.1008687607
 20
9.3025181796
 30
0.0
 10
5.1014783219
 20
9.2907709193
 30
0.0
 10
5.1021844223
 20
9.2797696177
 30
0.0
 10
5.1029790412
 20
9.269620674
 30
0.0
 10
5.1038549002
 20
9.2604212144
 30
0.0
 10
5.1046694242
 20
9.2533940322
 30
0.0
 10
5.1053655366
 20
9.2483152629
 30
0.0
 10
5.1058839421
 20
9.2449302933
 30
0.0
 10
5.106415574
 20
9.2418420663
 30
0.0
 10
5.1069590256
 20
9.2390580481
 30
0.0
 10
5.1075130285
 20
9.2365848896
 30
0.0
 10
5.1080757448
 20
9.23442784
 30
0.0
 10
5.108645607
 20
9.2325914731
 30
0.0
 10
5.1091467807
 20
9.2312712536
 30
0.0
 10
5.109558684
 20
9.2303850627
 30
0.0
 10
5.1098530753
 20
9.2298372309
 30
0.0
 10
5.1101485268
 20
9.229371906
 30
0.0
 10
5.1104452011
 20
9.228988942
 30
0.0
 10
5.1107435735
 20
9.2286881602
 30
0.0
 10
5.1110449364
 20
9.2284697926
 30
0.0
 10
5.1113506627
 20
9.2283356028
 30
0.0
 10
5.1115605686
 20
9.2283047234
 30
0.0
 10
5.1116612453
 20
9.2283047234
 30
0.0
  0
SPLINE
  5
432
100
AcDbEntity
  8
0
100
AcDbSpline
 62
3
  6
CONTINUOUS
 70
0
 71
3
 72
23
 73
19
 74
0
 42
0.0000001
 43
0.0000001
 44
0.0000000001
 40
0.0
 40
0.0
 40
0.0
 40
0.0
 40
0.0561138398
 40
0.1143303188
 40
0.1748923046
 40
0.2379666836
 40
0.3029272348
 40
0.3686694606
 40
0.434461097
 40
0.5000910476
 40
0.5654241599
 40
0.6306400694
 40
0.6959679054
 40
0.7608512059
 40
0.8242098791
 40
0.8853094046
 40
0.943931746
 40
1.0
 40
1.0
 40
1.0
 40
1.0
 10
-1.7325215892
 20
0.2990744116
 30
0.0
 10
-1.7293144557
 20
0.2954303936
 30
0.0
 10
-1.7231972158
 20
0.2876305777
 30
0.0
 10
-1.7150917292
 20
0.2748284181
 30
0.0
 10
-1.7079943425
 20
0.2607608267
 30
0.0
 10
-1.7020371069
 20
0.2455482629
 30
0.0
 10
-1.6972905415
 20
0.2294501161
 30
0.0
 10
-1.693862401
 20
0.2127802993
 30
0.0
 10
-1.6918370124
 20
0.1958252376
 30
0.0
 10
-1.6911695934
 20
0.1788001066
 30
0.0
 10
-1.6918242142
 20
0.161824032
 30
0.0
 10
-1.6938397363
 20
0.1449800502
 30
0.0
 10
-1.6972360882
 20
0.128398834
 30
0.0
 10
-1.7019470656
 20
0.1123090388
 30
0.0
 10
-1.7079119766
 20
0.0970294648
 30
0.0
 10
-1.7150554065
 20
0.0828660088
 30
0.0
 10
-1.7231888602
 20
0.0699898382
 30
0.0
 10
-1.7293199147
 20
0.0621607378
 30
0.0
 10
-1.7325242972
 20
0.058519552
 30
0.0
  0
SPLINE
  5
433
100
AcDbEntity
  8
0
100
AcDbSpline
 62
7
  6
CONTINUOUS
 70
0
 71
3
 72
30
 73
26
 74
0
 42
0.0000001
 43
0.0000001
 44
0.0000000001
 40
0.0
 40
0.0
 40
0.0
 40
0.0
 40
0.1118199296
 40
0.2174484888
 40
0.3167210576
 40
0.4094996367
 40
0.4956539445
 40
0.5750601336
 40
0.6476224156
 40
0.7132712945
 40
0.7719525507
 40
0.7986722373
 40
0.8236469378
 40
0.8468838677
 40
0.868394104
 40
0.8881939303
 40
0.9063067795
 40
0.922766097
 40
0.9376205342
 40
0.9509422052
 40
0.9628333508
 40
0.9734391409
 40
0.9829653442
 40
0.9916962128
 40
1.0
 40
1.0
 40
1.0
 40
1.0
 10
51.8287976858
 20
9.5175658894
 30
0.0
 10
51.8284646128
 20
9.5146789184
 30
0.0
 10
51.8277908767
 20
9.5090677781
 30
0.0
 10
51.8267227832
 20
9.5009058441
 30
0.0
 10
51.8256270849
 20
9.4932471297
 30
0.0
 10
51.8245058468
 20
9.4861039766
 30
0.0
 10
51.8233610851
 20
9.4794879151
 30
0.0
 10
51.822194616
 20
9.4734097928
 30
0.0
 10
51.821008595
 20
9.4678792684
 30
0.0
 10
51.8198053202
 20
9.4629050015
 30
0.0
 10
51.8187601906
 20
9.4591199638
 30
0.0
 10
51.8179093889
 20
9.4563802252
 30
0.0
 10
51.8172881441
 20
9.4545343447
 30
0.0
 10
51.8166639624
 20
9.4528329527
 30
0.0
 10
51.8160370854
 20
9.4512766102
 30
0.0
 10
51.8154077796
 20
9.4498658387
 30
0.0
 10
51.81477628
 20
9.4486011143
 30
0.0
 10
51.8141427632
 20
9.4474828251
 30
0.0
 10
51.8135072431
 20
9.4465112092
 30
0.0
 10
51.8128696771
 20
9.4456862194
 30
0.0
 10
51.8122296124
 20
9.4450077126
 30
0.0
 10
51.8115861051
 20
9.4444757972
 30
0.0
 10
51.8109374696
 20
9.4440914964
 30
0.0
 10
51.8102829081
 20
9.4438576984
 30
0.0
 10
51.8098386656
 20
9.4438047234
 30
0.0
 10
51.809622856
 20
9.4438047234
 30
0.0
  0
SPLINE
  5
434
100
AcDbEntity
  8
0
100
AcDbSpline
 62
7
  6
CONTINUOUS
 70
0
 71
3
 72
30
 73
26
 74
0
 42
0.0000001
 43
0.0000001
 44
0.0000000001
 40
0.0
 40
0.0
 40
0.0
 40
0.0
 40
0.1118199296
 40
0.2174484888
 40
0.3167210576
 40
0.4094996367
 40
0.4956539445
 40
0.5750601336
 40
0.6476224156
 40
0.7132712945
 40
0.7719525507
 40
0.7986722373
 40
0.8236469378
 40
0.8468838677
 40
0.868394104
 40
0.8881939303
 40
0.9063067795
 40
0.922766097
 40
0.9376205342
 40
0.9509422052
 40
0.9628333508
 40
0.9734391409
 40
0.9829653442
 40
0.9916962128
 40
1.0
 40
1.0
 40
1.0
 40
1.0
 10
32.9723275121
 20
9.5175658894
 30
0.0
 10
32.9726605851
 20
9.5146789184
 30
0.0
 10
32.9733343212
 20
9.5090677781
 30
0.0
 10
32.9744024147
 20
9.5009058441
 30
0.0
 10
32.975498113
 20
9.4932471297
 30
0.0
 10
32.9766193511
 20
9.4861039766
 30
0.0
 10
32.9777641128
 20
9.4794879151
 30
0.0
 10
32.9789305819
 20
9.4734097928
 30
0.0
 10
32.9801166029
 20
9.4678792684
 30
0.0
 10
32.9813198777
 20
9.4629050015
 30
0.0
 10
32.9823650073
 20
9.4591199638
 30
0.0
 10
32.9832158091
 20
9.4563802252
 30
0.0
 10
32.9838370539
 20
9.4545343447
 30
0.0
 10
32.9844612355
 20
9.4528329527
 30
0.0
 10
32.9850881126
 20
9.4512766102
 30
0.0
 10
32.9857174183
 20
9.4498658387
 30
0.0
 10
32.9863489179
 20
9.4486011143
 30
0.0
 10
32.9869824348
 20
9.4474828251
 30
0.0
 10
32.9876179549
 20
9.4465112092
 30
0.0
 10
32.9882555208
 20
9.4456862194
 30
0.0
 10
32.9888955855
 20
9.4450077126
 30
0.0
 10
32.9895390928
 20
9.4444757972
 30
0.0
 10
32.9901877283
 20
9.4440914964
 30
0.0
 10
32.9908422898
 20
9.4438576984
 30
0.0
 10
32.9912865324
 20
9.4438047234
 30
0.0
 10
32.9915023419
 20
9.4438047234
 30
0.0
  0
SPLINE
  5
435
100
AcDbEntity
  8
0
100
AcDbSpline
 62
7
  6
CONTINUOUS
 70
0
 71
3
 72
30
 73
26
 74
0
 42
0.0000001
 43
0.0000001
 44
0.0000000001
 40
0.0
 40
0.0
 40
0.0
 40
0.0
 40
0.0083037872
 40
0.0170346558
 40
0.0265608591
 40
0.0371666492
 40
0.0490577948
 40
0.0623794658
 40
0.077233903
 40
0.0936932205
 40
0.1118060697
 40
0.131605896
 40
0.1531161323
 40
0.1763530622
 40
0.2013277627
 40
0.2280474493
 40
0.2867287055
 40
0.3523775844
 40
0.4249398664
 40
0.5043460555
 40
0.5905003633
 40
0.6832789424
 40
0.7825515112
 40
0.8881800704
 40
1.0
 40
1.0
 40
1.0
 40
1.0
 10
33.0562550065
 20
9.4438047234
 30
0.0
 10
33.0564708161
 20
9.4438047234
 30
0.0
 10
33.0569150586
 20
9.4438576984
 30
0.0
 10
33.0575696201
 20
9.4440914964
 30
0.0
 10
33.0582182556
 20
9.4444757972
 30
0.0
 10
33.0588617629
 20
9.4450077126
 30
0.0
 10
33.0595018276
 20
9.4456862194
 30
0.0
 10
33.0601393936
 20
9.4465112092
 30
0.0
 10
33.0607749136
 20
9.4474828251
 30
0.0
 10
33.0614084305
 20
9.4486011143
 30
0.0
 10
33.0620399301
 20
9.4498658387
 30
0.0
 10
33.0626692359
 20
9.4512766102
 30
0.0
 10
33.0632961129
 20
9.4528329527
 30
0.0
 10
33.0639202946
 20
9.4545343447
 30
0.0
 10
33.0645415394
 20
9.4563802252
 30
0.0
 10
33.0653923411
 20
9.4591199638
 30
0.0
 10
33.0664374707
 20
9.4629050015
 30
0.0
 10
33.0676407455
 20
9.4678792684
 30
0.0
 10
33.0688267665
 20
9.4734097928
 30
0.0
 10
33.0699932356
 20
9.4794879151
 30
0.0
 10
33.0711379973
 20
9.4861039766
 30
0.0
 10
33.0722592354
 20
9.4932471297
 30
0.0
 10
33.0733549337
 20
9.5009058441
 30
0.0
 10
33.0744230272
 20
9.5090677781
 30
0.0
 10
33.0750967633
 20
9.5146789184
 30
0.0
 10
33.0754298363
 20
9.5175658894
 30
0.0
  0
SPLINE
  5
436
100
AcDbEntity
  8
0
100
AcDbSpline
 62
7
  6
CONTINUOUS
 70
0
 71
3
 72
30
 73
26
 74
0
 42
0.0000001
 43
0.0000001
 44
0.0000000001
 40
0.0
 40
0.0
 40
0.0
 40
0.0
 40
0.0083037872
 40
0.0170346558
 40
0.0265608591
 40
0.0371666492
 40
0.0490577948
 40
0.0623794658
 40
0.077233903
 40
0.0936932205
 40
0.1118060697
 40
0.131605896
 40
0.1531161323
 40
0.1763530622
 40
0.2013277627
 40
0.2280474493
 40
0.2867287055
 40
0.3523775844
 40
0.4249398664
 40
0.5043460555
 40
0.5905003633
 40
0.6832789424
 40
0.7825515112
 40
0.8881800704
 40
1.0
 40
1.0
 40
1.0
 40
1.0
 10
32.9915023419
 20
9.4438047234
 30
0.0
 10
32.9917181515
 20
9.4438047234
 30
0.0
 10
32.992162394
 20
9.4438576984
 30
0.0
 10
32.9928169556
 20
9.4440914964
 30
0.0
 10
32.993465591
 20
9.4444757972
 30
0.0
 10
32.9941090983
 20
9.4450077126
 30
0.0
 10
32.9947491631
 20
9.4456862194
 30
0.0
 10
32.995386729
 20
9.4465112092
 30
0.0
 10
32.9960222491
 20
9.4474828251
 30
0.0
 10
32.9966557659
 20
9.4486011143
 30
0.0
 10
32.9972872656
 20
9.4498658387
 30
0.0
 10
32.9979165713
 20
9.4512766102
 30
0.0
 10
32.9985434483
 20
9.4528329527
 30
0.0
 10
32.99916763
 20
9.4545343447
 30
0.0
 10
32.9997888748
 20
9.4563802252
 30
0.0
 10
33.0006396765
 20
9.4591199638
 30
0.0
 10
33.0016848062
 20
9.4629050015
 30
0.0
 10
33.002888081
 20
9.4678792684
 30
0.0
 10
33.004074102
 20
9.4734097928
 30
0.0
 10
33.005240571
 20
9.4794879151
 30
0.0
 10
33.0063853328
 20
9.4861039766
 30
0.0
 10
33.0075065708
 20
9.4932471297
 30
0.0
 10
33.0086022692
 20
9.5009058441
 30
0.0
 10
33.0096703627
 20
9.5090677781
 30
0.0
 10
33.0103440988
 20
9.5146789184
 30
0.0
 10
33.0106771718
 20
9.5175658894
 30
0.0
  0
SPLINE
  5
437
100
AcDbEntity
  8
0
100
AcDbSpline
 62
7
  6
CONTINUOUS
 70
0
 71
3
 72
31
 73
27
 74
0
 42
0.0000001
 43
0.0000001
 44
0.0000000001
 40
0.0
 40
0.0
 40
0.0
 40
0.0
 40
0.111641578
 40
0.2173880933
 40
0.3170231375
 40
0.4103364836
 40
0.497131009
 40
0.5772420545
 40
0.6505153529
 40
0.7168146744
 40
0.7760463633
 40
0.8029904048
 40
0.8281437303
 40
0.8515039891
 40
0.8730759534
 40
0.8928693659
 40
0.9108999481
 40
0.9271919734
 40
0.9417822687
 40
0.9547276562
 40
0.9661172921
 40
0.9760852375
 40
0.984833365
 40
0.9926609861
 40
0.9963631019
 40
1.0
 40
1.0
 40
1.0
 40
1.0
 10
32.5045259149
 20
10.9743522384
 30
0.0
 10
32.5048810555
 20
10.9781797404
 30
0.0
 10
32.5056040241
 20
10.9856297767
 30
0.0
 10
32.5067626745
 20
10.996483746
 30
0.0
 10
32.5079640024
 20
11.0066979615
 30
0.0
 10
32.5092052497
 20
11.0162497767
 30
0.0
 10
32.5104837677
 20
11.0251180517
 30
0.0
 10
32.5117962284
 20
11.0332832819
 30
0.0
 10
32.5131393957
 20
11.0407276026
 30
0.0
 10
32.5145104139
 20
11.0474346308
 30
0.0
 10
32.5157074651
 20
11.0525472951
 30
0.0
 10
32.5166856184
 20
11.0562538103
 30
0.0
 10
32.5174010024
 20
11.0587516957
 30
0.0
 10
32.5181211147
 20
11.0610551484
 30
0.0
 10
32.5188454928
 20
11.0631630711
 30
0.0
 10
32.5195736831
 20
11.0650745713
 30
0.0
 10
32.5203052595
 20
11.0667888451
 30
0.0
 10
32.5210398374
 20
11.0683051873
 30
0.0
 10
32.5217771385
 20
11.0696230785
 30
0.0
 10
32.5225172382
 20
11.0707422941
 30
0.0
 10
32.5232604124
 20
11.0716631339
 30
0.0
 10
32.5240082
 20
11.0723859385
 30
0.0
 10
32.5247628355
 20
11.072910088
 30
0.0
 10
32.5254134648
 20
11.0731824449
 30
0.0
 10
32.5259263557
 20
11.0732874238
 30
0.0
 10
32.5261793799
 20
11.0733047234
 30
0.0
 10
32.5263046023
 20
11.0733047234
 30
0.0
  0
SPLINE
  5
438
100
AcDbEntity
  8
0
100
AcDbSpline
 62
7
  6
CONTINUOUS
 70
0
 71
3
 72
31
 73
27
 74
0
 42
0.0000001
 43
0.0000001
 44
0.0000000001
 40
0.0
 40
0.0
 40
0.0
 40
0.0
 40
0.0036368981
 40
0.0073390139
 40
0.015166635
 40
0.0239147625
 40
0.0338827079
 40
0.0452723438
 40
0.0582177313
 40
0.0728080266
 40
0.0891000519
 40
0.1071306341
 40
0.1269240466
 40
0.1484960109
 40
0.1718562697
 40
0.1970095952
 40
0.2239536367
 40
0.2831853256
 40
0.3494846471
 40
0.4227579455
 40
0.502868991
 40
0.5896635164
 40
0.6829768625
 40
0.7826119067
 40
0.888358422
 40
1.0
 40
1.0
 40
1.0
 40
1.0
 10
32.5263046023
 20
10.3433047234
 30
0.0
 10
32.5261793799
 20
10.3433047234
 30
0.0
 10
32.5259263557
 20
10.3433220229
 30
0.0
 10
32.5254134648
 20
10.3434270018
 30
0.0
 10
32.5247628355
 20
10.3436993587
 30
0.0
 10
32.5240082
 20
10.3442235082
 30
0.0
 10
32.5232604124
 20
10.3449463128
 30
0.0
 10
32.5225172382
 20
10.3458671527
 30
0.0
 10
32.5217771385
 20
10.3469863682
 30
0.0
 10
32.5210398374
 20
10.3483042595
 30
0.0
 10
32.5203052595
 20
10.3498206016
 30
0.0
 10
32.5195736831
 20
10.3515348755
 30
0.0
 10
32.5188454928
 20
10.3534463757
 30
0.0
 10
32.5181211147
 20
10.3555542983
 30
0.0
 10
32.5174010024
 20
10.357857751
 30
0.0
 10
32.5166856184
 20
10.3603556365
 30
0.0
 10
32.5157074651
 20
10.3640621516
 30
0.0
 10
32.5145104139
 20
10.3691748159
 30
0.0
 10
32.5131393957
 20
10.3758818441
 30
0.0
 10
32.5117962284
 20
10.3833261648
 30
0.0
 10
32.5104837677
 20
10.391491395
 30
0.0
 10
32.5092052497
 20
10.40035967
 30
0.0
 10
32.5079640024
 20
10.4099114852
 30
0.0
 10
32.5067626745
 20
10.4201257007
 30
0.0
 10
32.5056040241
 20
10.4309796701
 30
0.0
 10
32.5048810555
 20
10.4384297063
 30
0.0
 10
32.5045259149
 20
10.4422572083
 30
0.0
  0
SPLINE
  5
439
100
AcDbEntity
  8
0
100
AcDbSpline
 62
7
  6
CONTINUOUS
 70
0
 71
3
 72
43
 73
39
 74
0
 42
0.0000001
 43
0.0000001
 44
0.0000000001
 40
0.0
 40
0.0
 40
0.0
 40
0.0
 40
0.0967818639
 40
0.1926694648
 40
0.2866923273
 40
0.3779817862
 40
0.465663021
 40
0.548899173
 40
0.5886014298
 40
0.6269012241
 40
0.6637066348
 40
0.6989309058
 40
0.7324931119
 40
0.764313323
 40
0.7943183756
 40
0.8224412918
 40
0.8486166944
 40
0.8727880323
 40
0.8949056659
 40
0.9149232432
 40
0.924133631
 40
0.9328072092
 40
0.940941159
 40
0.9485331819
 40
0.9555817501
 40
0.9620873162
 40
0.9680523008
 40
0.9734808491
 40
0.9783795636
 40
0.9806335124
 40
0.9827592652
 40
0.9866346869
 40
0.99003195
 40
0.9929903403
 40
0.9955699911
 40
0.9978618572
 40
0.9989412144
 40
1.0
 40
1.0
 40
1.0
 40
1.0
 10
32.5581158594
 20
10.7083047234
 30
0.0
 10
32.5581158594
 20
10.6963807702
 30
0.0
 10
32.5580145956
 20
10.6726429147
 30
0.0
 10
32.5575603795
 20
10.6373236483
 30
0.0
 10
32.5568079629
 20
10.6026862706
 30
0.0
 10
32.5557652055
 20
10.5690679048
 30
0.0
 10
32.5544422894
 20
10.5367894084
 30
0.0
 10
32.5530974576
 20
10.5108743603
 30
0.0
 10
32.5518825411
 20
10.4910461676
 30
0.0
 10
32.5509245451
 20
10.4769337471
 30
0.0
 10
32.5499076019
 20
10.4633786384
 30
0.0
 10
32.548834133
 20
10.4504134741
 30
0.0
 10
32.5477070289
 20
10.4380694732
 30
0.0
 10
32.5465288592
 20
10.426376329
 30
0.0
 10
32.545302555
 20
10.4153621471
 30
0.0
 10
32.5440314503
 20
10.4050533939
 30
0.0
 10
32.5427184669
 20
10.3954748192
 30
0.0
 10
32.5413670708
 20
10.3866493128
 30
0.0
 10
32.5399809917
 20
10.3785979786
 30
0.0
 10
32.5387686704
 20
10.3723884599
 30
0.0
 10
32.5377762847
 20
10.3678253299
 30
0.0
 10
32.5370460991
 20
10.3647039269
 30
0.0
 10
32.5363096875
 20
10.3617892065
 30
0.0
 10
32.5355675075
 20
10.3590829907
 30
0.0
 10
32.5348199776
 20
10.3565869508
 30
0.0
 10
32.534067596
 20
10.3543024757
 30
0.0
 10
32.5333109129
 20
10.3522306241
 30
0.0
 10
32.532550405
 20
10.3503724031
 30
0.0
 10
32.53189695
 20
10.3489659437
 30
0.0
 10
32.5313694831
 20
10.3479515507
 30
0.0
 10
32.530870884
 20
10.3470649423
 30
0.0
 10
32.5302498218
 20
10.346086045
 30
0.0
 10
32.5294767119
 20
10.3450875285
 30
0.0
 10
32.5286986834
 20
10.34430353
 30
0.0
 10
32.5279132372
 20
10.3437344557
 30
0.0
 10
32.5272341037
 20
10.3434377125
 30
0.0
 10
32.5266988525
 20
10.3433235222
 30
0.0
 10
32.5264350494
 20
10.3433047234
 30
0.0
 10
32.5263046023
 20
10.3433047234
 30
0.0
  0
SPLINE
  5
43A
100
AcDbEntity
  8
0
100
AcDbSpline
 62
7
  6
CONTINUOUS
 70
0
 71
3
 72
43
 73
39
 74
0
 42
0.0000001
 43
0.0000001
 44
0.0000000001
 40
0.0
 40
0.0
 40
0.0
 40
0.0
 40
0.0010587856
 40
0.0021381428
 40
0.0044300089
 40
0.0070096597
 40
0.00996805
 40
0.0133653131
 40
0.0172407348
 40
0.0193664876
 40
0.0216204364
 40
0.0265191509
 40
0.0319476992
 40
0.0379126838
 40
0.0444182499
 40
0.0514668181
 40
0.059058841
 40
0.0671927908
 40
0.075866369
 40
0.0850767568
 40
0.1050943341
 40
0.1272119677
 40
0.1513833056
 40
0.1775587082
 40
0.2056816244
 40
0.235686677
 40
0.2675068881
 40
0.3010690942
 40
0.3362933652
 40
0.3730987759
 40
0.4113985702
 40
0.451100827
 40
0.534336979
 40
0.6220182138
 40
0.7133076727
 40
0.8073305352
 40
0.9032181361
 40
1.0
 40
1.0
 40
1.0
 40
1.0
 10
32.5263046023
 20
11.0733047234
 30
0.0
 10
32.5264350494
 20
11.0733047234
 30
0.0
 10
32.5266988525
 20
11.0732859245
 30
0.0
 10
32.5272341037
 20
11.0731717342
 30
0.0
 10
32.5279132372
 20
11.072874991
 30
0.0
 10
32.5286986834
 20
11.0723059167
 30
0.0
 10
32.5294767119
 20
11.0715219182
 30
0.0
 10
32.5302498218
 20
11.0705234018
 30
0.0
 10
32.530870884
 20
11.0695445044
 30
0.0
 10
32.5313694831
 20
11.068657896
 30
0.0
 10
32.53189695
 20
11.0676435031
 30
0.0
 10
32.532550405
 20
11.0662370437
 30
0.0
 10
32.5333109129
 20
11.0643788226
 30
0.0
 10
32.534067596
 20
11.062306971
 30
0.0
 10
32.5348199776
 20
11.0600224959
 30
0.0
 10
32.5355675075
 20
11.057526456
 30
0.0
 10
32.5363096875
 20
11.0548202402
 30
0.0
 10
32.5370460991
 20
11.0519055198
 30
0.0
 10
32.5377762847
 20
11.0487841168
 30
0.0
 10
32.5387686704
 20
11.0442209868
 30
0.0
 10
32.5399809917
 20
11.0380114682
 30
0.0
 10
32.5413670708
 20
11.0299601339
 30
0.0
 10
32.5427184669
 20
11.0211346276
 30
0.0
 10
32.5440314503
 20
11.0115560528
 30
0.0
 10
32.545302555
 20
11.0012472996
 30
0.0
 10
32.5465288592
 20
10.9902331177
 30
0.0
 10
32.5477070289
 20
10.9785399736
 30
0.0
 10
32.548834133
 20
10.9661959726
 30
0.0
 10
32.5499076019
 20
10.9532308083
 30
0.0
 10
32.5509245451
 20
10.9396756996
 30
0.0
 10
32.5518825411
 20
10.9255632791
 30
0.0
 10
32.5530974576
 20
10.9057350864
 30
0.0
 10
32.5544422894
 20
10.8798200383
 30
0.0
 10
32.5557652055
 20
10.847541542
 30
0.0
 10
32.5568079629
 20
10.8139231761
 30
0.0
 10
32.5575603795
 20
10.7792857984
 30
0.0
 10
32.5580145956
 20
10.743966532
 30
0.0
 10
32.5581158594
 20
10.7202286765
 30
0.0
 10
32.5581158594
 20
10.7083047234
 30
0.0
  0
SPLINE
  5
43B
100
AcDbEntity
  8
0
100
AcDbSpline
 62
7
  6
CONTINUOUS
 70
0
 71
3
 72
13
 73
9
 74
0
 42
0.0000001
 43
0.0000001
 44
0.0000000001
 40
0.0
 40
0.0
 40
0.0
 40
0.0
 40
0.2515721043
 40
0.3786772753
 40
0.5058489261
 40
0.6322146208
 40
0.7569721283
 40
1.0
 40
1.0
 40
1.0
 40
1.0
 10
43.2776965986
 20
10.960606791
 30
0.0
 10
43.2960798136
 20
10.9502545907
 30
0.0
 10
43.3237162982
 20
10.9346100748
 30
0.0
 10
43.3605345135
 20
10.9135373204
 30
0.0
 10
43.3881832024
 20
10.8975822981
 30
0.0
 10
43.4156021078
 20
10.8816234294
 30
0.0
 10
43.451342208
 20
10.8606468761
 30
0.0
 10
43.4778651304
 20
10.8449026593
 30
0.0
 10
43.4953651709
 20
10.8344557572
 30
0.0
  0
SPLINE
  5
43C
100
AcDbEntity
  8
0
100
AcDbSpline
 62
7
  6
CONTINUOUS
 70
0
 71
3
 72
13
 73
9
 74
0
 42
0.0000001
 43
0.0000001
 44
0.0000000001
 40
0.0
 40
0.0
 40
0.0
 40
0.0
 40
0.2473154933
 40
0.3732415121
 40
0.5
 40
0.6267584879
 40
0.7526845067
 40
1.0
 40
1.0
 40
1.0
 40
1.0
 10
43.4953651709
 20
10.8344557572
 30
0.0
 10
43.4958883621
 20
10.8136605575
 30
0.0
 10
43.4965311966
 20
10.7822728212
 30
0.0
 10
43.4969873121
 20
10.7402198642
 30
0.0
 10
43.497105532
 20
10.7083047234
 30
0.0
 10
43.4969873121
 20
10.6763895825
 30
0.0
 10
43.4965311966
 20
10.6343366255
 30
0.0
 10
43.4958883621
 20
10.6029488893
 30
0.0
 10
43.4953651709
 20
10.5821536895
 30
0.0
  0
SPLINE
  5
43D
100
AcDbEntity
  8
0
100
AcDbSpline
 62
7
  6
CONTINUOUS
 70
0
 71
3
 72
13
 73
9
 74
0
 42
0.0000001
 43
0.0000001
 44
0.0000000001
 40
0.0
 40
0.0
 40
0.0
 40
0.0
 40
0.2430278717
 40
0.3677853792
 40
0.4941510739
 40
0.6213227247
 40
0.7484278957
 40
1.0
 40
1.0
 40
1.0
 40
1.0
 10
43.4953651709
 20
10.5821536895
 30
0.0
 10
43.4778651304
 20
10.5717067874
 30
0.0
 10
43.451342208
 20
10.5559625706
 30
0.0
 10
43.4156021078
 20
10.5349860174
 30
0.0
 10
43.3881832024
 20
10.5190271486
 30
0.0
 10
43.3605345135
 20
10.5030721263
 30
0.0
 10
43.3237162982
 20
10.4819993719
 30
0.0
 10
43.2960798136
 20
10.466354856
 30
0.0
 10
43.2776965986
 20
10.4560026557
 30
0.0
  0
SPLINE
  5
43E
100
AcDbEntity
  8
0
100
AcDbSpline
 62
7
  6
CONTINUOUS
 70
0
 71
3
 72
38
 73
34
 74
0
 42
0.0000001
 43
0.0000001
 44
0.0000000001
 40
0.0
 40
0.0
 40
0.0
 40
0.0
 40
0.0625123862
 40
0.0938030325
 40
0.1250905267
 40
0.1563799674
 40
0.1876746253
 40
0.2189724139
 40
0.2502708229
 40
0.2815688937
 40
0.3128657863
 40
0.3441609144
 40
0.3754530534
 40
0.4067412737
 40
0.4380248038
 40
0.4693027216
 40
0.5005746012
 40
0.5318396372
 40
0.5630975427
 40
0.5943479329
 40
0.6255905322
 40
0.6568254537
 40
0.6880525238
 40
0.7192721761
 40
0.7504845699
 40
0.7816902066
 40
0.8128897215
 40
0.8440836068
 40
0.87527287
 40
0.9064581249
 40
0.9376404568
 40
0.9688207707
 40
1.0
 40
1.0
 40
1.0
 40
1.0
 10
43.0353772905
 20
10.5755547234
 30
0.0
 10
43.0296104589
 20
10.5855813216
 30
0.0
 10
43.0219300112
 20
10.6012185959
 30
0.0
 10
43.0137999165
 20
10.6229010538
 30
0.0
 10
43.0087721082
 20
10.6395398255
 30
0.0
 10
43.0048393499
 20
10.6564702426
 30
0.0
 10
43.0020191113
 20
10.6736233628
 30
0.0
 10
43.0003201245
 20
10.6909251361
 30
0.0
 10
42.9997539045
 20
10.7083015947
 30
0.0
 10
43.0003201479
 20
10.7256778264
 30
0.0
 10
43.0020172655
 20
10.7429796978
 30
0.0
 10
43.0048389136
 20
10.7601329311
 30
0.0
 10
43.0087703552
 20
10.7770646858
 30
0.0
 10
43.0137985335
 20
10.7937014988
 30
0.0
 10
43.0198982124
 20
10.8099731831
 30
0.0
 10
43.0270459176
 20
10.8258092501
 30
0.0
 10
43.0352100377
 20
10.841142129
 30
0.0
 10
43.0443548273
 20
10.8559068261
 30
0.0
 10
43.0544434438
 20
10.870038509
 30
0.0
 10
43.0654296203
 20
10.8834789232
 30
0.0
 10
43.0772693056
 20
10.8961681455
 30
0.0
 10
43.089909656
 20
10.9080536344
 30
0.0
 10
43.1032973951
 20
10.9190839013
 30
0.0
 10
43.1173756953
 20
10.9292107842
 30
0.0
 10
43.1320827731
 20
10.938393266
 30
0.0
 10
43.1473576473
 20
10.9465887166
 30
0.0
 10
43.1631330353
 20
10.9537654045
 30
0.0
 10
43.1793426732
 20
10.9598901265
 30
0.0
 10
43.1959166146
 20
10.9649375286
 30
0.0
 10
43.2127837196
 20
10.9688870281
 30
0.0
 10
43.2298725146
 20
10.9717189476
 30
0.0
 10
43.2471082631
 20
10.9734248828
 30
0.0
 10
43.2586503145
 20
10.9738042499
 30
0.0
 10
43.264419434
 20
10.9738043872
 30
0.0
  0
SPLINE
  5
43F
100
AcDbEntity
  8
0
100
AcDbSpline
 62
7
  6
CONTINUOUS
 70
0
 71
3
 72
22
 73
18
 74
0
 42
0.0000001
 43
0.0000001
 44
0.0000000001
 40
0.0
 40
0.0
 40
0.0
 40
0.0
 40
0.1251231256
 40
0.1877142671
 40
0.2502741568
 40
0.3128145723
 40
0.3753439957
 40
0.4378605951
 40
0.5003619734
 40
0.5628491587
 40
0.6253236289
 40
0.687787548
 40
0.750241932
 40
0.8126884438
 40
0.8751290629
 40
0.9375654169
 40
1.0
 40
1.0
 40
1.0
 40
1.0
 10
43.0353772905
 20
10.5755547234
 30
0.0
 10
43.0411420368
 20
10.5655317508
 30
0.0
 10
43.0507905357
 20
10.5510376831
 30
0.0
 10
43.0654357555
 20
10.533123526
 30
0.0
 10
43.0772776184
 20
10.5204323044
 30
0.0
 10
43.0899187829
 20
10.5085473244
 30
0.0
 10
43.1033085011
 20
10.4975182606
 30
0.0
 10
43.1173872271
 20
10.4873897615
 30
0.0
 10
43.1320969034
 20
10.4782088327
 30
0.0
 10
43.1473727157
 20
10.4700126892
 30
0.0
 10
43.1631498971
 20
10.4628370344
 30
0.0
 10
43.1793611604
 20
10.4567135004
 30
0.0
 10
43.1959362868
 20
10.4516657116
 30
0.0
 10
43.2128052687
 20
10.4477190494
 30
0.0
 10
43.2298951708
 20
10.444886682
 30
0.0
 10
43.2471324258
 20
10.4431833984
 30
0.0
 10
43.2586752624
 20
10.4428049221
 30
0.0
 10
43.2644447972
 20
10.4428050595
 30
0.0
  0
SPLINE
  5
440
100
AcDbEntity
  8
0
100
AcDbSpline
 62
7
  6
CONTINUOUS
 70
0
 71
3
 72
22
 73
18
 74
0
 42
0.0000001
 43
0.0000001
 44
0.0000000001
 40
0.0
 40
0.0
 40
0.0
 40
0.0
 40
0.0624345802
 40
0.1248709325
 40
0.1873115514
 40
0.2497580634
 40
0.3122124485
 40
0.3746763688
 40
0.4371508404
 40
0.4996380274
 40
0.5621394073
 40
0.6246560074
 40
0.68718543
 40
0.7497258446
 40
0.8122857348
 40
0.8748768766
 40
1.0
 40
1.0
 40
1.0
 40
1.0
 10
43.2670467395
 20
10.9738043872
 30
0.0
 10
43.2728160102
 20
10.9738042471
 30
0.0
 10
43.2843583003
 20
10.973425251
 30
0.0
 10
43.3015946914
 20
10.9717212919
 30
0.0
 10
43.3186836961
 20
10.9688883616
 30
0.0
 10
43.3355517576
 20
10.9649412455
 30
0.0
 10
43.3521259507
 20
10.9598931144
 30
0.0
 10
43.3683362794
 20
10.95376935
 30
0.0
 10
43.3841125337
 20
10.9465935722
 30
0.0
 10
43.3993874383
 20
10.9383974146
 30
0.0
 10
43.4140962345
 20
10.9292165741
 30
0.0
 10
43.4281741189
 20
10.9190882643
 30
0.0
 10
43.4415630423
 20
10.9080594848
 30
0.0
 10
43.4542034676
 20
10.8961748781
 30
0.0
 10
43.4660446554
 20
10.8834841136
 30
0.0
 10
43.4806890705
 20
10.8655706663
 30
0.0
 10
43.4903370818
 20
10.8510772376
 30
0.0
 10
43.4961015645
 20
10.8410547234
 30
0.0
  0
SPLINE
  5
441
100
AcDbEntity
  8
0
100
AcDbSpline
 62
7
  6
CONTINUOUS
 70
0
 71
3
 72
23
 73
19
 74
0
 42
0.0000001
 43
0.0000001
 44
0.0000000001
 40
0.0
 40
0.0
 40
0.0
 40
0.0
 40
0.0624280805
 40
0.124858422
 40
0.1872929365
 40
0.2497335689
 40
0.3121824889
 40
0.3746410178
 40
0.4371112296
 40
0.4995940446
 40
0.5620909175
 40
0.6246026334
 40
0.6871296909
 40
0.7496727752
 40
0.8122314978
 40
0.8748061458
 40
0.9373958175
 40
1.0
 40
1.0
 40
1.0
 40
1.0
 10
43.2670467395
 20
10.4428050595
 30
0.0
 10
43.2729290931
 20
10.4428049166
 30
0.0
 10
43.2846978601
 20
10.4431987857
 30
0.0
 10
43.3022690974
 20
10.4449713936
 30
0.0
 10
43.3196846342
 20
10.4479142811
 30
0.0
 10
43.3368652337
 20
10.4520183286
 30
0.0
 10
43.3537353572
 20
10.4572619349
 30
0.0
 10
43.3702194318
 20
10.4636236528
 30
0.0
 10
43.3862439243
 20
10.4710749998
 30
0.0
 10
43.4017384208
 20
10.479581262
 30
0.0
 10
43.4166322405
 20
10.489107394
 30
0.0
 10
43.4308613046
 20
10.4996075742
 30
0.0
 10
43.4443599781
 20
10.5110382541
 30
0.0
 10
43.4570699839
 20
10.5233461999
 30
0.0
 10
43.4689339404
 20
10.5364776377
 30
0.0
 10
43.4798986009
 20
10.5503745851
 30
0.0
 10
43.4899166152
 20
10.5649729465
 30
0.0
 10
43.4959330147
 20
10.5751319293
 30
0.0
 10
43.49876861
 20
10.5803046439
 30
0.0
  0
SPLINE
  5
442
100
AcDbEntity
  8
0
100
AcDbSpline
 62
7
  6
CONTINUOUS
 70
0
 71
3
 72
13
 73
9
 74
0
 42
0.0000001
 43
0.0000001
 44
0.0000000001
 40
0.0
 40
0.0
 40
0.0
 40
0.0
 40
0.2473154933
 40
0.3732415121
 40
0.5
 40
0.6267584879
 40
0.7526845067
 40
1.0
 40
1.0
 40
1.0
 40
1.0
 10
43.0600280262
 20
10.5821536895
 30
0.0
 10
43.0605512174
 20
10.6029488893
 30
0.0
 10
43.0611940519
 20
10.6343366255
 30
0.0
 10
43.0616501673
 20
10.6763895825
 30
0.0
 10
43.0617683873
 20
10.7083047234
 30
0.0
 10
43.0616501673
 20
10.7402198642
 30
0.0
 10
43.0611940519
 20
10.7822728212
 30
0.0
 10
43.0605512174
 20
10.8136605575
 30
0.0
 10
43.0600280262
 20
10.8344557572
 30
0.0
  0
SPLINE
  5
443
100
AcDbEntity
  8
0
100
AcDbSpline
 62
7
  6
CONTINUOUS
 70
0
 71
3
 72
38
 73
34
 74
0
 42
0.0000001
 43
0.0000001
 44
0.0000000001
 40
0.0
 40
0.0
 40
0.0
 40
0.0
 40
0.062512389
 40
0.0938030368
 40
0.1250905326
 40
0.1563799754
 40
0.1876746356
 40
0.2189724262
 40
0.2502708369
 40
0.2815689092
 40
0.3128658032
 40
0.3441609324
 40
0.3754530722
 40
0.4067412929
 40
0.4380248231
 40
0.4693027407
 40
0.5005746197
 40
0.5318396548
 40
0.563097559
 40
0.5943479476
 40
0.6255905452
 40
0.6568254648
 40
0.6880525327
 40
0.7192721829
 40
0.7504845746
 40
0.7816902095
 40
0.8128897225
 40
0.8440836064
 40
0.8752728686
 40
0.9064581228
 40
0.9376404549
 40
0.9688207692
 40
1.0
 40
1.0
 40
1.0
 40
1.0
 10
43.0379919144
 20
10.5755547234
 30
0.0
 10
43.0322249508
 20
10.585581551
 30
0.0
 10
43.0245443494
 20
10.6012191971
 30
0.0
 10
43.0164141498
 20
10.622902182
 30
0.0
 10
43.0113863131
 20
10.6395413613
 30
0.0
 10
43.0074535786
 20
10.6564721931
 30
0.0
 10
43.004633416
 20
10.6736257298
 30
0.0
 10
43.002934558
 20
10.6909279162
 30
0.0
 10
43.00236852
 20
10.7083047794
 30
0.0
 10
43.0029349963
 20
10.7256814021
 30
0.0
 10
43.0046323987
 20
10.7429836458
 30
0.0
 10
43.0074543799
 20
10.7601372277
 30
0.0
 10
43.0113862023
 20
10.7770693024
 30
0.0
 10
43.0164148064
 20
10.793706402
 30
0.0
 10
43.0225149525
 20
10.8099783357
 30
0.0
 10
43.0296631651
 20
10.8258146093
 30
0.0
 10
43.0378278262
 20
10.8411476497
 30
0.0
 10
43.0469731897
 20
10.8559124578
 30
0.0
 10
43.0570624063
 20
10.8700441992
 30
0.0
 10
43.0680492054
 20
10.883484616
 30
0.0
 10
43.0798895321
 20
10.8961737812
 30
0.0
 10
43.092530535
 20
10.9080591537
 30
0.0
 10
43.1059189358
 20
10.9190892395
 30
0.0
 10
43.1199978982
 20
10.9292158788
 30
0.0
 10
43.1347056354
 20
10.938398051
 30
0.0
 10
43.1499811595
 20
10.9465931261
 30
0.0
 10
43.1657571817
 20
10.9537693745
 30
0.0
 10
43.181967434
 20
10.9598935892
 30
0.0
 10
43.198541962
 20
10.9649404229
 30
0.0
 10
43.2154096219
 20
10.9688892887
 30
0.0
 10
43.2324989331
 20
10.9717205154
 30
0.0
 10
43.2497351542
 20
10.9734256996
 30
0.0
 10
43.261277488
 20
10.9738045274
 30
0.0
 10
43.2670467395
 20
10.9738043872
 30
0.0
  0
SPLINE
  5
444
100
AcDbEntity
  8
0
100
AcDbSpline
 62
7
  6
CONTINUOUS
 70
0
 71
3
 72
22
 73
18
 74
0
 42
0.0000001
 43
0.0000001
 44
0.0000000001
 40
0.0
 40
0.0
 40
0.0
 40
0.0
 40
0.1251231234
 40
0.1877142652
 40
0.2502741554
 40
0.31281457
 40
0.3753439926
 40
0.4378605927
 40
0.5003619726
 40
0.5628491596
 40
0.6253236312
 40
0.6877875515
 40
0.7502419366
 40
0.8126884486
 40
0.8751290675
 40
0.9375654198
 40
1.0
 40
1.0
 40
1.0
 40
1.0
 10
43.0379919144
 20
10.5755547234
 30
0.0
 10
43.0437563971
 20
10.5655322091
 30
0.0
 10
43.0534044084
 20
10.5510387804
 30
0.0
 10
43.0680488235
 20
10.5331253331
 30
0.0
 10
43.0798900113
 20
10.5204345686
 30
0.0
 10
43.0925304366
 20
10.5085499619
 30
0.0
 10
43.1059193601
 20
10.4975211824
 30
0.0
 10
43.1199972444
 20
10.4873928726
 30
0.0
 10
43.1347060406
 20
10.4782120321
 30
0.0
 10
43.1499809452
 20
10.4700158745
 30
0.0
 10
43.1657571995
 20
10.4628400968
 30
0.0
 10
43.1819675282
 20
10.4567163323
 30
0.0
 10
43.1985417214
 20
10.4516682012
 30
0.0
 10
43.2154097828
 20
10.4477210852
 30
0.0
 10
43.2324987875
 20
10.4448881548
 30
0.0
 10
43.2497351786
 20
10.4431841957
 30
0.0
 10
43.2612774687
 20
10.4428051996
 30
0.0
 10
43.2670467395
 20
10.4428050595
 30
0.0
  0
SPLINE
  5
445
100
AcDbEntity
  8
0
100
AcDbSpline
 62
7
  6
CONTINUOUS
 70
0
 71
3
 72
13
 73
9
 74
0
 42
0.0000001
 43
0.0000001
 44
0.0000000001
 40
0.0
 40
0.0
 40
0.0
 40
0.0
 40
0.2515721043
 40
0.3786772753
 40
0.5058489261
 40
0.6322146208
 40
0.7569721283
 40
1.0
 40
1.0
 40
1.0
 40
1.0
 10
43.0600280262
 20
10.8344557572
 30
0.0
 10
43.0784112412
 20
10.8448079575
 30
0.0
 10
43.1060477258
 20
10.8604524734
 30
0.0
 10
43.1428659411
 20
10.8815252278
 30
0.0
 10
43.17051463
 20
10.89748025
 30
0.0
 10
43.1979335354
 20
10.9134391188
 30
0.0
 10
43.2336736356
 20
10.9344156721
 30
0.0
 10
43.260196558
 20
10.9501598888
 30
0.0
 10
43.2776965986
 20
10.960606791
 30
0.0
  0
SPLINE
  5
446
100
AcDbEntity
  8
0
100
AcDbSpline
 62
7
  6
CONTINUOUS
 70
0
 71
3
 72
47
 73
43
 74
0
 42
0.0000001
 43
0.0000001
 44
0.0000000001
 40
0.0
 40
0.0
 40
0.0
 40
0.0
 40
0.0312670784
 40
0.0469087572
 40
0.0625447422
 40
0.093792587
 40
0.1250300887
 40
0.1406498431
 40
0.1562666719
 40
0.187482807
 40
0.2186897021
 40
0.234294914
 40
0.2498983853
 40
0.2810917911
 40
0.3122813953
 40
0.327880226
 40
0.3434789273
 40
0.3746678189
 40
0.4058596836
 40
0.4370567058
 40
0.4682609193
 40
0.4994738589
 40
0.5306969184
 40
0.5619311076
 40
0.5931768056
 40
0.6244341662
 40
0.655702857
 40
0.6713458381
 40
0.6869913345
 40
0.7182796914
 40
0.7495757788
 40
0.7652307854
 40
0.7808870313
 40
0.8121926258
 40
0.8434997058
 40
0.8591579575
 40
0.874815919
 40
0.9061188237
 40
0.937415259
 40
0.9530686138
 40
0.9687228166
 40
1.0
 40
1.0
 40
1.0
 40
1.0
 10
43.0913474775
 20
10.8173047234
 30
0.0
 10
43.0948983148
 20
10.823478446
 30
0.0
 10
43.1006857008
 20
10.8324870301
 30
0.0
 10
43.1092462509
 20
10.8438797629
 30
0.0
 10
43.1183539224
 20
10.8548358839
 30
0.0
 10
43.1307249394
 20
10.8676687082
 30
0.0
 10
43.1442930851
 20
10.8792230383
 30
0.0
 10
43.155780349
 20
10.8876307118
 30
0.0
 10
43.1676633488
 20
10.8954602777
 30
0.0
 10
43.183213113
 20
10.904136348
 30
0.0
 10
43.199538546
 20
10.91123962
 30
0.0
 10
43.2129622548
 20
10.9159376444
 30
0.0
 10
43.2265982193
 20
10.9199675951
 30
0.0
 10
43.2439883232
 20
10.9237389949
 30
0.0
 10
43.2616642747
 20
10.9257791168
 30
0.0
 10
43.2758678934
 20
10.9263631232
 30
0.0
 10
43.2900827666
 20
10.9262462135
 30
0.0
 10
43.3078163136
 20
10.9247871863
 30
0.0
 10
43.3288176329
 20
10.9209503962
 30
0.0
 10
43.3493443524
 20
10.9150665473
 30
0.0
 10
43.3691972445
 20
10.9071910276
 30
0.0
 10
43.3881852284
 20
10.8973996765
 30
0.0
 10
43.4061260341
 20
10.8857879622
 30
0.0
 10
43.4228462095
 20
10.8724666737
 30
0.0
 10
43.4381848574
 20
10.8575640563
 30
0.0
 10
43.451994674
 20
10.8412256134
 30
0.0
 10
43.4621184281
 20
10.8265406982
 30
0.0
 10
43.469325918
 20
10.8142429624
 30
0.0
 10
43.4759241363
 20
10.8016026885
 30
0.0
 10
43.483001836
 20
10.7852163667
 30
0.0
 10
43.4884427598
 20
10.7682140547
 30
0.0
 10
43.4917839321
 20
10.7543451359
 30
0.0
 10
43.4944425381
 20
10.7403271511
 30
0.0
 10
43.4964770022
 20
10.7225850631
 30
0.0
 10
43.4967670617
 20
10.7047286049
 30
0.0
 10
43.4959537703
 20
10.69048246
 30
0.0
 10
43.4944441149
 20
10.6762941689
 30
0.0
 10
43.4912608557
 20
10.658724493
 30
0.0
 10
43.486375017
 20
10.6415514026
 30
0.0
 10
43.4814760794
 20
10.6281537866
 30
0.0
 10
43.4759285031
 20
10.61501754
 30
0.0
 10
43.4710497589
 20
10.6054804412
 30
0.0
 10
43.467497774
 20
10.5993047234
 30
0.0
  0
SPLINE
  5
447
100
AcDbEntity
  8
0
100
AcDbSpline
 62
7
  6
CONTINUOUS
 70
0
 71
3
 72
13
 73
9
 74
0
 42
0.0000001
 43
0.0000001
 44
0.0000000001
 40
0.0
 40
0.0
 40
0.0
 40
0.0
 40
0.2430278717
 40
0.3677853792
 40
0.4941510739
 40
0.6213227247
 40
0.7484278957
 40
1.0
 40
1.0
 40
1.0
 40
1.0
 10
43.2776965986
 20
10.4560026557
 30
0.0
 10
43.260196558
 20
10.4664495579
 30
0.0
 10
43.2336736356
 20
10.4821937746
 30
0.0
 10
43.1979335354
 20
10.5031703279
 30
0.0
 10
43.17051463
 20
10.5191291967
 30
0.0
 10
43.1428659411
 20
10.535084219
 30
0.0
 10
43.1060477258
 20
10.5561569733
 30
0.0
 10
43.0784112412
 20
10.5718014893
 30
0.0
 10
43.0600280262
 20
10.5821536895
 30
0.0
  0
SPLINE
  5
448
100
AcDbEntity
  8
0
100
AcDbSpline
 62
7
  6
CONTINUOUS
 70
0
 71
3
 72
47
 73
43
 74
0
 42
0.0000001
 43
0.0000001
 44
0.0000000001
 40
0.0
 40
0.0
 40
0.0
 40
0.0
 40
0.0312670784
 40
0.0469087572
 40
0.0625447422
 40
0.093792587
 40
0.1250300887
 40
0.1406498431
 40
0.1562666719
 40
0.187482807
 40
0.2186897021
 40
0.234294914
 40
0.2498983853
 40
0.2810917911
 40
0.3122813953
 40
0.327880226
 40
0.3434789273
 40
0.3746678189
 40
0.4058596836
 40
0.4370567058
 40
0.4682609193
 40
0.4994738589
 40
0.5306969184
 40
0.5619311076
 40
0.5931768056
 40
0.6244341662
 40
0.655702857
 40
0.6713458381
 40
0.6869913345
 40
0.7182796914
 40
0.7495757788
 40
0.7652307854
 40
0.7808870313
 40
0.8121926258
 40
0.8434997058
 40
0.8591579575
 40
0.874815919
 40
0.9061188237
 40
0.937415259
 40
0.9530686138
 40
0.9687228166
 40
1.0
 40
1.0
 40
1.0
 40
1.0
 10
43.467497774
 20
10.5993047234
 30
0.0
 10
43.4639469367
 20
10.5931310007
 30
0.0
 10
43.4581595507
 20
10.5841224166
 30
0.0
 10
43.4495990007
 20
10.5727296838
 30
0.0
 10
43.4404913291
 20
10.5617735629
 30
0.0
 10
43.4281203122
 20
10.5489407385
 30
0.0
 10
43.4145521664
 20
10.5373864084
 30
0.0
 10
43.4030649025
 20
10.5289787349
 30
0.0
 10
43.3911819027
 20
10.521149169
 30
0.0
 10
43.3756321385
 20
10.5124730987
 30
0.0
 10
43.3593067056
 20
10.5053698267
 30
0.0
 10
43.3458829967
 20
10.5006718023
 30
0.0
 10
43.3322470322
 20
10.4966418516
 30
0.0
 10
43.3148569283
 20
10.4928704518
 30
0.0
 10
43.2971809769
 20
10.49083033
 30
0.0
 10
43.2829773581
 20
10.4902463235
 30
0.0
 10
43.268762485
 20
10.4903632332
 30
0.0
 10
43.2510289379
 20
10.4918222604
 30
0.0
 10
43.2300276186
 20
10.4956590506
 30
0.0
 10
43.2095008991
 20
10.5015428994
 30
0.0
 10
43.1896480071
 20
10.5094184191
 30
0.0
 10
43.1706600231
 20
10.5192097702
 30
0.0
 10
43.1527192174
 20
10.5308214845
 30
0.0
 10
43.135999042
 20
10.544142773
 30
0.0
 10
43.1206603941
 20
10.5590453904
 30
0.0
 10
43.1068505776
 20
10.5753838333
 30
0.0
 10
43.0967268234
 20
10.5900687485
 30
0.0
 10
43.0895193336
 20
10.6023664843
 30
0.0
 10
43.0829211152
 20
10.6150067582
 30
0.0
 10
43.0758434155
 20
10.63139308
 30
0.0
 10
43.0704024917
 20
10.6483953921
 30
0.0
 10
43.0670613194
 20
10.6622643109
 30
0.0
 10
43.0644027134
 20
10.6762822956
 30
0.0
 10
43.0623682493
 20
10.6940243837
 30
0.0
 10
43.0620781899
 20
10.7118808418
 30
0.0
 10
43.0628914813
 20
10.7261269867
 30
0.0
 10
43.0644011366
 20
10.7403152778
 30
0.0
 10
43.0675843958
 20
10.7578849537
 30
0.0
 10
43.0724702345
 20
10.7750580441
 30
0.0
 10
43.0773691721
 20
10.7884556602
 30
0.0
 10
43.0829167484
 20
10.8015919068
 30
0.0
 10
43.0877954926
 20
10.8111290055
 30
0.0
 10
43.0913474775
 20
10.8173047234
 30
0.0
  0
SPLINE
  5
449
100
AcDbEntity
  8
0
100
AcDbSpline
 62
7
  6
CONTINUOUS
 70
0
 71
3
 72
24
 73
20
 74
0
 42
0.0000001
 43
0.0000001
 44
0.0000000001
 40
0.0
 40
0.0
 40
0.0
 40
0.0
 40
0.1896348566
 40
0.3644455398
 40
0.4455750699
 40
0.5222010633
 40
0.5940983048
 40
0.661050759
 40
0.7228526023
 40
0.7793336974
 40
0.8303378655
 40
0.8757327934
 40
0.9154253341
 40
0.9331117309
 40
0.9493514416
 40
0.9641478999
 40
0.9775095524
 40
0.9894516696
 40
1.0
 40
1.0
 40
1.0
 40
1.0
 10
52.4626202443
 20
10.8173047234
 30
0.0
 10
52.4622780319
 20
10.8241056547
 30
0.0
 10
52.4615390388
 20
10.8371719737
 30
0.0
 10
52.4603998376
 20
10.8531321572
 30
0.0
 10
52.4593866427
 20
10.8650312755
 30
0.0
 10
52.4586048385
 20
10.8732408148
 30
0.0
 10
52.4577847439
 20
10.8809348616
 30
0.0
 10
52.4569291606
 20
10.8880892421
 30
0.0
 10
52.4560406373
 20
10.8946814813
 30
0.0
 10
52.4551224627
 20
10.9006909838
 30
0.0
 10
52.4541778524
 20
10.9060993714
 30
0.0
 10
52.4532098033
 20
10.9108900369
 30
0.0
 10
52.4523576663
 20
10.9144819181
 30
0.0
 10
52.4516572435
 20
10.9170312543
 30
0.0
 10
52.4511482478
 20
10.9187054055
 30
0.0
 10
52.4506357263
 20
10.9202153798
 30
0.0
 10
52.4501200772
 20
10.9215603315
 30
0.0
 10
52.4496017867
 20
10.9227393766
 30
0.0
 10
52.4492321933
 20
10.9234583497
 30
0.0
 10
52.4490449876
 20
10.9237876302
 30
0.0
  0
SPLINE
  5
44A
100
AcDbEntity
  8
0
100
AcDbSpline
 62
7
  6
CONTINUOUS
 70
0
 71
3
 72
9
 73
5
 74
0
 42
0.0000001
 43
0.0000001
 44
0.0000000001
 40
0.0
 40
0.0
 40
0.0
 40
0.0
 40
0.5066195038
 40
1.0
 40
1.0
 40
1.0
 40
1.0
 10
52.4264371585
 20
10.4560026557
 30
0.0
 10
52.4288526152
 20
10.4593292327
 30
0.0
 10
52.4334752687
 20
10.466002645
 30
0.0
 10
52.4377274347
 20
10.4729207757
 30
0.0
 10
52.4397087789
 20
10.4763997223
 30
0.0
  0
SPLINE
  5
44B
100
AcDbEntity
  8
0
100
AcDbSpline
 62
7
  6
CONTINUOUS
 70
0
 71
3
 72
34
 73
30
 74
0
 42
0.0000001
 43
0.0000001
 44
0.0000000001
 40
0.0
 40
0.0
 40
0.0
 40
0.0
 40
0.0038050564
 40
0.0081536181
 40
0.0130559092
 40
0.0185176785
 40
0.0245418428
 40
0.0311288065
 40
0.038276026
 40
0.0459797716
 40
0.0630382912
 40
0.0822601711
 40
0.1035828517
 40
0.1269377115
 40
0.1522439707
 40
0.1794125408
 40
0.2083488975
 40
0.2389475346
 40
0.2711001273
 40
0.3046897236
 40
0.37568804
 40
0.450911729
 40
0.5292654213
 40
0.6096061149
 40
0.6907603129
 40
0.771544276
 40
0.8507720382
 40
0.9273038776
 40
1.0
 40
1.0
 40
1.0
 40
1.0
 10
52.4490449876
 20
10.4928218167
 30
0.0
 10
52.4492492249
 20
10.4931810552
 30
0.0
 10
52.4496516214
 20
10.4939709867
 30
0.0
 10
52.4502130139
 20
10.4952737086
 30
0.0
 10
52.4507712922
 20
10.4967714231
 30
0.0
 10
52.4513258362
 20
10.4984630142
 30
0.0
 10
52.4518760469
 20
10.5003473772
 30
0.0
 10
52.4524212865
 20
10.5024229763
 30
0.0
 10
52.4529611217
 20
10.504687913
 30
0.0
 10
52.4536981988
 20
10.5080742461
 30
0.0
 10
52.4545920522
 20
10.5127674748
 30
0.0
 10
52.4556026375
 20
10.518941638
 30
0.0
 10
52.4565803904
 20
10.5258124629
 30
0.0
 10
52.4575210544
 20
10.5333547355
 30
0.0
 10
52.4584210271
 20
10.5415409352
 30
0.0
 10
52.4592768349
 20
10.550341056
 30
0.0
 10
52.4600849471
 20
10.5597226824
 30
0.0
 10
52.4608425785
 20
10.5696514337
 30
0.0
 10
52.4615465938
 20
10.5800906739
 30
0.0
 10
52.4624267083
 20
10.5949150233
 30
0.0
 10
52.4633645661
 20
10.6144211219
 30
0.0
 10
52.464222792
 20
10.6387960079
 30
0.0
 10
52.4648199032
 20
10.6641935564
 30
0.0
 10
52.4651467874
 20
10.6902400884
 30
0.0
 10
52.4651984075
 20
10.7165525442
 30
0.0
 10
52.4649739107
 20
10.7427432222
 30
0.0
 10
52.4644769612
 20
10.7684281021
 30
0.0
 10
52.4637148539
 20
10.7932277234
 30
0.0
 10
52.4630170045
 20
10.8094197399
 30
0.0
 10
52.4626202443
 20
10.8173047234
 30
0.0
  0
SPLINE
  5
44C
100
AcDbEntity
  8
0
100
AcDbSpline
 62
7
  6
CONTINUOUS
 70
0
 71
3
 72
9
 73
5
 74
0
 42
0.0000001
 43
0.0000001
 44
0.0000000001
 40
0.0
 40
0.0
 40
0.0
 40
0.0
 40
0.4933804962
 40
1.0
 40
1.0
 40
1.0
 40
1.0
 10
52.4397087789
 20
10.9402097244
 30
0.0
 10
52.4377274347
 20
10.943688671
 30
0.0
 10
52.4334752687
 20
10.9506068017
 30
0.0
 10
52.4288526152
 20
10.957280214
 30
0.0
 10
52.4264371585
 20
10.960606791
 30
0.0
  0
SPLINE
  5
44D
100
AcDbEntity
  8
0
100
AcDbSpline
 62
7
  6
CONTINUOUS
 70
0
 71
3
 72
20
 73
16
 74
0
 42
0.0000001
 43
0.0000001
 44
0.0000000001
 40
0.0
 40
0.0
 40
0.0
 40
0.0
 40
0.2020065414
 40
0.3802232924
 40
0.5348214024
 40
0.6034151897
 40
0.6663281764
 40
0.7237010459
 40
0.7757253342
 40
0.8226646511
 40
0.8648852788
 40
0.902898317
 40
0.9374121187
 40
0.9693809691
 40
1.0
 40
1.0
 40
1.0
 40
1.0
 10
52.3115243518
 20
10.9620179117
 30
0.0
 10
52.3112641478
 20
10.9629384226
 30
0.0
 10
52.3107463966
 20
10.9646634461
 30
0.0
 10
52.3099139927
 20
10.9670562239
 30
0.0
 10
52.309189402
 20
10.9688152768
 30
0.0
 10
52.3085995786
 20
10.9700353888
 30
0.0
 10
52.308173723
 20
10.9708223414
 30
0.0
 10
52.3077466858
 20
10.9715181916
 30
0.0
 10
52.3073184538
 20
10.9721228717
 30
0.0
 10
52.3068889365
 20
10.972636354
 30
0.0
 10
52.3064578212
 20
10.9730585686
 30
0.0
 10
52.3060245543
 20
10.9733892554
 30
0.0
 10
52.3055882315
 20
10.9736275723
 30
0.0
 10
52.3051487137
 20
10.9737719418
 30
0.0
 10
52.304851434
 20
10.9738044275
 30
0.0
 10
52.3047064408
 20
10.9738043872
 30
0.0
  0
SPLINE
  5
44E
100
AcDbEntity
  8
0
100
AcDbSpline
 62
7
  6
CONTINUOUS
 70
0
 71
3
 72
28
 73
24
 74
0
 42
0.0000001
 43
0.0000001
 44
0.0000000001
 40
0.0
 40
0.0
 40
0.0
 40
0.0
 40
0.0678455031
 40
0.1390463981
 40
0.2127060149
 40
0.2879646453
 40
0.3639128537
 40
0.4396362921
 40
0.5142265389
 40
0.5867864663
 40
0.6564458884
 40
0.7223705187
 40
0.7837712914
 40
0.8125456163
 40
0.8399193279
 40
0.8658139384
 40
0.890152581
 40
0.9128640079
 40
0.9338857806
 40
0.9531575261
 40
0.9706275262
 40
0.9862540354
 40
1.0
 40
1.0
 40
1.0
 40
1.0
 10
52.3247457674
 20
10.5755547234
 30
0.0
 10
52.3251828599
 20
10.5842412468
 30
0.0
 10
52.3259624097
 20
10.6020498807
 30
0.0
 10
52.3268464071
 20
10.6293040771
 30
0.0
 10
52.3274657988
 20
10.6575161401
 30
0.0
 10
52.3278131248
 20
10.6863414506
 30
0.0
 10
52.3278839323
 20
10.7154333335
 30
0.0
 10
52.3276773974
 20
10.7444388852
 30
0.0
 10
52.327196088
 20
10.7730067764
 30
0.0
 10
52.3264459464
 20
10.80079125
 30
0.0
 10
52.3254366085
 20
10.8274559337
 30
0.0
 10
52.324180772
 20
10.8526779594
 30
0.0
 10
52.3229164873
 20
10.8726501306
 30
0.0
 10
52.321782223
 20
10.8876768135
 30
0.0
 10
52.3208985601
 20
10.8981573064
 30
0.0
 10
52.3199665839
 20
10.9080626246
 30
0.0
 10
52.3189890604
 20
10.9173628106
 30
0.0
 10
52.31796892
 20
10.9260297646
 30
0.0
 10
52.3169097973
 20
10.9340373248
 30
0.0
 10
52.3158149088
 20
10.94136139
 30
0.0
 10
52.3146878324
 20
10.947980095
 30
0.0
 10
52.3135328568
 20
10.9538736576
 30
0.0
 10
52.3126927263
 20
10.95754522
 30
0.0
 10
52.3122615962
 20
10.9592538425
 30
0.0
  0
SPLINE
  5
44F
100
AcDbEntity
  8
0
100
AcDbSpline
 62
7
  6
CONTINUOUS
 70
0
 71
3
 72
15
 73
11
 74
0
 42
0.0000001
 43
0.0000001
 44
0.0000000001
 40
0.0
 40
0.0
 40
0.0
 40
0.0
 40
0.1490698013
 40
0.2923501365
 40
0.4291996026
 40
0.5590666057
 40
0.6815024651
 40
0.7960713691
 40
0.9023676538
 40
1.0
 40
1.0
 40
1.0
 40
1.0
 10
52.3247457674
 20
10.5755547234
 30
0.0
 10
52.3245127944
 20
10.5709247538
 30
0.0
 10
52.3240240617
 20
10.561846191
 30
0.0
 10
52.3232046303
 20
10.5485238258
 30
0.0
 10
52.3223156397
 20
10.5358044597
 30
0.0
 10
52.3213605579
 20
10.5237400135
 30
0.0
 10
52.3203434933
 20
10.5123761006
 30
0.0
 10
52.319268012
 20
10.5017540218
 30
0.0
 10
52.318138707
 20
10.491913549
 30
0.0
 10
52.3173171668
 20
10.4856247557
 30
0.0
 10
52.3168942507
 20
10.4826181477
 30
0.0
  0
SPLINE
  5
450
100
AcDbEntity
  8
0
100
AcDbSpline
 62
7
  6
CONTINUOUS
 70
0
 71
3
 72
21
 73
17
 74
0
 42
0.0000001
 43
0.0000001
 44
0.0000000001
 40
0.0
 40
0.0
 40
0.0
 40
0.0
 40
0.1249717233
 40
0.1874684367
 40
0.2499692886
 40
0.3124732591
 40
0.3749805625
 40
0.4374896612
 40
0.5
 40
0.5625103388
 40
0.6250194375
 40
0.6875267409
 40
0.7500307114
 40
0.8125315633
 40
0.8750282767
 40
1.0
 40
1.0
 40
1.0
 40
1.0
 10
52.4454803357
 20
10.5821536895
 30
0.0
 10
52.4484290418
 20
10.5924073239
 30
0.0
 10
52.4524808768
 20
10.6079015345
 30
0.0
 10
52.4569454796
 20
10.6287728181
 30
0.0
 10
52.4597752154
 20
10.644531642
 30
0.0
 10
52.4620380472
 20
10.6603830607
 30
0.0
 10
52.4636899757
 20
10.6763109834
 30
0.0
 10
52.4646959261
 20
10.692293593
 30
0.0
 10
52.4650346007
 20
10.7083047234
 30
0.0
 10
52.4646959261
 20
10.7243158537
 30
0.0
 10
52.4636899757
 20
10.7402984633
 30
0.0
 10
52.4620380472
 20
10.756226386
 30
0.0
 10
52.4597752154
 20
10.7720778047
 30
0.0
 10
52.4569454796
 20
10.7878366286
 30
0.0
 10
52.4524808768
 20
10.8087079122
 30
0.0
 10
52.4484290418
 20
10.8242021228
 30
0.0
 10
52.4454803357
 20
10.8344557572
 30
0.0
  0
SPLINE
  5
451
100
AcDbEntity
  8
0
100
AcDbSpline
 62
7
  6
CONTINUOUS
 70
0
 71
3
 72
9
 73
5
 74
0
 42
0.0000001
 43
0.0000001
 44
0.0000000001
 40
0.0
 40
0.0
 40
0.0
 40
0.0
 40
0.2545918989
 40
1.0
 40
1.0
 40
1.0
 40
1.0
 10
52.4397087789
 20
10.4763997223
 30
0.0
 10
52.4405005357
 20
10.4777899298
 30
0.0
 10
52.4435369688
 20
10.4832915271
 30
0.0
 10
52.4462600054
 20
10.4889696409
 30
0.0
 10
52.4480560337
 20
10.4932957993
 30
0.0
  0
LINE
  5
452
100
AcDbEntity
  8
0
100
AcDbLine
 62
7
  6
CONTINUOUS
 10
52.4480560337
 20
10.4932957993
 11
52.4481991212
 21
10.4936418642
  0
SPLINE
  5
453
100
AcDbEntity
  8
0
100
AcDbSpline
 62
7
  6
CONTINUOUS
 70
0
 71
3
 72
19
 73
15
 74
0
 42
0.0000001
 43
0.0000001
 44
0.0000000001
 40
0.0
 40
0.0
 40
0.0
 40
0.0
 40
0.1296331746
 40
0.1931206136
 40
0.2558526181
 40
0.3179625945
 40
0.3796012857
 40
0.4409268894
 40
0.5020962281
 40
0.5632602961
 40
0.6245528286
 40
0.7479349191
 40
0.8729649692
 40
1.0
 40
1.0
 40
1.0
 40
1.0
 10
52.4481991212
 20
10.4936418642
 30
0.0
 10
52.4496993555
 20
10.4972851267
 30
0.0
 10
52.4516895039
 20
10.5028207556
 30
0.0
 10
52.453730783
 20
10.5103274263
 30
0.0
 10
52.4549272971
 20
10.5159282866
 30
0.0
 10
52.4557939723
 20
10.52153266
 30
0.0
 10
52.4563292716
 20
10.527135464
 30
0.0
 10
52.4565373373
 20
10.5327312865
 30
0.0
 10
52.4564224553
 20
10.5383152118
 30
0.0
 10
52.4559964097
 20
10.5438829249
 30
0.0
 10
52.4550260795
 20
10.5512946895
 30
0.0
 10
52.4530907221
 20
10.5605231132
 30
0.0
 10
52.4497638176
 20
10.5714509558
 30
0.0
 10
52.4469881504
 20
10.5785991825
 30
0.0
 10
52.4454803357
 20
10.5821536895
 30
0.0
  0
SPLINE
  5
454
100
AcDbEntity
  8
0
100
AcDbSpline
 62
7
  6
CONTINUOUS
 70
0
 71
3
 72
14
 73
10
 74
0
 42
0.0000001
 43
0.0000001
 44
0.0000000001
 40
0.0
 40
0.0
 40
0.0
 40
0.0
 40
0.2479351964
 40
0.3719122344
 40
0.4961186958
 40
0.6207839825
 40
0.7461604627
 40
0.8724959321
 40
1.0
 40
1.0
 40
1.0
 40
1.0
 10
52.3272725368
 20
10.8344557572
 30
0.0
 10
52.3280810849
 20
10.8414275484
 30
0.0
 10
52.3289515851
 20
10.8519326681
 30
0.0
 10
52.3292334192
 20
10.8659775822
 30
0.0
 10
52.3289620547
 20
10.8765327908
 30
0.0
 10
52.3281726169
 20
10.8871018624
 30
0.0
 10
52.3268429722
 20
10.8976777112
 30
0.0
 10
52.3249648864
 20
10.908251316
 30
0.0
 10
52.3233630875
 20
10.9152594246
 30
0.0
 10
52.3224784554
 20
10.918758707
 30
0.0
  0
SPLINE
  5
455
100
AcDbEntity
  8
0
100
AcDbSpline
 62
7
  6
CONTINUOUS
 70
0
 71
3
 72
19
 73
15
 74
0
 42
0.0000001
 43
0.0000001
 44
0.0000000001
 40
0.0
 40
0.0
 40
0.0
 40
0.0
 40
0.1270350308
 40
0.2520650809
 40
0.3754471714
 40
0.4367397039
 40
0.4979037719
 40
0.5590731106
 40
0.6203987143
 40
0.6820374055
 40
0.7441473819
 40
0.8068793864
 40
0.8703668254
 40
1.0
 40
1.0
 40
1.0
 40
1.0
 10
52.4454803357
 20
10.8344557572
 30
0.0
 10
52.4469881504
 20
10.8380102643
 30
0.0
 10
52.4497638176
 20
10.8451584909
 30
0.0
 10
52.4530907221
 20
10.8560863335
 30
0.0
 10
52.4550260795
 20
10.8653147572
 30
0.0
 10
52.4559964097
 20
10.8727265219
 30
0.0
 10
52.4564224553
 20
10.878294235
 30
0.0
 10
52.4565373373
 20
10.8838781603
 30
0.0
 10
52.4563292716
 20
10.8894739827
 30
0.0
 10
52.4557939723
 20
10.8950767867
 30
0.0
 10
52.4549272971
 20
10.9006811601
 30
0.0
 10
52.453730783
 20
10.9062820204
 30
0.0
 10
52.4516895039
 20
10.9137886911
 30
0.0
 10
52.4496993555
 20
10.91932432
 30
0.0
 10
52.4481991212
 20
10.9229675825
 30
0.0
  0
LINE
  5
456
100
AcDbEntity
  8
0
100
AcDbLine
 62
7
  6
CONTINUOUS
 10
52.4481991212
 20
10.9229675825
 11
52.4480560337
 21
10.9233136474
  0
SPLINE
  5
457
100
AcDbEntity
  8
0
100
AcDbSpline
 62
7
  6
CONTINUOUS
 70
0
 71
3
 72
9
 73
5
 74
0
 42
0.0000001
 43
0.0000001
 44
0.0000000001
 40
0.0
 40
0.0
 40
0.0
 40
0.0
 40
0.2455498839
 40
1.0
 40
1.0
 40
1.0
 40
1.0
 10
52.4480560337
 20
10.9233136474
 30
0.0
 10
52.4474643748
 20
10.9247387977
 30
0.0
 10
52.4449518959
 20
10.9304998463
 30
0.0
 10
52.4420551156
 20
10.9360899049
 30
0.0
 10
52.4397087789
 20
10.9402097244
 30
0.0
  0
SPLINE
  5
458
100
AcDbEntity
  8
0
100
AcDbSpline
 62
7
  6
CONTINUOUS
 70
0
 71
3
 72
15
 73
11
 74
0
 42
0.0000001
 43
0.0000001
 44
0.0000000001
 40
0.0
 40
0.0
 40
0.0
 40
0.0
 40
0.1249964676
 40
0.2499956901
 40
0.3749971619
 40
0.4999999975
 40
0.6250028276
 40
0.7500042897
 40
0.8750035086
 40
1.0
 40
1.0
 40
1.0
 40
1.0
 10
52.3272725368
 20
10.5821536895
 30
0.0
 10
52.3286677606
 20
10.5926075602
 30
0.0
 10
52.3312030654
 20
10.6135509461
 30
0.0
 10
52.3340818724
 20
10.6450652553
 30
0.0
 10
52.3358852026
 20
10.6766616389
 30
0.0
 10
52.3365003636
 20
10.7083047223
 30
0.0
 10
52.335885203
 20
10.7399478049
 30
0.0
 10
52.3340818729
 20
10.7715441869
 30
0.0
 10
52.3312030667
 20
10.803058497
 30
0.0
 10
52.3286677608
 20
10.8240018845
 30
0.0
 10
52.3272725368
 20
10.8344557572
 30
0.0
  0
SPLINE
  5
459
100
AcDbEntity
  8
0
100
AcDbSpline
 62
7
  6
CONTINUOUS
 70
0
 71
3
 72
14
 73
10
 74
0
 42
0.0000001
 43
0.0000001
 44
0.0000000001
 40
0.0
 40
0.0
 40
0.0
 40
0.0
 40
0.1275040503
 40
0.2538395089
 40
0.3792159868
 40
0.5038812922
 40
0.6280877791
 40
0.7520648318
 40
1.0
 40
1.0
 40
1.0
 40
1.0
 10
52.322478545
 20
10.4978510989
 30
0.0
 10
52.3233631674
 20
10.501350367
 30
0.0
 10
52.3249649518
 20
10.5083584459
 30
0.0
 10
52.3268430127
 20
10.5189320068
 30
0.0
 10
52.3281726356
 20
10.5295078115
 30
0.0
 10
52.3289620655
 20
10.5400768386
 30
0.0
 10
52.3292334173
 20
10.5506320031
 30
0.0
 10
52.3289515802
 20
10.5646768562
 30
0.0
 10
52.3280810812
 20
10.5751819295
 30
0.0
 10
52.3272725368
 20
10.5821536895
 30
0.0
  0
SPLINE
  5
45A
100
AcDbEntity
  8
0
100
AcDbSpline
 62
7
  6
CONTINUOUS
 70
0
 71
3
 72
24
 73
20
 74
0
 42
0.0000001
 43
0.0000001
 44
0.0000000001
 40
0.0
 40
0.0
 40
0.0
 40
0.0
 40
0.1896348566
 40
0.3644455398
 40
0.4455750699
 40
0.5222010633
 40
0.5940983048
 40
0.661050759
 40
0.7228526023
 40
0.7793336974
 40
0.8303378655
 40
0.8757327934
 40
0.9154253341
 40
0.9331117309
 40
0.9493514416
 40
0.9641478999
 40
0.9775095524
 40
0.9894516696
 40
1.0
 40
1.0
 40
1.0
 40
1.0
 10
32.3385049536
 20
10.8173047234
 30
0.0
 10
32.338847166
 20
10.8241056547
 30
0.0
 10
32.3395861591
 20
10.8371719737
 30
0.0
 10
32.3407253604
 20
10.8531321572
 30
0.0
 10
32.3417385552
 20
10.8650312755
 30
0.0
 10
32.3425203594
 20
10.8732408148
 30
0.0
 10
32.343340454
 20
10.8809348616
 30
0.0
 10
32.3441960373
 20
10.8880892421
 30
0.0
 10
32.3450845606
 20
10.8946814813
 30
0.0
 10
32.3460027352
 20
10.9006909838
 30
0.0
 10
32.3469473455
 20
10.9060993714
 30
0.0
 10
32.3479153946
 20
10.9108900369
 30
0.0
 10
32.3487675316
 20
10.9144819181
 30
0.0
 10
32.3494679544
 20
10.9170312543
 30
0.0
 10
32.3499769501
 20
10.9187054055
 30
0.0
 10
32.3504894716
 20
10.9202153798
 30
0.0
 10
32.3510051207
 20
10.9215603315
 30
0.0
 10
32.3515234112
 20
10.9227393766
 30
0.0
 10
32.3518930046
 20
10.9234583497
 30
0.0
 10
32.3520802104
 20
10.9237876302
 30
0.0
  0
SPLINE
  5
45B
100
AcDbEntity
  8
0
100
AcDbSpline
 62
7
  6
CONTINUOUS
 70
0
 71
3
 72
9
 73
5
 74
0
 42
0.0000001
 43
0.0000001
 44
0.0000000001
 40
0.0
 40
0.0
 40
0.0
 40
0.0
 40
0.5066195038
 40
1.0
 40
1.0
 40
1.0
 40
1.0
 10
32.3746880394
 20
10.4560026557
 30
0.0
 10
32.3722725828
 20
10.4593292327
 30
0.0
 10
32.3676499292
 20
10.466002645
 30
0.0
 10
32.3633977632
 20
10.4729207757
 30
0.0
 10
32.361416419
 20
10.4763997223
 30
0.0
  0
SPLINE
  5
45C
100
AcDbEntity
  8
0
100
AcDbSpline
 62
7
  6
CONTINUOUS
 70
0
 71
3
 72
34
 73
30
 74
0
 42
0.0000001
 43
0.0000001
 44
0.0000000001
 40
0.0
 40
0.0
 40
0.0
 40
0.0
 40
0.0038050564
 40
0.0081536181
 40
0.0130559092
 40
0.0185176785
 40
0.0245418428
 40
0.0311288065
 40
0.038276026
 40
0.0459797716
 40
0.0630382912
 40
0.0822601711
 40
0.1035828517
 40
0.1269377115
 40
0.1522439707
 40
0.1794125408
 40
0.2083488975
 40
0.2389475346
 40
0.2711001273
 40
0.3046897236
 40
0.37568804
 40
0.450911729
 40
0.5292654213
 40
0.6096061149
 40
0.6907603129
 40
0.771544276
 40
0.8507720382
 40
0.9273038776
 40
1.0
 40
1.0
 40
1.0
 40
1.0
 10
32.3520802104
 20
10.4928218167
 30
0.0
 10
32.351875973
 20
10.4931810552
 30
0.0
 10
32.3514735765
 20
10.4939709867
 30
0.0
 10
32.350912184
 20
10.4952737086
 30
0.0
 10
32.3503539057
 20
10.4967714231
 30
0.0
 10
32.3497993617
 20
10.4984630142
 30
0.0
 10
32.3492491511
 20
10.5003473772
 30
0.0
 10
32.3487039115
 20
10.5024229763
 30
0.0
 10
32.3481640762
 20
10.504687913
 30
0.0
 10
32.3474269991
 20
10.5080742461
 30
0.0
 10
32.3465331457
 20
10.5127674748
 30
0.0
 10
32.3455225604
 20
10.518941638
 30
0.0
 10
32.3445448075
 20
10.5258124629
 30
0.0
 10
32.3436041435
 20
10.5333547355
 30
0.0
 10
32.3427041709
 20
10.5415409352
 30
0.0
 10
32.341848363
 20
10.550341056
 30
0.0
 10
32.3410402509
 20
10.5597226824
 30
0.0
 10
32.3402826194
 20
10.5696514337
 30
0.0
 10
32.3395786042
 20
10.5800906739
 30
0.0
 10
32.3386984897
 20
10.5949150233
 30
0.0
 10
32.3377606319
 20
10.6144211219
 30
0.0
 10
32.3369024059
 20
10.6387960079
 30
0.0
 10
32.3363052947
 20
10.6641935564
 30
0.0
 10
32.3359784105
 20
10.6902400884
 30
0.0
 10
32.3359267904
 20
10.7165525442
 30
0.0
 10
32.3361512873
 20
10.7427432222
 30
0.0
 10
32.3366482367
 20
10.7684281021
 30
0.0
 10
32.337410344
 20
10.7932277234
 30
0.0
 10
32.3381081934
 20
10.8094197399
 30
0.0
 10
32.3385049536
 20
10.8173047234
 30
0.0
  0
SPLINE
  5
45D
100
AcDbEntity
  8
0
100
AcDbSpline
 62
7
  6
CONTINUOUS
 70
0
 71
3
 72
9
 73
5
 74
0
 42
0.0000001
 43
0.0000001
 44
0.0000000001
 40
0.0
 40
0.0
 40
0.0
 40
0.0
 40
0.4933804962
 40
1.0
 40
1.0
 40
1.0
 40
1.0
 10
32.361416419
 20
10.9402097244
 30
0.0
 10
32.3633977632
 20
10.943688671
 30
0.0
 10
32.3676499292
 20
10.9506068017
 30
0.0
 10
32.3722725828
 20
10.957280214
 30
0.0
 10
32.3746880394
 20
10.960606791
 30
0.0
  0
SPLINE
  5
45E
100
AcDbEntity
  8
0
100
AcDbSpline
 62
7
  6
CONTINUOUS
 70
0
 71
3
 72
28
 73
24
 74
0
 42
0.0000001
 43
0.0000001
 44
0.0000000001
 40
0.0
 40
0.0
 40
0.0
 40
0.0
 40
0.0072117986
 40
0.0149369085
 40
0.0235974846
 40
0.0334959881
 40
0.0448353794
 40
0.0577467482
 40
0.0723140485
 40
0.0885925328
 40
0.1066189675
 40
0.1264178851
 40
0.1480054954
 40
0.1713906957
 40
0.2235477071
 40
0.2828546526
 40
0.3492424329
 40
0.4226072125
 40
0.5028027976
 40
0.5896720658
 40
0.6830434162
 40
0.7827051583
 40
1.0
 40
1.0
 40
1.0
 40
1.0
 10
32.5263034929
 20
10.9738043872
 30
0.0
 10
32.5264904393
 20
10.9738044381
 30
0.0
 10
32.5268794052
 20
10.9737489873
 30
0.0
 10
32.5274469662
 20
10.9735066
 30
0.0
 10
32.5280065997
 20
10.9731110705
 30
0.0
 10
32.5285605725
 20
10.9725654508
 30
0.0
 10
32.529111143
 20
10.9718701174
 30
0.0
 10
32.5296593463
 20
10.9710249529
 30
0.0
 10
32.5302055604
 20
10.9700299361
 30
0.0
 10
32.5307497034
 20
10.9688852336
 30
0.0
 10
32.5312915464
 20
10.9675911737
 30
0.0
 10
32.5318307749
 20
10.9661481928
 30
0.0
 10
32.5323670759
 20
10.9645568473
 30
0.0
 10
32.5331047921
 20
10.9621492442
 30
0.0
 10
32.5340067844
 20
10.9587708446
 30
0.0
 10
32.5350381582
 20
10.9542766797
 30
0.0
 10
32.5360509177
 20
10.9492163818
 30
0.0
 10
32.5370423889
 20
10.9436012859
 30
0.0
 10
32.538010267
 20
10.9374440912
 30
0.0
 10
32.5389520097
 20
10.9307587447
 30
0.0
 10
32.5398651095
 20
10.9235605061
 30
0.0
 10
32.5410769129
 20
10.9129929261
 30
0.0
 10
32.5418803446
 20
10.9048153719
 30
0.0
 10
32.542386185
 20
10.8992053468
 30
0.0
  0
SPLINE
  5
45F
100
AcDbEntity
  8
0
100
AcDbSpline
 62
7
  6
CONTINUOUS
 70
0
 71
3
 72
20
 73
16
 74
0
 42
0.0000001
 43
0.0000001
 44
0.0000000001
 40
0.0
 40
0.0
 40
0.0
 40
0.0
 40
0.2020065414
 40
0.3802232924
 40
0.5348214024
 40
0.6034151897
 40
0.6663281764
 40
0.7237010459
 40
0.7757253342
 40
0.8226646511
 40
0.8648852788
 40
0.902898317
 40
0.9374121187
 40
0.9693809691
 40
1.0
 40
1.0
 40
1.0
 40
1.0
 10
32.4896008461
 20
10.9620179117
 30
0.0
 10
32.4898610501
 20
10.9629384226
 30
0.0
 10
32.4903788014
 20
10.9646634461
 30
0.0
 10
32.4912112052
 20
10.9670562239
 30
0.0
 10
32.4919357959
 20
10.9688152768
 30
0.0
 10
32.4925256193
 20
10.9700353888
 30
0.0
 10
32.492951475
 20
10.9708223414
 30
0.0
 10
32.4933785122
 20
10.9715181916
 30
0.0
 10
32.4938067441
 20
10.9721228717
 30
0.0
 10
32.4942362614
 20
10.972636354
 30
0.0
 10
32.4946673768
 20
10.9730585686
 30
0.0
 10
32.4951006436
 20
10.9733892554
 30
0.0
 10
32.4955369665
 20
10.9736275723
 30
0.0
 10
32.4959764842
 20
10.9737719418
 30
0.0
 10
32.496273764
 20
10.9738044275
 30
0.0
 10
32.4964187572
 20
10.9738043872
 30
0.0
  0
SPLINE
  5
460
100
AcDbEntity
  8
0
100
AcDbSpline
 62
7
  6
CONTINUOUS
 70
0
 71
3
 72
11
 73
7
 74
0
 42
0.0000001
 43
0.0000001
 44
0.0000000001
 40
0.0
 40
0.0
 40
0.0
 40
0.0
 40
0.2610724814
 40
0.5162043766
 40
0.7632803181
 40
1.0
 40
1.0
 40
1.0
 40
1.0
 10
32.5491769925
 20
10.7485197319
 30
0.0
 10
32.5490694155
 20
10.756575987
 30
0.0
 10
32.548791453
 20
10.7725043946
 30
0.0
 10
32.5481788518
 20
10.796052363
 30
0.0
 10
32.5473793707
 20
10.8188427432
 30
0.0
 10
32.5467110619
 20
10.8337585342
 30
0.0
 10
32.5463439289
 20
10.8410547234
 30
0.0
  0
SPLINE
  5
461
100
AcDbEntity
  8
0
100
AcDbSpline
 62
7
  6
CONTINUOUS
 70
0
 71
3
 72
20
 73
16
 74
0
 42
0.0000001
 43
0.0000001
 44
0.0000000001
 40
0.0
 40
0.0
 40
0.0
 40
0.0
 40
0.2024590711
 40
0.3809921891
 40
0.5358185491
 40
0.6044957914
 40
0.6674617641
 40
0.7248491705
 40
0.7768418469
 40
0.8236969101
 40
0.8657827081
 40
0.9036188972
 40
0.9379209947
 40
0.9696465394
 40
1.0
 40
1.0
 40
1.0
 40
1.0
 10
32.489517556
 20
10.4548880235
 30
0.0
 10
32.4897806886
 20
10.4539445369
 30
0.0
 10
32.4903042369
 20
10.4521766534
 30
0.0
 10
32.4911465871
 20
10.4497241525
 30
0.0
 10
32.4918799441
 20
10.4479209063
 30
0.0
 10
32.4924769577
 20
10.4466697293
 30
0.0
 10
32.4929079909
 20
10.445862729
 30
0.0
 10
32.4933402383
 20
10.4451491434
 30
0.0
 10
32.4937737064
 20
10.4445291247
 30
0.0
 10
32.4942085271
 20
10.444002771
 30
0.0
 10
32.4946450229
 20
10.4435701195
 30
0.0
 10
32.495083722
 20
10.4432312792
 30
0.0
 10
32.4955255238
 20
10.4429869065
 30
0.0
 10
32.4959706589
 20
10.4428386247
 30
0.0
 10
32.4962719078
 20
10.4428051003
 30
0.0
 10
32.4964187572
 20
10.4428050595
 30
0.0
  0
SPLINE
  5
462
100
AcDbEntity
  8
0
100
AcDbSpline
 62
7
  6
CONTINUOUS
 70
0
 71
3
 72
15
 73
11
 74
0
 42
0.0000001
 43
0.0000001
 44
0.0000000001
 40
0.0
 40
0.0
 40
0.0
 40
0.0
 40
0.1220924646
 40
0.2441336407
 40
0.3665138762
 40
0.4897523094
 40
0.6143953533
 40
0.7408753124
 40
0.8694108864
 40
1.0
 40
1.0
 40
1.0
 40
1.0
 10
32.4928958383
 20
10.960606791
 30
0.0
 10
32.492290278
 20
10.9553852833
 30
0.0
 10
32.491335078
 20
10.9449120559
 30
0.0
 10
32.4908344884
 20
10.9291297957
 30
0.0
 10
32.4914198741
 20
10.9132976353
 30
0.0
 10
32.493202694
 20
10.8974409571
 30
0.0
 10
32.4962194616
 20
10.8815929973
 30
0.0
 10
32.5004198095
 20
10.8657833238
 30
0.0
 10
32.5056845203
 20
10.850029194
 30
0.0
 10
32.5097712024
 20
10.8396433402
 30
0.0
 10
32.5119390155
 20
10.8344557572
 30
0.0
  0
SPLINE
  5
463
100
AcDbEntity
  8
0
100
AcDbSpline
 62
7
  6
CONTINUOUS
 70
0
 71
3
 72
25
 73
21
 74
0
 42
0.0000001
 43
0.0000001
 44
0.0000000001
 40
0.0
 40
0.0
 40
0.0
 40
0.0
 40
0.0616191363
 40
0.1225255592
 40
0.1827757134
 40
0.2424804553
 40
0.3018069094
 40
0.3609830165
 40
0.3906059406
 40
0.4202991652
 40
0.4800387391
 40
0.5405242251
 40
0.5711405922
 40
0.602043134
 40
0.6647934434
 40
0.7289332327
 40
0.7945368463
 40
0.8616143713
 40
0.9301275978
 40
1.0
 40
1.0
 40
1.0
 40
1.0
 10
32.3746880394
 20
10.960606791
 30
0.0
 10
32.3736071163
 20
10.9580586338
 30
0.0
 10
32.371569373
 20
10.9529432906
 30
0.0
 10
32.3689219408
 20
10.9451674169
 30
0.0
 10
32.3667502726
 20
10.9373334285
 30
0.0
 10
32.3651055311
 20
10.9294433897
 30
0.0
 10
32.3640355262
 20
10.921502806
 30
0.0
 10
32.3636602039
 20
10.9148518552
 30
0.0
 10
32.363685097
 20
10.909527897
 30
0.0
 10
32.3639317486
 20
10.904184246
 30
0.0
 10
32.3646623626
 20
10.8974812582
 30
0.0
 10
32.3659540403
 20
10.8908216813
 30
0.0
 10
32.3673134629
 20
10.8855113108
 30
0.0
 10
32.3689054669
 20
10.88015967
 30
0.0
 10
32.3713037175
 20
10.8734827129
 30
0.0
 10
32.3747707182
 20
10.8655551827
 30
0.0
 10
32.3787952097
 20
10.8576777224
 30
0.0
 10
32.383328511
 20
10.8498549858
 30
0.0
 10
32.3883197351
 20
10.8420883633
 30
0.0
 10
32.3918870682
 20
10.836995526
 30
0.0
 10
32.3937312166
 20
10.8344557572
 30
0.0
  0
SPLINE
  5
464
100
AcDbEntity
  8
0
100
AcDbSpline
 62
7
  6
CONTINUOUS
 70
0
 71
3
 72
41
 73
37
 74
0
 42
0.0000001
 43
0.0000001
 44
0.0000000001
 40
0.0
 40
0.0
 40
0.0
 40
0.0
 40
0.1196887454
 40
0.2335462139
 40
0.3408403133
 40
0.4409961463
 40
0.533487642
 40
0.6178222441
 40
0.6935401364
 40
0.728049182
 40
0.760266283
 40
0.7901518665
 40
0.8176768176
 40
0.8428167046
 40
0.86555113
 40
0.8858683295
 40
0.9037748394
 40
0.9192940054
 40
0.9261737259
 40
0.932478371
 40
0.9382220703
 40
0.9434253751
 40
0.9481165894
 40
0.9523347682
 40
0.9561340623
 40
0.9595889061
 40
0.9627983638
 40
0.96588581
 40
0.9689897409
 40
0.9722464558
 40
0.9757740855
 40
0.9796656998
 40
0.9839905132
 40
0.9887986918
 40
0.9941264253
 40
1.0
 40
1.0
 40
1.0
 40
1.0
 10
32.3714132263
 20
10.5993047234
 30
0.0
 10
32.3711812426
 20
10.5946944119
 30
0.0
 10
32.3706904011
 20
10.5857002636
 30
0.0
 10
32.3698499264
 20
10.5725814523
 30
0.0
 10
32.3689267029
 20
10.5602234731
 30
0.0
 10
32.3679266856
 20
10.5486983509
 30
0.0
 10
32.3668554855
 20
10.5380691646
 30
0.0
 10
32.365719867
 20
10.5283950184
 30
0.0
 10
32.3646963279
 20
10.5209605822
 30
0.0
 10
32.3638408841
 20
10.5155336638
 30
0.0
 10
32.3632071618
 20
10.511861683
 30
0.0
 10
32.3625621647
 20
10.5084654503
 30
0.0
 10
32.3619069489
 20
10.505349561
 30
0.0
 10
32.3612425856
 20
10.502518154
 30
0.0
 10
32.360570127
 20
10.4999751511
 30
0.0
 10
32.3598905454
 20
10.4977238395
 30
0.0
 10
32.3592050394
 20
10.4957669537
 30
0.0
 10
32.3586083352
 20
10.4943300768
 30
0.0
 10
32.3581225915
 20
10.4933349424
 30
0.0
 10
32.3577719905
 20
10.4926942697
 30
0.0
 10
32.3574203832
 20
10.4921289182
 30
0.0
 10
32.3570677777
 20
10.4916389139
 30
0.0
 10
32.3567140871
 20
10.4912242091
 30
0.0
 10
32.3563590402
 20
10.490884793
 30
0.0
 10
32.3560021394
 20
10.490620848
 30
0.0
 10
32.3556427399
 20
10.4904330473
 30
0.0
 10
32.3552805292
 20
10.4903228419
 30
0.0
 10
32.3549163882
 20
10.4902920912
 30
0.0
 10
32.3545525358
 20
10.490341605
 30
0.0
 10
32.3541909623
 20
10.4904701616
 30
0.0
 10
32.3538322015
 20
10.490675906
 30
0.0
 10
32.3534757914
 20
10.4909575736
 30
0.0
 10
32.3531210985
 20
10.4913146381
 30
0.0
 10
32.3527676774
 20
10.4917469886
 30
0.0
 10
32.3524153148
 20
10.4922546341
 30
0.0
 10
32.3521921707
 20
10.4926248867
 30
0.0
 10
32.3520802104
 20
10.4928218167
 30
0.0
  0
SPLINE
  5
465
100
AcDbEntity
  8
0
100
AcDbSpline
 62
7
  6
CONTINUOUS
 70
0
 71
3
 72
47
 73
43
 74
0
 42
0.0000001
 43
0.0000001
 44
0.0000000001
 40
0.0
 40
0.0
 40
0.0
 40
0.0
 40
0.0036572566
 40
0.0052443511
 40
0.0066820691
 40
0.0079836822
 40
0.009167183
 40
0.0102565784
 40
0.0112826572
 40
0.0122822364
 40
0.0132951502
 40
0.0155012651
 40
0.016761208
 40
0.0181518454
 40
0.0196878774
 40
0.0213801263
 40
0.0252618581
 40
0.0298403648
 40
0.0351366368
 40
0.041161637
 40
0.0479206163
 40
0.0554143898
 40
0.0636389988
 40
0.0725885413
 40
0.0822560627
 40
0.0926334428
 40
0.1154716602
 40
0.1410042923
 40
0.1691171554
 40
0.1996773811
 40
0.232542338
 40
0.2675526252
 40
0.3045417717
 40
0.3433288521
 40
0.383727346
 40
0.4685615914
 40
0.5573930195
 40
0.6484881328
 40
0.7400689117
 40
0.8303444336
 40
0.9175573065
 40
1.0
 40
1.0
 40
1.0
 40
1.0
 10
32.3520802104
 20
10.9237876302
 30
0.0
 10
32.3522813195
 20
10.9241413657
 30
0.0
 10
32.3525927481
 20
10.9246371455
 30
0.0
 10
32.3530560557
 20
10.925219454
 30
0.0
 10
32.3533880144
 20
10.9255690749
 30
0.0
 10
32.3537212168
 20
10.9258525155
 30
0.0
 10
32.3540561216
 20
10.9260694904
 30
0.0
 10
32.3543931401
 20
10.9262192791
 30
0.0
 10
32.3547322471
 20
10.9263006643
 30
0.0
 10
32.3550724991
 20
10.9263123256
 30
0.0
 10
32.3555380724
 20
10.9262326223
 30
0.0
 10
32.355993494
 20
10.9260046909
 30
0.0
 10
32.3564189892
 20
10.9256710563
 30
0.0
 10
32.356751561
 20
10.9253434003
 30
0.0
 10
32.3570827442
 20
10.9249497463
 30
0.0
 10
32.3575445388
 20
10.9243066703
 30
0.0
 10
32.3581117845
 20
10.9233270133
 30
0.0
 10
32.3587612632
 20
10.9219398021
 30
0.0
 10
32.3594070464
 20
10.9202918206
 30
0.0
 10
32.3600483062
 20
10.9183845208
 30
0.0
 10
32.3606840586
 20
10.9162193642
 30
0.0
 10
32.3613133031
 20
10.9137986444
 30
0.0
 10
32.3619352912
 20
10.9111252338
 30
0.0
 10
32.3625491389
 20
10.9082023903
 30
0.0
 10
32.3631540312
 20
10.9050335176
 30
0.0
 10
32.3639737577
 20
10.9003331067
 30
0.0
 10
32.3649594796
 20
10.8938707559
 30
0.0
 10
32.3660613368
 20
10.8854323069
 30
0.0
 10
32.3671103311
 20
10.8761220468
 30
0.0
 10
32.3681013007
 20
10.8659855122
 30
0.0
 10
32.3690286383
 20
10.8550726275
 30
0.0
 10
32.3698879444
 20
10.8434368611
 30
0.0
 10
32.3706744203
 20
10.8311356583
 30
0.0
 10
32.3713844746
 20
10.8182293825
 30
0.0
 10
32.3722378875
 20
10.8000002877
 30
0.0
 10
32.3730785584
 20
10.7761973877
 30
0.0
 10
32.3737236263
 20
10.74674631
 30
0.0
 10
32.3740068861
 20
10.7165388809
 30
0.0
 10
32.3739225011
 20
10.6861696033
 30
0.0
 10
32.3734723001
 20
10.6562354722
 30
0.0
 10
32.3726654877
 20
10.6273259275
 30
0.0
 10
32.3718741941
 20
10.6084657316
 30
0.0
 10
32.3714132263
 20
10.5993047234
 30
0.0
  0
SPLINE
  5
466
100
AcDbEntity
  8
0
100
AcDbSpline
 62
7
  6
CONTINUOUS
 70
0
 71
3
 72
15
 73
11
 74
0
 42
0.0000001
 43
0.0000001
 44
0.0000000001
 40
0.0
 40
0.0
 40
0.0
 40
0.0
 40
0.1249964676
 40
0.2499956901
 40
0.3749971619
 40
0.4999999975
 40
0.6250028276
 40
0.7500042897
 40
0.8750035086
 40
1.0
 40
1.0
 40
1.0
 40
1.0
 10
32.5119390155
 20
10.8344557572
 30
0.0
 10
32.5105437917
 20
10.8240018865
 30
0.0
 10
32.5080084868
 20
10.8030585006
 30
0.0
 10
32.5051296798
 20
10.7715441914
 30
0.0
 10
32.5033263496
 20
10.7399478079
 30
0.0
 10
32.5027111886
 20
10.7083047244
 30
0.0
 10
32.5033263493
 20
10.6766616418
 30
0.0
 10
32.5051296793
 20
10.6450652598
 30
0.0
 10
32.5080084855
 20
10.6135509497
 30
0.0
 10
32.5105437914
 20
10.5926075622
 30
0.0
 10
32.5119390155
 20
10.5821536895
 30
0.0
  0
SPLINE
  5
467
100
AcDbEntity
  8
0
100
AcDbSpline
 62
7
  6
CONTINUOUS
 70
0
 71
3
 72
21
 73
17
 74
0
 42
0.0000001
 43
0.0000001
 44
0.0000000001
 40
0.0
 40
0.0
 40
0.0
 40
0.0
 40
0.1249717233
 40
0.1874684367
 40
0.2499692886
 40
0.3124732591
 40
0.3749805625
 40
0.4374896612
 40
0.5
 40
0.5625103388
 40
0.6250194375
 40
0.6875267409
 40
0.7500307114
 40
0.8125315633
 40
0.8750282767
 40
1.0
 40
1.0
 40
1.0
 40
1.0
 10
32.3937312166
 20
10.8344557572
 30
0.0
 10
32.3907825104
 20
10.8242021228
 30
0.0
 10
32.3867306755
 20
10.8087079122
 30
0.0
 10
32.3822660727
 20
10.7878366286
 30
0.0
 10
32.3794363369
 20
10.7720778047
 30
0.0
 10
32.377173505
 20
10.756226386
 30
0.0
 10
32.3755215765
 20
10.7402984633
 30
0.0
 10
32.3745156262
 20
10.7243158537
 30
0.0
 10
32.3741769515
 20
10.7083047234
 30
0.0
 10
32.3745156262
 20
10.692293593
 30
0.0
 10
32.3755215765
 20
10.6763109834
 30
0.0
 10
32.377173505
 20
10.6603830607
 30
0.0
 10
32.3794363369
 20
10.644531642
 30
0.0
 10
32.3822660727
 20
10.6287728181
 30
0.0
 10
32.3867306755
 20
10.6079015345
 30
0.0
 10
32.3907825104
 20
10.5924073239
 30
0.0
 10
32.3937312166
 20
10.5821536895
 30
0.0
  0
SPLINE
  5
468
100
AcDbEntity
  8
0
100
AcDbSpline
 62
7
  6
CONTINUOUS
 70
0
 71
3
 72
15
 73
11
 74
0
 42
0.0000001
 43
0.0000001
 44
0.0000000001
 40
0.0
 40
0.0
 40
0.0
 40
0.0
 40
0.1305891503
 40
0.2591247296
 40
0.3856046735
 40
0.510247709
 40
0.6334861385
 40
0.7558663678
 40
0.8779075341
 40
1.0
 40
1.0
 40
1.0
 40
1.0
 10
32.5119390155
 20
10.5821536895
 30
0.0
 10
32.5097712018
 20
10.5769661051
 30
0.0
 10
32.5056845181
 20
10.5665802499
 30
0.0
 10
32.5004198079
 20
10.5508261187
 30
0.0
 10
32.4962194604
 20
10.5350164459
 30
0.0
 10
32.4932026937
 20
10.5191684871
 30
0.0
 10
32.4914198742
 20
10.5033118096
 30
0.0
 10
32.4908344886
 20
10.4874796501
 30
0.0
 10
32.4913350781
 20
10.4716973905
 30
0.0
 10
32.492290278
 20
10.4612241635
 30
0.0
 10
32.4928958383
 20
10.4560026557
 30
0.0
  0
SPLINE
  5
469
100
AcDbEntity
  8
0
100
AcDbSpline
 62
7
  6
CONTINUOUS
 70
0
 71
3
 72
25
 73
21
 74
0
 42
0.0000001
 43
0.0000001
 44
0.0000000001
 40
0.0
 40
0.0
 40
0.0
 40
0.0
 40
0.0698724022
 40
0.1383856287
 40
0.2054631537
 40
0.2710667673
 40
0.3352065566
 40
0.397956866
 40
0.4288594078
 40
0.4594757749
 40
0.5199612609
 40
0.5797008348
 40
0.6093940594
 40
0.6390169835
 40
0.6981930906
 40
0.7575195447
 40
0.8172242866
 40
0.8774744408
 40
0.9383808637
 40
1.0
 40
1.0
 40
1.0
 40
1.0
 10
32.3937312166
 20
10.5821536895
 30
0.0
 10
32.3918870682
 20
10.5796139207
 30
0.0
 10
32.3883197351
 20
10.5745210834
 30
0.0
 10
32.383328511
 20
10.5667544609
 30
0.0
 10
32.3787952097
 20
10.5589317243
 30
0.0
 10
32.3747707182
 20
10.551054264
 30
0.0
 10
32.3713037175
 20
10.5431267338
 30
0.0
 10
32.3689054669
 20
10.5364497767
 30
0.0
 10
32.3673134629
 20
10.5310981359
 30
0.0
 10
32.3659540403
 20
10.5257877654
 30
0.0
 10
32.3646623626
 20
10.5191281885
 30
0.0
 10
32.3639317486
 20
10.5124252008
 30
0.0
 10
32.363685097
 20
10.5070815497
 30
0.0
 10
32.3636602039
 20
10.5017575915
 30
0.0
 10
32.3640355262
 20
10.4951066408
 30
0.0
 10
32.3651055311
 20
10.487166057
 30
0.0
 10
32.3667502726
 20
10.4792760182
 30
0.0
 10
32.3689219408
 20
10.4714420298
 30
0.0
 10
32.371569373
 20
10.4636661561
 30
0.0
 10
32.3736071163
 20
10.4585508129
 30
0.0
 10
32.3746880394
 20
10.4560026557
 30
0.0
  0
SPLINE
  5
46A
100
AcDbEntity
  8
0
100
AcDbSpline
 62
7
  6
CONTINUOUS
 70
0
 71
3
 72
34
 73
30
 74
0
 42
0.0000001
 43
0.0000001
 44
0.0000000001
 40
0.0
 40
0.0
 40
0.0
 40
0.0
 40
0.0027949545
 40
0.0056851443
 40
0.0087567188
 40
0.0120816541
 40
0.0157168127
 40
0.0197057262
 40
0.0240812657
 40
0.0288676749
 40
0.0397363675
 40
0.0524115617
 40
0.0669471397
 40
0.0833740709
 40
0.1017079827
 40
0.1219491969
 40
0.1440905762
 40
0.168121064
 40
0.1940268684
 40
0.2217896175
 40
0.2827799667
 40
0.3508702388
 40
0.4258028603
 40
0.5072635804
 40
0.5949238959
 40
0.6884308691
 40
0.7874179891
 40
0.8914493904
 40
1.0
 40
1.0
 40
1.0
 40
1.0
 10
32.4964187572
 20
10.9738043872
 30
0.0
 10
32.4965455148
 20
10.973804352
 30
0.0
 10
32.4968039517
 20
10.9737796253
 30
0.0
 10
32.4971875889
 20
10.9736697236
 30
0.0
 10
32.4975693661
 20
10.9734878902
 30
0.0
 10
32.4979491614
 20
10.9732350741
 30
0.0
 10
32.4983273814
 20
10.9729118046
 30
0.0
 10
32.4987043438
 20
10.9725182707
 30
0.0
 10
32.4990802837
 20
10.972054521
 30
0.0
 10
32.4996026014
 20
10.97131055
 30
0.0
 10
32.5002456198
 20
10.9701954344
 30
0.0
 10
32.5009842438
 20
10.9686330308
 30
0.0
 10
32.5017188639
 20
10.9667942676
 30
0.0
 10
32.5024486581
 20
10.9646803493
 30
0.0
 10
32.5031726134
 20
10.9622927349
 30
0.0
 10
32.5038900017
 20
10.9596338237
 30
0.0
 10
32.5045999499
 20
10.9567064194
 30
0.0
 10
32.5053015909
 20
10.9535134993
 30
0.0
 10
32.505994081
 20
10.9500582017
 30
0.0
 10
32.5069337029
 20
10.9449435666
 30
0.0
 10
32.5080681005
 20
10.9379205455
 30
0.0
 10
32.5093433157
 20
10.9287558232
 30
0.0
 10
32.5105649476
 20
10.9186480612
 30
0.0
 10
32.511728041
 20
10.9076405956
 30
0.0
 10
32.5128267164
 20
10.8957803012
 30
0.0
 10
32.5138564605
 20
10.8831162144
 30
0.0
 10
32.5148124661
 20
10.8697019203
 30
0.0
 10
32.5156903277
 20
10.8555986717
 30
0.0
 10
32.516210678
 20
10.8459715232
 30
0.0
 10
32.5164580838
 20
10.8410547234
 30
0.0
  0
SPLINE
  5
46B
100
AcDbEntity
  8
0
100
AcDbSpline
 62
7
  6
CONTINUOUS
 70
0
 71
3
 72
42
 73
38
 74
0
 42
0.0000001
 43
0.0000001
 44
0.0000000001
 40
0.0
 40
0.0
 40
0.0
 40
0.0
 40
0.0009467186
 40
0.0019256487
 40
0.0029660961
 40
0.0040925906
 40
0.005324365
 40
0.0066759767
 40
0.0081583224
 40
0.0097795422
 40
0.0134604358
 40
0.0177534277
 40
0.0226777785
 40
0.0282432337
 40
0.0344534429
 40
0.0413090457
 40
0.0488087478
 40
0.056949669
 40
0.0657259296
 40
0.0751300347
 40
0.0957889966
 40
0.1188549683
 40
0.1442355609
 40
0.17183108
 40
0.2015282562
 40
0.2332034344
 40
0.2667265129
 40
0.3019546674
 40
0.3387416653
 40
0.4163610305
 40
0.4982730703
 40
0.5830895335
 40
0.6693703883
 40
0.755652809
 40
0.8404651478
 40
0.9223851568
 40
1.0
 40
1.0
 40
1.0
 40
1.0
 10
32.4964187572
 20
10.4428050595
 30
0.0
 10
32.4965455085
 20
10.4428050243
 30
0.0
 10
32.4968039418
 20
10.442829605
 30
0.0
 10
32.497187603
 20
10.4429393654
 30
0.0
 10
32.4975694045
 20
10.4431211938
 30
0.0
 10
32.4979491838
 20
10.4433741833
 30
0.0
 10
32.4983273691
 20
10.4436976991
 30
0.0
 10
32.4987042991
 20
10.4440914398
 30
0.0
 10
32.4990802392
 20
10.4445552612
 30
0.0
 10
32.4996025618
 20
10.4452991051
 30
0.0
 10
32.5002456546
 20
10.4464139402
 30
0.0
 10
32.5009843555
 20
10.4479761901
 30
0.0
 10
32.5017188798
 20
10.4498151278
 30
0.0
 10
32.5024485509
 20
10.4519292691
 30
0.0
 10
32.5031725773
 20
10.4543168335
 30
0.0
 10
32.5038900333
 20
10.4569754971
 30
0.0
 10
32.5046000261
 20
10.4599028079
 30
0.0
 10
32.5053015806
 20
10.4630959151
 30
0.0
 10
32.5059940086
 20
10.46655142
 30
0.0
 10
32.5069337082
 20
10.4716659929
 30
0.0
 10
32.5080682204
 20
10.4786889647
 30
0.0
 10
32.5093431467
 20
10.4878534388
 30
0.0
 10
32.5105650836
 20
10.4979611999
 30
0.0
 10
32.5117280001
 20
10.5089689962
 30
0.0
 10
32.5128267434
 20
10.520829954
 30
0.0
 10
32.5138564696
 20
10.5334934583
 30
0.0
 10
32.5148122589
 20
10.5469052223
 30
0.0
 10
32.5156903653
 20
10.5610080625
 30
0.0
 10
32.5167711209
 20
10.5810128767
 30
0.0
 10
32.5178878883
 20
10.6072741881
 30
0.0
 10
32.5188464077
 20
10.6399754533
 30
0.0
 10
32.5194284015
 20
10.6738453785
 30
0.0
 10
32.5196236051
 20
10.7083048274
 30
0.0
 10
32.5194283356
 20
10.7427637205
 30
0.0
 10
32.518846428
 20
10.7766343789
 30
0.0
 10
32.5178878452
 20
10.8093355271
 30
0.0
 10
32.5169803051
 20
10.8306763986
 30
0.0
 10
32.5164580838
 20
10.8410547234
 30
0.0
  0
SPLINE
  5
46C
100
AcDbEntity
  8
0
100
AcDbSpline
 62
7
  6
CONTINUOUS
 70
0
 71
3
 72
15
 73
11
 74
0
 42
0.0000001
 43
0.0000001
 44
0.0000000001
 40
0.0
 40
0.0
 40
0.0
 40
0.0
 40
0.1453524083
 40
0.2868079831
 40
0.4230969843
 40
0.5529474777
 40
0.6754525845
 40
0.7903911539
 40
0.8982555593
 40
1.0
 40
1.0
 40
1.0
 40
1.0
 10
49.2403813913
 20
0.3953110743
 30
0.0
 10
49.2474890071
 20
0.3909585663
 30
0.0
 10
49.2614285497
 20
0.3822296164
 30
0.0
 10
49.2816486872
 20
0.3688181969
 30
0.0
 10
49.3006878606
 20
0.355254368
 30
0.0
 10
49.3182973795
 20
0.3415853537
 30
0.0
 10
49.3343031865
 20
0.3278837829
 30
0.0
 10
49.348659518
 20
0.3142346818
 30
0.0
 10
49.3614563895
 20
0.3007125894
 30
0.0
 10
49.36927419
 20
0.291576868
 30
0.0
 10
49.3729639128
 20
0.2870578988
 30
0.0
  0
SPLINE
  5
46D
100
AcDbEntity
  8
0
100
AcDbSpline
 62
7
  6
CONTINUOUS
 70
0
 71
3
 72
19
 73
15
 74
0
 42
0.0000001
 43
0.0000001
 44
0.0000000001
 40
0.0
 40
0.0
 40
0.0
 40
0.0
 40
0.1239135187
 40
0.2486584689
 40
0.3113153546
 40
0.3741210923
 40
0.4370327446
 40
0.5
 40
0.5629672554
 40
0.6258789077
 40
0.6886846454
 40
0.7513415311
 40
0.8760864813
 40
1.0
 40
1.0
 40
1.0
 40
1.0
 10
49.3729639128
 20
0.2870578988
 30
0.0
 10
49.3747661339
 20
0.2782288547
 30
0.0
 10
49.3780651013
 20
0.260444398
 30
0.0
 10
49.3812169125
 20
0.2380162219
 30
0.0
 10
49.3830506004
 20
0.2199115738
 30
0.0
 10
49.3840561048
 20
0.2062479068
 30
0.0
 10
49.3846683192
 20
0.192538296
 30
0.0
 10
49.3848744297
 20
0.1788047234
 30
0.0
 10
49.3846683192
 20
0.1650711508
 30
0.0
 10
49.3840561048
 20
0.1513615399
 30
0.0
 10
49.3830506004
 20
0.1376978729
 30
0.0
 10
49.3812169125
 20
0.1195932248
 30
0.0
 10
49.3780651013
 20
0.0971650487
 30
0.0
 10
49.3747661339
 20
0.079380592
 30
0.0
 10
49.3729639128
 20
0.0705515479
 30
0.0
  0
SPLINE
  5
46E
100
AcDbEntity
  8
0
100
AcDbSpline
 62
7
  6
CONTINUOUS
 70
0
 71
3
 72
15
 73
11
 74
0
 42
0.0000001
 43
0.0000001
 44
0.0000000001
 40
0.0
 40
0.0
 40
0.0
 40
0.0
 40
0.1017444407
 40
0.2096088461
 40
0.3245474155
 40
0.4470525223
 40
0.5769030157
 40
0.7131920169
 40
0.8546475917
 40
1.0
 40
1.0
 40
1.0
 40
1.0
 10
49.3729639128
 20
0.0705515479
 30
0.0
 10
49.36927419
 20
0.0660325788
 30
0.0
 10
49.3614563895
 20
0.0568968573
 30
0.0
 10
49.348659518
 20
0.0433747649
 30
0.0
 10
49.3343031865
 20
0.0297256638
 30
0.0
 10
49.3182973795
 20
0.016024093
 30
0.0
 10
49.3006878606
 20
0.0023550787
 30
0.0
 10
49.2816486872
 20
-0.0112087502
 30
0.0
 10
49.2614285497
 20
-0.0246201696
 30
0.0
 10
49.2474890071
 20
-0.0333491196
 30
0.0
 10
49.2403813913
 20
-0.0377016276
 30
0.0
  0
SPLINE
  5
46F
100
AcDbEntity
  8
0
100
AcDbSpline
 62
7
  6
CONTINUOUS
 70
0
 71
3
 72
15
 73
11
 74
0
 42
0.0000001
 43
0.0000001
 44
0.0000000001
 40
0.0
 40
0.0
 40
0.0
 40
0.0
 40
0.1341084573
 40
0.2648959645
 40
0.3926219614
 40
0.517627337
 40
0.6403394988
 40
0.7612572922
 40
0.880942489
 40
1.0
 40
1.0
 40
1.0
 40
1.0
 10
49.2193570384
 20
0.3957946407
 30
0.0
 10
49.2156751505
 20
0.3992316032
 30
0.0
 10
49.2081337993
 20
0.4057402519
 30
0.0
 10
49.1961933741
 20
0.4144220065
 30
0.0
 10
49.1838320186
 20
0.4218538067
 30
0.0
 10
49.1711144298
 20
0.4279915232
 30
0.0
 10
49.1581093439
 20
0.4328032196
 30
0.0
 10
49.1448852051
 20
0.4362590849
 30
0.0
 10
49.1315161412
 20
0.438341409
 30
0.0
 10
49.1225427185
 20
0.4388046359
 30
0.0
 10
49.1180712271
 20
0.4388045366
 30
0.0
  0
SPLINE
  5
470
100
AcDbEntity
  8
0
100
AcDbSpline
 62
7
  6
CONTINUOUS
 70
0
 71
3
 72
17
 73
13
 74
0
 42
0.0000001
 43
0.0000001
 44
0.0000000001
 40
0.0
 40
0.0
 40
0.0
 40
0.0
 40
0.1341655017
 40
0.2649905088
 40
0.3927303475
 40
0.4555651072
 40
0.5177644712
 40
0.6404514855
 40
0.7011012981
 40
0.7613669052
 40
0.8810005192
 40
1.0
 40
1.0
 40
1.0
 40
1.0
 10
49.2197879998
 20
-0.0377818648
 30
0.0
 10
49.2160959358
 20
-0.0412494584
 30
0.0
 10
49.2085313021
 20
-0.0478161282
 30
0.0
 10
49.1965500618
 20
-0.0565785892
 30
0.0
 10
49.1861500178
 20
-0.0628638957
 30
0.0
 10
49.1776581748
 20
-0.0672246369
 30
0.0
 10
49.1691451275
 20
-0.071102879
 30
0.0
 10
49.1604402794
 20
-0.0743395904
 30
0.0
 10
49.1516025027
 20
-0.0768950701
 30
0.0
 10
49.1427595109
 20
-0.0789773933
 30
0.0
 10
49.1315909837
 20
-0.0807262772
 30
0.0
 10
49.1225753829
 20
-0.0811949901
 30
0.0
 10
49.1180828134
 20
-0.0811950898
 30
0.0
  0
SPLINE
  5
471
100
AcDbEntity
  8
0
100
AcDbSpline
 62
7
  6
CONTINUOUS
 70
0
 71
3
 72
11
 73
7
 74
0
 42
0.0000001
 43
0.0000001
 44
0.0000000001
 40
0.0
 40
0.0
 40
0.0
 40
0.0
 40
0.2401732686
 40
0.4850365616
 40
0.7374846583
 40
1.0
 40
1.0
 40
1.0
 40
1.0
 10
49.1335626587
 20
-0.0377016276
 30
0.0
 10
49.1329577889
 20
-0.0377016276
 30
0.0
 10
49.1317333949
 20
-0.0378214955
 30
0.0
 10
49.1299407545
 20
-0.0383435784
 30
0.0
 10
49.1282178688
 20
-0.0391963537
 30
0.0
 10
49.1271551176
 20
-0.0399490866
 30
0.0
 10
49.1266427481
 20
-0.0403669149
 30
0.0
  0
SPLINE
  5
472
100
AcDbEntity
  8
0
100
AcDbSpline
 62
7
  6
CONTINUOUS
 70
0
 71
3
 72
11
 73
7
 74
0
 42
0.0000001
 43
0.0000001
 44
0.0000000001
 40
0.0
 40
0.0
 40
0.0
 40
0.0
 40
0.2401732686
 40
0.4850365616
 40
0.7374846583
 40
1.0
 40
1.0
 40
1.0
 40
1.0
 10
49.1335626587
 20
0.3953110743
 30
0.0
 10
49.1329577889
 20
0.3953110743
 30
0.0
 10
49.1317333949
 20
0.3954309422
 30
0.0
 10
49.1299407545
 20
0.3959530252
 30
0.0
 10
49.1282178688
 20
0.3968058005
 30
0.0
 10
49.1271551176
 20
0.3975585333
 30
0.0
 10
49.1266427481
 20
0.3979763616
 30
0.0
  0
SPLINE
  5
473
100
AcDbEntity
  8
0
100
AcDbSpline
 62
7
  6
CONTINUOUS
 70
0
 71
3
 72
23
 73
19
 74
0
 42
0.0000001
 43
0.0000001
 44
0.0000000001
 40
0.0
 40
0.0
 40
0.0
 40
0.0
 40
0.0552200583
 40
0.1106748871
 40
0.1665926736
 40
0.2231878726
 40
0.2806564376
 40
0.3391704851
 40
0.3988763535
 40
0.4598908728
 40
0.5223035786
 40
0.5861741968
 40
0.6515348273
 40
0.7183856123
 40
0.7867085174
 40
0.8564722864
 40
0.9276136373
 40
1.0
 40
1.0
 40
1.0
 40
1.0
 10
49.0827274743
 20
-0.0811950898
 30
0.0
 10
49.0787149903
 20
-0.081195179
 30
0.0
 10
49.0706680009
 20
-0.0808225831
 30
0.0
 10
49.0586629664
 20
-0.0791469646
 30
0.0
 10
49.0467622928
 20
-0.0763631285
 30
0.0
 10
49.0350192297
 20
-0.0724833048
 30
0.0
 10
49.0234842191
 20
-0.0675253676
 30
0.0
 10
49.012206824
 20
-0.0615117284
 30
0.0
 10
49.0012354814
 20
-0.054468783
 30
0.0
 10
48.9906163207
 20
-0.046428202
 30
0.0
 10
48.9803949672
 20
-0.0374242148
 30
0.0
 10
48.9706137494
 20
-0.0274966406
 30
0.0
 10
48.9613152259
 20
-0.0166874954
 30
0.0
 10
48.9525371252
 20
-0.0050446562
 30
0.0
 10
48.9443176787
 20
0.0073837582
 30
0.0
 10
48.9366900213
 20
0.0205450227
 30
0.0
 10
48.9296893831
 20
0.0343809224
 30
0.0
 10
48.9254928837
 20
0.0439350502
 30
0.0
 10
48.9235048479
 20
0.0488047234
 30
0.0
  0
SPLINE
  5
474
100
AcDbEntity
  8
0
100
AcDbSpline
 62
7
  6
CONTINUOUS
 70
0
 71
3
 72
33
 73
29
 74
0
 42
0.0000001
 43
0.0000001
 44
0.0000000001
 40
0.0
 40
0.0
 40
0.0
 40
0.0
 40
0.0248617031
 40
0.0498293083
 40
0.0750052916
 40
0.1004865152
 40
0.1263607673
 40
0.1527060222
 40
0.1795875392
 40
0.2070587667
 40
0.2351590604
 40
0.2639158084
 40
0.293342707
 40
0.3234424266
 40
0.3855854026
 40
0.4501825721
 40
0.5169033937
 40
0.585309275
 40
0.6548820701
 40
0.7250511664
 40
0.7601826356
 40
0.7952393726
 40
0.8301469022
 40
0.8648309296
 40
0.8992215798
 40
0.9332580601
 40
0.9668772299
 40
1.0
 40
1.0
 40
1.0
 40
1.0
 10
49.082715888
 20
0.4388045366
 30
0.0
 10
49.0787035851
 20
0.4388044475
 30
0.0
 10
49.0706569488
 20
0.4384309939
 30
0.0
 10
49.0586525838
 20
0.4367543291
 30
0.0
 10
49.0467524502
 20
0.4339700193
 30
0.0
 10
49.0350102491
 20
0.4300890271
 30
0.0
 10
49.0234756655
 20
0.4251310693
 30
0.0
 10
49.0121993554
 20
0.4191163369
 30
0.0
 10
49.0012282393
 20
0.412073718
 30
0.0
 10
48.9906103587
 20
0.4040321559
 30
0.0
 10
48.9803890898
 20
0.3950286754
 30
0.0
 10
48.9706093516
 20
0.3851006041
 30
0.0
 10
48.9613104301
 20
0.3742919327
 30
0.0
 10
48.9494841785
 20
0.358602947
 30
0.0
 10
48.9361630075
 20
0.337003496
 30
0.0
 10
48.9228560816
 20
0.3086936623
 30
0.0
 10
48.912269608
 20
0.2781893597
 30
0.0
 10
48.90458026
 20
0.2460075789
 30
0.0
 10
48.899914957
 20
0.2126923459
 30
0.0
 10
48.8986120361
 20
0.1844564906
 30
0.0
 10
48.8991361257
 20
0.1618044328
 30
0.0
 10
48.9003135013
 20
0.144878057
 30
0.0
 10
48.9022709967
 20
0.1280970931
 30
0.0
 10
48.90499855
 20
0.1115326713
 30
0.0
 10
48.9084863657
 20
0.0952551346
 30
0.0
 10
48.9127189147
 20
0.0793325669
 30
0.0
 10
48.9176788796
 20
0.0638363412
 30
0.0
 10
48.9214844334
 20
0.0537537079
 30
0.0
 10
48.9235048479
 20
0.0488047234
 30
0.0
  0
SPLINE
  5
475
100
AcDbEntity
  8
0
100
AcDbSpline
 62
7
  6
CONTINUOUS
 70
0
 71
3
 72
17
 73
13
 74
0
 42
0.0000001
 43
0.0000001
 44
0.0000000001
 40
0.0
 40
0.0
 40
0.0
 40
0.0
 40
0.0507521541
 40
0.1062279752
 40
0.1656818145
 40
0.2283685672
 40
0.3603916239
 40
0.4965882669
 40
0.6320482742
 40
0.7629485808
 40
0.8864675634
 40
1.0
 40
1.0
 40
1.0
 40
1.0
 10
49.0009801373
 20
0.0705515479
 30
0.0
 10
49.0004058339
 20
0.0705515479
 30
0.0
 10
48.9992035478
 20
0.0704969507
 30
0.0
 10
48.997339861
 20
0.0702828021
 30
0.0
 10
48.9953592025
 20
0.069935058
 30
0.0
 10
48.9925545715
 20
0.0692935934
 30
0.0
 10
48.9889650858
 20
0.0682110749
 30
0.0
 10
48.9846973663
 20
0.0665726366
 30
0.0
 10
48.9805602794
 20
0.0646583012
 30
0.0
 10
48.9766810915
 20
0.0625501762
 30
0.0
 10
48.9731612421
 20
0.0603203348
 30
0.0
 10
48.9710039963
 20
0.0587201022
 30
0.0
 10
48.9700088603
 20
0.057907577
 30
0.0
  0
SPLINE
  5
476
100
AcDbEntity
  8
0
100
AcDbSpline
 62
7
  6
CONTINUOUS
 70
0
 71
3
 72
45
 73
41
 74
0
 42
0.0000001
 43
0.0000001
 44
0.0000000001
 40
0.0
 40
0.0
 40
0.0
 40
0.0
 40
0.0128513267
 40
0.0257402646
 40
0.038691441
 40
0.051730823
 40
0.0648871307
 40
0.0781878531
 40
0.1053036192
 40
0.1332505709
 40
0.1621439873
 40
0.1920543393
 40
0.2230077703
 40
0.2549895349
 40
0.287948694
 40
0.3218028922
 40
0.3564428168
 40
0.3917370601
 40
0.4275370898
 40
0.4636814477
 40
0.5
 40
0.5363185523
 40
0.5724629102
 40
0.6082629399
 40
0.6435571832
 40
0.6781971078
 40
0.712051306
 40
0.7450104651
 40
0.7769922297
 40
0.8079456607
 40
0.8378560127
 40
0.8667494291
 40
0.8946963808
 40
0.9218121469
 40
0.9351128693
 40
0.948269177
 40
0.961308559
 40
0.9742597354
 40
0.9871486733
 40
1.0
 40
1.0
 40
1.0
 40
1.0
 10
49.2524273087
 20
0.3658047234
 30
0.0
 10
49.2545905416
 20
0.3658047234
 30
0.0
 10
49.2589248279
 20
0.3656537227
 30
0.0
 10
49.2654073257
 20
0.364976811
 30
0.0
 10
49.2718594761
 20
0.363850637
 30
0.0
 10
49.2782634344
 20
0.3622770955
 30
0.0
 10
49.2846040687
 20
0.3602611923
 30
0.0
 10
49.2930053977
 20
0.3569694494
 30
0.0
 10
49.3032937265
 20
0.3517415012
 30
0.0
 10
49.315051348
 20
0.3438442374
 30
0.0
 10
49.3261952393
 20
0.3343620358
 30
0.0
 10
49.3366196729
 20
0.3233894809
 30
0.0
 10
49.3462275849
 20
0.3110330569
 30
0.0
 10
49.3549296012
 20
0.2974123633
 30
0.0
 10
49.3626446082
 20
0.2826581116
 30
0.0
 10
49.3693000215
 20
0.2669112819
 30
0.0
 10
49.374833102
 20
0.2503223271
 30
0.0
 10
49.379192016
 20
0.2330498658
 30
0.0
 10
49.3823355174
 20
0.2152588811
 30
0.0
 10
49.3842334412
 20
0.1971193466
 30
0.0
 10
49.384868022
 20
0.1788047234
 30
0.0
 10
49.3842334412
 20
0.1604901001
 30
0.0
 10
49.3823355174
 20
0.1423505657
 30
0.0
 10
49.379192016
 20
0.1245595809
 30
0.0
 10
49.374833102
 20
0.1072871196
 30
0.0
 10
49.3693000215
 20
0.0906981648
 30
0.0
 10
49.3626446082
 20
0.0749513352
 30
0.0
 10
49.3549296012
 20
0.0601970834
 30
0.0
 10
49.3462275849
 20
0.0465763898
 30
0.0
 10
49.3366196729
 20
0.0342199658
 30
0.0
 10
49.3261952393
 20
0.0232474109
 30
0.0
 10
49.315051348
 20
0.0137652094
 30
0.0
 10
49.3032937265
 20
0.0058679455
 30
0.0
 10
49.2930053977
 20
0.0006399974
 30
0.0
 10
49.2846040687
 20
-0.0026517455
 30
0.0
 10
49.2782634344
 20
-0.0046676488
 30
0.0
 10
49.2718594761
 20
-0.0062411903
 30
0.0
 10
49.2654073257
 20
-0.0073673642
 30
0.0
 10
49.2589248279
 20
-0.0080442759
 30
0.0
 10
49.2545905416
 20
-0.0081952766
 30
0.0
 10
49.2524273087
 20
-0.0081952766
 30
0.0
  0
SPLINE
  5
477
100
AcDbEntity
  8
0
100
AcDbSpline
 62
7
  6
CONTINUOUS
 70
0
 71
3
 72
17
 73
13
 74
0
 42
0.0000001
 43
0.0000001
 44
0.0000000001
 40
0.0
 40
0.0
 40
0.0
 40
0.0
 40
0.0507521541
 40
0.1062279752
 40
0.1656818145
 40
0.2283685672
 40
0.3603916239
 40
0.4965882669
 40
0.6320482742
 40
0.7629485808
 40
0.8864675634
 40
1.0
 40
1.0
 40
1.0
 40
1.0
 10
49.0009801373
 20
0.2870578988
 30
0.0
 10
49.0004058339
 20
0.2870578988
 30
0.0
 10
48.9992035478
 20
0.287112496
 30
0.0
 10
48.997339861
 20
0.2873266446
 30
0.0
 10
48.9953592025
 20
0.2876743887
 30
0.0
 10
48.9925545715
 20
0.2883158534
 30
0.0
 10
48.9889650858
 20
0.2893983718
 30
0.0
 10
48.9846973663
 20
0.2910368101
 30
0.0
 10
48.9805602794
 20
0.2929511455
 30
0.0
 10
48.9766810915
 20
0.2950592705
 30
0.0
 10
48.9731612421
 20
0.2972891119
 30
0.0
 10
48.9710039963
 20
0.2988893445
 30
0.0
 10
48.9700088603
 20
0.2997018697
 30
0.0
  0
SPLINE
  5
478
100
AcDbEntity
  8
0
100
AcDbSpline
 62
7
  6
CONTINUOUS
 70
0
 71
3
 72
15
 73
11
 74
0
 42
0.0000001
 43
0.0000001
 44
0.0000000001
 40
0.0
 40
0.0
 40
0.0
 40
0.0
 40
0.1017444407
 40
0.2096088461
 40
0.3245474155
 40
0.4470525223
 40
0.5769030157
 40
0.7131920169
 40
0.8546475917
 40
1.0
 40
1.0
 40
1.0
 40
1.0
 10
49.2403813913
 20
-0.0377016276
 30
0.0
 10
49.2366916685
 20
-0.0331826585
 30
0.0
 10
49.228873868
 20
-0.024046937
 30
0.0
 10
49.2160769965
 20
-0.0105248446
 30
0.0
 10
49.201720665
 20
0.0031242565
 30
0.0
 10
49.185714858
 20
0.0168258273
 30
0.0
 10
49.1681053391
 20
0.0304948416
 30
0.0
 10
49.1490661657
 20
0.0440586705
 30
0.0
 10
49.1288460282
 20
0.0574700899
 30
0.0
 10
49.1149064857
 20
0.0661990399
 30
0.0
 10
49.1077988699
 20
0.0705515479
 30
0.0
  0
SPLINE
  5
479
100
AcDbEntity
  8
0
100
AcDbSpline
 62
7
  6
CONTINUOUS
 70
0
 71
3
 72
45
 73
41
 74
0
 42
0.0000001
 43
0.0000001
 44
0.0000000001
 40
0.0
 40
0.0
 40
0.0
 40
0.0
 40
0.0128513267
 40
0.0257402646
 40
0.038691441
 40
0.051730823
 40
0.0648871307
 40
0.0781878531
 40
0.1053036192
 40
0.1332505709
 40
0.1621439873
 40
0.1920543393
 40
0.2230077703
 40
0.2549895349
 40
0.287948694
 40
0.3218028922
 40
0.3564428168
 40
0.3917370601
 40
0.4275370898
 40
0.4636814477
 40
0.5
 40
0.5363185523
 40
0.5724629102
 40
0.6082629399
 40
0.6435571832
 40
0.6781971078
 40
0.712051306
 40
0.7450104651
 40
0.7769922297
 40
0.8079456607
 40
0.8378560127
 40
0.8667494291
 40
0.8946963808
 40
0.9218121469
 40
0.9351128693
 40
0.948269177
 40
0.961308559
 40
0.9742597354
 40
0.9871486733
 40
1.0
 40
1.0
 40
1.0
 40
1.0
 10
49.2524273087
 20
-0.0081952766
 30
0.0
 10
49.2502640757
 20
-0.0081952766
 30
0.0
 10
49.2459297894
 20
-0.0080442759
 30
0.0
 10
49.2394472916
 20
-0.0073673642
 30
0.0
 10
49.2329951412
 20
-0.0062411903
 30
0.0
 10
49.2265911829
 20
-0.0046676488
 30
0.0
 10
49.2202505486
 20
-0.0026517455
 30
0.0
 10
49.2118492197
 20
0.0006399974
 30
0.0
 10
49.2015608908
 20
0.0058679455
 30
0.0
 10
49.1898032693
 20
0.0137652094
 30
0.0
 10
49.1786593781
 20
0.0232474109
 30
0.0
 10
49.1682349444
 20
0.0342199658
 30
0.0
 10
49.1586270324
 20
0.0465763898
 30
0.0
 10
49.1499250161
 20
0.0601970834
 30
0.0
 10
49.1422100091
 20
0.0749513352
 30
0.0
 10
49.1355545958
 20
0.0906981648
 30
0.0
 10
49.1300215153
 20
0.1072871196
 30
0.0
 10
49.1256626013
 20
0.1245595809
 30
0.0
 10
49.1225191
 20
0.1423505657
 30
0.0
 10
49.1206211761
 20
0.1604901001
 30
0.0
 10
49.1199865954
 20
0.1788047234
 30
0.0
 10
49.1206211761
 20
0.1971193466
 30
0.0
 10
49.1225191
 20
0.2152588811
 30
0.0
 10
49.1256626013
 20
0.2330498658
 30
0.0
 10
49.1300215153
 20
0.2503223271
 30
0.0
 10
49.1355545958
 20
0.2669112819
 30
0.0
 10
49.1422100091
 20
0.2826581116
 30
0.0
 10
49.1499250161
 20
0.2974123633
 30
0.0
 10
49.1586270324
 20
0.3110330569
 30
0.0
 10
49.1682349444
 20
0.3233894809
 30
0.0
 10
49.1786593781
 20
0.3343620358
 30
0.0
 10
49.1898032693
 20
0.3438442374
 30
0.0
 10
49.2015608908
 20
0.3517415012
 30
0.0
 10
49.2118492197
 20
0.3569694494
 30
0.0
 10
49.2202505486
 20
0.3602611923
 30
0.0
 10
49.2265911829
 20
0.3622770955
 30
0.0
 10
49.2329951412
 20
0.363850637
 30
0.0
 10
49.2394472916
 20
0.364976811
 30
0.0
 10
49.2459297894
 20
0.3656537227
 30
0.0
 10
49.2502640757
 20
0.3658047234
 30
0.0
 10
49.2524273087
 20
0.3658047234
 30
0.0
  0
SPLINE
  5
47A
100
AcDbEntity
  8
0
100
AcDbSpline
 62
7
  6
CONTINUOUS
 70
0
 71
3
 72
19
 73
15
 74
0
 42
0.0000001
 43
0.0000001
 44
0.0000000001
 40
0.0
 40
0.0
 40
0.0
 40
0.0
 40
0.1239135187
 40
0.2486584689
 40
0.3113153546
 40
0.3741210923
 40
0.4370327446
 40
0.5
 40
0.5629672554
 40
0.6258789077
 40
0.6886846454
 40
0.7513415311
 40
0.8760864813
 40
1.0
 40
1.0
 40
1.0
 40
1.0
 10
49.1077988699
 20
0.0705515479
 30
0.0
 10
49.1096010909
 20
0.079380592
 30
0.0
 10
49.1129000583
 20
0.0971650487
 30
0.0
 10
49.1160518696
 20
0.1195932248
 30
0.0
 10
49.1178855574
 20
0.1376978729
 30
0.0
 10
49.1188910619
 20
0.1513615399
 30
0.0
 10
49.1195032763
 20
0.1650711508
 30
0.0
 10
49.1197093868
 20
0.1788047234
 30
0.0
 10
49.1195032763
 20
0.192538296
 30
0.0
 10
49.1188910619
 20
0.2062479068
 30
0.0
 10
49.1178855574
 20
0.2199115738
 30
0.0
 10
49.1160518696
 20
0.2380162219
 30
0.0
 10
49.1129000583
 20
0.260444398
 30
0.0
 10
49.1096010909
 20
0.2782288547
 30
0.0
 10
49.1077988699
 20
0.2870578988
 30
0.0
  0
SPLINE
  5
47B
100
AcDbEntity
  8
0
100
AcDbSpline
 62
7
  6
CONTINUOUS
 70
0
 71
3
 72
23
 73
19
 74
0
 42
0.0000001
 43
0.0000001
 44
0.0000000001
 40
0.0
 40
0.0
 40
0.0
 40
0.0
 40
0.0552200583
 40
0.1106748871
 40
0.1665926736
 40
0.2231878726
 40
0.2806564376
 40
0.3391704851
 40
0.3988763535
 40
0.4598908728
 40
0.5223035786
 40
0.5861741968
 40
0.6515348273
 40
0.7183856123
 40
0.7867085174
 40
0.8564722864
 40
0.9276136373
 40
1.0
 40
1.0
 40
1.0
 40
1.0
 10
49.1180828134
 20
-0.0811950898
 30
0.0
 10
49.1140703293
 20
-0.081195179
 30
0.0
 10
49.10602334
 20
-0.0808225831
 30
0.0
 10
49.0940183055
 20
-0.0791469646
 30
0.0
 10
49.0821176319
 20
-0.0763631285
 30
0.0
 10
49.0703745687
 20
-0.0724833048
 30
0.0
 10
49.0588395582
 20
-0.0675253676
 30
0.0
 10
49.0475621631
 20
-0.0615117284
 30
0.0
 10
49.0365908205
 20
-0.054468783
 30
0.0
 10
49.0259716597
 20
-0.046428202
 30
0.0
 10
49.0157503063
 20
-0.0374242148
 30
0.0
 10
49.0059690884
 20
-0.0274966406
 30
0.0
 10
48.996670565
 20
-0.0166874954
 30
0.0
 10
48.9878924643
 20
-0.0050446562
 30
0.0
 10
48.9796730178
 20
0.0073837582
 30
0.0
 10
48.9720453604
 20
0.0205450227
 30
0.0
 10
48.9650447222
 20
0.0343809224
 30
0.0
 10
48.9608482227
 20
0.0439350502
 30
0.0
 10
48.958860187
 20
0.0488047234
 30
0.0
  0
SPLINE
  5
47C
100
AcDbEntity
  8
0
100
AcDbSpline
 62
7
  6
CONTINUOUS
 70
0
 71
3
 72
15
 73
11
 74
0
 42
0.0000001
 43
0.0000001
 44
0.0000000001
 40
0.0
 40
0.0
 40
0.0
 40
0.0
 40
0.1453524083
 40
0.2868079831
 40
0.4230969843
 40
0.5529474777
 40
0.6754525845
 40
0.7903911539
 40
0.8982555593
 40
1.0
 40
1.0
 40
1.0
 40
1.0
 10
49.1077988699
 20
0.2870578988
 30
0.0
 10
49.1149064857
 20
0.2914104068
 30
0.0
 10
49.1288460282
 20
0.3001393568
 30
0.0
 10
49.1490661657
 20
0.3135507762
 30
0.0
 10
49.1681053391
 20
0.3271146051
 30
0.0
 10
49.185714858
 20
0.3407836194
 30
0.0
 10
49.201720665
 20
0.3544851902
 30
0.0
 10
49.2160769965
 20
0.3681342913
 30
0.0
 10
49.228873868
 20
0.3816563837
 30
0.0
 10
49.2366916685
 20
0.3907921052
 30
0.0
 10
49.2403813913
 20
0.3953110743
 30
0.0
  0
SPLINE
  5
47D
100
AcDbEntity
  8
0
100
AcDbSpline
 62
7
  6
CONTINUOUS
 70
0
 71
3
 72
33
 73
29
 74
0
 42
0.0000001
 43
0.0000001
 44
0.0000000001
 40
0.0
 40
0.0
 40
0.0
 40
0.0
 40
0.0248617031
 40
0.0498293083
 40
0.0750052916
 40
0.1004865152
 40
0.1263607673
 40
0.1527060222
 40
0.1795875392
 40
0.2070587667
 40
0.2351590604
 40
0.2639158084
 40
0.293342707
 40
0.3234424266
 40
0.3855854026
 40
0.4501825721
 40
0.5169033937
 40
0.585309275
 40
0.6548820701
 40
0.7250511664
 40
0.7601826356
 40
0.7952393726
 40
0.8301469022
 40
0.8648309296
 40
0.8992215798
 40
0.9332580601
 40
0.9668772299
 40
1.0
 40
1.0
 40
1.0
 40
1.0
 10
49.1180712271
 20
0.4388045366
 30
0.0
 10
49.1140589241
 20
0.4388044475
 30
0.0
 10
49.1060122878
 20
0.4384309939
 30
0.0
 10
49.0940079229
 20
0.4367543291
 30
0.0
 10
49.0821077893
 20
0.4339700193
 30
0.0
 10
49.0703655882
 20
0.4300890271
 30
0.0
 10
49.0588310045
 20
0.4251310693
 30
0.0
 10
49.0475546944
 20
0.4191163369
 30
0.0
 10
49.0365835783
 20
0.412073718
 30
0.0
 10
49.0259656977
 20
0.4040321559
 30
0.0
 10
49.0157444288
 20
0.3950286754
 30
0.0
 10
49.0059646906
 20
0.3851006041
 30
0.0
 10
48.9966657692
 20
0.3742919327
 30
0.0
 10
48.9848395176
 20
0.358602947
 30
0.0
 10
48.9715183465
 20
0.337003496
 30
0.0
 10
48.9582114207
 20
0.3086936623
 30
0.0
 10
48.947624947
 20
0.2781893597
 30
0.0
 10
48.9399355991
 20
0.2460075789
 30
0.0
 10
48.9352702961
 20
0.2126923459
 30
0.0
 10
48.9339673752
 20
0.1844564906
 30
0.0
 10
48.9344914648
 20
0.1618044328
 30
0.0
 10
48.9356688404
 20
0.144878057
 30
0.0
 10
48.9376263358
 20
0.1280970931
 30
0.0
 10
48.940353889
 20
0.1115326713
 30
0.0
 10
48.9438417048
 20
0.0952551346
 30
0.0
 10
48.9480742538
 20
0.0793325669
 30
0.0
 10
48.9530342186
 20
0.0638363412
 30
0.0
 10
48.9568397725
 20
0.0537537079
 30
0.0
 10
48.958860187
 20
0.0488047234
 30
0.0
  0
SPLINE
  5
47E
100
AcDbEntity
  8
0
100
AcDbSpline
 62
7
  6
CONTINUOUS
 70
0
 71
3
 72
15
 73
11
 74
0
 42
0.0000001
 43
0.0000001
 44
0.0000000001
 40
0.0
 40
0.0
 40
0.0
 40
0.0
 40
0.1093848924
 40
0.2247529651
 40
0.3455303054
 40
0.4709316038
 40
0.5999829275
 40
0.7318632405
 40
0.865594525
 40
1.0
 40
1.0
 40
1.0
 40
1.0
 10
49.1266427481
 20
-0.0403669149
 30
0.0
 10
49.1259388674
 20
-0.0409409171
 30
0.0
 10
49.1246015589
 20
-0.0422575122
 30
0.0
 10
49.1228804144
 20
-0.0445636453
 30
0.0
 10
49.1214084523
 20
-0.047188615
 30
0.0
 10
49.1201961102
 20
-0.0500648871
 30
0.0
 10
49.1192499373
 20
-0.0531350821
 30
0.0
 10
49.1185733122
 20
-0.0563458305
 30
0.0
 10
49.1181675023
 20
-0.0596460867
 30
0.0
 10
49.1180770202
 20
-0.0618735616
 30
0.0
 10
49.1180770202
 20
-0.0629895694
 30
0.0
  0
SPLINE
  5
47F
100
AcDbEntity
  8
0
100
AcDbSpline
 62
7
  6
CONTINUOUS
 70
0
 71
3
 72
15
 73
11
 74
0
 42
0.0000001
 43
0.0000001
 44
0.0000000001
 40
0.0
 40
0.0
 40
0.0
 40
0.0
 40
0.1093848924
 40
0.2247529651
 40
0.3455303054
 40
0.4709316038
 40
0.5999829275
 40
0.7318632405
 40
0.865594525
 40
1.0
 40
1.0
 40
1.0
 40
1.0
 10
49.1266427481
 20
0.3979763616
 30
0.0
 10
49.1259388674
 20
0.3985503638
 30
0.0
 10
49.1246015589
 20
0.399866959
 30
0.0
 10
49.1228804144
 20
0.402173092
 30
0.0
 10
49.1214084523
 20
0.4047980618
 30
0.0
 10
49.1201961102
 20
0.4076743338
 30
0.0
 10
49.1192499373
 20
0.4107445288
 30
0.0
 10
49.1185733122
 20
0.4139552773
 30
0.0
 10
49.1181675023
 20
0.4172555334
 30
0.0
 10
49.1180770202
 20
0.4194830083
 30
0.0
 10
49.1180770202
 20
0.4205990161
 30
0.0
  0
SPLINE
  5
480
100
AcDbEntity
  8
0
100
AcDbSpline
 62
7
  6
CONTINUOUS
 70
0
 71
3
 72
15
 73
11
 74
0
 42
0.0000001
 43
0.0000001
 44
0.0000000001
 40
0.0
 40
0.0
 40
0.0
 40
0.0
 40
0.1453524083
 40
0.2868079831
 40
0.4230969843
 40
0.5529474777
 40
0.6754525845
 40
0.7903911539
 40
0.8982555593
 40
1.0
 40
1.0
 40
1.0
 40
1.0
 10
35.5607438066
 20
-0.0377016276
 30
0.0
 10
35.5536361908
 20
-0.0333491196
 30
0.0
 10
35.5396966482
 20
-0.0246201696
 30
0.0
 10
35.5194765107
 20
-0.0112087502
 30
0.0
 10
35.5004373373
 20
0.0023550787
 30
0.0
 10
35.4828278184
 20
0.016024093
 30
0.0
 10
35.4668220115
 20
0.0297256638
 30
0.0
 10
35.4524656799
 20
0.0433747649
 30
0.0
 10
35.4396688084
 20
0.0568968573
 30
0.0
 10
35.431851008
 20
0.0660325788
 30
0.0
 10
35.4281612851
 20
0.0705515479
 30
0.0
  0
SPLINE
  5
481
100
AcDbEntity
  8
0
100
AcDbSpline
 62
7
  6
CONTINUOUS
 70
0
 71
3
 72
19
 73
15
 74
0
 42
0.0000001
 43
0.0000001
 44
0.0000000001
 40
0.0
 40
0.0
 40
0.0
 40
0.0
 40
0.1239135187
 40
0.2486584689
 40
0.3113153546
 40
0.3741210923
 40
0.4370327446
 40
0.5
 40
0.5629672554
 40
0.6258789077
 40
0.6886846454
 40
0.7513415311
 40
0.8760864813
 40
1.0
 40
1.0
 40
1.0
 40
1.0
 10
35.4281612851
 20
0.0705515479
 30
0.0
 10
35.426359064
 20
0.079380592
 30
0.0
 10
35.4230600966
 20
0.0971650487
 30
0.0
 10
35.4199082854
 20
0.1195932248
 30
0.0
 10
35.4180745975
 20
0.1376978729
 30
0.0
 10
35.4170690931
 20
0.1513615399
 30
0.0
 10
35.4164568787
 20
0.1650711508
 30
0.0
 10
35.4162507682
 20
0.1788047234
 30
0.0
 10
35.4164568787
 20
0.192538296
 30
0.0
 10
35.4170690931
 20
0.2062479068
 30
0.0
 10
35.4180745975
 20
0.2199115738
 30
0.0
 10
35.4199082854
 20
0.2380162219
 30
0.0
 10
35.4230600966
 20
0.260444398
 30
0.0
 10
35.426359064
 20
0.2782288547
 30
0.0
 10
35.4281612851
 20
0.2870578988
 30
0.0
  0
SPLINE
  5
482
100
AcDbEntity
  8
0
100
AcDbSpline
 62
7
  6
CONTINUOUS
 70
0
 71
3
 72
15
 73
11
 74
0
 42
0.0000001
 43
0.0000001
 44
0.0000000001
 40
0.0
 40
0.0
 40
0.0
 40
0.0
 40
0.1017444407
 40
0.2096088461
 40
0.3245474155
 40
0.4470525223
 40
0.5769030157
 40
0.7131920169
 40
0.8546475917
 40
1.0
 40
1.0
 40
1.0
 40
1.0
 10
35.4281612851
 20
0.2870578988
 30
0.0
 10
35.431851008
 20
0.291576868
 30
0.0
 10
35.4396688084
 20
0.3007125894
 30
0.0
 10
35.4524656799
 20
0.3142346818
 30
0.0
 10
35.4668220115
 20
0.3278837829
 30
0.0
 10
35.4828278184
 20
0.3415853537
 30
0.0
 10
35.5004373373
 20
0.355254368
 30
0.0
 10
35.5194765107
 20
0.3688181969
 30
0.0
 10
35.5396966482
 20
0.3822296164
 30
0.0
 10
35.5536361908
 20
0.3909585663
 30
0.0
 10
35.5607438066
 20
0.3953110743
 30
0.0
  0
SPLINE
  5
483
100
AcDbEntity
  8
0
100
AcDbSpline
 62
7
  6
CONTINUOUS
 70
0
 71
3
 72
33
 73
29
 74
0
 42
0.0000001
 43
0.0000001
 44
0.0000000001
 40
0.0
 40
0.0
 40
0.0
 40
0.0
 40
0.0331227701
 40
0.0667419399
 40
0.1007784202
 40
0.1351690704
 40
0.1698530978
 40
0.2047606274
 40
0.2398173644
 40
0.2749488336
 40
0.3451179299
 40
0.414690725
 40
0.4830966063
 40
0.5498174279
 40
0.6144145974
 40
0.6765575734
 40
0.706657293
 40
0.7360841916
 40
0.7648409396
 40
0.7929412333
 40
0.8204124608
 40
0.8472939778
 40
0.8736392327
 40
0.8995134848
 40
0.9249947084
 40
0.9501706917
 40
0.9751382969
 40
1.0
 40
1.0
 40
1.0
 40
1.0
 10
35.87762035
 20
0.3088047234
 30
0.0
 10
35.8796407645
 20
0.3038557388
 30
0.0
 10
35.8834463184
 20
0.2937731055
 30
0.0
 10
35.8884062832
 20
0.2782768798
 30
0.0
 10
35.8926388322
 20
0.2623543121
 30
0.0
 10
35.896126648
 20
0.2460767754
 30
0.0
 10
35.8988542012
 20
0.2295123536
 30
0.0
 10
35.9008116966
 20
0.2127313898
 30
0.0
 10
35.9019890722
 20
0.1958050139
 30
0.0
 10
35.9025131618
 20
0.1731529562
 30
0.0
 10
35.9012102409
 20
0.1449171008
 30
0.0
 10
35.8965449379
 20
0.1116018678
 30
0.0
 10
35.88885559
 20
0.079420087
 30
0.0
 10
35.8782691163
 20
0.0489157844
 30
0.0
 10
35.8649621905
 20
0.0206059507
 30
0.0
 10
35.8516410194
 20
-0.0009935002
 30
0.0
 10
35.8398147678
 20
-0.0166824859
 30
0.0
 10
35.8305158463
 20
-0.0274911574
 30
0.0
 10
35.8207361082
 20
-0.0374192287
 30
0.0
 10
35.8105148393
 20
-0.0464227092
 30
0.0
 10
35.7998969587
 20
-0.0544642713
 30
0.0
 10
35.7889258426
 20
-0.0615068902
 30
0.0
 10
35.7776495325
 20
-0.0675216226
 30
0.0
 10
35.7661149488
 20
-0.0724795804
 30
0.0
 10
35.7543727477
 20
-0.0763605726
 30
0.0
 10
35.7424726141
 20
-0.0791448823
 30
0.0
 10
35.7304682492
 20
-0.0808215472
 30
0.0
 10
35.7224216129
 20
-0.0811950007
 30
0.0
 10
35.7184093099
 20
-0.0811950898
 30
0.0
  0
SPLINE
  5
484
100
AcDbEntity
  8
0
100
AcDbSpline
 62
7
  6
CONTINUOUS
 70
0
 71
3
 72
23
 73
19
 74
0
 42
0.0000001
 43
0.0000001
 44
0.0000000001
 40
0.0
 40
0.0
 40
0.0
 40
0.0
 40
0.0723863627
 40
0.1435277136
 40
0.2132914826
 40
0.2816143877
 40
0.3484651727
 40
0.4138258032
 40
0.4776964214
 40
0.5401091272
 40
0.6011236465
 40
0.6608295149
 40
0.7193435624
 40
0.7768121274
 40
0.8334073264
 40
0.8893251129
 40
0.9447799417
 40
1.0
 40
1.0
 40
1.0
 40
1.0
 10
35.87762035
 20
0.3088047234
 30
0.0
 10
35.8756323143
 20
0.3136743966
 30
0.0
 10
35.8714358148
 20
0.3232285243
 30
0.0
 10
35.8644351766
 20
0.337064424
 30
0.0
 10
35.8568075192
 20
0.3502256885
 30
0.0
 10
35.8485880727
 20
0.3626541029
 30
0.0
 10
35.839809972
 20
0.3742969421
 30
0.0
 10
35.8305114486
 20
0.3851060874
 30
0.0
 10
35.8207302307
 20
0.3950336616
 30
0.0
 10
35.8105088773
 20
0.4040376487
 30
0.0
 10
35.7998897165
 20
0.4120782298
 30
0.0
 10
35.7889183739
 20
0.4191211752
 30
0.0
 10
35.7776409788
 20
0.4251348143
 30
0.0
 10
35.7661059683
 20
0.4300927515
 30
0.0
 10
35.7543629051
 20
0.4339725753
 30
0.0
 10
35.7424622315
 20
0.4367564113
 30
0.0
 10
35.730457197
 20
0.4384320298
 30
0.0
 10
35.7224102077
 20
0.4388046257
 30
0.0
 10
35.7183977236
 20
0.4388045366
 30
0.0
  0
SPLINE
  5
485
100
AcDbEntity
  8
0
100
AcDbSpline
 62
7
  6
CONTINUOUS
 70
0
 71
3
 72
11
 73
7
 74
0
 42
0.0000001
 43
0.0000001
 44
0.0000000001
 40
0.0
 40
0.0
 40
0.0
 40
0.0
 40
0.2401732686
 40
0.4850365616
 40
0.7374846583
 40
1.0
 40
1.0
 40
1.0
 40
1.0
 10
35.6675625392
 20
-0.0377016276
 30
0.0
 10
35.668167409
 20
-0.0377016276
 30
0.0
 10
35.669391803
 20
-0.0378214955
 30
0.0
 10
35.6711844434
 20
-0.0383435784
 30
0.0
 10
35.6729073291
 20
-0.0391963537
 30
0.0
 10
35.6739700803
 20
-0.0399490866
 30
0.0
 10
35.6744824499
 20
-0.0403669149
 30
0.0
  0
SPLINE
  5
486
100
AcDbEntity
  8
0
100
AcDbSpline
 62
7
  6
CONTINUOUS
 70
0
 71
3
 72
11
 73
7
 74
0
 42
0.0000001
 43
0.0000001
 44
0.0000000001
 40
0.0
 40
0.0
 40
0.0
 40
0.0
 40
0.2401732686
 40
0.4850365616
 40
0.7374846583
 40
1.0
 40
1.0
 40
1.0
 40
1.0
 10
35.6675625392
 20
0.3953110743
 30
0.0
 10
35.668167409
 20
0.3953110743
 30
0.0
 10
35.669391803
 20
0.3954309422
 30
0.0
 10
35.6711844434
 20
0.3959530252
 30
0.0
 10
35.6729073291
 20
0.3968058005
 30
0.0
 10
35.6739700803
 20
0.3975585333
 30
0.0
 10
35.6744824499
 20
0.3979763616
 30
0.0
  0
SPLINE
  5
487
100
AcDbEntity
  8
0
100
AcDbSpline
 62
7
  6
CONTINUOUS
 70
0
 71
3
 72
15
 73
11
 74
0
 42
0.0000001
 43
0.0000001
 44
0.0000000001
 40
0.0
 40
0.0
 40
0.0
 40
0.0
 40
0.119057511
 40
0.2387427078
 40
0.3596605012
 40
0.482372663
 40
0.6073780386
 40
0.7351040355
 40
0.8658915427
 40
1.0
 40
1.0
 40
1.0
 40
1.0
 10
35.6830539708
 20
-0.0811950898
 30
0.0
 10
35.6785824795
 20
-0.0811951892
 30
0.0
 10
35.6696090567
 20
-0.0807319622
 30
0.0
 10
35.6562399928
 20
-0.0786496382
 30
0.0
 10
35.643015854
 20
-0.0751937729
 30
0.0
 10
35.6300107682
 20
-0.0703820765
 30
0.0
 10
35.6172931793
 20
-0.06424436
 30
0.0
 10
35.6049318238
 20
-0.0568125597
 30
0.0
 10
35.5929913986
 20
-0.0481308051
 30
0.0
 10
35.5854500474
 20
-0.0416221565
 30
0.0
 10
35.5817681595
 20
-0.0381851939
 30
0.0
  0
SPLINE
  5
488
100
AcDbEntity
  8
0
100
AcDbSpline
 62
7
  6
CONTINUOUS
 70
0
 71
3
 72
17
 73
13
 74
0
 42
0.0000001
 43
0.0000001
 44
0.0000000001
 40
0.0
 40
0.0
 40
0.0
 40
0.0
 40
0.1189994808
 40
0.2386330948
 40
0.2988987019
 40
0.3595485145
 40
0.4822355288
 40
0.5444348928
 40
0.6072696525
 40
0.7350094912
 40
0.8658344983
 40
1.0
 40
1.0
 40
1.0
 40
1.0
 10
35.6830423846
 20
0.4388045366
 30
0.0
 10
35.678549815
 20
0.4388044368
 30
0.0
 10
35.6695342142
 20
0.4383357239
 30
0.0
 10
35.658365687
 20
0.4365868401
 30
0.0
 10
35.6495226952
 20
0.4345045169
 30
0.0
 10
35.6406849185
 20
0.4319490371
 30
0.0
 10
35.6319800704
 20
0.4287123258
 30
0.0
 10
35.6234670231
 20
0.4248340836
 30
0.0
 10
35.6149751802
 20
0.4204733424
 30
0.0
 10
35.6045751361
 20
0.4141880359
 30
0.0
 10
35.5925938959
 20
0.4054255749
 30
0.0
 10
35.5850292622
 20
0.3988589051
 30
0.0
 10
35.5813371981
 20
0.3953913115
 30
0.0
  0
SPLINE
  5
489
100
AcDbEntity
  8
0
100
AcDbSpline
 62
7
  6
CONTINUOUS
 70
0
 71
3
 72
19
 73
15
 74
0
 42
0.0000001
 43
0.0000001
 44
0.0000000001
 40
0.0
 40
0.0
 40
0.0
 40
0.0
 40
0.1239135187
 40
0.2486584689
 40
0.3113153546
 40
0.3741210923
 40
0.4370327446
 40
0.5
 40
0.5629672554
 40
0.6258789077
 40
0.6886846454
 40
0.7513415311
 40
0.8760864813
 40
1.0
 40
1.0
 40
1.0
 40
1.0
 10
35.6933263281
 20
0.2870578988
 30
0.0
 10
35.691524107
 20
0.2782288547
 30
0.0
 10
35.6882251396
 20
0.260444398
 30
0.0
 10
35.6850733284
 20
0.2380162219
 30
0.0
 10
35.6832396405
 20
0.2199115738
 30
0.0
 10
35.682234136
 20
0.2062479068
 30
0.0
 10
35.6816219217
 20
0.192538296
 30
0.0
 10
35.6814158111
 20
0.1788047234
 30
0.0
 10
35.6816219217
 20
0.1650711508
 30
0.0
 10
35.682234136
 20
0.1513615399
 30
0.0
 10
35.6832396405
 20
0.1376978729
 30
0.0
 10
35.6850733284
 20
0.1195932248
 30
0.0
 10
35.6882251396
 20
0.0971650487
 30
0.0
 10
35.691524107
 20
0.079380592
 30
0.0
 10
35.6933263281
 20
0.0705515479
 30
0.0
  0
SPLINE
  5
48A
100
AcDbEntity
  8
0
100
AcDbSpline
 62
7
  6
CONTINUOUS
 70
0
 71
3
 72
17
 73
13
 74
0
 42
0.0000001
 43
0.0000001
 44
0.0000000001
 40
0.0
 40
0.0
 40
0.0
 40
0.0
 40
0.0507521541
 40
0.1062279752
 40
0.1656818145
 40
0.2283685672
 40
0.3603916239
 40
0.4965882669
 40
0.6320482742
 40
0.7629485808
 40
0.8864675634
 40
1.0
 40
1.0
 40
1.0
 40
1.0
 10
35.8001450607
 20
0.0705515479
 30
0.0
 10
35.800719364
 20
0.0705515479
 30
0.0
 10
35.8019216501
 20
0.0704969507
 30
0.0
 10
35.803785337
 20
0.0702828021
 30
0.0
 10
35.8057659954
 20
0.069935058
 30
0.0
 10
35.8085706264
 20
0.0692935934
 30
0.0
 10
35.8121601121
 20
0.0682110749
 30
0.0
 10
35.8164278316
 20
0.0665726366
 30
0.0
 10
35.8205649185
 20
0.0646583012
 30
0.0
 10
35.8244441065
 20
0.0625501762
 30
0.0
 10
35.8279639558
 20
0.0603203348
 30
0.0
 10
35.8301212016
 20
0.0587201022
 30
0.0
 10
35.8311163377
 20
0.057907577
 30
0.0
  0
SPLINE
  5
48B
100
AcDbEntity
  8
0
100
AcDbSpline
 62
7
  6
CONTINUOUS
 70
0
 71
3
 72
17
 73
13
 74
0
 42
0.0000001
 43
0.0000001
 44
0.0000000001
 40
0.0
 40
0.0
 40
0.0
 40
0.0
 40
0.0507521541
 40
0.1062279752
 40
0.1656818145
 40
0.2283685672
 40
0.3603916239
 40
0.4965882669
 40
0.6320482742
 40
0.7629485808
 40
0.8864675634
 40
1.0
 40
1.0
 40
1.0
 40
1.0
 10
35.8001450607
 20
0.2870578988
 30
0.0
 10
35.800719364
 20
0.2870578988
 30
0.0
 10
35.8019216501
 20
0.287112496
 30
0.0
 10
35.803785337
 20
0.2873266446
 30
0.0
 10
35.8057659954
 20
0.2876743887
 30
0.0
 10
35.8085706264
 20
0.2883158534
 30
0.0
 10
35.8121601121
 20
0.2893983718
 30
0.0
 10
35.8164278316
 20
0.2910368101
 30
0.0
 10
35.8205649185
 20
0.2929511455
 30
0.0
 10
35.8244441065
 20
0.2950592705
 30
0.0
 10
35.8279639558
 20
0.2972891119
 30
0.0
 10
35.8301212016
 20
0.2988893445
 30
0.0
 10
35.8311163377
 20
0.2997018697
 30
0.0
  0
SPLINE
  5
48C
100
AcDbEntity
  8
0
100
AcDbSpline
 62
7
  6
CONTINUOUS
 70
0
 71
3
 72
15
 73
11
 74
0
 42
0.0000001
 43
0.0000001
 44
0.0000000001
 40
0.0
 40
0.0
 40
0.0
 40
0.0
 40
0.1453524083
 40
0.2868079831
 40
0.4230969843
 40
0.5529474777
 40
0.6754525845
 40
0.7903911539
 40
0.8982555593
 40
1.0
 40
1.0
 40
1.0
 40
1.0
 10
35.6933263281
 20
0.0705515479
 30
0.0
 10
35.6862187123
 20
0.0661990399
 30
0.0
 10
35.6722791697
 20
0.0574700899
 30
0.0
 10
35.6520590322
 20
0.0440586705
 30
0.0
 10
35.6330198588
 20
0.0304948416
 30
0.0
 10
35.6154103399
 20
0.0168258273
 30
0.0
 10
35.5994045329
 20
0.0031242565
 30
0.0
 10
35.5850482014
 20
-0.0105248446
 30
0.0
 10
35.5722513299
 20
-0.024046937
 30
0.0
 10
35.5644335294
 20
-0.0331826585
 30
0.0
 10
35.5607438066
 20
-0.0377016276
 30
0.0
  0
SPLINE
  5
48D
100
AcDbEntity
  8
0
100
AcDbSpline
 62
7
  6
CONTINUOUS
 70
0
 71
3
 72
9
 73
5
 74
0
 42
0.0000001
 43
0.0000001
 44
0.0000000001
 40
0.0
 40
0.0
 40
0.0
 40
0.0
 40
0.5053699307
 40
1.0
 40
1.0
 40
1.0
 40
1.0
 10
35.842265011
 20
0.3088047234
 30
0.0
 10
35.8398745253
 20
0.3146601936
 30
0.0
 10
35.8347772153
 20
0.3261005922
 30
0.0
 10
35.8289336833
 20
0.3371798147
 30
0.0
 10
35.8258548583
 20
0.342550075
 30
0.0
  0
SPLINE
  5
48E
100
AcDbEntity
  8
0
100
AcDbSpline
 62
7
  6
CONTINUOUS
 70
0
 71
3
 72
21
 73
17
 74
0
 42
0.0000001
 43
0.0000001
 44
0.0000000001
 40
0.0
 40
0.0
 40
0.0
 40
0.0
 40
0.1409037921
 40
0.2094606649
 40
0.2767188217
 40
0.4072915637
 40
0.4707168939
 40
0.532947487
 40
0.5940561555
 40
0.6541316856
 40
0.7132821329
 40
0.7716321156
 40
0.8293208944
 40
0.8865019298
 40
0.9433379855
 40
1.0
 40
1.0
 40
1.0
 40
1.0
 10
35.8258548583
 20
0.342550075
 30
0.0
 10
35.8216397587
 20
0.3499022892
 30
0.0
 10
35.8148405925
 20
0.360542247
 30
0.0
 10
35.8047868498
 20
0.3738143474
 30
0.0
 10
35.7944262493
 20
0.3860437659
 30
0.0
 10
35.7832629223
 20
0.3971646165
 30
0.0
 10
35.7713754324
 20
0.4069852882
 30
0.0
 10
35.7622689227
 20
0.4135762795
 30
0.0
 10
35.7529165235
 20
0.4194425467
 30
0.0
 10
35.7433458552
 20
0.4245649838
 30
0.0
 10
35.7335867577
 20
0.4289273226
 30
0.0
 10
35.7236696793
 20
0.4325165169
 30
0.0
 10
35.7136249511
 20
0.4353192985
 30
0.0
 10
35.7034842812
 20
0.4373285458
 30
0.0
 10
35.6932798593
 20
0.4385361195
 30
0.0
 10
35.6864503755
 20
0.4388046123
 30
0.0
 10
35.6830423846
 20
0.4388045366
 30
0.0
  0
SPLINE
  5
48F
100
AcDbEntity
  8
0
100
AcDbSpline
 62
7
  6
CONTINUOUS
 70
0
 71
3
 72
19
 73
15
 74
0
 42
0.0000001
 43
0.0000001
 44
0.0000000001
 40
0.0
 40
0.0
 40
0.0
 40
0.0
 40
0.0607988999
 40
0.1226154382
 40
0.1852676822
 40
0.2486092977
 40
0.3124835742
 40
0.376713916
 40
0.5054802096
 40
0.6335154076
 40
0.7594199491
 40
0.8211934175
 40
0.8819716417
 40
1.0
 40
1.0
 40
1.0
 40
1.0
 10
35.842265011
 20
0.3088047234
 30
0.0
 10
35.8445818116
 20
0.303129744
 30
0.0
 10
35.848905022
 20
0.2915391551
 30
0.0
 10
35.8544041624
 20
0.2736783393
 30
0.0
 10
35.8589420164
 20
0.2552848981
 30
0.0
 10
35.862494074
 20
0.2364654793
 30
0.0
 10
35.8650409669
 20
0.2173229671
 30
0.0
 10
35.8670788422
 20
0.1914958062
 30
0.0
 10
35.8670519878
 20
0.159063269
 30
0.0
 10
35.8629374421
 20
0.1206293887
 30
0.0
 10
35.8561350425
 20
0.0894618811
 30
0.0
 10
35.8487188142
 20
0.065521916
 30
0.0
 10
35.8401959914
 20
0.0428042869
 30
0.0
 10
35.8323478975
 20
0.0265055715
 30
0.0
 10
35.8264788696
 20
0.0161541292
 30
0.0
  0
SPLINE
  5
490
100
AcDbEntity
  8
0
100
AcDbSpline
 62
7
  6
CONTINUOUS
 70
0
 71
3
 72
20
 73
16
 74
0
 42
0.0000001
 43
0.0000001
 44
0.0000000001
 40
0.0
 40
0.0
 40
0.0
 40
0.0
 40
0.1410155942
 40
0.276870466
 40
0.4075028347
 40
0.4709452369
 40
0.5331840148
 40
0.594289866
 40
0.6543539183
 40
0.7134833306
 40
0.7718041018
 40
0.8294568544
 40
0.8865957751
 40
0.9433861272
 40
1.0
 40
1.0
 40
1.0
 40
1.0
 10
35.8264788696
 20
0.0161541292
 30
0.0
 10
35.8222669308
 20
0.008725362
 30
0.0
 10
35.8132851905
 20
-0.0054735597
 30
0.0
 10
35.7979442585
 20
-0.0248617614
 30
0.0
 10
35.7838091853
 20
-0.0390570099
 30
0.0
 10
35.7718714449
 20
-0.0489917298
 30
0.0
 10
35.7627245313
 20
-0.0556606709
 30
0.0
 10
35.7533261976
 20
-0.0615957138
 30
0.0
 10
35.7437064746
 20
-0.0667798684
 30
0.0
 10
35.7338945597
 20
-0.0711949019
 30
0.0
 10
35.7239216626
 20
-0.0748273564
 30
0.0
 10
35.7138191512
 20
-0.0776655693
 30
0.0
 10
35.7036184666
 20
-0.0796989819
 30
0.0
 10
35.6933531538
 20
-0.0809227731
 30
0.0
 10
35.6864824375
 20
-0.0811950137
 30
0.0
 10
35.6830539708
 20
-0.0811950898
 30
0.0
  0
SPLINE
  5
491
100
AcDbEntity
  8
0
100
AcDbSpline
 62
7
  6
CONTINUOUS
 70
0
 71
3
 72
45
 73
41
 74
0
 42
0.0000001
 43
0.0000001
 44
0.0000000001
 40
0.0
 40
0.0
 40
0.0
 40
0.0
 40
0.0128513267
 40
0.0257402646
 40
0.038691441
 40
0.051730823
 40
0.0648871307
 40
0.0781878531
 40
0.1053036192
 40
0.1332505709
 40
0.1621439873
 40
0.1920543393
 40
0.2230077703
 40
0.2549895349
 40
0.287948694
 40
0.3218028922
 40
0.3564428168
 40
0.3917370601
 40
0.4275370898
 40
0.4636814477
 40
0.5
 40
0.5363185523
 40
0.5724629102
 40
0.6082629399
 40
0.6435571832
 40
0.6781971078
 40
0.712051306
 40
0.7450104651
 40
0.7769922297
 40
0.8079456607
 40
0.8378560127
 40
0.8667494291
 40
0.8946963808
 40
0.9218121469
 40
0.9351128693
 40
0.948269177
 40
0.961308559
 40
0.9742597354
 40
0.9871486733
 40
1.0
 40
1.0
 40
1.0
 40
1.0
 10
35.5486978893
 20
0.3658047234
 30
0.0
 10
35.5508611222
 20
0.3658047234
 30
0.0
 10
35.5551954085
 20
0.3656537227
 30
0.0
 10
35.5616779063
 20
0.364976811
 30
0.0
 10
35.5681300567
 20
0.363850637
 30
0.0
 10
35.574534015
 20
0.3622770955
 30
0.0
 10
35.5808746493
 20
0.3602611923
 30
0.0
 10
35.5892759783
 20
0.3569694494
 30
0.0
 10
35.5995643071
 20
0.3517415012
 30
0.0
 10
35.6113219286
 20
0.3438442374
 30
0.0
 10
35.6224658199
 20
0.3343620358
 30
0.0
 10
35.6328902536
 20
0.3233894809
 30
0.0
 10
35.6424981655
 20
0.3110330569
 30
0.0
 10
35.6512001818
 20
0.2974123633
 30
0.0
 10
35.6589151888
 20
0.2826581116
 30
0.0
 10
35.6655706021
 20
0.2669112819
 30
0.0
 10
35.6711036827
 20
0.2503223271
 30
0.0
 10
35.6754625966
 20
0.2330498658
 30
0.0
 10
35.678606098
 20
0.2152588811
 30
0.0
 10
35.6805040218
 20
0.1971193466
 30
0.0
 10
35.6811386026
 20
0.1788047234
 30
0.0
 10
35.6805040218
 20
0.1604901001
 30
0.0
 10
35.678606098
 20
0.1423505657
 30
0.0
 10
35.6754625966
 20
0.1245595809
 30
0.0
 10
35.6711036827
 20
0.1072871196
 30
0.0
 10
35.6655706021
 20
0.0906981648
 30
0.0
 10
35.6589151888
 20
0.0749513352
 30
0.0
 10
35.6512001818
 20
0.0601970834
 30
0.0
 10
35.6424981655
 20
0.0465763898
 30
0.0
 10
35.6328902536
 20
0.0342199658
 30
0.0
 10
35.6224658199
 20
0.0232474109
 30
0.0
 10
35.6113219286
 20
0.0137652094
 30
0.0
 10
35.5995643071
 20
0.0058679455
 30
0.0
 10
35.5892759783
 20
0.0006399974
 30
0.0
 10
35.5808746493
 20
-0.0026517455
 30
0.0
 10
35.574534015
 20
-0.0046676488
 30
0.0
 10
35.5681300567
 20
-0.0062411903
 30
0.0
 10
35.5616779063
 20
-0.0073673642
 30
0.0
 10
35.5551954085
 20
-0.0080442759
 30
0.0
 10
35.5508611222
 20
-0.0081952766
 30
0.0
 10
35.5486978893
 20
-0.0081952766
 30
0.0
  0
SPLINE
  5
492
100
AcDbEntity
  8
0
100
AcDbSpline
 62
7
  6
CONTINUOUS
 70
0
 71
3
 72
15
 73
11
 74
0
 42
0.0000001
 43
0.0000001
 44
0.0000000001
 40
0.0
 40
0.0
 40
0.0
 40
0.0
 40
0.1093848924
 40
0.2247529651
 40
0.3455303054
 40
0.4709316038
 40
0.5999829275
 40
0.7318632405
 40
0.865594525
 40
1.0
 40
1.0
 40
1.0
 40
1.0
 10
35.6744824499
 20
-0.0403669149
 30
0.0
 10
35.6751863305
 20
-0.0409409171
 30
0.0
 10
35.6765236391
 20
-0.0422575122
 30
0.0
 10
35.6782447835
 20
-0.0445636453
 30
0.0
 10
35.6797167456
 20
-0.047188615
 30
0.0
 10
35.6809290877
 20
-0.0500648871
 30
0.0
 10
35.6818752607
 20
-0.0531350821
 30
0.0
 10
35.6825518857
 20
-0.0563458305
 30
0.0
 10
35.6829576957
 20
-0.0596460867
 30
0.0
 10
35.6830481777
 20
-0.0618735616
 30
0.0
 10
35.6830481777
 20
-0.0629895694
 30
0.0
  0
SPLINE
  5
493
100
AcDbEntity
  8
0
100
AcDbSpline
 62
7
  6
CONTINUOUS
 70
0
 71
3
 72
15
 73
11
 74
0
 42
0.0000001
 43
0.0000001
 44
0.0000000001
 40
0.0
 40
0.0
 40
0.0
 40
0.0
 40
0.1017444407
 40
0.2096088461
 40
0.3245474155
 40
0.4470525223
 40
0.5769030157
 40
0.7131920169
 40
0.8546475917
 40
1.0
 40
1.0
 40
1.0
 40
1.0
 10
35.5607438066
 20
0.3953110743
 30
0.0
 10
35.5644335294
 20
0.3907921052
 30
0.0
 10
35.5722513299
 20
0.3816563837
 30
0.0
 10
35.5850482014
 20
0.3681342913
 30
0.0
 10
35.5994045329
 20
0.3544851902
 30
0.0
 10
35.6154103399
 20
0.3407836194
 30
0.0
 10
35.6330198588
 20
0.3271146051
 30
0.0
 10
35.6520590322
 20
0.3135507762
 30
0.0
 10
35.6722791697
 20
0.3001393568
 30
0.0
 10
35.6862187123
 20
0.2914104068
 30
0.0
 10
35.6933263281
 20
0.2870578988
 30
0.0
  0
SPLINE
  5
494
100
AcDbEntity
  8
0
100
AcDbSpline
 62
7
  6
CONTINUOUS
 70
0
 71
3
 72
15
 73
11
 74
0
 42
0.0000001
 43
0.0000001
 44
0.0000000001
 40
0.0
 40
0.0
 40
0.0
 40
0.0
 40
0.1093848924
 40
0.2247529651
 40
0.3455303054
 40
0.4709316038
 40
0.5999829275
 40
0.7318632405
 40
0.865594525
 40
1.0
 40
1.0
 40
1.0
 40
1.0
 10
35.6744824499
 20
0.3979763616
 30
0.0
 10
35.6751863305
 20
0.3985503638
 30
0.0
 10
35.6765236391
 20
0.399866959
 30
0.0
 10
35.6782447835
 20
0.402173092
 30
0.0
 10
35.6797167456
 20
0.4047980618
 30
0.0
 10
35.6809290877
 20
0.4076743338
 30
0.0
 10
35.6818752607
 20
0.4107445288
 30
0.0
 10
35.6825518857
 20
0.4139552773
 30
0.0
 10
35.6829576957
 20
0.4172555334
 30
0.0
 10
35.6830481777
 20
0.4194830083
 30
0.0
 10
35.6830481777
 20
0.4205990161
 30
0.0
  0
SPLINE
  5
495
100
AcDbEntity
  8
0
100
AcDbSpline
 62
7
  6
CONTINUOUS
 70
0
 71
3
 72
45
 73
41
 74
0
 42
0.0000001
 43
0.0000001
 44
0.0000000001
 40
0.0
 40
0.0
 40
0.0
 40
0.0
 40
0.0128513267
 40
0.0257402646
 40
0.038691441
 40
0.051730823
 40
0.0648871307
 40
0.0781878531
 40
0.1053036192
 40
0.1332505709
 40
0.1621439873
 40
0.1920543393
 40
0.2230077703
 40
0.2549895349
 40
0.287948694
 40
0.3218028922
 40
0.3564428168
 40
0.3917370601
 40
0.4275370898
 40
0.4636814477
 40
0.5
 40
0.5363185523
 40
0.5724629102
 40
0.6082629399
 40
0.6435571832
 40
0.6781971078
 40
0.712051306
 40
0.7450104651
 40
0.7769922297
 40
0.8079456607
 40
0.8378560127
 40
0.8667494291
 40
0.8946963808
 40
0.9218121469
 40
0.9351128693
 40
0.948269177
 40
0.961308559
 40
0.9742597354
 40
0.9871486733
 40
1.0
 40
1.0
 40
1.0
 40
1.0
 10
35.5486978893
 20
-0.0081952766
 30
0.0
 10
35.5465346563
 20
-0.0081952766
 30
0.0
 10
35.54220037
 20
-0.0080442759
 30
0.0
 10
35.5357178722
 20
-0.0073673642
 30
0.0
 10
35.5292657218
 20
-0.0062411903
 30
0.0
 10
35.5228617635
 20
-0.0046676488
 30
0.0
 10
35.5165211292
 20
-0.0026517455
 30
0.0
 10
35.5081198003
 20
0.0006399974
 30
0.0
 10
35.4978314714
 20
0.0058679455
 30
0.0
 10
35.4860738499
 20
0.0137652094
 30
0.0
 10
35.4749299587
 20
0.0232474109
 30
0.0
 10
35.464505525
 20
0.0342199658
 30
0.0
 10
35.454897613
 20
0.0465763898
 30
0.0
 10
35.4461955967
 20
0.0601970834
 30
0.0
 10
35.4384805897
 20
0.0749513352
 30
0.0
 10
35.4318251764
 20
0.0906981648
 30
0.0
 10
35.4262920959
 20
0.1072871196
 30
0.0
 10
35.4219331819
 20
0.1245595809
 30
0.0
 10
35.4187896806
 20
0.1423505657
 30
0.0
 10
35.4168917567
 20
0.1604901001
 30
0.0
 10
35.416257176
 20
0.1788047234
 30
0.0
 10
35.4168917567
 20
0.1971193466
 30
0.0
 10
35.4187896806
 20
0.2152588811
 30
0.0
 10
35.4219331819
 20
0.2330498658
 30
0.0
 10
35.4262920959
 20
0.2503223271
 30
0.0
 10
35.4318251764
 20
0.2669112819
 30
0.0
 10
35.4384805897
 20
0.2826581116
 30
0.0
 10
35.4461955967
 20
0.2974123633
 30
0.0
 10
35.454897613
 20
0.3110330569
 30
0.0
 10
35.464505525
 20
0.3233894809
 30
0.0
 10
35.4749299587
 20
0.3343620358
 30
0.0
 10
35.4860738499
 20
0.3438442374
 30
0.0
 10
35.4978314714
 20
0.3517415012
 30
0.0
 10
35.5081198003
 20
0.3569694494
 30
0.0
 10
35.5165211292
 20
0.3602611923
 30
0.0
 10
35.5228617635
 20
0.3622770955
 30
0.0
 10
35.5292657218
 20
0.363850637
 30
0.0
 10
35.5357178722
 20
0.364976811
 30
0.0
 10
35.54220037
 20
0.3656537227
 30
0.0
 10
35.5465346563
 20
0.3658047234
 30
0.0
 10
35.5486978893
 20
0.3658047234
 30
0.0
  0
SPLINE
  5
496
100
AcDbEntity
  8
0
100
AcDbSpline
 62
7
  6
CONTINUOUS
 70
0
 71
3
 72
15
 73
11
 74
0
 42
0.0000001
 43
0.0000001
 44
0.0000000001
 40
0.0
 40
0.0
 40
0.0
 40
0.0
 40
0.1252329418
 40
0.2504328526
 40
0.375563059
 40
0.50061068
 40
0.625565329
 40
0.7504307829
 40
0.8752344504
 40
1.0
 40
1.0
 40
1.0
 40
1.0
 10
51.7884472559
 20
9.3683047234
 30
0.0
 10
51.7884472559
 20
9.3637307807
 30
0.0
 10
51.7893459797
 20
9.3545589356
 30
0.0
 10
51.7933387756
 20
9.3413485262
 30
0.0
 10
51.7998231009
 20
9.329167872
 30
0.0
 10
51.8085503149
 20
9.3184919077
 30
0.0
 10
51.8191849808
 20
9.3097292915
 30
0.0
 10
51.8313204823
 20
9.3032176191
 30
0.0
 10
51.8444834487
 20
9.2992074934
 30
0.0
 10
51.8536240228
 20
9.2983047234
 30
0.0
 10
51.8581808946
 20
9.2983047234
 30
0.0
  0
SPLINE
  5
497
100
AcDbEntity
  8
0
100
AcDbSpline
 62
7
  6
CONTINUOUS
 70
0
 71
3
 72
15
 73
11
 74
0
 42
0.0000001
 43
0.0000001
 44
0.0000000001
 40
0.0
 40
0.0
 40
0.0
 40
0.0
 40
0.1252329418
 40
0.2504328526
 40
0.375563059
 40
0.50061068
 40
0.625565329
 40
0.7504307829
 40
0.8752344504
 40
1.0
 40
1.0
 40
1.0
 40
1.0
 10
33.012677942
 20
9.3683047234
 30
0.0
 10
33.012677942
 20
9.3637307807
 30
0.0
 10
33.0117792182
 20
9.3545589356
 30
0.0
 10
33.0077864224
 20
9.3413485262
 30
0.0
 10
33.0013020971
 20
9.329167872
 30
0.0
 10
32.992574883
 20
9.3184919077
 30
0.0
 10
32.9819402172
 20
9.3097292915
 30
0.0
 10
32.9698047157
 20
9.3032176191
 30
0.0
 10
32.9566417492
 20
9.2992074934
 30
0.0
 10
32.9475011751
 20
9.2983047234
 30
0.0
 10
32.9429443033
 20
9.2983047234
 30
0.0
  0
SPLINE
  5
498
100
AcDbEntity
  8
0
100
AcDbSpline
 62
7
  6
CONTINUOUS
 70
0
 71
3
 72
15
 73
11
 74
0
 42
0.0000001
 43
0.0000001
 44
0.0000000001
 40
0.0
 40
0.0
 40
0.0
 40
0.0
 40
0.1247655496
 40
0.2495692171
 40
0.374434671
 40
0.49938932
 40
0.624436941
 40
0.7495671474
 40
0.8747670582
 40
1.0
 40
1.0
 40
1.0
 40
1.0
 10
33.0300984322
 20
9.2983047234
 30
0.0
 10
33.034655304
 20
9.2983047234
 30
0.0
 10
33.0437958781
 20
9.2992074934
 30
0.0
 10
33.0569588446
 20
9.3032176191
 30
0.0
 10
33.0690943461
 20
9.3097292915
 30
0.0
 10
33.0797290119
 20
9.3184919077
 30
0.0
 10
33.088456226
 20
9.329167872
 30
0.0
 10
33.0949405513
 20
9.3413485262
 30
0.0
 10
33.0989333471
 20
9.3545589356
 30
0.0
 10
33.0998320709
 20
9.3637307807
 30
0.0
 10
33.0998320709
 20
9.3683047234
 30
0.0
  0
SPLINE
  5
499
100
AcDbEntity
  8
0
100
AcDbSpline
 62
7
  6
CONTINUOUS
 70
0
 71
3
 72
28
 73
24
 74
0
 42
0.0000001
 43
0.0000001
 44
0.0000000001
 40
0.0
 40
0.0
 40
0.0
 40
0.0
 40
0.0021305048
 40
0.0044214144
 40
0.0070012998
 40
0.0099604635
 40
0.0172254701
 40
0.0264980328
 40
0.0378926661
 40
0.0514485686
 40
0.0671720242
 40
0.0850541119
 40
0.1050741558
 40
0.1271927251
 40
0.1775363827
 40
0.2356684096
 40
0.3010495167
 40
0.3730842755
 40
0.4510872115
 40
0.5343297763
 40
0.622006629
 40
0.8073320284
 40
1.0
 40
1.0
 40
1.0
 40
1.0
 10
43.7222665368
 20
9.2983047234
 30
0.0
 10
43.7222161984
 20
9.2983047234
 30
0.0
 10
43.7221112443
 20
9.2983201619
 30
0.0
 10
43.721958387
 20
9.2983872629
 30
0.0
 10
43.7218076799
 20
9.2984964199
 30
0.0
 10
43.7215941075
 20
9.2987120616
 30
0.0
 10
43.7213357123
 20
9.2990973844
 30
0.0
 10
43.7210461629
 20
9.2996913344
 30
0.0
 10
43.72075867
 20
9.3004480691
 30
0.0
 10
43.7204738027
 20
9.3013662915
 30
0.0
 10
43.7201924222
 20
9.3024448032
 30
0.0
 10
43.7199154324
 20
9.3036813873
 30
0.0
 10
43.7196436835
 20
9.3050733922
 30
0.0
 10
43.7192730751
 20
9.3072269981
 30
0.0
 10
43.7188366266
 20
9.3102821838
 30
0.0
 10
43.7183632861
 20
9.3143629284
 30
0.0
 10
43.717925459
 20
9.3189627113
 30
0.0
 10
43.7175281178
 20
9.3240371667
 30
0.0
 10
43.7171750772
 20
9.3295378224
 30
0.0
 10
43.7168702938
 20
9.3354114512
 30
0.0
 10
43.7165256427
 20
9.343821685
 30
0.0
 10
43.7162410587
 20
9.3548212835
 30
0.0
 10
43.7161657477
 20
9.3637524714
 30
0.0
 10
43.7161657477
 20
9.3683047234
 30
0.0
  0
SPLINE
  5
49A
100
AcDbEntity
  8
0
100
AcDbSpline
 62
7
  6
CONTINUOUS
 70
0
 71
3
 72
28
 73
24
 74
0
 42
0.0000001
 43
0.0000001
 44
0.0000000001
 40
0.0
 40
0.0
 40
0.0
 40
0.0
 40
0.1926679716
 40
0.377993371
 40
0.4656702237
 40
0.5489127885
 40
0.6269157245
 40
0.6989504833
 40
0.7643315904
 40
0.8224636173
 40
0.8728072749
 40
0.8949258442
 40
0.9149458881
 40
0.9328279758
 40
0.9485514314
 40
0.9621073339
 40
0.9735019672
 40
0.9827745299
 40
0.9900395365
 40
0.9929987002
 40
0.9955785856
 40
0.9978694952
 40
1.0
 40
1.0
 40
1.0
 40
1.0
 10
42.7199709085
 20
9.3683047234
 30
0.0
 10
42.7199709085
 20
9.3637524714
 30
0.0
 10
42.7200462194
 20
9.3548212835
 30
0.0
 10
42.7203308034
 20
9.343821685
 30
0.0
 10
42.7206754545
 20
9.3354114512
 30
0.0
 10
42.7209802379
 20
9.3295378224
 30
0.0
 10
42.7213332785
 20
9.3240371667
 30
0.0
 10
42.7217306198
 20
9.3189627113
 30
0.0
 10
42.7221684468
 20
9.3143629284
 30
0.0
 10
42.7226417873
 20
9.3102821838
 30
0.0
 10
42.7230782358
 20
9.3072269981
 30
0.0
 10
42.7234488442
 20
9.3050733922
 30
0.0
 10
42.7237205931
 20
9.3036813873
 30
0.0
 10
42.7239975829
 20
9.3024448032
 30
0.0
 10
42.7242789634
 20
9.3013662915
 30
0.0
 10
42.7245638307
 20
9.3004480691
 30
0.0
 10
42.7248513236
 20
9.2996913344
 30
0.0
 10
42.725140873
 20
9.2990973844
 30
0.0
 10
42.7253992682
 20
9.2987120616
 30
0.0
 10
42.7256128406
 20
9.2984964199
 30
0.0
 10
42.7257635477
 20
9.2983872629
 30
0.0
 10
42.725916405
 20
9.2983201619
 30
0.0
 10
42.7260213591
 20
9.2983047234
 30
0.0
 10
42.7260716975
 20
9.2983047234
 30
0.0
  0
SPLINE
  5
49B
100
AcDbEntity
  8
0
100
AcDbSpline
 62
3
  6
CONTINUOUS
 70
0
 71
3
 72
15
 73
11
 74
0
 42
0.0000001
 43
0.0000001
 44
0.0000000001
 40
0.0
 40
0.0
 40
0.0
 40
0.0
 40
0.1252329418
 40
0.2504328526
 40
0.375563059
 40
0.50061068
 40
0.625565329
 40
0.7504307829
 40
0.8752344504
 40
1.0
 40
1.0
 40
1.0
 40
1.0
 10
51.7187136171
 20
9.3683047234
 30
0.0
 10
51.7187136171
 20
9.3591568381
 30
0.0
 10
51.7205110648
 20
9.3408131478
 30
0.0
 10
51.7284966565
 20
9.314392329
 30
0.0
 10
51.7414653071
 20
9.2900310206
 30
0.0
 10
51.7589197352
 20
9.268679092
 30
0.0
 10
51.7801890669
 20
9.2511538595
 30
0.0
 10
51.8044600699
 20
9.2381305149
 30
0.0
 10
51.8307860028
 20
9.2301102635
 30
0.0
 10
51.849067151
 20
9.2283047234
 30
0.0
 10
51.8581808946
 20
9.2283047234
 30
0.0
  0
SPLINE
  5
49C
100
AcDbEntity
  8
0
100
AcDbSpline
 62
3
  6
CONTINUOUS
 70
0
 71
3
 72
15
 73
11
 74
0
 42
0.0000001
 43
0.0000001
 44
0.0000000001
 40
0.0
 40
0.0
 40
0.0
 40
0.0
 40
0.1247655496
 40
0.2495692171
 40
0.374434671
 40
0.49938932
 40
0.624436941
 40
0.7495671474
 40
0.8747670582
 40
1.0
 40
1.0
 40
1.0
 40
1.0
 10
33.0300984322
 20
9.2283047234
 30
0.0
 10
33.0392121758
 20
9.2283047234
 30
0.0
 10
33.057493324
 20
9.2301102635
 30
0.0
 10
33.083819257
 20
9.2381305149
 30
0.0
 10
33.10809026
 20
9.2511538595
 30
0.0
 10
33.1293595917
 20
9.268679092
 30
0.0
 10
33.1468140197
 20
9.2900310206
 30
0.0
 10
33.1597826704
 20
9.314392329
 30
0.0
 10
33.1677682621
 20
9.3408131478
 30
0.0
 10
33.1695657097
 20
9.3591568381
 30
0.0
 10
33.1695657097
 20
9.3683047234
 30
0.0
  0
SPLINE
  5
49D
100
AcDbEntity
  8
0
100
AcDbSpline
 62
3
  6
CONTINUOUS
 70
0
 71
3
 72
31
 73
27
 74
0
 42
0.0000001
 43
0.0000001
 44
0.0000000001
 40
0.0
 40
0.0
 40
0.0
 40
0.0
 40
0.1926653097
 40
0.3779881486
 40
0.46566379
 40
0.5489052046
 40
0.6269070629
 40
0.6989408265
 40
0.7643210303
 40
0.8224522541
 40
0.8486263564
 40
0.8727968003
 40
0.894915064
 40
0.9149348313
 40
0.9328166719
 40
0.9485399103
 40
0.9620956255
 40
0.9734901014
 40
0.9783883358
 40
0.9827665264
 40
0.9866418115
 40
0.9900396741
 40
0.9929987969
 40
0.9955786467
 40
0.9978695246
 40
1.0
 40
1.0
 40
1.0
 40
1.0
 10
42.7138701194
 20
9.3683047234
 30
0.0
 10
42.7138701194
 20
9.3592002195
 30
0.0
 10
42.7140207417
 20
9.3413378438
 30
0.0
 10
42.7145899086
 20
9.3193386462
 30
0.0
 10
42.7152792128
 20
9.3025181796
 30
0.0
 10
42.715888774
 20
9.2907709193
 30
0.0
 10
42.7165948744
 20
9.2797696177
 30
0.0
 10
42.7173894933
 20
9.269620674
 30
0.0
 10
42.7182653524
 20
9.2604212144
 30
0.0
 10
42.7190798763
 20
9.2533940322
 30
0.0
 10
42.7197759887
 20
9.2483152629
 30
0.0
 10
42.7202943942
 20
9.2449302933
 30
0.0
 10
42.7208260262
 20
9.2418420663
 30
0.0
 10
42.7213694777
 20
9.2390580481
 30
0.0
 10
42.7219234806
 20
9.2365848896
 30
0.0
 10
42.7224861969
 20
9.23442784
 30
0.0
 10
42.7230560591
 20
9.2325914731
 30
0.0
 10
42.7235572328
 20
9.2312712536
 30
0.0
 10
42.7239691361
 20
9.2303850627
 30
0.0
 10
42.7242635274
 20
9.2298372309
 30
0.0
 10
42.7245589789
 20
9.229371906
 30
0.0
 10
42.7248556532
 20
9.228988942
 30
0.0
 10
42.7251540256
 20
9.2286881602
 30
0.0
 10
42.7254553886
 20
9.2284697926
 30
0.0
 10
42.7257611148
 20
9.2283356028
 30
0.0
 10
42.7259710207
 20
9.2283047234
 30
0.0
 10
42.7260716975
 20
9.2283047234
 30
0.0
  0
LINE
  5
49E
100
AcDbEntity
  8
0
100
AcDbLine
 62
7
  6
CONTINUOUS
 10
0.2006813738
 20
-26.0432598555
 11
0.2225813738
 21
-26.0559038264
  0
LINE
  5
49F
100
AcDbEntity
  8
0
100
AcDbLine
 62
7
  6
CONTINUOUS
 10
0.0131813738
 20
-26.151513031
 11
0.0131813738
 21
-26.1768009728
  0
LINE
  5
4A0
100
AcDbEntity
  8
0
100
AcDbLine
 62
7
  6
CONTINUOUS
 10
0.2006813738
 20
-25.8267535046
 11
0.2225813738
 21
-25.8141095337
  0
LINE
  5
4A1
100
AcDbEntity
  8
0
100
AcDbLine
 62
7
  6
CONTINUOUS
 10
0.0131813738
 20
-25.7185003291
 11
0.0131813738
 21
-25.6932123873
  0
LINE
  5
4A2
100
AcDbEntity
  8
0
100
AcDbLine
 62
7
  6
CONTINUOUS
 10
-0.1743186262
 20
-25.8267535046
 11
-0.1962186262
 21
-25.8141095337
  0
LINE
  5
4A3
100
AcDbEntity
  8
0
100
AcDbLine
 62
7
  6
CONTINUOUS
 10
-0.1743186262
 20
-26.0432598555
 11
-0.1962186262
 21
-26.0559038264
  0
LINE
  5
4A4
100
AcDbEntity
  8
0
100
AcDbLine
 62
7
  6
CONTINUOUS
 10
0.2006813738
 20
-35.5892014016
 11
0.2225813738
 21
-35.6018453725
  0
LINE
  5
4A5
100
AcDbEntity
  8
0
100
AcDbLine
 62
7
  6
CONTINUOUS
 10
0.0131813738
 20
-35.697454577
 11
0.0131813738
 21
-35.7227425188
  0
LINE
  5
4A6
100
AcDbEntity
  8
0
100
AcDbLine
 62
7
  6
CONTINUOUS
 10
0.2006813738
 20
-35.3726950506
 11
0.2225813738
 21
-35.3600510797
  0
LINE
  5
4A7
100
AcDbEntity
  8
0
100
AcDbLine
 62
7
  6
CONTINUOUS
 10
0.0131813738
 20
-35.2644418751
 11
0.0131813738
 21
-35.2391539334
  0
LINE
  5
4A8
100
AcDbEntity
  8
0
100
AcDbLine
 62
7
  6
CONTINUOUS
 10
-0.1743186262
 20
-35.3726950506
 11
-0.1962186262
 21
-35.3600510797
  0
LINE
  5
4A9
100
AcDbEntity
  8
0
100
AcDbLine
 62
7
  6
CONTINUOUS
 10
-0.1743186262
 20
-35.5892014016
 11
-0.1962186262
 21
-35.6018453725
  0
LINE
  5
4AA
100
AcDbEntity
  8
0
100
AcDbLine
 62
7
  6
CONTINUOUS
 10
9.7466229198
 20
-35.5892014016
 11
9.7685229198
 21
-35.6018453725
  0
LINE
  5
4AB
100
AcDbEntity
  8
0
100
AcDbLine
 62
7
  6
CONTINUOUS
 10
9.5591229198
 20
-35.697454577
 11
9.5591229198
 21
-35.7227425188
  0
LINE
  5
4AC
100
AcDbEntity
  8
0
100
AcDbLine
 62
7
  6
CONTINUOUS
 10
9.7466229198
 20
-35.3726950506
 11
9.7685229198
 21
-35.3600510797
  0
LINE
  5
4AD
100
AcDbEntity
  8
0
100
AcDbLine
 62
7
  6
CONTINUOUS
 10
9.5591229198
 20
-35.2644418751
 11
9.5591229198
 21
-35.2391539334
  0
LINE
  5
4AE
100
AcDbEntity
  8
0
100
AcDbLine
 62
7
  6
CONTINUOUS
 10
9.3716229198
 20
-35.3726950506
 11
9.3497229198
 21
-35.3600510797
  0
LINE
  5
4AF
100
AcDbEntity
  8
0
100
AcDbLine
 62
7
  6
CONTINUOUS
 10
9.3716229198
 20
-35.5892014016
 11
9.3497229198
 21
-35.6018453725
  0
LINE
  5
4B0
100
AcDbEntity
  8
0
100
AcDbLine
 62
7
  6
CONTINUOUS
 10
9.7466229198
 20
-26.0432598555
 11
9.7685229198
 21
-26.0559038264
  0
LINE
  5
4B1
100
AcDbEntity
  8
0
100
AcDbLine
 62
7
  6
CONTINUOUS
 10
9.5591229198
 20
-26.151513031
 11
9.5591229198
 21
-26.1768009728
  0
LINE
  5
4B2
100
AcDbEntity
  8
0
100
AcDbLine
 62
7
  6
CONTINUOUS
 10
9.7466229198
 20
-25.8267535046
 11
9.7685229198
 21
-25.8141095337
  0
LINE
  5
4B3
100
AcDbEntity
  8
0
100
AcDbLine
 62
7
  6
CONTINUOUS
 10
9.5591229198
 20
-25.7185003291
 11
9.5591229198
 21
-25.6932123873
  0
LINE
  5
4B4
100
AcDbEntity
  8
0
100
AcDbLine
 62
7
  6
CONTINUOUS
 10
9.3716229198
 20
-25.8267535046
 11
9.3497229198
 21
-25.8141095337
  0
LINE
  5
4B5
100
AcDbEntity
  8
0
100
AcDbLine
 62
7
  6
CONTINUOUS
 10
9.3716229198
 20
-26.0432598555
 11
9.3497229198
 21
-26.0559038264
  0
LINE
  5
4B6
100
AcDbEntity
  8
0
100
AcDbLine
 62
7
  6
CONTINUOUS
 10
-0.859978798
 20
-24.9825996838
 11
-0.838078798
 21
-24.9952436547
  0
LINE
  5
4B7
100
AcDbEntity
  8
0
100
AcDbLine
 62
7
  6
CONTINUOUS
 10
-1.047478798
 20
-25.0908528592
 11
-1.047478798
 21
-25.116140801
  0
LINE
  5
4B8
100
AcDbEntity
  8
0
100
AcDbLine
 62
7
  6
CONTINUOUS
 10
-0.859978798
 20
-24.7660933328
 11
-0.838078798
 21
-24.7534493619
  0
LINE
  5
4B9
100
AcDbEntity
  8
0
100
AcDbLine
 62
7
  6
CONTINUOUS
 10
-1.047478798
 20
-24.6578401573
 11
-1.047478798
 21
-24.6325522156
  0
LINE
  5
4BA
100
AcDbEntity
  8
0
100
AcDbLine
 62
7
  6
CONTINUOUS
 10
-1.234978798
 20
-24.7660933328
 11
-1.256878798
 21
-24.7534493619
  0
LINE
  5
4BB
100
AcDbEntity
  8
0
100
AcDbLine
 62
7
  6
CONTINUOUS
 10
-1.234978798
 20
-24.9825996838
 11
-1.256878798
 21
-24.9952436547
  0
LINE
  5
4BC
100
AcDbEntity
  8
0
100
AcDbLine
 62
7
  6
CONTINUOUS
 10
-0.859978798
 20
-36.6498615733
 11
-0.838078798
 21
-36.6625055442
  0
LINE
  5
4BD
100
AcDbEntity
  8
0
100
AcDbLine
 62
7
  6
CONTINUOUS
 10
-1.047478798
 20
-36.7581147488
 11
-1.047478798
 21
-36.7834026906
  0
LINE
  5
4BE
100
AcDbEntity
  8
0
100
AcDbLine
 62
7
  6
CONTINUOUS
 10
-0.859978798
 20
-36.4333552224
 11
-0.838078798
 21
-36.4207112515
  0
LINE
  5
4BF
100
AcDbEntity
  8
0
100
AcDbLine
 62
7
  6
CONTINUOUS
 10
-1.047478798
 20
-36.3251020469
 11
-1.047478798
 21
-36.2998141051
  0
LINE
  5
4C0
100
AcDbEntity
  8
0
100
AcDbLine
 62
7
  6
CONTINUOUS
 10
-1.234978798
 20
-36.4333552224
 11
-1.256878798
 21
-36.4207112515
  0
LINE
  5
4C1
100
AcDbEntity
  8
0
100
AcDbLine
 62
7
  6
CONTINUOUS
 10
-1.234978798
 20
-36.6498615733
 11
-1.256878798
 21
-36.6625055442
  0
LINE
  5
4C2
100
AcDbEntity
  8
0
100
AcDbLine
 62
7
  6
CONTINUOUS
 10
10.8072830916
 20
-36.6498615733
 11
10.8291830916
 21
-36.6625055442
  0
LINE
  5
4C3
100
AcDbEntity
  8
0
100
AcDbLine
 62
7
  6
CONTINUOUS
 10
10.6197830916
 20
-36.7581147488
 11
10.6197830916
 21
-36.7834026906
  0
LINE
  5
4C4
100
AcDbEntity
  8
0
100
AcDbLine
 62
7
  6
CONTINUOUS
 10
10.8072830916
 20
-36.4333552224
 11
10.8291830916
 21
-36.4207112515
  0
LINE
  5
4C5
100
AcDbEntity
  8
0
100
AcDbLine
 62
7
  6
CONTINUOUS
 10
10.6197830916
 20
-36.3251020469
 11
10.6197830916
 21
-36.2998141051
  0
LINE
  5
4C6
100
AcDbEntity
  8
0
100
AcDbLine
 62
7
  6
CONTINUOUS
 10
10.4322830916
 20
-36.4333552224
 11
10.4103830916
 21
-36.4207112515
  0
LINE
  5
4C7
100
AcDbEntity
  8
0
100
AcDbLine
 62
7
  6
CONTINUOUS
 10
10.4322830916
 20
-36.6498615733
 11
10.4103830916
 21
-36.6625055442
  0
LINE
  5
4C8
100
AcDbEntity
  8
0
100
AcDbLine
 62
7
  6
CONTINUOUS
 10
10.8072830916
 20
-24.9825996838
 11
10.8291830916
 21
-24.9952436547
  0
LINE
  5
4C9
100
AcDbEntity
  8
0
100
AcDbLine
 62
7
  6
CONTINUOUS
 10
10.6197830916
 20
-25.0908528592
 11
10.6197830916
 21
-25.116140801
  0
LINE
  5
4CA
100
AcDbEntity
  8
0
100
AcDbLine
 62
7
  6
CONTINUOUS
 10
10.8072830916
 20
-24.7660933328
 11
10.8291830916
 21
-24.7534493619
  0
LINE
  5
4CB
100
AcDbEntity
  8
0
100
AcDbLine
 62
7
  6
CONTINUOUS
 10
10.6197830916
 20
-24.6578401573
 11
10.6197830916
 21
-24.6325522156
  0
LINE
  5
4CC
100
AcDbEntity
  8
0
100
AcDbLine
 62
7
  6
CONTINUOUS
 10
10.4322830916
 20
-24.7660933328
 11
10.4103830916
 21
-24.7534493619
  0
LINE
  5
4CD
100
AcDbEntity
  8
0
100
AcDbLine
 62
7
  6
CONTINUOUS
 10
10.4322830916
 20
-24.9825996838
 11
10.4103830916
 21
-24.9952436547
  0
SPLINE
  5
4CE
100
AcDbEntity
  8
0
100
AcDbSpline
 62
7
  6
CONTINUOUS
 70
0
 71
3
 72
15
 73
11
 74
0
 42
0.0000001
 43
0.0000001
 44
0.0000000001
 40
0.0
 40
0.0
 40
0.0
 40
0.0
 40
0.1261099833
 40
0.2512738785
 40
0.3757984041
 40
0.5
 40
0.6242015959
 40
0.7487261215
 40
0.8738900167
 40
1.0
 40
1.0
 40
1.0
 40
1.0
 10
3.6932208781
 20
-29.8238593508
 30
0.0
 10
3.686465583
 20
-29.8303099658
 30
0.0
 10
3.6734447871
 20
-29.8436325648
 30
0.0
 10
3.6554286125
 20
-29.8648785231
 30
0.0
 10
3.6390589573
 20
-29.8872447616
 30
0.0
 10
3.6243804977
 20
-29.9106713087
 30
0.0
 10
3.6114317426
 20
-29.9350965011
 30
0.0
 10
3.6002468395
 20
-29.9604561576
 30
0.0
 10
3.5908553871
 20
-29.9866816017
 30
0.0
 10
3.5858280759
 20
-30.0046192412
 30
0.0
 10
3.5836193271
 20
-30.0136948059
 30
0.0
  0
SPLINE
  5
4CF
100
AcDbEntity
  8
0
100
AcDbSpline
 62
7
  6
CONTINUOUS
 70
0
 71
3
 72
15
 73
11
 74
0
 42
0.0000001
 43
0.0000001
 44
0.0000000001
 40
0.0
 40
0.0
 40
0.0
 40
0.0
 40
0.1263750826
 40
0.2519111412
 40
0.3768245046
 40
0.501338738
 40
0.6256829471
 40
0.7500883069
 40
0.8747853178
 40
1.0
 40
1.0
 40
1.0
 40
1.0
 10
3.5836193271
 20
-30.0136948059
 30
0.0
 10
3.5779094049
 20
-30.0191471968
 30
0.0
 10
3.5668417933
 20
-30.0303508754
 30
0.0
 10
3.5513136573
 20
-30.0480626304
 30
0.0
 10
3.5369494711
 20
-30.0665851806
 30
0.0
 10
3.52377702
 20
-30.0858831918
 30
0.0
 10
3.5118208878
 20
-30.1059206122
 30
0.0
 10
3.5011034767
 20
-30.1266600995
 30
0.0
 10
3.4916452128
 20
-30.1480616829
 30
0.0
 10
3.4862044643
 20
-30.1627076405
 30
0.0
 10
3.4837003015
 20
-30.1701185458
 30
0.0
  0
ELLIPSE
  5
4D0
100
AcDbEntity
  8
0
100
AcDbEllipse
 62
7
  6
CONTINUOUS
 10
4.1103517494
 20
-30.3178039117
 30
0.0
 11
0.0775
 21
0.1342339376
 31
0.0
 40
0.0524077793
 41
-3.1415926536
 42
-0.0
  0
ELLIPSE
  5
4D1
100
AcDbEntity
  8
0
100
AcDbEllipse
 62
7
  6
CONTINUOUS
 10
4.8900763285
 20
-30.5279754904
 30
0.0
 11
0.312026085
 21
0.5404450325
 31
0.0
 40
0.942904759
 41
1.5031998078
 42
1.5662361117
  0
ELLIPSE
  5
4D2
100
AcDbEntity
  8
0
100
AcDbEllipse
 62
7
  6
CONTINUOUS
 10
4.6822279652
 20
-30.8879794158
 30
0.0
 11
0.312026085
 21
0.5404450325
 31
0.0
 40
0.942904759
 41
-4.7078287653
 42
-4.6447924614
  0
ENDSEC
  0
SECTION
  2
OBJECTS
  0
DICTIONARY
  5
C
100
AcDbDictionary
280
0
281
1
  3
ACAD_GROUP
350
D
  3
ACAD_MLINESTYLE
350
17
  3
ACAD_LAYOUT
350
1A
  3
ACAD_PLOTSETTINGS
350
19
  3
ACAD_PLOTSTYLENAME
350
E
  0
DICTIONARY
  5
D
102
{ACAD_REACTORS
330
C
102
}
100
AcDbDictionary
280
0
281
1
  0
ACDBDICTIONARYWDFLT
  5
E
102
{ACAD_REACTORS
330
C
102
}
100
AcDbDictionary
281
1
  3
Normal
350
F
100
AcDbDictionaryWithDefault
340
F
  0
DICTIONARY
  5
17
102
{ACAD_REACTORS
330
C
102
}
100
AcDbDictionary
280
0
281
1
  3
Standard
350
18
  0
DICTIONARY
  5
19
102
{ACAD_REACTORS
330
C
102
}
100
AcDbDictionary
281
1
  0
DICTIONARY
  5
1A
102
{ACAD_REACTORS
330
C
102
}
100
AcDbDictionary
281
1
  3
Model
350
4D3
  3
Layout1
350
4D4
  0
ACDBPLACEHOLDER
  5
F
102
{ACAD_REACTORS
330
E
102
}
  0
MLINESTYLE
  5
18
102
{ACAD_REACTORS
330
17
102
}
100
AcDbMlineStyle
  2
STANDARD
 70
0
  3

 62
256
 51
90.0
 52
90.0
 71
2
 49
0.5
 62
256
  6
BYLAYER
 49
-0.5
 62
256
  6
BYLAYER
  0
LAYOUT
  5
4D3
102
{ACAD_REACTORS
330
1A
102
}
100
AcDbPlotSettings
  1

  2
none_device
  4

  6

 40
0.0
 41
0.0
 42
0.0
 43
0.0
 44
431.8
 45
279.4
 46
0.0
 47
0.0
 48
0.0
 49
0.0
140
0.0
141
0.0
142
1.0
143
1.0
 70
1024
 72
0
 73
0
 74
0
  7

 75
0
147
1.0
148
0.0
149
0.0
100
AcDbLayout
  1
Model
 70
0
 71
0
 10
0.0
 20
0.0
 11
17.0
 21
11.0
 12
0.0
 22
0.0
 32
0.0
 14
0.0
 24
0.0
 34
0.0
 15
0.0
 25
0.0
 35
0.0
146
0.0
 13
0.0
 23
0.0
 33
0.0
 16
1.0
 26
0.0
 36
0.0
 17
0.0
 27
1.0
 37
0.0
 76
0
330
239
345
0
346
0
  0
LAYOUT
  5
4D4
102
{ACAD_REACTORS
330
1A
102
}
100
AcDbPlotSettings
  1

  2
none_device
  4

  6

 40
0.0
 41
0.0
 42
0.0
 43
0.0
 44
431.8
 45
279.4
 46
0.0
 47
0.0
 48
0.0
 49
0.0
140
0.0
141
0.0
142
1.0
143
1.0
 70
0
 72
0
 73
0
 74
0
  7

 75
0
147
1.0
148
0.0
149
0.0
100
AcDbLayout
  1
Layout1
 70
0
 71
1
 10
0.0
 20
0.0
 11
17.0
 21
11.0
 12
0.0
 22
0.0
 32
0.0
 14
0.0
 24
0.0
 34
0.0
 15
0.0
 25
0.0
 35
0.0
146
0.0
 13
0.0
 23
0.0
 33
0.0
 16
1.0
 26
0.0
 36
0.0
 17
0.0
 27
1.0
 37
0.0
 76
0
330
23A
345
0
346
0
  0
ENDSEC
  0
EOF
