999
DXF file: N:\Master\master\M3_ProE_files\Lenexa\MADAM DXF\49810.dxf
999
Pro/ENGINEER 2010280 by Parametric Technology Corporation
  0
SECTION
  2
HEADER
  9
$ACADVER
  1
AC1021
  9
$DWGCODEPAGE
  3
ANSI_1252
  9
$EXTMAX
 10
17.0
 20
11.0
 30
0.0
  9
$EXTMIN
 10
0.0
 20
-0.0
 30
0.0
  9
$LIMMIN
 10
0.0
 20
-0.0
  9
$LIMMAX
 10
17.0
 20
11.0
  9
$VIEWCTR
 10
8.5
 20
5.5
  9
$VIEWSIZE
 40
11.0
  9
$CLAYER
  8
0
  9
$LTSCALE
 40
0.935
  9
$CELTYPE
  6
BYLAYER
  9
$DIMSCALE
 40
1.0
  9
$DIMASZ
 40
0.125
  9
$DIMEXO
 40
0.10625
  9
$DIMDLI
 40
0.646
  9
$DIMEXE
 40
0.306
  9
$DIMCEN
 40
0.153
  9
$DIMLFAC
 40
1.0
  9
$DIMBLK
  1
_FILLED
  9
$DIMTXT
 40
0.125
  9
$DIMTOL
 70
1
  9
$DIMLIM
 70
0
  9
$DIMTFAC
 40
1.0
  9
$DIMTP
 40
0.01
  9
$DIMTM
 40
0.01
  9
$PDMODE
 70
3
  9
$PDSIZE
 40
0.3125
  9
$HANDSEED
  5
49A
  9
$TILEMODE
 70
1
  9
$MEASUREMENT
 70
0
  9
$INSUNITS
 70
1
  0
ENDSEC
  0
SECTION
  2
CLASSES
  0
CLASS
  1
ACDBDICTIONARYWDFLT
  2
AcDbDictionaryWithDefault
  3
AutoCAD 2000
 90
0
 91
1
280
0
281
0
  0
CLASS
  1
ACDBPLACEHOLDER
  2
AcDbPlaceHolder
  3
AutoCAD 2000
 90
0
 91
1
280
0
281
0
  0
CLASS
  1
LAYOUT
  2
AcDbLayout
  3
AutoCAD 2000
 90
0
 91
0
280
0
281
0
  0
ENDSEC
  0
SECTION
  2
TABLES
  0
TABLE
  2
VPORT
  5
8
100
AcDbSymbolTable
 70
2
  0
VPORT
  5
1F4
100
AcDbSymbolTableRecord
100
AcDbViewportTableRecord
  2
*ACTIVE
 70
0
 10
0.0
 20
0.0
 11
1.0
 21
1.0
 12
8.5
 22
5.5
 13
0.0
 23
0.0
 14
1.0
 24
1.0
 15
0.0
 25
0.0
 16
0.0
 26
0.0
 36
1.0
 17
0.0
 27
0.0
 37
0.0
 40
11.0
 41
1.5454545455
 42
50.0
 43
0.0
 44
0.0
 50
0.0
 51
0.0
 71
0
 72
100
 73
1
 74
1
 75
0
 76
0
 77
0
 78
0
  0
ENDTAB
  0
TABLE
  2
LTYPE
  5
5
100
AcDbSymbolTable
 70
6
  0
LTYPE
  5
14
100
AcDbSymbolTableRecord
100
AcDbLinetypeTableRecord
  2
BYBLOCK
 70
0
  3

 72
65
 73
0
 40
0.0
  0
LTYPE
  5
15
100
AcDbSymbolTableRecord
100
AcDbLinetypeTableRecord
  2
BYLAYER
 70
0
  3

 72
65
 73
0
 40
0.0
  0
LTYPE
  5
16
100
AcDbSymbolTableRecord
100
AcDbLinetypeTableRecord
  2
CONTINUOUS
 70
64
  3
Solid line
 72
65
 73
0
 40
0.0
  0
LTYPE
  5
1F5
100
AcDbSymbolTableRecord
100
AcDbLinetypeTableRecord
  2
CENTER
 70
64
  3
____ _ ____ _ ____ _ ____ _ ____ _ ____ _ ____
 72
65
 73
4
 40
0.6
 49
0.375
 74
0
 49
-0.075
 74
0
 49
0.075
 74
0
 49
-0.075
 74
0
  0
LTYPE
  5
1F6
100
AcDbSymbolTableRecord
100
AcDbLinetypeTableRecord
  2
HIDDEN
 70
64
  3
- - - - - - - - - - - - - - - - - - - -
 72
65
 73
2
 40
0.2
 49
0.1
 74
0
 49
-0.1
 74
0
  0
LTYPE
  5
1F7
100
AcDbSymbolTableRecord
100
AcDbLinetypeTableRecord
  2
PHANTOM
 70
64
  3
_____ _ _ _____ _ _ _____ _ _ _____
 72
65
 73
6
 40
0.8
 49
0.45
 74
0
 49
-0.05
 74
0
 49
0.1
 74
0
 49
-0.05
 74
0
 49
0.1
 74
0
 49
-0.05
 74
0
  0
LTYPE
  5
1F8
100
AcDbSymbolTableRecord
100
AcDbLinetypeTableRecord
  2
DOT
 70
64
  3
. . . . . . . . . . . . . . . . . . . .
 72
65
 73
2
 40
0.2
 49
0.1
 74
0
 49
-0.1
 74
0
  0
LTYPE
  5
1F9
100
AcDbSymbolTableRecord
100
AcDbLinetypeTableRecord
  2
DASHED
 70
64
  3
- - - - - - - - - - - - - - - - - - - -
 72
65
 73
2
 40
0.2
 49
0.1
 74
0
 49
-0.1
 74
0
  0
ENDTAB
  0
TABLE
  2
LAYER
  5
2
100
AcDbSymbolTable
 70
36
  0
LAYER
  5
10
100
AcDbSymbolTableRecord
100
AcDbLayerTableRecord
  2
0
 70
0
 62
7
  6
CONTINUOUS
370
-3
390
F
  0
LAYER
  5
1FA
100
AcDbSymbolTableRecord
100
AcDbLayerTableRecord
  2
DEFAULT_1
 70
0
 62
7
  6
CENTER
370
-3
390
F
  0
LAYER
  5
1FB
100
AcDbSymbolTableRecord
100
AcDbLayerTableRecord
  2
DEFAULT_2
 70
0
 62
8
  6
HIDDEN
370
-3
390
F
  0
LAYER
  5
1FC
100
AcDbSymbolTableRecord
100
AcDbLayerTableRecord
  2
DEFAULT_3
 70
0
 62
7
  6
PHANTOM
370
-3
390
F
  0
LAYER
  5
1FD
100
AcDbSymbolTableRecord
100
AcDbLayerTableRecord
  2
01_ALL_DTM_PLN
 70
0
 62
7
  6
CONTINUOUS
370
-3
390
F
  0
LAYER
  5
1FE
100
AcDbSymbolTableRecord
100
AcDbLayerTableRecord
  2
01__ASM_ALL_DTM_PLN
 70
0
 62
7
  6
CONTINUOUS
370
-3
390
F
  0
LAYER
  5
1FF
100
AcDbSymbolTableRecord
100
AcDbLayerTableRecord
  2
01__ASM_DEF_DTM_PLN
 70
0
 62
7
  6
CONTINUOUS
370
-3
390
F
  0
LAYER
  5
200
100
AcDbSymbolTableRecord
100
AcDbLayerTableRecord
  2
01___PRT_ALL_DTM_PLN
 70
0
 62
7
  6
CONTINUOUS
370
-3
390
F
  0
LAYER
  5
201
100
AcDbSymbolTableRecord
100
AcDbLayerTableRecord
  2
01___PRT_DEF_DTM_PLN
 70
0
 62
7
  6
CONTINUOUS
370
-3
390
F
  0
LAYER
  5
202
100
AcDbSymbolTableRecord
100
AcDbLayerTableRecord
  2
02_ALL_AXES
 70
0
 62
7
  6
CONTINUOUS
370
-3
390
F
  0
LAYER
  5
203
100
AcDbSymbolTableRecord
100
AcDbLayerTableRecord
  2
02__ASM_ALL_AXES
 70
0
 62
7
  6
CONTINUOUS
370
-3
390
F
  0
LAYER
  5
204
100
AcDbSymbolTableRecord
100
AcDbLayerTableRecord
  2
02___PRT_ALL_AXES
 70
0
 62
7
  6
CONTINUOUS
370
-3
390
F
  0
LAYER
  5
205
100
AcDbSymbolTableRecord
100
AcDbLayerTableRecord
  2
03_ALL_CURVES
 70
0
 62
7
  6
CONTINUOUS
370
-3
390
F
  0
LAYER
  5
206
100
AcDbSymbolTableRecord
100
AcDbLayerTableRecord
  2
03__ASM_ALL_CURVES
 70
0
 62
7
  6
CONTINUOUS
370
-3
390
F
  0
LAYER
  5
207
100
AcDbSymbolTableRecord
100
AcDbLayerTableRecord
  2
03___PRT_ALL_CURVES
 70
0
 62
7
  6
CONTINUOUS
370
-3
390
F
  0
LAYER
  5
208
100
AcDbSymbolTableRecord
100
AcDbLayerTableRecord
  2
04_ALL_DTM_PNT
 70
0
 62
7
  6
CONTINUOUS
370
-3
390
F
  0
LAYER
  5
209
100
AcDbSymbolTableRecord
100
AcDbLayerTableRecord
  2
04__ASM_ALL_DTM_PNT
 70
0
 62
7
  6
CONTINUOUS
370
-3
390
F
  0
LAYER
  5
20A
100
AcDbSymbolTableRecord
100
AcDbLayerTableRecord
  2
04___PRT_ALL_DTM_PNT
 70
0
 62
7
  6
CONTINUOUS
370
-3
390
F
  0
LAYER
  5
20B
100
AcDbSymbolTableRecord
100
AcDbLayerTableRecord
  2
05_ALL_DTM_CSYS
 70
0
 62
7
  6
CONTINUOUS
370
-3
390
F
  0
LAYER
  5
20C
100
AcDbSymbolTableRecord
100
AcDbLayerTableRecord
  2
05__ASM_ALL_DTM_CSYS
 70
0
 62
7
  6
CONTINUOUS
370
-3
390
F
  0
LAYER
  5
20D
100
AcDbSymbolTableRecord
100
AcDbLayerTableRecord
  2
05__ASM_DEF_DTM_CSYS
 70
0
 62
7
  6
CONTINUOUS
370
-3
390
F
  0
LAYER
  5
20E
100
AcDbSymbolTableRecord
100
AcDbLayerTableRecord
  2
05___PRT_ALL_DTM_CSYS
 70
0
 62
7
  6
CONTINUOUS
370
-3
390
F
  0
LAYER
  5
20F
100
AcDbSymbolTableRecord
100
AcDbLayerTableRecord
  2
05___PRT_DEF_DTM_CSYS
 70
0
 62
7
  6
CONTINUOUS
370
-3
390
F
  0
LAYER
  5
210
100
AcDbSymbolTableRecord
100
AcDbLayerTableRecord
  2
06_ALL_SURFS
 70
0
 62
7
  6
CONTINUOUS
370
-3
390
F
  0
LAYER
  5
211
100
AcDbSymbolTableRecord
100
AcDbLayerTableRecord
  2
06__ASM_ALL_SURFS
 70
0
 62
7
  6
CONTINUOUS
370
-3
390
F
  0
LAYER
  5
212
100
AcDbSymbolTableRecord
100
AcDbLayerTableRecord
  2
06___PRT_ALL_SURFS
 70
0
 62
7
  6
CONTINUOUS
370
-3
390
F
  0
LAYER
  5
213
100
AcDbSymbolTableRecord
100
AcDbLayerTableRecord
  2
07__ASM_ALL_SKELETONS
 70
0
 62
7
  6
CONTINUOUS
370
-3
390
F
  0
LAYER
  5
214
100
AcDbSymbolTableRecord
100
AcDbLayerTableRecord
  2
904PLANES
 70
0
 62
7
  6
CONTINUOUS
370
-3
390
F
  0
LAYER
  5
215
100
AcDbSymbolTableRecord
100
AcDbLayerTableRecord
  2
90517DTMS
 70
0
 62
7
  6
CONTINUOUS
370
-3
390
F
  0
LAYER
  5
216
100
AcDbSymbolTableRecord
100
AcDbLayerTableRecord
  2
AXIS
 70
0
 62
7
  6
CONTINUOUS
370
-3
390
F
  0
LAYER
  5
217
100
AcDbSymbolTableRecord
100
AcDbLayerTableRecord
  2
BAFFLE_DTMS
 70
0
 62
7
  6
CONTINUOUS
370
-3
390
F
  0
LAYER
  5
218
100
AcDbSymbolTableRecord
100
AcDbLayerTableRecord
  2
BD_ANGLE
 70
0
 62
7
  6
CONTINUOUS
370
-3
390
F
  0
LAYER
  5
219
100
AcDbSymbolTableRecord
100
AcDbLayerTableRecord
  2
CONDUIT_DTMS
 70
0
 62
7
  6
CONTINUOUS
370
-3
390
F
  0
LAYER
  5
21A
100
AcDbSymbolTableRecord
100
AcDbLayerTableRecord
  2
CS
 70
0
 62
7
  6
CONTINUOUS
370
-3
390
F
  0
LAYER
  5
21B
100
AcDbSymbolTableRecord
100
AcDbLayerTableRecord
  2
CSYS
 70
0
 62
7
  6
CONTINUOUS
370
-3
390
F
  0
LAYER
  5
21C
100
AcDbSymbolTableRecord
100
AcDbLayerTableRecord
  2
CURVE
 70
0
 62
7
  6
CONTINUOUS
370
-3
390
F
  0
LAYER
  5
21D
100
AcDbSymbolTableRecord
100
AcDbLayerTableRecord
  2
CURVES
 70
0
 62
7
  6
CONTINUOUS
370
-3
390
F
  0
LAYER
  5
21E
100
AcDbSymbolTableRecord
100
AcDbLayerTableRecord
  2
DATUMS
 70
0
 62
7
  6
CONTINUOUS
370
-3
390
F
  0
LAYER
  5
21F
100
AcDbSymbolTableRecord
100
AcDbLayerTableRecord
  2
DEF_DTMS
 70
0
 62
7
  6
CONTINUOUS
370
-3
390
F
  0
LAYER
  5
220
100
AcDbSymbolTableRecord
100
AcDbLayerTableRecord
  2
G90581DTMS
 70
0
 62
7
  6
CONTINUOUS
370
-3
390
F
  0
LAYER
  5
221
100
AcDbSymbolTableRecord
100
AcDbLayerTableRecord
  2
GENPLANES
 70
0
 62
7
  6
CONTINUOUS
370
-3
390
F
  0
LAYER
  5
222
100
AcDbSymbolTableRecord
100
AcDbLayerTableRecord
  2
HEAD
 70
0
 62
7
  6
CONTINUOUS
370
-3
390
F
  0
LAYER
  5
223
100
AcDbSymbolTableRecord
100
AcDbLayerTableRecord
  2
HOOD_LOC_DTM
 70
0
 62
7
  6
CONTINUOUS
370
-3
390
F
  0
LAYER
  5
224
100
AcDbSymbolTableRecord
100
AcDbLayerTableRecord
  2
HUB_DTMS
 70
0
 62
7
  6
CONTINUOUS
370
-3
390
F
  0
LAYER
  5
225
100
AcDbSymbolTableRecord
100
AcDbLayerTableRecord
  2
IGES_ITEMS
 70
0
 62
7
  6
CONTINUOUS
370
-3
390
F
  0
LAYER
  5
226
100
AcDbSymbolTableRecord
100
AcDbLayerTableRecord
  2
IGS_ITEMS
 70
0
 62
7
  6
CONTINUOUS
370
-3
390
F
  0
LAYER
  5
227
100
AcDbSymbolTableRecord
100
AcDbLayerTableRecord
  2
INTF_1
 70
0
 62
7
  6
CONTINUOUS
370
-3
390
F
  0
LAYER
  5
228
100
AcDbSymbolTableRecord
100
AcDbLayerTableRecord
  2
J_BOX_ANGLE
 70
0
 62
7
  6
CONTINUOUS
370
-3
390
F
  0
LAYER
  5
229
100
AcDbSymbolTableRecord
100
AcDbLayerTableRecord
  2
LAY0001
 70
0
 62
7
  6
CONTINUOUS
370
-3
390
F
  0
LAYER
  5
22A
100
AcDbSymbolTableRecord
100
AcDbLayerTableRecord
  2
LAY0002
 70
0
 62
7
  6
CONTINUOUS
370
-3
390
F
  0
LAYER
  5
22B
100
AcDbSymbolTableRecord
100
AcDbLayerTableRecord
  2
MTR_HOLE_ANG_DTM
 70
0
 62
7
  6
CONTINUOUS
370
-3
390
F
  0
LAYER
  5
22C
100
AcDbSymbolTableRecord
100
AcDbLayerTableRecord
  2
PARTDTMS
 70
0
 62
7
  6
CONTINUOUS
370
-3
390
F
  0
LAYER
  5
22D
100
AcDbSymbolTableRecord
100
AcDbLayerTableRecord
  2
PLANE
 70
0
 62
7
  6
CONTINUOUS
370
-3
390
F
  0
LAYER
  5
22E
100
AcDbSymbolTableRecord
100
AcDbLayerTableRecord
  2
PLANES
 70
0
 62
7
  6
CONTINUOUS
370
-3
390
F
  0
LAYER
  5
22F
100
AcDbSymbolTableRecord
100
AcDbLayerTableRecord
  2
POINT
 70
0
 62
7
  6
CONTINUOUS
370
-3
390
F
  0
LAYER
  5
230
100
AcDbSymbolTableRecord
100
AcDbLayerTableRecord
  2
ROUND
 70
0
 62
7
  6
CONTINUOUS
370
-3
390
F
  0
LAYER
  5
231
100
AcDbSymbolTableRecord
100
AcDbLayerTableRecord
  2
STANDOFF_DTMS
 70
0
 62
7
  6
CONTINUOUS
370
-3
390
F
  0
LAYER
  5
232
100
AcDbSymbolTableRecord
100
AcDbLayerTableRecord
  2
STIFF_ANGLE
 70
0
 62
7
  6
CONTINUOUS
370
-3
390
F
  0
LAYER
  5
233
100
AcDbSymbolTableRecord
100
AcDbLayerTableRecord
  2
SURFACE
 70
0
 62
7
  6
CONTINUOUS
370
-3
390
F
  0
LAYER
  5
234
100
AcDbSymbolTableRecord
100
AcDbLayerTableRecord
  2
TOP_SURFACE
 70
0
 62
7
  6
CONTINUOUS
370
-3
390
F
  0
LAYER
  5
235
100
AcDbSymbolTableRecord
100
AcDbLayerTableRecord
  2
WITNESS
 70
0
 62
7
  6
CONTINUOUS
370
-3
390
F
  0
LAYER
  5
236
100
AcDbSymbolTableRecord
100
AcDbLayerTableRecord
  2
XSEC_DATUMS
 70
0
 62
7
  6
CONTINUOUS
370
-3
390
F
  0
ENDTAB
  0
TABLE
  2
STYLE
  5
3
100
AcDbSymbolTable
 70
1
  0
STYLE
  5
11
100
AcDbSymbolTableRecord
100
AcDbTextStyleTableRecord
  2
STANDARD
 70
0
 40
0.0
 41
0.8
 50
0.0
 71
0
 42
0.2
  3
txt
  4

  0
STYLE
  5
237
100
AcDbSymbolTableRecord
100
AcDbTextStyleTableRecord
  2
TEXTSTYLE_1
 70
0
 40
0.0
 41
0.8
 50
0.0
 71
0
 42
0.2
  3
gdt
  4

  0
ENDTAB
  0
TABLE
  2
VIEW
  5
6
100
AcDbSymbolTable
 70
0
  0
ENDTAB
  0
TABLE
  2
UCS
  5
7
100
AcDbSymbolTable
 70
0
  0
ENDTAB
  0
TABLE
  2
APPID
  5
9
100
AcDbSymbolTable
 70
1
  0
APPID
  5
238
100
AcDbSymbolTableRecord
100
AcDbRegAppTableRecord
  2
ACAD
 70
0
  0
ENDTAB
  0
TABLE
  2
BLOCK_RECORD
  5
1
100
AcDbSymbolTable
 70
0
  0
BLOCK_RECORD
  5
239
100
AcDbSymbolTableRecord
100
AcDbBlockTableRecord
  2
*Model_Space
  0
BLOCK_RECORD
  5
23A
100
AcDbSymbolTableRecord
100
AcDbBlockTableRecord
  2
*Paper_Space
  0
ENDTAB
  0
TABLE
  2
DIMSTYLE
  5
A
100
AcDbSymbolTable
 70
1
100
AcDbDimStyleTable
 71
0
  0
DIMSTYLE
105
23B
100
AcDbSymbolTableRecord
100
AcDbDimStyleTableRecord
  2
STANDARD
 70
0
  3

  4

 40
1.0
 41
0.125
 42
0.0625
 43
0.38
 44
0.18
 45
0.0
 46
0.0
 47
0.01
 48
0.01
140
0.125
141
0.09
142
0.0
143
25.4
144
1.0
145
0.0
146
1.0
147
0.09
 71
1.0
 72
0.0
 73
1
 74
1
 75
0
 76
0
 77
0
 78
4
170
0
171
2
172
0
173
0
174
0
175
0
176
0
177
0
178
0
270
2
271
2
272
2
273
2
274
2
275
0
280
0
281
0
282
0
283
1
284
4
285
0
286
0
287
3
288
0
340
11
  0
ENDTAB
  0
ENDSEC
  0
SECTION
  2
BLOCKS
  0
BLOCK
  5
20
100
AcDbEntity
  8
0
100
AcDbBlockBegin
  2
*Model_Space
 70
0
 10
0.0
 20
0.0
 30
0.0
  3
*Model_Space
  1

  0
ENDBLK
  5
21
100
AcDbEntity
  8
0
100
AcDbBlockEnd
  0
BLOCK
  5
1C
100
AcDbEntity
  8
0
100
AcDbBlockBegin
  2
*Paper_Space
 70
0
 10
0.0
 20
0.0
 30
0.0
  3
*Paper_Space
  1

  0
ENDBLK
  5
1D
100
AcDbEntity
  8
0
100
AcDbBlockEnd
  0
ENDSEC
  0
SECTION
  2
ENTITIES
  0
MTEXT
  5
23C
100
AcDbEntity
  8
0
100
AcDbMText
 62
2
  6
CONTINUOUS
  7
STANDARD
 71
1
 72
1
 10
38.500190156
 20
-25.0840001659
 30
0.0
 11
1.0
 21
0.0
 31
0.0
 44
0.9
  1
49810
 40
5.0
 41
20.0
  0
LINE
  5
23D
100
AcDbEntity
  8
0
100
AcDbLine
 62
3
  6
CONTINUOUS
 10
-1.825145373
 20
8.2961263523
 11
-1.9075192654
 21
5.9372467061
  0
LINE
  5
23E
100
AcDbEntity
  8
0
100
AcDbLine
 62
3
  6
CONTINUOUS
 10
0.9137505423
 20
2.4422467061
 11
0.9137505423
 21
1.0422467061
  0
LINE
  5
23F
100
AcDbEntity
  8
0
100
AcDbLine
 62
7
  6
CONTINUOUS
 10
0.9637505423
 20
2.4422467061
 11
0.9637505423
 21
1.0422467061
  0
LINE
  5
240
100
AcDbEntity
  8
0
100
AcDbLine
 62
3
  6
CONTINUOUS
 10
1.0137505423
 20
2.5422467061
 11
1.0137505423
 21
1.0422467061
  0
LINE
  5
241
100
AcDbEntity
  8
0
100
AcDbLine
 62
7
  6
CONTINUOUS
 10
2.0361573784
 20
12.7802483787
 11
2.0487505423
 21
12.8272467061
  0
LINE
  5
242
100
AcDbEntity
  8
0
100
AcDbLine
 62
7
  6
CONTINUOUS
 10
1.9067505423
 20
12.7797467061
 11
1.9070392174
 21
12.7802467061
  0
LINE
  5
243
100
AcDbEntity
  8
0
100
AcDbLine
 62
7
  6
CONTINUOUS
 10
1.7037505423
 20
11.1517467061
 11
1.7037505423
 21
11.0817467061
  0
LINE
  5
244
100
AcDbEntity
  8
0
100
AcDbLine
 62
7
  6
CONTINUOUS
 10
1.9067505423
 20
12.7797441518
 11
1.9067505423
 21
12.3437492605
  0
LINE
  5
245
100
AcDbEntity
  8
0
100
AcDbLine
 62
7
  6
CONTINUOUS
 10
2.0487505423
 20
12.2962467061
 11
2.0487505423
 21
12.8272467061
  0
LINE
  5
246
100
AcDbEntity
  8
0
100
AcDbLine
 62
7
  6
CONTINUOUS
 10
2.0787505423
 20
12.1967467061
 11
2.0787505423
 21
12.9267467061
  0
LINE
  5
247
100
AcDbEntity
  8
0
100
AcDbLine
 62
7
  6
CONTINUOUS
 10
2.5687505423
 20
11.2972467061
 11
2.5687505423
 21
11.3717467061
  0
LINE
  5
248
100
AcDbEntity
  8
0
100
AcDbLine
 62
7
  6
CONTINUOUS
 10
2.6337505423
 20
11.3717467061
 11
2.6337505423
 21
11.2217467061
  0
LINE
  5
249
100
AcDbEntity
  8
0
100
AcDbLine
 62
3
  6
CONTINUOUS
 10
2.6520348135
 20
5.4372467061
 11
2.6520348135
 21
2.5422467061
  0
LINE
  5
24A
100
AcDbEntity
  8
0
100
AcDbLine
 62
3
  6
CONTINUOUS
 10
2.7037505423
 20
11.3717467061
 11
2.7037505423
 21
11.1422467061
  0
LINE
  5
24B
100
AcDbEntity
  8
0
100
AcDbLine
 62
7
  6
CONTINUOUS
 10
2.0770204347
 20
11.7517467061
 11
2.0925601771
 21
12.1967467061
  0
LINE
  5
24C
100
AcDbEntity
  8
0
100
AcDbLine
 62
7
  6
CONTINUOUS
 10
2.1180523388
 20
12.9267467061
 11
2.4852372107
 21
23.4415456995
  0
LINE
  5
24D
100
AcDbEntity
  8
0
100
AcDbLine
 62
7
  6
CONTINUOUS
 10
2.0361573784
 20
12.3432450336
 11
2.0487505423
 21
12.2962467061
  0
LINE
  5
24E
100
AcDbEntity
  8
0
100
AcDbLine
 62
7
  6
CONTINUOUS
 10
20.1137505423
 20
1.0422467061
 11
20.0637505423
 21
1.0422467061
  0
LINE
  5
24F
100
AcDbEntity
  8
0
100
AcDbLine
 62
3
  6
CONTINUOUS
 10
20.0137505423
 20
1.0422467061
 11
1.0137505423
 21
1.0422467061
  0
LINE
  5
250
100
AcDbEntity
  8
0
100
AcDbLine
 62
7
  6
CONTINUOUS
 10
0.9137505423
 20
1.0422467061
 11
0.9637505423
 21
1.0422467061
  0
LINE
  5
251
100
AcDbEntity
  8
0
100
AcDbLine
 62
7
  6
CONTINUOUS
 10
1.9067505423
 20
12.3437467061
 11
1.9070392174
 21
12.3432467061
  0
LINE
  5
252
100
AcDbEntity
  8
0
100
AcDbLine
 62
3
  6
CONTINUOUS
 10
20.0137505423
 20
2.5422467061
 11
1.0137505423
 21
2.5422467061
  0
LINE
  5
253
100
AcDbEntity
  8
0
100
AcDbLine
 62
7
  6
CONTINUOUS
 10
16.2437505423
 20
2.5472467061
 11
18.2437505423
 21
2.5472467061
  0
LINE
  5
254
100
AcDbEntity
  8
0
100
AcDbLine
 62
7
  6
CONTINUOUS
 10
18.2437505423
 20
2.5922467061
 11
19.8637505423
 21
2.5922467061
  0
LINE
  5
255
100
AcDbEntity
  8
0
100
AcDbLine
 62
7
  6
CONTINUOUS
 10
16.1706047918
 20
3.0622467061
 11
16.1352494527
 21
3.0622467061
  0
LINE
  5
256
100
AcDbEntity
  8
0
100
AcDbLine
 62
7
  6
CONTINUOUS
 10
4.8568962928
 20
3.0622467061
 11
4.8922516318
 21
3.0622467061
  0
LINE
  5
257
100
AcDbEntity
  8
0
100
AcDbLine
 62
7
  6
CONTINUOUS
 10
16.2929091629
 20
3.1057403552
 11
16.1860904303
 21
3.1057403552
  0
LINE
  5
258
100
AcDbEntity
  8
0
100
AcDbLine
 62
7
  6
CONTINUOUS
 10
4.7345919217
 20
3.1057403552
 11
4.8414106543
 21
3.1057403552
  0
LINE
  5
259
100
AcDbEntity
  8
0
100
AcDbLine
 62
7
  6
CONTINUOUS
 10
16.1603266414
 20
3.2139935307
 11
16.0535079088
 21
3.2139935307
  0
LINE
  5
25A
100
AcDbEntity
  8
0
100
AcDbLine
 62
7
  6
CONTINUOUS
 10
4.8671744432
 20
3.2139935307
 11
4.9739931757
 21
3.2139935307
  0
LINE
  5
25B
100
AcDbEntity
  8
0
100
AcDbLine
 62
7
  6
CONTINUOUS
 10
16.1603266414
 20
3.4304998816
 11
16.0535079088
 21
3.4304998816
  0
LINE
  5
25C
100
AcDbEntity
  8
0
100
AcDbLine
 62
7
  6
CONTINUOUS
 10
4.8671744432
 20
3.4304998816
 11
4.9739931757
 21
3.4304998816
  0
LINE
  5
25D
100
AcDbEntity
  8
0
100
AcDbLine
 62
7
  6
CONTINUOUS
 10
5.0585657384
 20
3.4317467061
 11
5.0634718439
 21
3.4317467061
  0
LINE
  5
25E
100
AcDbEntity
  8
0
100
AcDbLine
 62
7
  6
CONTINUOUS
 10
16.2929091629
 20
3.5387530571
 11
16.1860904303
 21
3.5387530571
  0
LINE
  5
25F
100
AcDbEntity
  8
0
100
AcDbLine
 62
7
  6
CONTINUOUS
 10
4.7345919217
 20
3.5387530571
 11
4.8414106543
 21
3.5387530571
  0
LINE
  5
260
100
AcDbEntity
  8
0
100
AcDbLine
 62
7
  6
CONTINUOUS
 10
16.1706047918
 20
3.5822467061
 11
16.1352494527
 21
3.5822467061
  0
LINE
  5
261
100
AcDbEntity
  8
0
100
AcDbLine
 62
7
  6
CONTINUOUS
 10
4.8568962928
 20
3.5822467061
 11
4.8922516318
 21
3.5822467061
  0
LINE
  5
262
100
AcDbEntity
  8
0
100
AcDbLine
 62
7
  6
CONTINUOUS
 10
10.2614484746
 20
12.5617467061
 11
10.3875995085
 21
12.7802467061
  0
LINE
  5
263
100
AcDbEntity
  8
0
100
AcDbLine
 62
7
  6
CONTINUOUS
 10
10.7660526099
 20
12.5617467061
 11
10.6399015761
 21
12.3432467061
  0
LINE
  5
264
100
AcDbEntity
  8
0
100
AcDbLine
 62
7
  6
CONTINUOUS
 10
10.0137505423
 20
11.0817467061
 11
10.0137505423
 21
11.3717467061
  0
LINE
  5
265
100
AcDbEntity
  8
0
100
AcDbLine
 62
7
  6
CONTINUOUS
 10
16.1706047918
 20
5.3622467061
 11
16.1352494527
 21
5.3622467061
  0
LINE
  5
266
100
AcDbEntity
  8
0
100
AcDbLine
 62
7
  6
CONTINUOUS
 10
4.8568962928
 20
5.3622467061
 11
4.8922516318
 21
5.3622467061
  0
LINE
  5
267
100
AcDbEntity
  8
0
100
AcDbLine
 62
7
  6
CONTINUOUS
 10
16.2929091629
 20
5.4057403552
 11
16.1860904303
 21
5.4057403552
  0
LINE
  5
268
100
AcDbEntity
  8
0
100
AcDbLine
 62
7
  6
CONTINUOUS
 10
4.7345919217
 20
5.4057403552
 11
4.8414106543
 21
5.4057403552
  0
LINE
  5
269
100
AcDbEntity
  8
0
100
AcDbLine
 62
3
  6
CONTINUOUS
 10
-2.1033634425
 20
5.4372467061
 11
23.1308645271
 21
5.4372467061
  0
LINE
  5
26A
100
AcDbEntity
  8
0
100
AcDbLine
 62
3
  6
CONTINUOUS
 10
-2.1033634425
 20
5.9372467061
 11
23.1308645271
 21
5.9372467061
  0
LINE
  5
26B
100
AcDbEntity
  8
0
100
AcDbLine
 62
7
  6
CONTINUOUS
 10
11.0137505423
 20
11.0817467061
 11
11.0137505423
 21
11.3717467061
  0
LINE
  5
26C
100
AcDbEntity
  8
0
100
AcDbLine
 62
7
  6
CONTINUOUS
 10
10.3875995085
 20
12.3432467061
 11
10.2614484746
 21
12.5617467061
  0
LINE
  5
26D
100
AcDbEntity
  8
0
100
AcDbLine
 62
7
  6
CONTINUOUS
 10
10.6399015761
 20
12.7802467061
 11
10.7660526099
 21
12.5617467061
  0
LINE
  5
26E
100
AcDbEntity
  8
0
100
AcDbLine
 62
3
  6
CONTINUOUS
 10
20.1642851328
 20
10.8922467061
 11
0.8632159517
 21
10.8922467061
  0
LINE
  5
26F
100
AcDbEntity
  8
0
100
AcDbLine
 62
3
  6
CONTINUOUS
 10
11.0137505423
 20
11.0817467061
 11
10.0137505423
 21
11.0817467061
  0
LINE
  5
270
100
AcDbEntity
  8
0
100
AcDbLine
 62
3
  6
CONTINUOUS
 10
2.5637505423
 20
11.0817467061
 11
1.7037505423
 21
11.0817467061
  0
LINE
  5
271
100
AcDbEntity
  8
0
100
AcDbLine
 62
3
  6
CONTINUOUS
 10
18.4637505423
 20
11.0817467061
 11
19.3237505423
 21
11.0817467061
  0
LINE
  5
272
100
AcDbEntity
  8
0
100
AcDbLine
 62
7
  6
CONTINUOUS
 10
11.0137505423
 20
11.1517467061
 11
10.0137505423
 21
11.1517467061
  0
LINE
  5
273
100
AcDbEntity
  8
0
100
AcDbLine
 62
7
  6
CONTINUOUS
 10
2.5637505423
 20
11.1517467061
 11
1.7037505423
 21
11.1517467061
  0
LINE
  5
274
100
AcDbEntity
  8
0
100
AcDbLine
 62
7
  6
CONTINUOUS
 10
18.4637505423
 20
11.1517467061
 11
19.3237505423
 21
11.1517467061
  0
LINE
  5
275
100
AcDbEntity
  8
0
100
AcDbLine
 62
7
  6
CONTINUOUS
 10
19.1207505423
 20
12.3437467061
 11
19.1204618671
 21
12.3432467061
  0
LINE
  5
276
100
AcDbEntity
  8
0
100
AcDbLine
 62
7
  6
CONTINUOUS
 10
2.6337505423
 20
11.2972467061
 11
2.5687505423
 21
11.2972467061
  0
LINE
  5
277
100
AcDbEntity
  8
0
100
AcDbLine
 62
7
  6
CONTINUOUS
 10
18.3937505423
 20
11.2972467061
 11
18.4587505423
 21
11.2972467061
  0
LINE
  5
278
100
AcDbEntity
  8
0
100
AcDbLine
 62
7
  6
CONTINUOUS
 10
0.8237505828
 20
11.3717467061
 11
20.2037505017
 21
11.3717467061
  0
LINE
  5
279
100
AcDbEntity
  8
0
100
AcDbLine
 62
7
  6
CONTINUOUS
 10
0.8237806621
 20
11.7517467061
 11
20.2037204225
 21
11.7517467061
  0
LINE
  5
27A
100
AcDbEntity
  8
0
100
AcDbLine
 62
7
  6
CONTINUOUS
 10
2.0925601771
 20
12.1967467061
 11
2.0787505423
 21
12.1967467061
  0
LINE
  5
27B
100
AcDbEntity
  8
0
100
AcDbLine
 62
7
  6
CONTINUOUS
 10
18.9349409074
 20
12.1967467061
 11
18.9487505423
 21
12.1967467061
  0
LINE
  5
27C
100
AcDbEntity
  8
0
100
AcDbLine
 62
7
  6
CONTINUOUS
 10
18.9787505423
 20
12.2962467061
 11
18.9487505423
 21
12.2962467061
  0
LINE
  5
27D
100
AcDbEntity
  8
0
100
AcDbLine
 62
7
  6
CONTINUOUS
 10
2.0487505423
 20
12.2962467061
 11
2.0787505423
 21
12.2962467061
  0
LINE
  5
27E
100
AcDbEntity
  8
0
100
AcDbLine
 62
7
  6
CONTINUOUS
 10
19.1204618671
 20
12.3432467061
 11
18.9822869176
 21
12.3432467061
  0
LINE
  5
27F
100
AcDbEntity
  8
0
100
AcDbLine
 62
7
  6
CONTINUOUS
 10
10.6399015761
 20
12.3432467061
 11
10.3875995085
 21
12.3432467061
  0
LINE
  5
280
100
AcDbEntity
  8
0
100
AcDbLine
 62
7
  6
CONTINUOUS
 10
1.9070392174
 20
12.3432467061
 11
2.045214167
 21
12.3432467061
  0
LINE
  5
281
100
AcDbEntity
  8
0
100
AcDbLine
 62
7
  6
CONTINUOUS
 10
19.1009462343
 20
12.5617467061
 11
18.9822869176
 21
12.5617467061
  0
LINE
  5
282
100
AcDbEntity
  8
0
100
AcDbLine
 62
7
  6
CONTINUOUS
 10
1.9265548503
 20
12.5617467061
 11
2.045214167
 21
12.5617467061
  0
LINE
  5
283
100
AcDbEntity
  8
0
100
AcDbLine
 62
3
  6
CONTINUOUS
 10
16.4512954505
 20
2.5472467061
 11
16.4512954505
 21
5.4372467061
  0
LINE
  5
284
100
AcDbEntity
  8
0
100
AcDbLine
 62
7
  6
CONTINUOUS
 10
18.9913437061
 20
12.3432450336
 11
18.9787505423
 21
12.2962467061
  0
LINE
  5
285
100
AcDbEntity
  8
0
100
AcDbLine
 62
7
  6
CONTINUOUS
 10
1.9070392174
 20
12.7802467061
 11
2.045214167
 21
12.7802467061
  0
LINE
  5
286
100
AcDbEntity
  8
0
100
AcDbLine
 62
7
  6
CONTINUOUS
 10
10.3875995085
 20
12.7802467061
 11
10.6399015761
 21
12.7802467061
  0
LINE
  5
287
100
AcDbEntity
  8
0
100
AcDbLine
 62
7
  6
CONTINUOUS
 10
18.9822869176
 20
12.7802467061
 11
19.1204618671
 21
12.7802467061
  0
LINE
  5
288
100
AcDbEntity
  8
0
100
AcDbLine
 62
7
  6
CONTINUOUS
 10
18.9787505423
 20
12.8272467061
 11
18.9487505423
 21
12.8272467061
  0
LINE
  5
289
100
AcDbEntity
  8
0
100
AcDbLine
 62
7
  6
CONTINUOUS
 10
2.0487505423
 20
12.8272467061
 11
2.0787505423
 21
12.8272467061
  0
LINE
  5
28A
100
AcDbEntity
  8
0
100
AcDbLine
 62
7
  6
CONTINUOUS
 10
2.1180523388
 20
12.9267467061
 11
2.0787505423
 21
12.9267467061
  0
LINE
  5
28B
100
AcDbEntity
  8
0
100
AcDbLine
 62
7
  6
CONTINUOUS
 10
18.9094487457
 20
12.9267467061
 11
18.9487505423
 21
12.9267467061
  0
LINE
  5
28C
100
AcDbEntity
  8
0
100
AcDbLine
 62
7
  6
CONTINUOUS
 10
18.9504806499
 20
11.7517467061
 11
18.9349409074
 21
12.1967467061
  0
LINE
  5
28D
100
AcDbEntity
  8
0
100
AcDbLine
 62
7
  6
CONTINUOUS
 10
18.9094487457
 20
12.9267467061
 11
18.5422638738
 21
23.4415456995
  0
LINE
  5
28E
100
AcDbEntity
  8
0
100
AcDbLine
 62
7
  6
CONTINUOUS
 10
18.2437505423
 20
2.5422467061
 11
18.2437505423
 21
2.5922467061
  0
LINE
  5
28F
100
AcDbEntity
  8
0
100
AcDbLine
 62
3
  6
CONTINUOUS
 10
18.3237505423
 20
11.3717467061
 11
18.3237505423
 21
11.1422467061
  0
LINE
  5
290
100
AcDbEntity
  8
0
100
AcDbLine
 62
3
  6
CONTINUOUS
 10
18.375466271
 20
5.4372467061
 11
18.375466271
 21
2.5922467061
  0
LINE
  5
291
100
AcDbEntity
  8
0
100
AcDbLine
 62
7
  6
CONTINUOUS
 10
18.3937505423
 20
11.3717467061
 11
18.3937505423
 21
11.2217467061
  0
LINE
  5
292
100
AcDbEntity
  8
0
100
AcDbLine
 62
7
  6
CONTINUOUS
 10
18.4587505423
 20
11.3717467061
 11
18.4587505423
 21
11.2972467061
  0
LINE
  5
293
100
AcDbEntity
  8
0
100
AcDbLine
 62
7
  6
CONTINUOUS
 10
18.9487505423
 20
12.9267467061
 11
18.9487505423
 21
12.1967467061
  0
LINE
  5
294
100
AcDbEntity
  8
0
100
AcDbLine
 62
7
  6
CONTINUOUS
 10
18.9787505423
 20
12.2962467061
 11
18.9787505423
 21
12.8272467061
  0
LINE
  5
295
100
AcDbEntity
  8
0
100
AcDbLine
 62
7
  6
CONTINUOUS
 10
19.1207505423
 20
12.3437492605
 11
19.1207505423
 21
12.7797441518
  0
LINE
  5
296
100
AcDbEntity
  8
0
100
AcDbLine
 62
7
  6
CONTINUOUS
 10
19.3237505423
 20
11.1517467061
 11
19.3237505423
 21
11.0817467061
  0
LINE
  5
297
100
AcDbEntity
  8
0
100
AcDbLine
 62
7
  6
CONTINUOUS
 10
19.8637505423
 20
2.5422467061
 11
19.8637505423
 21
2.5922467061
  0
LINE
  5
298
100
AcDbEntity
  8
0
100
AcDbLine
 62
3
  6
CONTINUOUS
 10
20.0137505423
 20
2.5422467061
 11
20.0137505423
 21
1.0422467061
  0
LINE
  5
299
100
AcDbEntity
  8
0
100
AcDbLine
 62
7
  6
CONTINUOUS
 10
20.0637505423
 20
2.4422467061
 11
20.0637505423
 21
1.0422467061
  0
LINE
  5
29A
100
AcDbEntity
  8
0
100
AcDbLine
 62
3
  6
CONTINUOUS
 10
20.1137505423
 20
2.4422467061
 11
20.1137505423
 21
1.0422467061
  0
LINE
  5
29B
100
AcDbEntity
  8
0
100
AcDbLine
 62
7
  6
CONTINUOUS
 10
19.1207505423
 20
12.7797467061
 11
19.1204618671
 21
12.7802467061
  0
LINE
  5
29C
100
AcDbEntity
  8
0
100
AcDbLine
 62
7
  6
CONTINUOUS
 10
18.9913437061
 20
12.7802483787
 11
18.9787505423
 21
12.8272467061
  0
LINE
  5
29D
100
AcDbEntity
  8
0
100
AcDbLine
 62
3
  6
CONTINUOUS
 10
22.8526464575
 20
8.2961263523
 11
22.9350203499
 21
5.9372467061
  0
LINE
  5
29E
100
AcDbEntity
  8
0
100
AcDbLine
 62
7
  6
CONTINUOUS
 10
4.4840192569
 20
25.3717467061
 11
16.5434818277
 21
25.3717467061
  0
LINE
  5
29F
100
AcDbEntity
  8
0
100
AcDbLine
 62
3
  6
CONTINUOUS
 10
37.1087654129
 20
8.2961263523
 11
37.0263915205
 21
5.9372467061
  0
LINE
  5
2A0
100
AcDbEntity
  8
0
100
AcDbLine
 62
3
  6
CONTINUOUS
 10
39.8476613282
 20
2.4422467061
 11
39.8476613282
 21
1.0422467061
  0
LINE
  5
2A1
100
AcDbEntity
  8
0
100
AcDbLine
 62
7
  6
CONTINUOUS
 10
39.8976613282
 20
2.4422467061
 11
39.8976613282
 21
1.0422467061
  0
LINE
  5
2A2
100
AcDbEntity
  8
0
100
AcDbLine
 62
7
  6
CONTINUOUS
 10
40.9700681643
 20
12.7802483787
 11
40.9826613282
 21
12.8272467061
  0
LINE
  5
2A3
100
AcDbEntity
  8
0
100
AcDbLine
 62
7
  6
CONTINUOUS
 10
40.8406613282
 20
12.7797467061
 11
40.8409500033
 21
12.7802467061
  0
LINE
  5
2A4
100
AcDbEntity
  8
0
100
AcDbLine
 62
7
  6
CONTINUOUS
 10
59.0476613282
 20
1.0422467061
 11
58.9976613282
 21
1.0422467061
  0
LINE
  5
2A5
100
AcDbEntity
  8
0
100
AcDbLine
 62
3
  6
CONTINUOUS
 10
58.9476613282
 20
1.0422467061
 11
39.9476613282
 21
1.0422467061
  0
LINE
  5
2A6
100
AcDbEntity
  8
0
100
AcDbLine
 62
7
  6
CONTINUOUS
 10
39.8476613282
 20
1.0422467061
 11
39.8976613282
 21
1.0422467061
  0
LINE
  5
2A7
100
AcDbEntity
  8
0
100
AcDbLine
 62
3
  6
CONTINUOUS
 10
39.9476613282
 20
2.5422467061
 11
39.9476613282
 21
1.0422467061
  0
LINE
  5
2A8
100
AcDbEntity
  8
0
100
AcDbLine
 62
7
  6
CONTINUOUS
 10
40.0976613282
 20
2.5422467061
 11
40.0976613282
 21
2.5922467061
  0
LINE
  5
2A9
100
AcDbEntity
  8
0
100
AcDbLine
 62
7
  6
CONTINUOUS
 10
40.6376613282
 20
11.1517467061
 11
40.6376613282
 21
11.0817467061
  0
LINE
  5
2AA
100
AcDbEntity
  8
0
100
AcDbLine
 62
7
  6
CONTINUOUS
 10
40.8406613282
 20
12.7797441518
 11
40.8406613282
 21
12.3437492605
  0
LINE
  5
2AB
100
AcDbEntity
  8
0
100
AcDbLine
 62
7
  6
CONTINUOUS
 10
40.9826613282
 20
12.2962467061
 11
40.9826613282
 21
12.8272467061
  0
LINE
  5
2AC
100
AcDbEntity
  8
0
100
AcDbLine
 62
7
  6
CONTINUOUS
 10
41.0126613282
 20
12.1967467061
 11
41.0126613282
 21
12.9267467061
  0
LINE
  5
2AD
100
AcDbEntity
  8
0
100
AcDbLine
 62
7
  6
CONTINUOUS
 10
41.5026613282
 20
11.2972467061
 11
41.5026613282
 21
11.3717467061
  0
LINE
  5
2AE
100
AcDbEntity
  8
0
100
AcDbLine
 62
7
  6
CONTINUOUS
 10
41.0109312206
 20
11.7517467061
 11
41.026470963
 21
12.1967467061
  0
LINE
  5
2AF
100
AcDbEntity
  8
0
100
AcDbLine
 62
7
  6
CONTINUOUS
 10
41.0519631247
 20
12.9267467061
 11
41.4191479966
 21
23.4415456995
  0
LINE
  5
2B0
100
AcDbEntity
  8
0
100
AcDbLine
 62
3
  6
CONTINUOUS
 10
58.9476613282
 20
2.5422467061
 11
39.9476613282
 21
2.5422467061
  0
LINE
  5
2B1
100
AcDbEntity
  8
0
100
AcDbLine
 62
7
  6
CONTINUOUS
 10
40.0976613282
 20
2.5922467061
 11
42.8476613282
 21
2.5922467061
  0
LINE
  5
2B2
100
AcDbEntity
  8
0
100
AcDbLine
 62
7
  6
CONTINUOUS
 10
55.1045155776
 20
3.0622467061
 11
55.0691602386
 21
3.0622467061
  0
LINE
  5
2B3
100
AcDbEntity
  8
0
100
AcDbLine
 62
7
  6
CONTINUOUS
 10
43.7908070787
 20
3.0622467061
 11
43.8261624177
 21
3.0622467061
  0
LINE
  5
2B4
100
AcDbEntity
  8
0
100
AcDbLine
 62
7
  6
CONTINUOUS
 10
55.2268199487
 20
3.1057403552
 11
55.1200012162
 21
3.1057403552
  0
LINE
  5
2B5
100
AcDbEntity
  8
0
100
AcDbLine
 62
7
  6
CONTINUOUS
 10
43.6685027076
 20
3.1057403552
 11
43.7753214402
 21
3.1057403552
  0
LINE
  5
2B6
100
AcDbEntity
  8
0
100
AcDbLine
 62
7
  6
CONTINUOUS
 10
55.0942374273
 20
3.2139935307
 11
54.9874186947
 21
3.2139935307
  0
LINE
  5
2B7
100
AcDbEntity
  8
0
100
AcDbLine
 62
7
  6
CONTINUOUS
 10
43.801085229
 20
3.2139935307
 11
43.9079039616
 21
3.2139935307
  0
LINE
  5
2B8
100
AcDbEntity
  8
0
100
AcDbLine
 62
7
  6
CONTINUOUS
 10
55.0942374273
 20
3.4304998816
 11
54.9874186947
 21
3.4304998816
  0
LINE
  5
2B9
100
AcDbEntity
  8
0
100
AcDbLine
 62
7
  6
CONTINUOUS
 10
43.801085229
 20
3.4304998816
 11
43.9079039616
 21
3.4304998816
  0
LINE
  5
2BA
100
AcDbEntity
  8
0
100
AcDbLine
 62
7
  6
CONTINUOUS
 10
55.2268199487
 20
3.5387530571
 11
55.1200012162
 21
3.5387530571
  0
LINE
  5
2BB
100
AcDbEntity
  8
0
100
AcDbLine
 62
7
  6
CONTINUOUS
 10
43.6685027076
 20
3.5387530571
 11
43.7753214402
 21
3.5387530571
  0
LINE
  5
2BC
100
AcDbEntity
  8
0
100
AcDbLine
 62
3
  6
CONTINUOUS
 10
41.5293770569
 20
5.4372467061
 11
41.5293770569
 21
2.5922467061
  0
LINE
  5
2BD
100
AcDbEntity
  8
0
100
AcDbLine
 62
7
  6
CONTINUOUS
 10
41.5676613282
 20
11.3717467061
 11
41.5676613282
 21
11.2217467061
  0
LINE
  5
2BE
100
AcDbEntity
  8
0
100
AcDbLine
 62
3
  6
CONTINUOUS
 10
41.6376613282
 20
11.3717467061
 11
41.6376613282
 21
11.1422467061
  0
LINE
  5
2BF
100
AcDbEntity
  8
0
100
AcDbLine
 62
7
  6
CONTINUOUS
 10
42.8476613282
 20
2.5422467061
 11
42.8476613282
 21
2.5922467061
  0
LINE
  5
2C0
100
AcDbEntity
  8
0
100
AcDbLine
 62
7
  6
CONTINUOUS
 10
55.1045155776
 20
3.5822467061
 11
55.0691602386
 21
3.5822467061
  0
LINE
  5
2C1
100
AcDbEntity
  8
0
100
AcDbLine
 62
7
  6
CONTINUOUS
 10
43.7908070787
 20
3.5822467061
 11
43.8261624177
 21
3.5822467061
  0
LINE
  5
2C2
100
AcDbEntity
  8
0
100
AcDbLine
 62
7
  6
CONTINUOUS
 10
40.9700681643
 20
12.3432450336
 11
40.9826613282
 21
12.2962467061
  0
LINE
  5
2C3
100
AcDbEntity
  8
0
100
AcDbLine
 62
3
  6
CONTINUOUS
 10
44.1913048765
 20
2.5422467061
 11
44.1913048765
 21
5.4372467061
  0
LINE
  5
2C4
100
AcDbEntity
  8
0
100
AcDbLine
 62
7
  6
CONTINUOUS
 10
44.2244358789
 20
2.5422467061
 11
44.2244358789
 21
5.4372467061
  0
LINE
  5
2C5
100
AcDbEntity
  8
0
100
AcDbLine
 62
7
  6
CONTINUOUS
 10
55.1045155776
 20
5.3622467061
 11
55.0691602386
 21
5.3622467061
  0
LINE
  5
2C6
100
AcDbEntity
  8
0
100
AcDbLine
 62
7
  6
CONTINUOUS
 10
43.7908070787
 20
5.3622467061
 11
43.8261624177
 21
5.3622467061
  0
LINE
  5
2C7
100
AcDbEntity
  8
0
100
AcDbLine
 62
7
  6
CONTINUOUS
 10
55.2268199487
 20
5.4057403552
 11
55.1200012162
 21
5.4057403552
  0
LINE
  5
2C8
100
AcDbEntity
  8
0
100
AcDbLine
 62
7
  6
CONTINUOUS
 10
43.6685027076
 20
5.4057403552
 11
43.7753214402
 21
5.4057403552
  0
LINE
  5
2C9
100
AcDbEntity
  8
0
100
AcDbLine
 62
3
  6
CONTINUOUS
 10
36.8305473434
 20
5.4372467061
 11
62.0647753129
 21
5.4372467061
  0
LINE
  5
2CA
100
AcDbEntity
  8
0
100
AcDbLine
 62
3
  6
CONTINUOUS
 10
36.8305473434
 20
5.9372467061
 11
62.0647753129
 21
5.9372467061
  0
LINE
  5
2CB
100
AcDbEntity
  8
0
100
AcDbLine
 62
7
  6
CONTINUOUS
 10
40.8406613282
 20
12.3437467061
 11
40.8409500033
 21
12.3432467061
  0
LINE
  5
2CC
100
AcDbEntity
  8
0
100
AcDbLine
 62
7
  6
CONTINUOUS
 10
49.1953592605
 20
12.5617467061
 11
49.3215102943
 21
12.7802467061
  0
LINE
  5
2CD
100
AcDbEntity
  8
0
100
AcDbLine
 62
7
  6
CONTINUOUS
 10
49.6999633958
 20
12.5617467061
 11
49.573812362
 21
12.3432467061
  0
LINE
  5
2CE
100
AcDbEntity
  8
0
100
AcDbLine
 62
7
  6
CONTINUOUS
 10
48.9476613282
 20
11.0817467061
 11
48.9476613282
 21
11.3717467061
  0
LINE
  5
2CF
100
AcDbEntity
  8
0
100
AcDbLine
 62
3
  6
CONTINUOUS
 10
59.0981959187
 20
10.8922467061
 11
39.7971267376
 21
10.8922467061
  0
LINE
  5
2D0
100
AcDbEntity
  8
0
100
AcDbLine
 62
3
  6
CONTINUOUS
 10
49.9476613282
 20
11.0817467061
 11
48.9476613282
 21
11.0817467061
  0
LINE
  5
2D1
100
AcDbEntity
  8
0
100
AcDbLine
 62
3
  6
CONTINUOUS
 10
41.4976613282
 20
11.0817467061
 11
40.6376613282
 21
11.0817467061
  0
LINE
  5
2D2
100
AcDbEntity
  8
0
100
AcDbLine
 62
3
  6
CONTINUOUS
 10
57.3976613282
 20
11.0817467061
 11
58.2576613282
 21
11.0817467061
  0
LINE
  5
2D3
100
AcDbEntity
  8
0
100
AcDbLine
 62
7
  6
CONTINUOUS
 10
49.9476613282
 20
11.1517467061
 11
48.9476613282
 21
11.1517467061
  0
LINE
  5
2D4
100
AcDbEntity
  8
0
100
AcDbLine
 62
7
  6
CONTINUOUS
 10
41.4976613282
 20
11.1517467061
 11
40.6376613282
 21
11.1517467061
  0
LINE
  5
2D5
100
AcDbEntity
  8
0
100
AcDbLine
 62
7
  6
CONTINUOUS
 10
57.3976613282
 20
11.1517467061
 11
58.2576613282
 21
11.1517467061
  0
LINE
  5
2D6
100
AcDbEntity
  8
0
100
AcDbLine
 62
7
  6
CONTINUOUS
 10
41.5676613282
 20
11.2972467061
 11
41.5026613282
 21
11.2972467061
  0
LINE
  5
2D7
100
AcDbEntity
  8
0
100
AcDbLine
 62
7
  6
CONTINUOUS
 10
57.3276613282
 20
11.2972467061
 11
57.3926613282
 21
11.2972467061
  0
LINE
  5
2D8
100
AcDbEntity
  8
0
100
AcDbLine
 62
7
  6
CONTINUOUS
 10
39.7576613687
 20
11.3717467061
 11
59.1376612876
 21
11.3717467061
  0
LINE
  5
2D9
100
AcDbEntity
  8
0
100
AcDbLine
 62
7
  6
CONTINUOUS
 10
49.9476613282
 20
11.0817467061
 11
49.9476613282
 21
11.3717467061
  0
LINE
  5
2DA
100
AcDbEntity
  8
0
100
AcDbLine
 62
7
  6
CONTINUOUS
 10
39.7576686475
 20
11.7517467061
 11
59.1376540088
 21
11.7517467061
  0
LINE
  5
2DB
100
AcDbEntity
  8
0
100
AcDbLine
 62
7
  6
CONTINUOUS
 10
41.026470963
 20
12.1967467061
 11
41.0126613282
 21
12.1967467061
  0
LINE
  5
2DC
100
AcDbEntity
  8
0
100
AcDbLine
 62
7
  6
CONTINUOUS
 10
57.8688516933
 20
12.1967467061
 11
57.8826613282
 21
12.1967467061
  0
LINE
  5
2DD
100
AcDbEntity
  8
0
100
AcDbLine
 62
7
  6
CONTINUOUS
 10
57.9126613282
 20
12.2962467061
 11
57.8826613282
 21
12.2962467061
  0
LINE
  5
2DE
100
AcDbEntity
  8
0
100
AcDbLine
 62
7
  6
CONTINUOUS
 10
40.9826613282
 20
12.2962467061
 11
41.0126613282
 21
12.2962467061
  0
LINE
  5
2DF
100
AcDbEntity
  8
0
100
AcDbLine
 62
7
  6
CONTINUOUS
 10
58.054372653
 20
12.3432467061
 11
57.9161977035
 21
12.3432467061
  0
LINE
  5
2E0
100
AcDbEntity
  8
0
100
AcDbLine
 62
7
  6
CONTINUOUS
 10
49.573812362
 20
12.3432467061
 11
49.3215102943
 21
12.3432467061
  0
LINE
  5
2E1
100
AcDbEntity
  8
0
100
AcDbLine
 62
7
  6
CONTINUOUS
 10
40.8409500033
 20
12.3432467061
 11
40.9791249528
 21
12.3432467061
  0
LINE
  5
2E2
100
AcDbEntity
  8
0
100
AcDbLine
 62
7
  6
CONTINUOUS
 10
58.0348570202
 20
12.5617467061
 11
57.9161977035
 21
12.5617467061
  0
LINE
  5
2E3
100
AcDbEntity
  8
0
100
AcDbLine
 62
7
  6
CONTINUOUS
 10
40.8604656361
 20
12.5617467061
 11
40.9791249528
 21
12.5617467061
  0
LINE
  5
2E4
100
AcDbEntity
  8
0
100
AcDbLine
 62
7
  6
CONTINUOUS
 10
40.8409500033
 20
12.7802467061
 11
40.9791249528
 21
12.7802467061
  0
LINE
  5
2E5
100
AcDbEntity
  8
0
100
AcDbLine
 62
7
  6
CONTINUOUS
 10
49.3215102943
 20
12.7802467061
 11
49.573812362
 21
12.7802467061
  0
LINE
  5
2E6
100
AcDbEntity
  8
0
100
AcDbLine
 62
7
  6
CONTINUOUS
 10
57.9161977035
 20
12.7802467061
 11
58.054372653
 21
12.7802467061
  0
LINE
  5
2E7
100
AcDbEntity
  8
0
100
AcDbLine
 62
7
  6
CONTINUOUS
 10
57.9126613282
 20
12.8272467061
 11
57.8826613282
 21
12.8272467061
  0
LINE
  5
2E8
100
AcDbEntity
  8
0
100
AcDbLine
 62
7
  6
CONTINUOUS
 10
40.9826613282
 20
12.8272467061
 11
41.0126613282
 21
12.8272467061
  0
LINE
  5
2E9
100
AcDbEntity
  8
0
100
AcDbLine
 62
7
  6
CONTINUOUS
 10
41.0519631247
 20
12.9267467061
 11
41.0126613282
 21
12.9267467061
  0
LINE
  5
2EA
100
AcDbEntity
  8
0
100
AcDbLine
 62
7
  6
CONTINUOUS
 10
57.8433595316
 20
12.9267467061
 11
57.8826613282
 21
12.9267467061
  0
LINE
  5
2EB
100
AcDbEntity
  8
0
100
AcDbLine
 62
7
  6
CONTINUOUS
 10
49.3215102943
 20
12.3432467061
 11
49.1953592605
 21
12.5617467061
  0
LINE
  5
2EC
100
AcDbEntity
  8
0
100
AcDbLine
 62
7
  6
CONTINUOUS
 10
49.573812362
 20
12.7802467061
 11
49.6999633958
 21
12.5617467061
  0
LINE
  5
2ED
100
AcDbEntity
  8
0
100
AcDbLine
 62
7
  6
CONTINUOUS
 10
58.0546613282
 20
12.3437467061
 11
58.054372653
 21
12.3432467061
  0
LINE
  5
2EE
100
AcDbEntity
  8
0
100
AcDbLine
 62
3
  6
CONTINUOUS
 10
57.2576613282
 20
11.3717467061
 11
57.2576613282
 21
11.1422467061
  0
LINE
  5
2EF
100
AcDbEntity
  8
0
100
AcDbLine
 62
7
  6
CONTINUOUS
 10
57.3276613282
 20
11.3717467061
 11
57.3276613282
 21
11.2217467061
  0
LINE
  5
2F0
100
AcDbEntity
  8
0
100
AcDbLine
 62
7
  6
CONTINUOUS
 10
57.925254492
 20
12.3432450336
 11
57.9126613282
 21
12.2962467061
  0
LINE
  5
2F1
100
AcDbEntity
  8
0
100
AcDbLine
 62
7
  6
CONTINUOUS
 10
57.8843914357
 20
11.7517467061
 11
57.8688516933
 21
12.1967467061
  0
LINE
  5
2F2
100
AcDbEntity
  8
0
100
AcDbLine
 62
7
  6
CONTINUOUS
 10
57.8433595316
 20
12.9267467061
 11
57.4761746597
 21
23.4415456995
  0
LINE
  5
2F3
100
AcDbEntity
  8
0
100
AcDbLine
 62
3
  6
CONTINUOUS
 10
57.3659455994
 20
5.4372467061
 11
57.3659455994
 21
2.5422467061
  0
LINE
  5
2F4
100
AcDbEntity
  8
0
100
AcDbLine
 62
7
  6
CONTINUOUS
 10
57.3926613282
 20
11.3717467061
 11
57.3926613282
 21
11.2972467061
  0
LINE
  5
2F5
100
AcDbEntity
  8
0
100
AcDbLine
 62
7
  6
CONTINUOUS
 10
57.8826613282
 20
12.9267467061
 11
57.8826613282
 21
12.1967467061
  0
LINE
  5
2F6
100
AcDbEntity
  8
0
100
AcDbLine
 62
7
  6
CONTINUOUS
 10
57.9126613282
 20
12.2962467061
 11
57.9126613282
 21
12.8272467061
  0
LINE
  5
2F7
100
AcDbEntity
  8
0
100
AcDbLine
 62
7
  6
CONTINUOUS
 10
58.0546613282
 20
12.3437492605
 11
58.0546613282
 21
12.7797441518
  0
LINE
  5
2F8
100
AcDbEntity
  8
0
100
AcDbLine
 62
7
  6
CONTINUOUS
 10
58.2576613282
 20
11.1517467061
 11
58.2576613282
 21
11.0817467061
  0
LINE
  5
2F9
100
AcDbEntity
  8
0
100
AcDbLine
 62
7
  6
CONTINUOUS
 10
58.0546613282
 20
12.7797467061
 11
58.054372653
 21
12.7802467061
  0
LINE
  5
2FA
100
AcDbEntity
  8
0
100
AcDbLine
 62
7
  6
CONTINUOUS
 10
57.925254492
 20
12.7802483787
 11
57.9126613282
 21
12.8272467061
  0
LINE
  5
2FB
100
AcDbEntity
  8
0
100
AcDbLine
 62
3
  6
CONTINUOUS
 10
58.9476613282
 20
2.5422467061
 11
58.9476613282
 21
1.0422467061
  0
LINE
  5
2FC
100
AcDbEntity
  8
0
100
AcDbLine
 62
7
  6
CONTINUOUS
 10
58.9976613282
 20
2.4422467061
 11
58.9976613282
 21
1.0422467061
  0
LINE
  5
2FD
100
AcDbEntity
  8
0
100
AcDbLine
 62
3
  6
CONTINUOUS
 10
59.0476613282
 20
2.4422467061
 11
59.0476613282
 21
1.0422467061
  0
LINE
  5
2FE
100
AcDbEntity
  8
0
100
AcDbLine
 62
3
  6
CONTINUOUS
 10
61.7865572434
 20
8.2961263523
 11
61.8689311358
 21
5.9372467061
  0
LINE
  5
2FF
100
AcDbEntity
  8
0
100
AcDbLine
 62
7
  6
CONTINUOUS
 10
43.4179300427
 20
25.3717467061
 11
55.4773926136
 21
25.3717467061
  0
LINE
  5
300
100
AcDbEntity
  8
0
100
AcDbLine
 62
3
  6
CONTINUOUS
 10
1.0137505423
 20
-38.159119217
 11
20.0137505423
 21
-38.159119217
  0
LINE
  5
301
100
AcDbEntity
  8
0
100
AcDbLine
 62
7
  6
CONTINUOUS
 10
1.0137505423
 20
-38.109119217
 11
20.0137505423
 21
-38.109119217
  0
LINE
  5
302
100
AcDbEntity
  8
0
100
AcDbLine
 62
7
  6
CONTINUOUS
 10
0.9137505423
 20
-38.059119217
 11
1.0137505423
 21
-38.059119217
  0
LINE
  5
303
100
AcDbEntity
  8
0
100
AcDbLine
 62
7
  6
CONTINUOUS
 10
20.0137505423
 20
-38.059119217
 11
20.1137505423
 21
-38.059119217
  0
LINE
  5
304
100
AcDbEntity
  8
0
100
AcDbLine
 62
3
  6
CONTINUOUS
 10
0.9137505423
 20
-19.059119217
 11
0.9137505423
 21
-38.059119217
  0
LINE
  5
305
100
AcDbEntity
  8
0
100
AcDbLine
 62
7
  6
CONTINUOUS
 10
0.9637505423
 20
-19.059119217
 11
0.9637505423
 21
-38.059119217
  0
LINE
  5
306
100
AcDbEntity
  8
0
100
AcDbLine
 62
7
  6
CONTINUOUS
 10
1.0137505423
 20
-18.959119217
 11
1.0137505423
 21
-19.059119217
  0
LINE
  5
307
100
AcDbEntity
  8
0
100
AcDbLine
 62
7
  6
CONTINUOUS
 10
1.0137505423
 20
-38.059119217
 11
1.0137505423
 21
-38.159119217
  0
LINE
  5
308
100
AcDbEntity
  8
0
100
AcDbLine
 62
7
  6
CONTINUOUS
 10
5.7407797693
 20
-33.548596341
 11
5.5532797693
 21
-33.4403431655
  0
LINE
  5
309
100
AcDbEntity
  8
0
100
AcDbLine
 62
7
  6
CONTINUOUS
 10
5.7407797693
 20
-33.1155836391
 11
5.9282797693
 21
-33.2238368146
  0
LINE
  5
30A
100
AcDbEntity
  8
0
100
AcDbLine
 62
7
  6
CONTINUOUS
 10
6.4478865504
 20
-32.8414895598
 11
6.2603865504
 21
-32.7332363843
  0
LINE
  5
30B
100
AcDbEntity
  8
0
100
AcDbLine
 62
7
  6
CONTINUOUS
 10
6.4478865504
 20
-32.4084768579
 11
6.6353865504
 21
-32.5167300334
  0
LINE
  5
30C
100
AcDbEntity
  8
0
100
AcDbLine
 62
7
  6
CONTINUOUS
 10
5.5532797693
 20
-33.4403431655
 11
5.5532797693
 21
-33.2238368146
  0
LINE
  5
30D
100
AcDbEntity
  8
0
100
AcDbLine
 62
7
  6
CONTINUOUS
 10
5.5532797693
 20
-23.8944016195
 11
5.5532797693
 21
-23.6778952685
  0
LINE
  5
30E
100
AcDbEntity
  8
0
100
AcDbLine
 62
7
  6
CONTINUOUS
 10
5.9282797693
 20
-23.6778952685
 11
5.9282797693
 21
-23.8944016195
  0
LINE
  5
30F
100
AcDbEntity
  8
0
100
AcDbLine
 62
7
  6
CONTINUOUS
 10
5.9282797693
 20
-33.2238368146
 11
5.9282797693
 21
-33.4403431655
  0
LINE
  5
310
100
AcDbEntity
  8
0
100
AcDbLine
 62
7
  6
CONTINUOUS
 10
6.2603865504
 20
-32.7332363843
 11
6.2603865504
 21
-32.5167300334
  0
LINE
  5
311
100
AcDbEntity
  8
0
100
AcDbLine
 62
7
  6
CONTINUOUS
 10
6.2603865504
 20
-24.6015084007
 11
6.2603865504
 21
-24.3850020497
  0
LINE
  5
312
100
AcDbEntity
  8
0
100
AcDbLine
 62
7
  6
CONTINUOUS
 10
6.6353865504
 20
-24.3850020497
 11
6.6353865504
 21
-24.6015084007
  0
LINE
  5
313
100
AcDbEntity
  8
0
100
AcDbLine
 62
7
  6
CONTINUOUS
 10
6.6353865504
 20
-32.5167300334
 11
6.6353865504
 21
-32.7332363843
  0
LINE
  5
314
100
AcDbEntity
  8
0
100
AcDbLine
 62
7
  6
CONTINUOUS
 10
5.5532797693
 20
-23.6778952685
 11
5.7407797693
 21
-23.5696420931
  0
LINE
  5
315
100
AcDbEntity
  8
0
100
AcDbLine
 62
7
  6
CONTINUOUS
 10
15.2867213153
 20
-33.548596341
 11
15.0992213153
 21
-33.4403431655
  0
LINE
  5
316
100
AcDbEntity
  8
0
100
AcDbLine
 62
7
  6
CONTINUOUS
 10
14.5796145341
 20
-32.8414895598
 11
14.3921145341
 21
-32.7332363843
  0
LINE
  5
317
100
AcDbEntity
  8
0
100
AcDbLine
 62
7
  6
CONTINUOUS
 10
15.2867213153
 20
-33.1155836391
 11
15.4742213153
 21
-33.2238368146
  0
LINE
  5
318
100
AcDbEntity
  8
0
100
AcDbLine
 62
7
  6
CONTINUOUS
 10
14.5796145341
 20
-32.4084768579
 11
14.7671145341
 21
-32.5167300334
  0
LINE
  5
319
100
AcDbEntity
  8
0
100
AcDbLine
 62
7
  6
CONTINUOUS
 10
9.6477251385
 20
-29.3114212847
 11
9.4292251385
 21
-29.1852702508
  0
LINE
  5
31A
100
AcDbEntity
  8
0
100
AcDbLine
 62
7
  6
CONTINUOUS
 10
5.9282797693
 20
-23.8944016195
 11
5.7407797693
 21
-24.002654795
  0
LINE
  5
31B
100
AcDbEntity
  8
0
100
AcDbLine
 62
7
  6
CONTINUOUS
 10
6.2603865504
 20
-24.3850020497
 11
6.4478865504
 21
-24.2767488743
  0
LINE
  5
31C
100
AcDbEntity
  8
0
100
AcDbLine
 62
7
  6
CONTINUOUS
 10
6.6353865504
 20
-24.6015084007
 11
6.4478865504
 21
-24.7097615762
  0
LINE
  5
31D
100
AcDbEntity
  8
0
100
AcDbLine
 62
7
  6
CONTINUOUS
 10
10.3300556526
 20
-28.306619217
 11
10.697445432
 21
-28.306619217
  0
LINE
  5
31E
100
AcDbEntity
  8
0
100
AcDbLine
 62
7
  6
CONTINUOUS
 10
9.6477251385
 20
-28.8068171494
 11
9.8662251385
 21
-28.9329681832
  0
LINE
  5
31F
100
AcDbEntity
  8
0
100
AcDbLine
 62
7
  6
CONTINUOUS
 10
9.6959302192
 20
-28.375625568
 11
9.8803261338
 21
-28.4820865989
  0
LINE
  5
320
100
AcDbEntity
  8
0
100
AcDbLine
 62
7
  6
CONTINUOUS
 10
9.4255402849
 20
-28.1839546721
 11
9.2449174416
 21
-28.0796720249
  0
LINE
  5
321
100
AcDbEntity
  8
0
100
AcDbLine
 62
7
  6
CONTINUOUS
 10
11.3797759461
 20
-29.3114212847
 11
11.1612759461
 21
-29.1852702508
  0
LINE
  5
322
100
AcDbEntity
  8
0
100
AcDbLine
 62
7
  6
CONTINUOUS
 10
9.7496229876
 20
-28.361238634
 11
9.8988205649
 21
-28.4473778955
  0
LINE
  5
323
100
AcDbEntity
  8
0
100
AcDbLine
 62
7
  6
CONTINUOUS
 10
9.7604501448
 20
-28.3031796132
 11
9.457641836
 21
-28.1283531546
  0
LINE
  5
324
100
AcDbEntity
  8
0
100
AcDbLine
 62
7
  6
CONTINUOUS
 10
9.535141836
 20
-27.994119217
 11
9.3545189927
 21
-27.8898365698
  0
LINE
  5
325
100
AcDbEntity
  8
0
100
AcDbLine
 62
7
  6
CONTINUOUS
 10
10.3747441913
 20
-28.2998852794
 11
10.3557553194
 21
-28.2889220491
  0
LINE
  5
326
100
AcDbEntity
  8
0
100
AcDbLine
 62
7
  6
CONTINUOUS
 10
9.9154501448
 20
-28.0347117381
 11
9.612641836
 21
-27.8598852794
  0
LINE
  5
327
100
AcDbEntity
  8
0
100
AcDbLine
 62
7
  6
CONTINUOUS
 10
9.9603171532
 20
-27.9963056345
 11
10.1095147305
 21
-28.0824448959
  0
LINE
  5
328
100
AcDbEntity
  8
0
100
AcDbLine
 62
7
  6
CONTINUOUS
 10
11.3797759461
 20
-28.8068171494
 11
11.5982759461
 21
-28.9329681832
  0
LINE
  5
329
100
AcDbEntity
  8
0
100
AcDbLine
 62
7
  6
CONTINUOUS
 10
9.6447433871
 20
-27.804283762
 11
9.4641205438
 21
-27.7000011148
  0
LINE
  5
32A
100
AcDbEntity
  8
0
100
AcDbLine
 62
7
  6
CONTINUOUS
 10
9.9459302192
 20
-27.9426128661
 11
10.1303261338
 21
-28.049073897
  0
LINE
  5
32B
100
AcDbEntity
  8
0
100
AcDbLine
 62
7
  6
CONTINUOUS
 10
10.5137505423
 20
-27.8114212847
 11
10.2952505423
 21
-27.6852702508
  0
LINE
  5
32C
100
AcDbEntity
  8
0
100
AcDbLine
 62
7
  6
CONTINUOUS
 10
9.4292251385
 20
-29.1852702508
 11
9.4292251385
 21
-28.9329681832
  0
LINE
  5
32D
100
AcDbEntity
  8
0
100
AcDbLine
 62
7
  6
CONTINUOUS
 10
9.8662251385
 20
-28.9329681832
 11
9.8662251385
 21
-29.1852702508
  0
LINE
  5
32E
100
AcDbEntity
  8
0
100
AcDbLine
 62
7
  6
CONTINUOUS
 10
10.2952505423
 20
-27.6852702508
 11
10.2952505423
 21
-27.4329681832
  0
LINE
  5
32F
100
AcDbEntity
  8
0
100
AcDbLine
 62
7
  6
CONTINUOUS
 10
9.7496229876
 20
-28.361238634
 11
9.6959302192
 21
-28.375625568
  0
LINE
  5
330
100
AcDbEntity
  8
0
100
AcDbLine
 62
7
  6
CONTINUOUS
 10
10.5137505423
 20
-27.3068171494
 11
10.7322505423
 21
-27.4329681832
  0
LINE
  5
331
100
AcDbEntity
  8
0
100
AcDbLine
 62
7
  6
CONTINUOUS
 10
6.4478865504
 20
-24.7097615762
 11
6.2603865504
 21
-24.6015084007
  0
LINE
  5
332
100
AcDbEntity
  8
0
100
AcDbLine
 62
7
  6
CONTINUOUS
 10
5.7407797693
 20
-24.002654795
 11
5.5532797693
 21
-23.8944016195
  0
LINE
  5
333
100
AcDbEntity
  8
0
100
AcDbLine
 62
7
  6
CONTINUOUS
 10
6.4478865504
 20
-24.2767488743
 11
6.6353865504
 21
-24.3850020497
  0
LINE
  5
334
100
AcDbEntity
  8
0
100
AcDbLine
 62
7
  6
CONTINUOUS
 10
5.7407797693
 20
-23.5696420931
 11
5.9282797693
 21
-23.6778952685
  0
LINE
  5
335
100
AcDbEntity
  8
0
100
AcDbLine
 62
7
  6
CONTINUOUS
 10
9.9459302192
 20
-27.9426128661
 11
9.9603171532
 21
-27.9963056345
  0
LINE
  5
336
100
AcDbEntity
  8
0
100
AcDbLine
 62
7
  6
CONTINUOUS
 10
10.7322505423
 20
-27.4329681832
 11
10.7322505423
 21
-27.6852702508
  0
LINE
  5
337
100
AcDbEntity
  8
0
100
AcDbLine
 62
7
  6
CONTINUOUS
 10
11.1612759461
 20
-29.1852702508
 11
11.1612759461
 21
-28.9329681832
  0
LINE
  5
338
100
AcDbEntity
  8
0
100
AcDbLine
 62
7
  6
CONTINUOUS
 10
11.5982759461
 20
-28.9329681832
 11
11.5982759461
 21
-29.1852702508
  0
LINE
  5
339
100
AcDbEntity
  8
0
100
AcDbLine
 62
7
  6
CONTINUOUS
 10
9.4255402849
 20
-28.1839546721
 11
9.6447433871
 21
-27.804283762
  0
LINE
  5
33A
100
AcDbEntity
  8
0
100
AcDbLine
 62
7
  6
CONTINUOUS
 10
9.6959302192
 20
-28.375625568
 11
9.7434302192
 21
-28.2933531546
  0
LINE
  5
33B
100
AcDbEntity
  8
0
100
AcDbLine
 62
7
  6
CONTINUOUS
 10
9.8984302192
 20
-28.0248852794
 11
9.9459302192
 21
-27.9426128661
  0
LINE
  5
33C
100
AcDbEntity
  8
0
100
AcDbLine
 62
7
  6
CONTINUOUS
 10
9.9603171532
 20
-27.9963056345
 11
9.7496229876
 21
-28.361238634
  0
LINE
  5
33D
100
AcDbEntity
  8
0
100
AcDbLine
 62
7
  6
CONTINUOUS
 10
10.3747441913
 20
-28.2998852794
 11
10.3708563506
 21
-28.306619217
  0
LINE
  5
33E
100
AcDbEntity
  8
0
100
AcDbLine
 62
7
  6
CONTINUOUS
 10
15.0992213153
 20
-23.6778952685
 11
15.2867213153
 21
-23.5696420931
  0
LINE
  5
33F
100
AcDbEntity
  8
0
100
AcDbLine
 62
7
  6
CONTINUOUS
 10
14.3921145341
 20
-24.3850020497
 11
14.5796145341
 21
-24.2767488743
  0
LINE
  5
340
100
AcDbEntity
  8
0
100
AcDbLine
 62
7
  6
CONTINUOUS
 10
15.4742213153
 20
-23.8944016195
 11
15.2867213153
 21
-24.002654795
  0
LINE
  5
341
100
AcDbEntity
  8
0
100
AcDbLine
 62
7
  6
CONTINUOUS
 10
14.7671145341
 20
-24.6015084007
 11
14.5796145341
 21
-24.7097615762
  0
LINE
  5
342
100
AcDbEntity
  8
0
100
AcDbLine
 62
7
  6
CONTINUOUS
 10
10.2952505423
 20
-27.4329681832
 11
10.5137505423
 21
-27.3068171494
  0
LINE
  5
343
100
AcDbEntity
  8
0
100
AcDbLine
 62
7
  6
CONTINUOUS
 10
14.3921145341
 20
-32.7332363843
 11
14.3921145341
 21
-32.5167300334
  0
LINE
  5
344
100
AcDbEntity
  8
0
100
AcDbLine
 62
7
  6
CONTINUOUS
 10
14.3921145341
 20
-24.6015084007
 11
14.3921145341
 21
-24.3850020497
  0
LINE
  5
345
100
AcDbEntity
  8
0
100
AcDbLine
 62
7
  6
CONTINUOUS
 10
10.7322505423
 20
-27.6852702508
 11
10.5137505423
 21
-27.8114212847
  0
LINE
  5
346
100
AcDbEntity
  8
0
100
AcDbLine
 62
7
  6
CONTINUOUS
 10
9.4292251385
 20
-28.9329681832
 11
9.6477251385
 21
-28.8068171494
  0
LINE
  5
347
100
AcDbEntity
  8
0
100
AcDbLine
 62
7
  6
CONTINUOUS
 10
9.8662251385
 20
-29.1852702508
 11
9.6477251385
 21
-29.3114212847
  0
LINE
  5
348
100
AcDbEntity
  8
0
100
AcDbLine
 62
7
  6
CONTINUOUS
 10
14.5796145341
 20
-24.7097615762
 11
14.3921145341
 21
-24.6015084007
  0
LINE
  5
349
100
AcDbEntity
  8
0
100
AcDbLine
 62
7
  6
CONTINUOUS
 10
14.5796145341
 20
-24.2767488743
 11
14.7671145341
 21
-24.3850020497
  0
LINE
  5
34A
100
AcDbEntity
  8
0
100
AcDbLine
 62
7
  6
CONTINUOUS
 10
15.2867213153
 20
-24.002654795
 11
15.0992213153
 21
-23.8944016195
  0
LINE
  5
34B
100
AcDbEntity
  8
0
100
AcDbLine
 62
7
  6
CONTINUOUS
 10
14.7671145341
 20
-24.3850020497
 11
14.7671145341
 21
-24.6015084007
  0
LINE
  5
34C
100
AcDbEntity
  8
0
100
AcDbLine
 62
7
  6
CONTINUOUS
 10
14.7671145341
 20
-32.5167300334
 11
14.7671145341
 21
-32.7332363843
  0
LINE
  5
34D
100
AcDbEntity
  8
0
100
AcDbLine
 62
7
  6
CONTINUOUS
 10
15.0992213153
 20
-33.4403431655
 11
15.0992213153
 21
-33.2238368146
  0
LINE
  5
34E
100
AcDbEntity
  8
0
100
AcDbLine
 62
7
  6
CONTINUOUS
 10
15.0992213153
 20
-23.8944016195
 11
15.0992213153
 21
-23.6778952685
  0
LINE
  5
34F
100
AcDbEntity
  8
0
100
AcDbLine
 62
7
  6
CONTINUOUS
 10
15.4742213153
 20
-23.6778952685
 11
15.4742213153
 21
-23.8944016195
  0
LINE
  5
350
100
AcDbEntity
  8
0
100
AcDbLine
 62
7
  6
CONTINUOUS
 10
15.4742213153
 20
-33.2238368146
 11
15.4742213153
 21
-33.4403431655
  0
LINE
  5
351
100
AcDbEntity
  8
0
100
AcDbLine
 62
7
  6
CONTINUOUS
 10
11.1612759461
 20
-28.9329681832
 11
11.3797759461
 21
-28.8068171494
  0
LINE
  5
352
100
AcDbEntity
  8
0
100
AcDbLine
 62
7
  6
CONTINUOUS
 10
11.5982759461
 20
-29.1852702508
 11
11.3797759461
 21
-29.3114212847
  0
LINE
  5
353
100
AcDbEntity
  8
0
100
AcDbLine
 62
7
  6
CONTINUOUS
 10
6.2603865504
 20
-32.5167300334
 11
6.4478865504
 21
-32.4084768579
  0
LINE
  5
354
100
AcDbEntity
  8
0
100
AcDbLine
 62
7
  6
CONTINUOUS
 10
5.5532797693
 20
-33.2238368146
 11
5.7407797693
 21
-33.1155836391
  0
LINE
  5
355
100
AcDbEntity
  8
0
100
AcDbLine
 62
7
  6
CONTINUOUS
 10
6.6353865504
 20
-32.7332363843
 11
6.4478865504
 21
-32.8414895598
  0
LINE
  5
356
100
AcDbEntity
  8
0
100
AcDbLine
 62
7
  6
CONTINUOUS
 10
5.9282797693
 20
-33.4403431655
 11
5.7407797693
 21
-33.548596341
  0
LINE
  5
357
100
AcDbEntity
  8
0
100
AcDbLine
 62
7
  6
CONTINUOUS
 10
15.2867213153
 20
-23.5696420931
 11
15.4742213153
 21
-23.6778952685
  0
LINE
  5
358
100
AcDbEntity
  8
0
100
AcDbLine
 62
7
  6
CONTINUOUS
 10
0.9137505423
 20
-19.059119217
 11
1.0137505423
 21
-19.059119217
  0
LINE
  5
359
100
AcDbEntity
  8
0
100
AcDbLine
 62
7
  6
CONTINUOUS
 10
20.0137505423
 20
-19.059119217
 11
20.1137505423
 21
-19.059119217
  0
LINE
  5
35A
100
AcDbEntity
  8
0
100
AcDbLine
 62
7
  6
CONTINUOUS
 10
20.0137505423
 20
-19.009119217
 11
1.0137505423
 21
-19.009119217
  0
LINE
  5
35B
100
AcDbEntity
  8
0
100
AcDbLine
 62
3
  6
CONTINUOUS
 10
20.0137505423
 20
-18.959119217
 11
1.0137505423
 21
-18.959119217
  0
LINE
  5
35C
100
AcDbEntity
  8
0
100
AcDbLine
 62
7
  6
CONTINUOUS
 10
20.0137505423
 20
-18.959119217
 11
20.0137505423
 21
-19.059119217
  0
LINE
  5
35D
100
AcDbEntity
  8
0
100
AcDbLine
 62
7
  6
CONTINUOUS
 10
20.0137505423
 20
-38.059119217
 11
20.0137505423
 21
-38.159119217
  0
LINE
  5
35E
100
AcDbEntity
  8
0
100
AcDbLine
 62
7
  6
CONTINUOUS
 10
20.0637505423
 20
-38.059119217
 11
20.0637505423
 21
-19.059119217
  0
LINE
  5
35F
100
AcDbEntity
  8
0
100
AcDbLine
 62
3
  6
CONTINUOUS
 10
20.1137505423
 20
-38.059119217
 11
20.1137505423
 21
-19.059119217
  0
LINE
  5
360
100
AcDbEntity
  8
0
100
AcDbLine
 62
7
  6
CONTINUOUS
 10
14.3921145341
 20
-32.5167300334
 11
14.5796145341
 21
-32.4084768579
  0
LINE
  5
361
100
AcDbEntity
  8
0
100
AcDbLine
 62
7
  6
CONTINUOUS
 10
14.7671145341
 20
-32.7332363843
 11
14.5796145341
 21
-32.8414895598
  0
LINE
  5
362
100
AcDbEntity
  8
0
100
AcDbLine
 62
7
  6
CONTINUOUS
 10
15.0992213153
 20
-33.2238368146
 11
15.2867213153
 21
-33.1155836391
  0
LINE
  5
363
100
AcDbEntity
  8
0
100
AcDbLine
 62
7
  6
CONTINUOUS
 10
15.4742213153
 20
-33.4403431655
 11
15.2867213153
 21
-33.548596341
  0
ARC
  5
364
100
AcDbEntity
  8
0
100
AcDbCircle
 62
3
  6
CONTINUOUS
 10
0.8632159517
 20
8.2022467061
 40
2.69
100
AcDbArc
 50
90.0
 51
178.0
  0
ARC
  5
365
100
AcDbEntity
  8
0
100
AcDbCircle
 62
7
  6
CONTINUOUS
 10
5.016204592
 20
5.1761031705
 40
0.3633709341
100
AcDbArc
 50
134.0559206247
 51
140.804949358
  0
ARC
  5
366
100
AcDbEntity
  8
0
100
AcDbCircle
 62
7
  6
CONTINUOUS
 10
4.7702395481
 20
3.337446932
 40
0.3037576204
100
AcDbArc
 50
20.5828164437
 51
22.2056546955
  0
ARC
  5
367
100
AcDbEntity
  8
0
100
AcDbCircle
 62
3
  6
CONTINUOUS
 10
-2.1033634425
 20
5.6872467061
 40
0.25
100
AcDbArc
 50
90.0
 51
270.0
  0
ARC
  5
368
100
AcDbEntity
  8
0
100
AcDbCircle
 62
3
  6
CONTINUOUS
 10
2.4537505423
 20
11.1422467061
 40
0.25
100
AcDbArc
 50
270.0
 51
360.0
  0
ARC
  5
369
100
AcDbEntity
  8
0
100
AcDbCircle
 62
7
  6
CONTINUOUS
 10
0.8237505423
 20
11.5617467061
 40
0.19
100
AcDbArc
 50
90.0
 51
270.0
  0
CIRCLE
  5
36A
100
AcDbEntity
  8
0
100
AcDbCircle
 62
3
  6
CONTINUOUS
 10
5.7637505423
 20
1.7922467061
 40
0.155
  0
ARC
  5
36B
100
AcDbEntity
  8
0
100
AcDbCircle
 62
3
  6
CONTINUOUS
 10
2.5637505423
 20
11.2217467061
 40
0.14
100
AcDbArc
 50
270.0
 51
360.0
  0
ARC
  5
36C
100
AcDbEntity
  8
0
100
AcDbCircle
 62
3
  6
CONTINUOUS
 10
1.0137505423
 20
2.4422467061
 40
0.1
100
AcDbArc
 50
90.0
 51
180.0
  0
ARC
  5
36D
100
AcDbEntity
  8
0
100
AcDbCircle
 62
7
  6
CONTINUOUS
 10
4.7225017638
 20
5.5296633707
 40
0.094416675
100
AcDbArc
 50
270.0268469029
 51
281.5699384867
  0
ARC
  5
36E
100
AcDbEntity
  8
0
100
AcDbCircle
 62
7
  6
CONTINUOUS
 10
4.7225902449
 20
5.5296633707
 40
0.094416675
100
AcDbArc
 50
258.4300615133
 51
269.9731530971
  0
ARC
  5
36F
100
AcDbEntity
  8
0
100
AcDbCircle
 62
7
  6
CONTINUOUS
 10
2.5637505423
 20
11.2217467061
 40
0.07
100
AcDbArc
 50
270.0
 51
360.0
  0
ARC
  5
370
100
AcDbEntity
  8
0
100
AcDbCircle
 62
7
  6
CONTINUOUS
 10
1.0137505423
 20
2.4422467061
 40
0.05
100
AcDbArc
 50
90.0
 51
180.0
  0
ARC
  5
371
100
AcDbEntity
  8
0
100
AcDbCircle
 62
7
  6
CONTINUOUS
 10
4.4840188648
 20
23.3717467061
 40
2.0
100
AcDbArc
 50
90.0
 51
178.0
  0
ARC
  5
372
100
AcDbEntity
  8
0
100
AcDbCircle
 62
3
  6
CONTINUOUS
 10
20.1642851328
 20
8.2022467061
 40
2.69
100
AcDbArc
 50
2.0
 51
90.0
  0
ARC
  5
373
100
AcDbEntity
  8
0
100
AcDbCircle
 62
7
  6
CONTINUOUS
 10
16.3543713013
 20
3.3222511565
 40
0.3676142312
100
AcDbArc
 50
179.9347993602
 51
180.1442010039
  0
ARC
  5
374
100
AcDbEntity
  8
0
100
AcDbCircle
 62
7
  6
CONTINUOUS
 10
10.5137505423
 20
11.6622467061
 40
0.365
100
AcDbArc
 50
232.931535778
 51
307.068464222
  0
CIRCLE
  5
375
100
AcDbEntity
  8
0
100
AcDbCircle
 62
7
  6
CONTINUOUS
 10
10.5137505423
 20
12.5617467061
 40
0.365
  0
ARC
  5
376
100
AcDbEntity
  8
0
100
AcDbCircle
 62
7
  6
CONTINUOUS
 10
16.011296492
 20
5.1761031711
 40
0.3633709341
100
AcDbArc
 50
39.1950505158
 51
45.9440792491
  0
CIRCLE
  5
377
100
AcDbEntity
  8
0
100
AcDbCircle
 62
7
  6
CONTINUOUS
 10
10.5137505423
 20
12.5617467061
 40
0.2655
  0
ARC
  5
378
100
AcDbEntity
  8
0
100
AcDbCircle
 62
3
  6
CONTINUOUS
 10
23.1308645271
 20
5.6872467061
 40
0.25
100
AcDbArc
 50
270.0
 51
90.0
  0
ARC
  5
379
100
AcDbEntity
  8
0
100
AcDbCircle
 62
3
  6
CONTINUOUS
 10
18.5737505423
 20
11.1422467061
 40
0.25
100
AcDbArc
 50
180.0
 51
270.0
  0
CIRCLE
  5
37A
100
AcDbEntity
  8
0
100
AcDbCircle
 62
7
  6
CONTINUOUS
 10
10.5137505423
 20
12.5617467061
 40
0.218
  0
ARC
  5
37B
100
AcDbEntity
  8
0
100
AcDbCircle
 62
7
  6
CONTINUOUS
 10
20.2037505423
 20
11.5617467061
 40
0.19
100
AcDbArc
 50
270.0
 51
90.0
  0
CIRCLE
  5
37C
100
AcDbEntity
  8
0
100
AcDbCircle
 62
3
  6
CONTINUOUS
 10
15.2637505423
 20
1.7922467061
 40
0.155
  0
ARC
  5
37D
100
AcDbEntity
  8
0
100
AcDbCircle
 62
3
  6
CONTINUOUS
 10
18.4637505423
 20
11.2217467061
 40
0.14
100
AcDbArc
 50
180.0
 51
270.0
  0
ARC
  5
37E
100
AcDbEntity
  8
0
100
AcDbCircle
 62
3
  6
CONTINUOUS
 10
20.0137505423
 20
2.4422467061
 40
0.1
100
AcDbArc
 50
0.0
 51
90.0
  0
ARC
  5
37F
100
AcDbEntity
  8
0
100
AcDbCircle
 62
7
  6
CONTINUOUS
 10
16.3049108397
 20
5.5296633707
 40
0.094416675
100
AcDbArc
 50
270.0268469029
 51
281.5699384867
  0
ARC
  5
380
100
AcDbEntity
  8
0
100
AcDbCircle
 62
7
  6
CONTINUOUS
 10
16.3049993207
 20
5.5296633707
 40
0.094416675
100
AcDbArc
 50
258.4300615133
 51
269.9731530971
  0
ARC
  5
381
100
AcDbEntity
  8
0
100
AcDbCircle
 62
7
  6
CONTINUOUS
 10
18.4637505423
 20
11.2217467061
 40
0.07
100
AcDbArc
 50
180.0
 51
270.0
  0
ARC
  5
382
100
AcDbEntity
  8
0
100
AcDbCircle
 62
7
  6
CONTINUOUS
 10
20.0137505423
 20
2.4422467061
 40
0.05
100
AcDbArc
 50
0.0
 51
90.0
  0
ARC
  5
383
100
AcDbEntity
  8
0
100
AcDbCircle
 62
7
  6
CONTINUOUS
 10
16.5434822198
 20
23.3717467061
 40
2.0
100
AcDbArc
 50
2.0
 51
90.0
  0
ARC
  5
384
100
AcDbEntity
  8
0
100
AcDbCircle
 62
3
  6
CONTINUOUS
 10
39.7971267376
 20
8.2022467061
 40
2.69
100
AcDbArc
 50
90.0
 51
178.0
  0
ARC
  5
385
100
AcDbEntity
  8
0
100
AcDbCircle
 62
7
  6
CONTINUOUS
 10
43.6070405702
 20
3.3222422558
 40
0.3676142301
100
AcDbArc
 50
359.93479936
 51
0.1442010044
  0
ARC
  5
386
100
AcDbEntity
  8
0
100
AcDbCircle
 62
7
  6
CONTINUOUS
 10
43.9501153779
 20
5.1761031705
 40
0.3633709341
100
AcDbArc
 50
134.0559206246
 51
140.804949358
  0
ARC
  5
387
100
AcDbEntity
  8
0
100
AcDbCircle
 62
3
  6
CONTINUOUS
 10
36.8305473434
 20
5.6872467061
 40
0.25
100
AcDbArc
 50
90.0
 51
270.0
  0
ARC
  5
388
100
AcDbEntity
  8
0
100
AcDbCircle
 62
3
  6
CONTINUOUS
 10
41.3876613282
 20
11.1422467061
 40
0.25
100
AcDbArc
 50
270.0
 51
360.0
  0
ARC
  5
389
100
AcDbEntity
  8
0
100
AcDbCircle
 62
7
  6
CONTINUOUS
 10
39.7576613282
 20
11.5617467061
 40
0.19
100
AcDbArc
 50
90.0
 51
270.0
  0
CIRCLE
  5
38A
100
AcDbEntity
  8
0
100
AcDbCircle
 62
3
  6
CONTINUOUS
 10
44.6976613282
 20
1.7922467061
 40
0.155
  0
ARC
  5
38B
100
AcDbEntity
  8
0
100
AcDbCircle
 62
3
  6
CONTINUOUS
 10
41.4976613282
 20
11.2217467061
 40
0.14
100
AcDbArc
 50
270.0
 51
360.0
  0
ARC
  5
38C
100
AcDbEntity
  8
0
100
AcDbCircle
 62
3
  6
CONTINUOUS
 10
39.9476613282
 20
2.4422467061
 40
0.1
100
AcDbArc
 50
90.0
 51
180.0
  0
ARC
  5
38D
100
AcDbEntity
  8
0
100
AcDbCircle
 62
7
  6
CONTINUOUS
 10
43.6564125497
 20
5.5296633707
 40
0.094416675
100
AcDbArc
 50
270.0268469029
 51
281.5699384866
  0
ARC
  5
38E
100
AcDbEntity
  8
0
100
AcDbCircle
 62
7
  6
CONTINUOUS
 10
43.6565010308
 20
5.5296633707
 40
0.094416675
100
AcDbArc
 50
258.4300615133
 51
269.9731530972
  0
ARC
  5
38F
100
AcDbEntity
  8
0
100
AcDbCircle
 62
7
  6
CONTINUOUS
 10
41.4976613282
 20
11.2217467061
 40
0.07
100
AcDbArc
 50
270.0
 51
360.0
  0
ARC
  5
390
100
AcDbEntity
  8
0
100
AcDbCircle
 62
7
  6
CONTINUOUS
 10
39.9476613282
 20
2.4422467061
 40
0.05
100
AcDbArc
 50
90.0
 51
180.0
  0
ARC
  5
391
100
AcDbEntity
  8
0
100
AcDbCircle
 62
7
  6
CONTINUOUS
 10
43.4179296506
 20
23.3717467061
 40
2.0
100
AcDbArc
 50
90.0
 51
178.0
  0
ARC
  5
392
100
AcDbEntity
  8
0
100
AcDbCircle
 62
3
  6
CONTINUOUS
 10
59.0981959187
 20
8.2022467061
 40
2.69
100
AcDbArc
 50
2.0
 51
90.0
  0
ARC
  5
393
100
AcDbEntity
  8
0
100
AcDbCircle
 62
7
  6
CONTINUOUS
 10
49.4476613282
 20
11.6622467061
 40
0.365
100
AcDbArc
 50
232.931535778
 51
307.068464222
  0
CIRCLE
  5
394
100
AcDbEntity
  8
0
100
AcDbCircle
 62
7
  6
CONTINUOUS
 10
49.4476613282
 20
12.5617467061
 40
0.365
  0
ARC
  5
395
100
AcDbEntity
  8
0
100
AcDbCircle
 62
7
  6
CONTINUOUS
 10
54.9452072779
 20
5.1761031711
 40
0.3633709341
100
AcDbArc
 50
39.1950505157
 51
45.9440792491
  0
CIRCLE
  5
396
100
AcDbEntity
  8
0
100
AcDbCircle
 62
7
  6
CONTINUOUS
 10
49.4476613282
 20
12.5617467061
 40
0.2655
  0
ARC
  5
397
100
AcDbEntity
  8
0
100
AcDbCircle
 62
3
  6
CONTINUOUS
 10
62.0647753129
 20
5.6872467061
 40
0.25
100
AcDbArc
 50
270.0
 51
90.0
  0
ARC
  5
398
100
AcDbEntity
  8
0
100
AcDbCircle
 62
3
  6
CONTINUOUS
 10
57.5076613282
 20
11.1422467061
 40
0.25
100
AcDbArc
 50
180.0
 51
270.0
  0
CIRCLE
  5
399
100
AcDbEntity
  8
0
100
AcDbCircle
 62
7
  6
CONTINUOUS
 10
49.4476613282
 20
12.5617467061
 40
0.218
  0
ARC
  5
39A
100
AcDbEntity
  8
0
100
AcDbCircle
 62
7
  6
CONTINUOUS
 10
59.1376613282
 20
11.5617467061
 40
0.19
100
AcDbArc
 50
270.0
 51
90.0
  0
CIRCLE
  5
39B
100
AcDbEntity
  8
0
100
AcDbCircle
 62
3
  6
CONTINUOUS
 10
54.1976613282
 20
1.7922467061
 40
0.155
  0
ARC
  5
39C
100
AcDbEntity
  8
0
100
AcDbCircle
 62
3
  6
CONTINUOUS
 10
57.3976613282
 20
11.2217467061
 40
0.14
100
AcDbArc
 50
180.0
 51
270.0
  0
ARC
  5
39D
100
AcDbEntity
  8
0
100
AcDbCircle
 62
3
  6
CONTINUOUS
 10
58.9476613282
 20
2.4422467061
 40
0.1
100
AcDbArc
 50
0.0
 51
90.0
  0
ARC
  5
39E
100
AcDbEntity
  8
0
100
AcDbCircle
 62
7
  6
CONTINUOUS
 10
55.2388216255
 20
5.5296633707
 40
0.094416675
100
AcDbArc
 50
270.0268469029
 51
281.5699384866
  0
ARC
  5
39F
100
AcDbEntity
  8
0
100
AcDbCircle
 62
7
  6
CONTINUOUS
 10
55.2389101066
 20
5.5296633707
 40
0.094416675
100
AcDbArc
 50
258.4300615133
 51
269.9731530971
  0
ARC
  5
3A0
100
AcDbEntity
  8
0
100
AcDbCircle
 62
7
  6
CONTINUOUS
 10
57.3976613282
 20
11.2217467061
 40
0.07
100
AcDbArc
 50
180.0
 51
270.0
  0
ARC
  5
3A1
100
AcDbEntity
  8
0
100
AcDbCircle
 62
7
  6
CONTINUOUS
 10
58.9476613282
 20
2.4422467061
 40
0.05
100
AcDbArc
 50
0.0
 51
90.0
  0
ARC
  5
3A2
100
AcDbEntity
  8
0
100
AcDbCircle
 62
7
  6
CONTINUOUS
 10
55.4773930057
 20
23.3717467061
 40
2.0
100
AcDbArc
 50
2.0
 51
90.0
  0
CIRCLE
  5
3A3
100
AcDbEntity
  8
0
100
AcDbCircle
 62
7
  6
CONTINUOUS
 10
5.7407797693
 20
-33.33208999
 40
0.345
  0
CIRCLE
  5
3A4
100
AcDbEntity
  8
0
100
AcDbCircle
 62
7
  6
CONTINUOUS
 10
6.4478865504
 20
-32.6249832089
 40
0.345
  0
CIRCLE
  5
3A5
100
AcDbEntity
  8
0
100
AcDbCircle
 62
7
  6
CONTINUOUS
 10
5.7407797693
 20
-33.33208999
 40
0.26
  0
CIRCLE
  5
3A6
100
AcDbEntity
  8
0
100
AcDbCircle
 62
7
  6
CONTINUOUS
 10
6.4478865504
 20
-32.6249832089
 40
0.26
  0
CIRCLE
  5
3A7
100
AcDbEntity
  8
0
100
AcDbCircle
 62
7
  6
CONTINUOUS
 10
5.7407797693
 20
-33.33208999
 40
0.187
  0
CIRCLE
  5
3A8
100
AcDbEntity
  8
0
100
AcDbCircle
 62
7
  6
CONTINUOUS
 10
6.4478865504
 20
-32.6249832089
 40
0.187
  0
ARC
  5
3A9
100
AcDbEntity
  8
0
100
AcDbCircle
 62
7
  6
CONTINUOUS
 10
10.002795554
 20
-28.264119217
 40
0.78
100
AcDbArc
 50
133.6783348578
 51
166.3216651422
  0
ARC
  5
3AA
100
AcDbEntity
  8
0
100
AcDbCircle
 62
7
  6
CONTINUOUS
 10
9.7398324978
 20
-27.9888711375
 40
0.3993281503
100
AcDbArc
 50
133.6649142478
 51
138.6576625913
  0
CIRCLE
  5
3AB
100
AcDbEntity
  8
0
100
AcDbCircle
 62
7
  6
CONTINUOUS
 10
5.7407797693
 20
-23.786148444
 40
0.345
  0
CIRCLE
  5
3AC
100
AcDbEntity
  8
0
100
AcDbCircle
 62
7
  6
CONTINUOUS
 10
6.4478865504
 20
-24.4932552252
 40
0.345
  0
CIRCLE
  5
3AD
100
AcDbEntity
  8
0
100
AcDbCircle
 62
7
  6
CONTINUOUS
 10
9.6477251385
 20
-29.059119217
 40
0.2655
  0
CIRCLE
  5
3AE
100
AcDbEntity
  8
0
100
AcDbCircle
 62
7
  6
CONTINUOUS
 10
5.7407797693
 20
-23.786148444
 40
0.26
  0
CIRCLE
  5
3AF
100
AcDbEntity
  8
0
100
AcDbCircle
 62
7
  6
CONTINUOUS
 10
6.4478865504
 20
-24.4932552252
 40
0.26
  0
CIRCLE
  5
3B0
100
AcDbEntity
  8
0
100
AcDbCircle
 62
7
  6
CONTINUOUS
 10
9.6477251385
 20
-29.059119217
 40
0.218
  0
CIRCLE
  5
3B1
100
AcDbEntity
  8
0
100
AcDbCircle
 62
7
  6
CONTINUOUS
 10
5.7407797693
 20
-23.786148444
 40
0.187
  0
CIRCLE
  5
3B2
100
AcDbEntity
  8
0
100
AcDbCircle
 62
7
  6
CONTINUOUS
 10
6.4478865504
 20
-24.4932552252
 40
0.187
  0
CIRCLE
  5
3B3
100
AcDbEntity
  8
0
100
AcDbCircle
 62
7
  6
CONTINUOUS
 10
12.9533574236
 20
-34.4488512368
 40
0.55
  0
CIRCLE
  5
3B4
100
AcDbEntity
  8
0
100
AcDbCircle
 62
7
  6
CONTINUOUS
 10
12.9533574236
 20
-34.4488512368
 40
0.5
  0
CIRCLE
  5
3B5
100
AcDbEntity
  8
AXIS
100
AcDbCircle
 62
7
  6
CONTINUOUS
 10
12.9533574236
 20
-34.4488512368
 40
0.47
  0
CIRCLE
  5
3B6
100
AcDbEntity
  8
0
100
AcDbCircle
 62
7
  6
CONTINUOUS
 10
12.9533574236
 20
-34.4488512368
 40
0.46
  0
CIRCLE
  5
3B7
100
AcDbEntity
  8
0
100
AcDbCircle
 62
7
  6
CONTINUOUS
 10
12.9533574236
 20
-34.4488512368
 40
0.41
  0
CIRCLE
  5
3B8
100
AcDbEntity
  8
0
100
AcDbCircle
 62
7
  6
CONTINUOUS
 10
14.5796145341
 20
-32.6249832089
 40
0.345
  0
CIRCLE
  5
3B9
100
AcDbEntity
  8
0
100
AcDbCircle
 62
7
  6
CONTINUOUS
 10
15.2867213153
 20
-33.33208999
 40
0.345
  0
CIRCLE
  5
3BA
100
AcDbEntity
  8
0
100
AcDbCircle
 62
7
  6
CONTINUOUS
 10
15.2867213153
 20
-33.33208999
 40
0.26
  0
CIRCLE
  5
3BB
100
AcDbEntity
  8
0
100
AcDbCircle
 62
7
  6
CONTINUOUS
 10
14.5796145341
 20
-32.6249832089
 40
0.26
  0
CIRCLE
  5
3BC
100
AcDbEntity
  8
0
100
AcDbCircle
 62
7
  6
CONTINUOUS
 10
15.2867213153
 20
-33.33208999
 40
0.187
  0
CIRCLE
  5
3BD
100
AcDbEntity
  8
0
100
AcDbCircle
 62
7
  6
CONTINUOUS
 10
14.5796145341
 20
-32.6249832089
 40
0.187
  0
ARC
  5
3BE
100
AcDbEntity
  8
0
100
AcDbCircle
 62
3
  6
CONTINUOUS
 10
10.5137505423
 20
-28.559119217
 40
12.8671139848
100
AcDbArc
 50
48.2547173745
 51
131.7452826255
  0
ARC
  5
3BF
100
AcDbEntity
  8
0
100
AcDbCircle
 62
3
  6
CONTINUOUS
 10
10.5137505423
 20
-28.559119217
 40
12.8671139848
100
AcDbArc
 50
138.2640329783
 51
221.7359670217
  0
ARC
  5
3C0
100
AcDbEntity
  8
0
100
AcDbCircle
 62
3
  6
CONTINUOUS
 10
10.5137505423
 20
-28.559119217
 40
12.8671139848
100
AcDbArc
 50
228.2547173745
 51
311.7452826255
  0
ARC
  5
3C1
100
AcDbEntity
  8
0
100
AcDbCircle
 62
3
  6
CONTINUOUS
 10
10.5137505423
 20
-28.559119217
 40
12.8671139848
100
AcDbArc
 50
318.2640329783
 51
41.7359670217
  0
ARC
  5
3C2
100
AcDbEntity
  8
0
100
AcDbCircle
 62
7
  6
CONTINUOUS
 10
10.5137505423
 20
-28.559119217
 40
12.3670383779
100
AcDbArc
 50
140.9274815227
 51
219.0725184773
  0
ARC
  5
3C3
100
AcDbEntity
  8
0
100
AcDbCircle
 62
7
  6
CONTINUOUS
 10
10.5137505423
 20
-28.559119217
 40
12.3670383779
100
AcDbArc
 50
230.9274815227
 51
309.0725184773
  0
ARC
  5
3C4
100
AcDbEntity
  8
0
100
AcDbCircle
 62
7
  6
CONTINUOUS
 10
10.5137505423
 20
-28.559119217
 40
12.3670383779
100
AcDbArc
 50
320.9274815227
 51
39.0725184773
  0
ARC
  5
3C5
100
AcDbEntity
  8
0
100
AcDbCircle
 62
7
  6
CONTINUOUS
 10
10.5137505423
 20
-28.559119217
 40
12.3670383779
100
AcDbArc
 50
50.9274815227
 51
129.0725184773
  0
CIRCLE
  5
3C6
100
AcDbEntity
  8
0
100
AcDbCircle
 62
7
  6
CONTINUOUS
 10
10.5137505423
 20
-28.559119217
 40
4.2684520257
  0
CIRCLE
  5
3C7
100
AcDbEntity
  8
0
100
AcDbCircle
 62
7
  6
CONTINUOUS
 10
10.5137505423
 20
-28.559119217
 40
3.9740660978
  0
CIRCLE
  5
3C8
100
AcDbEntity
  8
0
100
AcDbCircle
 62
7
  6
CONTINUOUS
 10
10.5137505423
 20
-28.559119217
 40
3.4126156044
  0
ARC
  5
3C9
100
AcDbEntity
  8
0
100
AcDbCircle
 62
7
  6
CONTINUOUS
 10
10.5137505423
 20
-28.559119217
 40
1.25
100
AcDbArc
 50
94.7539852488
 51
139.8964730224
  0
ARC
  5
3CA
100
AcDbEntity
  8
0
100
AcDbCircle
 62
7
  6
CONTINUOUS
 10
10.5137505423
 20
-28.559119217
 40
1.25
100
AcDbArc
 50
160.1235393399
 51
205.1891239858
  0
ARC
  5
3CB
100
AcDbEntity
  8
0
100
AcDbCircle
 62
7
  6
CONTINUOUS
 10
10.5137505423
 20
-28.559119217
 40
1.25
100
AcDbArc
 50
214.874742549
 51
325.1335038411
  0
ARC
  5
3CC
100
AcDbEntity
  8
0
100
AcDbCircle
 62
7
  6
CONTINUOUS
 10
10.5137505423
 20
-28.559119217
 40
1.25
100
AcDbArc
 50
334.7353544735
 51
85.4991229413
  0
ARC
  5
3CD
100
AcDbEntity
  8
0
100
AcDbCircle
 62
7
  6
CONTINUOUS
 10
10.5137505423
 20
-28.559119217
 40
1.2368456474
100
AcDbArc
 50
216.3295727514
 51
323.5754607678
  0
ARC
  5
3CE
100
AcDbEntity
  8
0
100
AcDbCircle
 62
7
  6
CONTINUOUS
 10
10.5137505423
 20
-28.559119217
 40
1.2368456474
100
AcDbArc
 50
160.2322042645
 51
203.7760638916
  0
ARC
  5
3CF
100
AcDbEntity
  8
0
100
AcDbCircle
 62
7
  6
CONTINUOUS
 10
10.5137505423
 20
-28.559119217
 40
1.2368456474
100
AcDbArc
 50
96.4195550169
 51
139.786641295
  0
ARC
  5
3D0
100
AcDbEntity
  8
0
100
AcDbCircle
 62
7
  6
CONTINUOUS
 10
10.5137505423
 20
-28.559119217
 40
1.2368456474
100
AcDbArc
 50
336.1405136236
 51
83.6750871004
  0
ARC
  5
3D1
100
AcDbEntity
  8
0
100
AcDbCircle
 62
7
  6
CONTINUOUS
 10
10.5137505423
 20
-28.559119217
 40
0.6380912987
100
AcDbArc
 50
173.0661400609
 51
126.9338599391
  0
ARC
  5
3D2
100
AcDbEntity
  8
0
100
AcDbCircle
 62
7
  6
CONTINUOUS
 10
10.5137505423
 20
-28.559119217
 40
0.625
100
AcDbArc
 50
169.7009376039
 51
130.2990623961
  0
CIRCLE
  5
3D3
100
AcDbEntity
  8
0
100
AcDbCircle
 62
7
  6
CONTINUOUS
 10
10.5137505423
 20
-28.559119217
 40
0.313
  0
ARC
  5
3D4
100
AcDbEntity
  8
0
100
AcDbCircle
 62
7
  6
CONTINUOUS
 10
10.5137505423
 20
-28.559119217
 40
0.31225
100
AcDbArc
 50
126.0360585143
 51
120.2129791883
  0
ARC
  5
3D5
100
AcDbEntity
  8
0
100
AcDbCircle
 62
7
  6
CONTINUOUS
 10
10.5137505423
 20
-28.559119217
 40
0.2822620834
100
AcDbArc
 50
116.5432889225
 51
63.4567110775
  0
CIRCLE
  5
3D6
100
AcDbEntity
  8
0
100
AcDbCircle
 62
7
  6
CONTINUOUS
 10
10.5137505423
 20
-27.559119217
 40
0.2655
  0
CIRCLE
  5
3D7
100
AcDbEntity
  8
0
100
AcDbCircle
 62
7
  6
CONTINUOUS
 10
10.5137505423
 20
-27.559119217
 40
0.218
  0
CIRCLE
  5
3D8
100
AcDbEntity
  8
0
100
AcDbCircle
 62
7
  6
CONTINUOUS
 10
11.3797759461
 20
-29.059119217
 40
0.2655
  0
CIRCLE
  5
3D9
100
AcDbEntity
  8
0
100
AcDbCircle
 62
7
  6
CONTINUOUS
 10
11.3797759461
 20
-29.059119217
 40
0.218
  0
CIRCLE
  5
3DA
100
AcDbEntity
  8
0
100
AcDbCircle
 62
7
  6
CONTINUOUS
 10
14.5796145341
 20
-24.4932552252
 40
0.345
  0
CIRCLE
  5
3DB
100
AcDbEntity
  8
0
100
AcDbCircle
 62
7
  6
CONTINUOUS
 10
15.2867213153
 20
-23.786148444
 40
0.345
  0
CIRCLE
  5
3DC
100
AcDbEntity
  8
0
100
AcDbCircle
 62
7
  6
CONTINUOUS
 10
15.2867213153
 20
-23.786148444
 40
0.26
  0
CIRCLE
  5
3DD
100
AcDbEntity
  8
0
100
AcDbCircle
 62
7
  6
CONTINUOUS
 10
14.5796145341
 20
-24.4932552252
 40
0.26
  0
CIRCLE
  5
3DE
100
AcDbEntity
  8
0
100
AcDbCircle
 62
7
  6
CONTINUOUS
 10
15.2867213153
 20
-23.786148444
 40
0.187
  0
CIRCLE
  5
3DF
100
AcDbEntity
  8
0
100
AcDbCircle
 62
7
  6
CONTINUOUS
 10
14.5796145341
 20
-24.4932552252
 40
0.187
  0
SPLINE
  5
3E0
100
AcDbEntity
  8
0
100
AcDbSpline
 62
7
  6
CONTINUOUS
 70
0
 71
3
 72
21
 73
17
 74
0
 42
0.0000001
 43
0.0000001
 44
0.0000000001
 40
0.0
 40
0.0
 40
0.0
 40
0.0
 40
0.1256853361
 40
0.1883323231
 40
0.2508510309
 40
0.3132535003
 40
0.3755604261
 40
0.4377981636
 40
0.5
 40
0.5622018364
 40
0.6244395739
 40
0.6867464997
 40
0.7491489691
 40
0.8116676769
 40
0.8743146639
 40
1.0
 40
1.0
 40
1.0
 40
1.0
 10
1.9265548503
 20
12.7802467061
 30
0.0
 10
1.9236014851
 20
12.7713866107
 30
0.0
 10
1.9195366495
 20
12.7579830724
 30
0.0
 10
1.9150492079
 20
12.7398878203
 30
0.0
 10
1.9122078096
 20
12.7262389368
 30
0.0
 10
1.9099354376
 20
12.7125090493
 30
0.0
 10
1.9082763856
 20
12.6987120165
 30
0.0
 10
1.9072660221
 20
12.6848669113
 30
0.0
 10
1.9069258478
 20
12.6709967061
 30
0.0
 10
1.9072660221
 20
12.6571265009
 30
0.0
 10
1.9082763856
 20
12.6432813958
 30
0.0
 10
1.9099354376
 20
12.6294843629
 30
0.0
 10
1.9122078096
 20
12.6157544755
 30
0.0
 10
1.9150492079
 20
12.602105592
 30
0.0
 10
1.9195366495
 20
12.5840103398
 30
0.0
 10
1.9236014851
 20
12.5706068016
 30
0.0
 10
1.9265548503
 20
12.5617467061
 30
0.0
  0
SPLINE
  5
3E1
100
AcDbEntity
  8
0
100
AcDbSpline
 62
7
  6
CONTINUOUS
 70
0
 71
3
 72
15
 73
11
 74
0
 42
0.0000001
 43
0.0000001
 44
0.0000000001
 40
0.0
 40
0.0
 40
0.0
 40
0.0
 40
0.1251627617
 40
0.2501974103
 40
0.3751281702
 40
0.5000000121
 40
0.6248718587
 40
0.7498026271
 40
0.8748372674
 40
1.0
 40
1.0
 40
1.0
 40
1.0
 10
2.045214167
 20
12.5617467061
 30
0.0
 10
2.043814392
 20
12.5526984188
 30
0.0
 10
2.0412703897
 20
12.5345702174
 30
0.0
 10
2.038379808
 20
12.5072754415
 30
0.0
 10
2.0365688437
 20
12.4799071248
 30
0.0
 10
2.0359510219
 20
12.4524967032
 30
0.0
 10
2.0365688444
 20
12.4250862809
 30
0.0
 10
2.038379809
 20
12.3977179638
 30
0.0
 10
2.0412703914
 20
12.3704231902
 30
0.0
 10
2.0438143924
 20
12.3522949914
 30
0.0
 10
2.045214167
 20
12.3432467061
 30
0.0
  0
SPLINE
  5
3E2
100
AcDbEntity
  8
0
100
AcDbSpline
 62
7
  6
CONTINUOUS
 70
0
 71
3
 72
21
 73
17
 74
0
 42
0.0000001
 43
0.0000001
 44
0.0000000001
 40
0.0
 40
0.0
 40
0.0
 40
0.0
 40
0.1256853361
 40
0.1883323231
 40
0.2508510309
 40
0.3132535003
 40
0.3755604261
 40
0.4377981636
 40
0.5
 40
0.5622018364
 40
0.6244395739
 40
0.6867464997
 40
0.7491489691
 40
0.8116676769
 40
0.8743146639
 40
1.0
 40
1.0
 40
1.0
 40
1.0
 10
1.9265548503
 20
12.5617467061
 30
0.0
 10
1.9236014851
 20
12.5528866107
 30
0.0
 10
1.9195366495
 20
12.5394830724
 30
0.0
 10
1.9150492079
 20
12.5213878203
 30
0.0
 10
1.9122078096
 20
12.5077389368
 30
0.0
 10
1.9099354376
 20
12.4940090493
 30
0.0
 10
1.9082763856
 20
12.4802120165
 30
0.0
 10
1.9072660221
 20
12.4663669113
 30
0.0
 10
1.9069258478
 20
12.4524967061
 30
0.0
 10
1.9072660221
 20
12.4386265009
 30
0.0
 10
1.9082763856
 20
12.4247813958
 30
0.0
 10
1.9099354376
 20
12.4109843629
 30
0.0
 10
1.9122078096
 20
12.3972544755
 30
0.0
 10
1.9150492079
 20
12.383605592
 30
0.0
 10
1.9195366495
 20
12.3655103398
 30
0.0
 10
1.9236014851
 20
12.3521068016
 30
0.0
 10
1.9265548503
 20
12.3432467061
 30
0.0
  0
SPLINE
  5
3E3
100
AcDbEntity
  8
0
100
AcDbSpline
 62
7
  6
CONTINUOUS
 70
0
 71
3
 72
15
 73
11
 74
0
 42
0.0000001
 43
0.0000001
 44
0.0000000001
 40
0.0
 40
0.0
 40
0.0
 40
0.0
 40
0.1251627666
 40
0.250197413
 40
0.3751281672
 40
0.5000000062
 40
0.6248718446
 40
0.7498025984
 40
0.8748372369
 40
1.0
 40
1.0
 40
1.0
 40
1.0
 10
2.045214167
 20
12.7802467061
 30
0.0
 10
2.043814392
 20
12.7711984184
 30
0.0
 10
2.0412703896
 20
12.7530702168
 30
0.0
 10
2.0383798081
 20
12.7257754412
 30
0.0
 10
2.0365688438
 20
12.6984071252
 30
0.0
 10
2.035951022
 20
12.6709967048
 30
0.0
 10
2.036568844
 20
12.6435862844
 30
0.0
 10
2.0383798084
 20
12.6162179692
 30
0.0
 10
2.0412703898
 20
12.5889231943
 30
0.0
 10
2.043814392
 20
12.5707949936
 30
0.0
 10
2.045214167
 20
12.5617467061
 30
0.0
  0
SPLINE
  5
3E4
100
AcDbEntity
  8
0
100
AcDbSpline
 62
7
  6
CONTINUOUS
 70
0
 71
3
 72
21
 73
17
 74
0
 42
0.0000001
 43
0.0000001
 44
0.0000000001
 40
0.0
 40
0.0
 40
0.0
 40
0.0
 40
0.1256853361
 40
0.1883323231
 40
0.2508510309
 40
0.3132535003
 40
0.3755604261
 40
0.4377981636
 40
0.5
 40
0.5622018364
 40
0.6244395739
 40
0.6867464997
 40
0.7491489691
 40
0.8116676769
 40
0.8743146639
 40
1.0
 40
1.0
 40
1.0
 40
1.0
 10
19.1009462343
 20
12.3432467061
 30
0.0
 10
19.1038995994
 20
12.3521068016
 30
0.0
 10
19.107964435
 20
12.3655103398
 30
0.0
 10
19.1124518766
 20
12.383605592
 30
0.0
 10
19.1152932749
 20
12.3972544755
 30
0.0
 10
19.117565647
 20
12.4109843629
 30
0.0
 10
19.1192246989
 20
12.4247813958
 30
0.0
 10
19.1202350625
 20
12.4386265009
 30
0.0
 10
19.1205752367
 20
12.4524967061
 30
0.0
 10
19.1202350625
 20
12.4663669113
 30
0.0
 10
19.1192246989
 20
12.4802120165
 30
0.0
 10
19.117565647
 20
12.4940090493
 30
0.0
 10
19.1152932749
 20
12.5077389368
 30
0.0
 10
19.1124518766
 20
12.5213878203
 30
0.0
 10
19.107964435
 20
12.5394830724
 30
0.0
 10
19.1038995994
 20
12.5528866107
 30
0.0
 10
19.1009462343
 20
12.5617467061
 30
0.0
  0
SPLINE
  5
3E5
100
AcDbEntity
  8
0
100
AcDbSpline
 62
7
  6
CONTINUOUS
 70
0
 71
3
 72
15
 73
11
 74
0
 42
0.0000001
 43
0.0000001
 44
0.0000000001
 40
0.0
 40
0.0
 40
0.0
 40
0.0
 40
0.1251627666
 40
0.250197413
 40
0.3751281672
 40
0.5000000062
 40
0.6248718446
 40
0.7498025984
 40
0.8748372369
 40
1.0
 40
1.0
 40
1.0
 40
1.0
 10
18.9822869176
 20
12.3432467061
 30
0.0
 10
18.9836866926
 20
12.3522949938
 30
0.0
 10
18.986230695
 20
12.3704231954
 30
0.0
 10
18.9891212765
 20
12.3977179711
 30
0.0
 10
18.9909322408
 20
12.425086287
 30
0.0
 10
18.9915500626
 20
12.4524967074
 30
0.0
 10
18.9909322405
 20
12.4799071278
 30
0.0
 10
18.9891212762
 20
12.5072754431
 30
0.0
 10
18.9862306947
 20
12.5345702179
 30
0.0
 10
18.9836866925
 20
12.5526984187
 30
0.0
 10
18.9822869176
 20
12.5617467061
 30
0.0
  0
SPLINE
  5
3E6
100
AcDbEntity
  8
0
100
AcDbSpline
 62
7
  6
CONTINUOUS
 70
0
 71
3
 72
15
 73
11
 74
0
 42
0.0000001
 43
0.0000001
 44
0.0000000001
 40
0.0
 40
0.0
 40
0.0
 40
0.0
 40
0.1251627617
 40
0.2501974103
 40
0.3751281702
 40
0.5000000121
 40
0.6248718587
 40
0.7498026271
 40
0.8748372674
 40
1.0
 40
1.0
 40
1.0
 40
1.0
 10
18.9822869176
 20
12.5617467061
 30
0.0
 10
18.9836866925
 20
12.5707949935
 30
0.0
 10
18.9862306948
 20
12.5889231949
 30
0.0
 10
18.9891212765
 20
12.6162179707
 30
0.0
 10
18.9909322409
 20
12.6435862875
 30
0.0
 10
18.9915500626
 20
12.6709967091
 30
0.0
 10
18.9909322401
 20
12.6984071313
 30
0.0
 10
18.9891212755
 20
12.7257754484
 30
0.0
 10
18.9862306931
 20
12.7530702221
 30
0.0
 10
18.9836866922
 20
12.7711984209
 30
0.0
 10
18.9822869176
 20
12.7802467061
 30
0.0
  0
SPLINE
  5
3E7
100
AcDbEntity
  8
0
100
AcDbSpline
 62
7
  6
CONTINUOUS
 70
0
 71
3
 72
21
 73
17
 74
0
 42
0.0000001
 43
0.0000001
 44
0.0000000001
 40
0.0
 40
0.0
 40
0.0
 40
0.0
 40
0.1256853361
 40
0.1883323231
 40
0.2508510309
 40
0.3132535003
 40
0.3755604261
 40
0.4377981636
 40
0.5
 40
0.5622018364
 40
0.6244395739
 40
0.6867464997
 40
0.7491489691
 40
0.8116676769
 40
0.8743146639
 40
1.0
 40
1.0
 40
1.0
 40
1.0
 10
19.1009462343
 20
12.5617467061
 30
0.0
 10
19.1038995994
 20
12.5706068016
 30
0.0
 10
19.107964435
 20
12.5840103398
 30
0.0
 10
19.1124518766
 20
12.602105592
 30
0.0
 10
19.1152932749
 20
12.6157544755
 30
0.0
 10
19.117565647
 20
12.6294843629
 30
0.0
 10
19.1192246989
 20
12.6432813958
 30
0.0
 10
19.1202350625
 20
12.6571265009
 30
0.0
 10
19.1205752367
 20
12.6709967061
 30
0.0
 10
19.1202350625
 20
12.6848669113
 30
0.0
 10
19.1192246989
 20
12.6987120165
 30
0.0
 10
19.117565647
 20
12.7125090493
 30
0.0
 10
19.1152932749
 20
12.7262389368
 30
0.0
 10
19.1124518766
 20
12.7398878203
 30
0.0
 10
19.107964435
 20
12.7579830724
 30
0.0
 10
19.1038995994
 20
12.7713866107
 30
0.0
 10
19.1009462343
 20
12.7802467061
 30
0.0
  0
SPLINE
  5
3E8
100
AcDbEntity
  8
0
100
AcDbSpline
 62
7
  6
CONTINUOUS
 70
0
 71
3
 72
15
 73
11
 74
0
 42
0.0000001
 43
0.0000001
 44
0.0000000001
 40
0.0
 40
0.0
 40
0.0
 40
0.0
 40
0.1453524083
 40
0.2868079831
 40
0.4230969843
 40
0.5529474777
 40
0.6754525845
 40
0.7903911539
 40
0.8982555593
 40
1.0
 40
1.0
 40
1.0
 40
1.0
 10
4.7345919217
 20
3.1057403552
 30
0.0
 10
4.7274843059
 20
3.1100928632
 30
0.0
 10
4.7135447633
 20
3.1188218131
 30
0.0
 10
4.6933246258
 20
3.1322332326
 30
0.0
 10
4.6742854524
 20
3.1457970615
 30
0.0
 10
4.6566759335
 20
3.1594660758
 30
0.0
 10
4.6406701265
 20
3.1731676466
 30
0.0
 10
4.626313795
 20
3.1868167476
 30
0.0
 10
4.6135169235
 20
3.2003388401
 30
0.0
 10
4.6056991231
 20
3.2094745615
 30
0.0
 10
4.6020094002
 20
3.2139935307
 30
0.0
  0
SPLINE
  5
3E9
100
AcDbEntity
  8
0
100
AcDbSpline
 62
7
  6
CONTINUOUS
 70
0
 71
3
 72
19
 73
15
 74
0
 42
0.0000001
 43
0.0000001
 44
0.0000000001
 40
0.0
 40
0.0
 40
0.0
 40
0.0
 40
0.1239135187
 40
0.2486584689
 40
0.3113153546
 40
0.3741210923
 40
0.4370327446
 40
0.5
 40
0.5629672554
 40
0.6258789077
 40
0.6886846454
 40
0.7513415311
 40
0.8760864813
 40
1.0
 40
1.0
 40
1.0
 40
1.0
 10
4.6020094002
 20
3.2139935307
 30
0.0
 10
4.6002071791
 20
3.2228225748
 30
0.0
 10
4.5969082117
 20
3.2406070315
 30
0.0
 10
4.5937564005
 20
3.2630352076
 30
0.0
 10
4.5919227126
 20
3.2811398557
 30
0.0
 10
4.5909172082
 20
3.2948035227
 30
0.0
 10
4.5903049938
 20
3.3085131335
 30
0.0
 10
4.5900988833
 20
3.3222467061
 30
0.0
 10
4.5903049938
 20
3.3359802787
 30
0.0
 10
4.5909172082
 20
3.3496898896
 30
0.0
 10
4.5919227126
 20
3.3633535566
 30
0.0
 10
4.5937564005
 20
3.3814582047
 30
0.0
 10
4.5969082117
 20
3.4038863808
 30
0.0
 10
4.6002071791
 20
3.4216708375
 30
0.0
 10
4.6020094002
 20
3.4304998816
 30
0.0
  0
SPLINE
  5
3EA
100
AcDbEntity
  8
0
100
AcDbSpline
 62
7
  6
CONTINUOUS
 70
0
 71
3
 72
15
 73
11
 74
0
 42
0.0000001
 43
0.0000001
 44
0.0000000001
 40
0.0
 40
0.0
 40
0.0
 40
0.0
 40
0.1017444407
 40
0.2096088461
 40
0.3245474155
 40
0.4470525223
 40
0.5769030157
 40
0.7131920169
 40
0.8546475917
 40
1.0
 40
1.0
 40
1.0
 40
1.0
 10
4.6020094002
 20
3.4304998816
 30
0.0
 10
4.6056991231
 20
3.4350188507
 30
0.0
 10
4.6135169235
 20
3.4441545722
 30
0.0
 10
4.626313795
 20
3.4576766646
 30
0.0
 10
4.6406701265
 20
3.4713257657
 30
0.0
 10
4.6566759335
 20
3.4850273365
 30
0.0
 10
4.6742854524
 20
3.4986963508
 30
0.0
 10
4.6933246258
 20
3.5122601797
 30
0.0
 10
4.7135447633
 20
3.5256715991
 30
0.0
 10
4.7274843059
 20
3.5344005491
 30
0.0
 10
4.7345919217
 20
3.5387530571
 30
0.0
  0
SPLINE
  5
3EB
100
AcDbEntity
  8
0
100
AcDbSpline
 62
7
  6
CONTINUOUS
 70
0
 71
3
 72
18
 73
14
 74
0
 42
0.0000001
 43
0.0000001
 44
0.0000000001
 40
0.0
 40
0.0
 40
0.0
 40
0.0
 40
0.1218384541
 40
0.1838222222
 40
0.2463717814
 40
0.3093877431
 40
0.3727563337
 40
0.4363599145
 40
0.5000807622
 40
0.6273714929
 40
0.7537150461
 40
0.8782031505
 40
1.0
 40
1.0
 40
1.0
 40
1.0
 10
5.0546068051
 20
3.4442362341
 30
0.0
 10
5.0581659799
 20
3.4347614771
 30
0.0
 10
5.0628385534
 20
3.4201922132
 30
0.0
 10
5.0677355317
 20
3.4003159456
 30
0.0
 10
5.0707767126
 20
3.3850299081
 30
0.0
 10
5.0731519748
 20
3.3695107802
 30
0.0
 10
5.0748544669
 20
3.3538154096
 30
0.0
 10
5.0758758101
 20
3.3380021613
 30
0.0
 10
5.0763260292
 20
3.3168505259
 30
0.0
 10
5.0751809632
 20
3.2904768022
 30
0.0
 10
5.0710982679
 20
3.2592921359
 30
0.0
 10
5.0643675471
 20
3.2290374115
 30
0.0
 10
5.0580962482
 20
3.2095252036
 30
0.0
 10
5.0545313132
 20
3.2000563053
 30
0.0
  0
SPLINE
  5
3EC
100
AcDbEntity
  8
0
100
AcDbSpline
 62
7
  6
CONTINUOUS
 70
0
 71
3
 72
21
 73
17
 74
0
 42
0.0000001
 43
0.0000001
 44
0.0000000001
 40
0.0
 40
0.0
 40
0.0
 40
0.0
 40
0.1439355433
 40
0.2139312198
 40
0.2824827661
 40
0.4149872126
 40
0.4789762404
 40
0.5414551152
 40
0.6024797335
 40
0.6621355159
 40
0.7205415975
 40
0.7778466918
 40
0.8342303628
 40
0.8898969689
 40
0.9450732004
 40
1.0
 40
1.0
 40
1.0
 40
1.0
 10
5.0545313132
 20
3.2000563053
 30
0.0
 10
5.0507051259
 20
3.1898934889
 30
0.0
 10
5.0442137508
 20
3.1750684906
 30
0.0
 10
5.0339954678
 20
3.1563543344
 30
0.0
 10
5.0231326535
 20
3.1390179856
 30
0.0
 10
5.0109503303
 20
3.1230746382
 30
0.0
 10
4.9975306923
 20
3.1088557574
 30
0.0
 10
4.9870964242
 20
3.0992852241
 30
0.0
 10
4.9762266796
 20
3.0907309532
 30
0.0
 10
4.9649688814
 20
3.0832333663
 30
0.0
 10
4.9533750968
 20
3.0768264707
 30
0.0
 10
4.9414971688
 20
3.0715420497
 30
0.0
 10
4.9293903171
 20
3.0674040757
 30
0.0
 10
4.9171094476
 20
3.0644341389
 30
0.0
 10
4.9047135321
 20
3.0626455038
 30
0.0
 10
4.8964013765
 20
3.0622469849
 30
0.0
 10
4.892257425
 20
3.0622468929
 30
0.0
  0
SPLINE
  5
3ED
100
AcDbEntity
  8
0
100
AcDbSpline
 62
7
  6
CONTINUOUS
 70
0
 71
3
 72
23
 73
19
 74
0
 42
0.0000001
 43
0.0000001
 44
0.0000000001
 40
0.0
 40
0.0
 40
0.0
 40
0.0
 40
0.0723863627
 40
0.1435277136
 40
0.2132914826
 40
0.2816143877
 40
0.3484651727
 40
0.4138258032
 40
0.4776964214
 40
0.5401091272
 40
0.6011236465
 40
0.6608295149
 40
0.7193435624
 40
0.7768121274
 40
0.8334073264
 40
0.8893251129
 40
0.9447799417
 40
1.0
 40
1.0
 40
1.0
 40
1.0
 10
5.0514684651
 20
3.4522467061
 30
0.0
 10
5.0494804294
 20
3.4571163793
 30
0.0
 10
5.0452839299
 20
3.4666705071
 30
0.0
 10
5.0382832917
 20
3.4805064068
 30
0.0
 10
5.0306556343
 20
3.4936676713
 30
0.0
 10
5.0224361878
 20
3.5060960857
 30
0.0
 10
5.0136580871
 20
3.5177389249
 30
0.0
 10
5.0043595636
 20
3.5285480701
 30
0.0
 10
4.9945783458
 20
3.5384756443
 30
0.0
 10
4.9843569923
 20
3.5474796315
 30
0.0
 10
4.9737378316
 20
3.5555202125
 30
0.0
 10
4.962766489
 20
3.5625631579
 30
0.0
 10
4.9514890939
 20
3.5685767971
 30
0.0
 10
4.9399540833
 20
3.5735347343
 30
0.0
 10
4.9282110202
 20
3.577414558
 30
0.0
 10
4.9163103466
 20
3.5801983941
 30
0.0
 10
4.9043053121
 20
3.5818740126
 30
0.0
 10
4.8962583227
 20
3.5822466084
 30
0.0
 10
4.8922458387
 20
3.5822465193
 30
0.0
  0
SPLINE
  5
3EE
100
AcDbEntity
  8
0
100
AcDbSpline
 62
7
  6
CONTINUOUS
 70
0
 71
3
 72
11
 73
7
 74
0
 42
0.0000001
 43
0.0000001
 44
0.0000000001
 40
0.0
 40
0.0
 40
0.0
 40
0.0
 40
0.2401732686
 40
0.4850365616
 40
0.7374846583
 40
1.0
 40
1.0
 40
1.0
 40
1.0
 10
4.8414106543
 20
3.1057403552
 30
0.0
 10
4.8420155241
 20
3.1057403552
 30
0.0
 10
4.8432399181
 20
3.1056204873
 30
0.0
 10
4.8450325585
 20
3.1050984043
 30
0.0
 10
4.8467554442
 20
3.104245629
 30
0.0
 10
4.8478181954
 20
3.1034928962
 30
0.0
 10
4.848330565
 20
3.1030750679
 30
0.0
  0
SPLINE
  5
3EF
100
AcDbEntity
  8
0
100
AcDbSpline
 62
7
  6
CONTINUOUS
 70
0
 71
3
 72
11
 73
7
 74
0
 42
0.0000001
 43
0.0000001
 44
0.0000000001
 40
0.0
 40
0.0
 40
0.0
 40
0.0
 40
0.2401732686
 40
0.4850365616
 40
0.7374846583
 40
1.0
 40
1.0
 40
1.0
 40
1.0
 10
4.8414106543
 20
3.5387530571
 30
0.0
 10
4.8420155241
 20
3.5387530571
 30
0.0
 10
4.8432399181
 20
3.538872925
 30
0.0
 10
4.8450325585
 20
3.5393950079
 30
0.0
 10
4.8467554442
 20
3.5402477832
 30
0.0
 10
4.8478181954
 20
3.5410005161
 30
0.0
 10
4.848330565
 20
3.5414183444
 30
0.0
  0
SPLINE
  5
3F0
100
AcDbEntity
  8
0
100
AcDbSpline
 62
7
  6
CONTINUOUS
 70
0
 71
3
 72
15
 73
11
 74
0
 42
0.0000001
 43
0.0000001
 44
0.0000000001
 40
0.0
 40
0.0
 40
0.0
 40
0.0
 40
0.119057511
 40
0.2387427078
 40
0.3596605012
 40
0.482372663
 40
0.6073780386
 40
0.7351040355
 40
0.8658915427
 40
1.0
 40
1.0
 40
1.0
 40
1.0
 10
4.8569020859
 20
3.0622468929
 30
0.0
 10
4.8524305946
 20
3.0622467936
 30
0.0
 10
4.8434571718
 20
3.0627100205
 30
0.0
 10
4.8300881079
 20
3.0647923446
 30
0.0
 10
4.8168639691
 20
3.0682482099
 30
0.0
 10
4.8038588833
 20
3.0730599063
 30
0.0
 10
4.7911412944
 20
3.0791976228
 30
0.0
 10
4.7787799389
 20
3.086629423
 30
0.0
 10
4.7668395137
 20
3.0953111776
 30
0.0
 10
4.7592981625
 20
3.1018198262
 30
0.0
 10
4.7556162746
 20
3.1052567888
 30
0.0
  0
SPLINE
  5
3F1
100
AcDbEntity
  8
0
100
AcDbSpline
 62
7
  6
CONTINUOUS
 70
0
 71
3
 72
17
 73
13
 74
0
 42
0.0000001
 43
0.0000001
 44
0.0000000001
 40
0.0
 40
0.0
 40
0.0
 40
0.0
 40
0.1189994808
 40
0.2386330948
 40
0.2988987019
 40
0.3595485145
 40
0.4822355288
 40
0.5444348928
 40
0.6072696525
 40
0.7350094912
 40
0.8658344983
 40
1.0
 40
1.0
 40
1.0
 40
1.0
 10
4.8568904996
 20
3.5822465193
 30
0.0
 10
4.8523979301
 20
3.5822464196
 30
0.0
 10
4.8433823293
 20
3.5817777067
 30
0.0
 10
4.8322138021
 20
3.5800288228
 30
0.0
 10
4.8233708103
 20
3.5779464996
 30
0.0
 10
4.8145330336
 20
3.5753910199
 30
0.0
 10
4.8058281855
 20
3.5721543085
 30
0.0
 10
4.7973151382
 20
3.5682760663
 30
0.0
 10
4.7888232952
 20
3.5639153252
 30
0.0
 10
4.7784232512
 20
3.5576300187
 30
0.0
 10
4.7664420109
 20
3.5488675577
 30
0.0
 10
4.7588773773
 20
3.5423008879
 30
0.0
 10
4.7551853132
 20
3.5388332943
 30
0.0
  0
SPLINE
  5
3F2
100
AcDbEntity
  8
0
100
AcDbSpline
 62
7
  6
CONTINUOUS
 70
0
 71
3
 72
19
 73
15
 74
0
 42
0.0000001
 43
0.0000001
 44
0.0000000001
 40
0.0
 40
0.0
 40
0.0
 40
0.0
 40
0.1239135187
 40
0.2486584689
 40
0.3113153546
 40
0.3741210923
 40
0.4370327446
 40
0.5
 40
0.5629672554
 40
0.6258789077
 40
0.6886846454
 40
0.7513415311
 40
0.8760864813
 40
1.0
 40
1.0
 40
1.0
 40
1.0
 10
4.8671744432
 20
3.4304998816
 30
0.0
 10
4.8653722221
 20
3.4216708375
 30
0.0
 10
4.8620732547
 20
3.4038863808
 30
0.0
 10
4.8589214434
 20
3.3814582047
 30
0.0
 10
4.8570877556
 20
3.3633535566
 30
0.0
 10
4.8560822511
 20
3.3496898896
 30
0.0
 10
4.8554700368
 20
3.3359802787
 30
0.0
 10
4.8552639262
 20
3.3222467061
 30
0.0
 10
4.8554700368
 20
3.3085131335
 30
0.0
 10
4.8560822511
 20
3.2948035227
 30
0.0
 10
4.8570877556
 20
3.2811398557
 30
0.0
 10
4.8589214434
 20
3.2630352076
 30
0.0
 10
4.8620732547
 20
3.2406070315
 30
0.0
 10
4.8653722221
 20
3.2228225748
 30
0.0
 10
4.8671744432
 20
3.2139935307
 30
0.0
  0
SPLINE
  5
3F3
100
AcDbEntity
  8
0
100
AcDbSpline
 62
7
  6
CONTINUOUS
 70
0
 71
3
 72
17
 73
13
 74
0
 42
0.0000001
 43
0.0000001
 44
0.0000000001
 40
0.0
 40
0.0
 40
0.0
 40
0.0
 40
0.0507521541
 40
0.1062279752
 40
0.1656818145
 40
0.2283685672
 40
0.3603916239
 40
0.4965882669
 40
0.6320482742
 40
0.7629485808
 40
0.8864675634
 40
1.0
 40
1.0
 40
1.0
 40
1.0
 10
4.9739931757
 20
3.2139935307
 30
0.0
 10
4.9745674791
 20
3.2139935307
 30
0.0
 10
4.9757697652
 20
3.2139389335
 30
0.0
 10
4.9776334521
 20
3.2137247849
 30
0.0
 10
4.9796141105
 20
3.2133770407
 30
0.0
 10
4.9824187415
 20
3.2127355761
 30
0.0
 10
4.9860082272
 20
3.2116530577
 30
0.0
 10
4.9902759467
 20
3.2100146194
 30
0.0
 10
4.9944130336
 20
3.208100284
 30
0.0
 10
4.9982922216
 20
3.205992159
 30
0.0
 10
5.0018120709
 20
3.2037623176
 30
0.0
 10
5.0039693167
 20
3.2021620849
 30
0.0
 10
5.0049644528
 20
3.2013495598
 30
0.0
  0
SPLINE
  5
3F4
100
AcDbEntity
  8
0
100
AcDbSpline
 62
7
  6
CONTINUOUS
 70
0
 71
3
 72
17
 73
13
 74
0
 42
0.0000001
 43
0.0000001
 44
0.0000000001
 40
0.0
 40
0.0
 40
0.0
 40
0.0
 40
0.0507521541
 40
0.1062279752
 40
0.1656818145
 40
0.2283685672
 40
0.3603916239
 40
0.4965882669
 40
0.6320482742
 40
0.7629485808
 40
0.8864675634
 40
1.0
 40
1.0
 40
1.0
 40
1.0
 10
4.9739931757
 20
3.4304998816
 30
0.0
 10
4.9745674791
 20
3.4304998816
 30
0.0
 10
4.9757697652
 20
3.4305544787
 30
0.0
 10
4.9776334521
 20
3.4307686274
 30
0.0
 10
4.9796141105
 20
3.4311163715
 30
0.0
 10
4.9824187415
 20
3.4317578361
 30
0.0
 10
4.9860082272
 20
3.4328403546
 30
0.0
 10
4.9902759467
 20
3.4344787928
 30
0.0
 10
4.9944130336
 20
3.4363931282
 30
0.0
 10
4.9982922216
 20
3.4385012532
 30
0.0
 10
5.0018120709
 20
3.4407310947
 30
0.0
 10
5.0039693167
 20
3.4423313273
 30
0.0
 10
5.0049644528
 20
3.4431438525
 30
0.0
  0
SPLINE
  5
3F5
100
AcDbEntity
  8
0
100
AcDbSpline
 62
7
  6
CONTINUOUS
 70
0
 71
3
 72
15
 73
11
 74
0
 42
0.0000001
 43
0.0000001
 44
0.0000000001
 40
0.0
 40
0.0
 40
0.0
 40
0.0
 40
0.1453524083
 40
0.2868079831
 40
0.4230969843
 40
0.5529474777
 40
0.6754525845
 40
0.7903911539
 40
0.8982555593
 40
1.0
 40
1.0
 40
1.0
 40
1.0
 10
4.8671744432
 20
3.2139935307
 30
0.0
 10
4.8600668274
 20
3.2096410227
 30
0.0
 10
4.8461272848
 20
3.2009120727
 30
0.0
 10
4.8259071473
 20
3.1875006533
 30
0.0
 10
4.8068679739
 20
3.1739368243
 30
0.0
 10
4.789258455
 20
3.1602678101
 30
0.0
 10
4.773252648
 20
3.1465662392
 30
0.0
 10
4.7588963165
 20
3.1329171382
 30
0.0
 10
4.746099445
 20
3.1193950458
 30
0.0
 10
4.7382816445
 20
3.1102593243
 30
0.0
 10
4.7345919217
 20
3.1057403552
 30
0.0
  0
SPLINE
  5
3F6
100
AcDbEntity
  8
0
100
AcDbSpline
 62
7
  6
CONTINUOUS
 70
0
 71
3
 72
9
 73
5
 74
0
 42
0.0000001
 43
0.0000001
 44
0.0000000001
 40
0.0
 40
0.0
 40
0.0
 40
0.0
 40
0.5053692387
 40
1.0
 40
1.0
 40
1.0
 40
1.0
 10
5.0161131261
 20
3.4522467061
 30
0.0
 10
5.0137229042
 20
3.4581015301
 30
0.0
 10
5.0086261902
 20
3.4695406974
 30
0.0
 10
5.0027834203
 20
3.4806187752
 30
0.0
 10
4.9997050099
 20
3.4859885055
 30
0.0
  0
SPLINE
  5
3F7
100
AcDbEntity
  8
0
100
AcDbSpline
 62
7
  6
CONTINUOUS
 70
0
 71
3
 72
21
 73
17
 74
0
 42
0.0000001
 43
0.0000001
 44
0.0000000001
 40
0.0
 40
0.0
 40
0.0
 40
0.0
 40
0.1409041298
 40
0.2094611482
 40
0.2767194308
 40
0.4072923491
 40
0.4707177245
 40
0.5329483315
 40
0.5940569821
 40
0.6541324635
 40
0.7132828325
 40
0.7716327105
 40
0.8293213619
 40
0.8865022518
 40
0.9433381497
 40
1.0
 40
1.0
 40
1.0
 40
1.0
 10
4.9997050099
 20
3.4859885055
 30
0.0
 10
4.9954899188
 20
3.4933409695
 30
0.0
 10
4.9886907428
 20
3.5039812962
 30
0.0
 10
4.9786369402
 20
3.517253871
 30
0.0
 10
4.9682762557
 20
3.5294837302
 30
0.0
 10
4.957112804
 20
3.540604993
 30
0.0
 10
4.9452251494
 20
3.5504260369
 30
0.0
 10
4.9361185033
 20
3.5570172792
 30
0.0
 10
4.9267659533
 20
3.5628837716
 30
0.0
 10
4.9171951216
 20
3.5680064073
 30
0.0
 10
4.9074358495
 20
3.5723689162
 30
0.0
 10
4.8975185873
 20
3.5759582512
 30
0.0
 10
4.8874736675
 20
3.5787611433
 30
0.0
 10
4.8773328004
 20
3.5807704701
 30
0.0
 10
4.8671281774
 20
3.5819780916
 30
0.0
 10
4.860298558
 20
3.582246595
 30
0.0
 10
4.8568904996
 20
3.5822465193
 30
0.0
  0
SPLINE
  5
3F8
100
AcDbEntity
  8
0
100
AcDbSpline
 62
7
  6
CONTINUOUS
 70
0
 71
3
 72
19
 73
15
 74
0
 42
0.0000001
 43
0.0000001
 44
0.0000000001
 40
0.0
 40
0.0
 40
0.0
 40
0.0
 40
0.0607988358
 40
0.1226152988
 40
0.1852674602
 40
0.2486089892
 40
0.3124831807
 40
0.3767134438
 40
0.5054796189
 40
0.6335147793
 40
0.7594193951
 40
0.8211929492
 40
0.8819712938
 40
1.0
 40
1.0
 40
1.0
 40
1.0
 10
5.0161131261
 20
3.4522467061
 30
0.0
 10
5.0184298977
 20
3.4465717978
 30
0.0
 10
5.022753058
 20
3.4349813567
 30
0.0
 10
5.028252148
 20
3.4171207732
 30
0.0
 10
5.0327899761
 20
3.3987275749
 30
0.0
 10
5.0363420332
 20
3.3799084056
 30
0.0
 10
5.038888951
 20
3.3607661458
 30
0.0
 10
5.0409268948
 20
3.3349393169
 30
0.0
 10
5.0409001892
 20
3.3025071767
 30
0.0
 10
5.03678592
 20
3.2640737225
 30
0.0
 10
5.0299838297
 20
3.2329065112
 30
0.0
 10
5.0225678918
 20
3.2089667278
 30
0.0
 10
5.014045373
 20
3.1862492222
 30
0.0
 10
5.0061975389
 20
3.1699505621
 30
0.0
 10
5.0003286965
 20
3.1595991311
 30
0.0
  0
SPLINE
  5
3F9
100
AcDbEntity
  8
0
100
AcDbSpline
 62
7
  6
CONTINUOUS
 70
0
 71
3
 72
20
 73
16
 74
0
 42
0.0000001
 43
0.0000001
 44
0.0000000001
 40
0.0
 40
0.0
 40
0.0
 40
0.0
 40
0.1410158749
 40
0.2768709764
 40
0.4075034945
 40
0.4709459353
 40
0.5331847257
 40
0.5942905624
 40
0.654354574
 40
0.7134839207
 40
0.7718046037
 40
0.8294572489
 40
0.8865960469
 40
0.9433862658
 40
1.0
 40
1.0
 40
1.0
 40
1.0
 10
5.0003286965
 20
3.1595991311
 30
0.0
 10
4.9961167661
 20
3.1521701522
 30
0.0
 10
4.9871350182
 20
3.1379708185
 30
0.0
 10
4.9717939988
 20
3.1185820321
 30
0.0
 10
4.9576587922
 20
3.1043863396
 30
0.0
 10
4.9457209133
 20
3.0944513033
 30
0.0
 10
4.9365738851
 20
3.0877821486
 30
0.0
 10
4.9271754243
 20
3.081846914
 30
0.0
 10
4.9175555634
 20
3.0766625906
 30
0.0
 10
4.9077435011
 20
3.0722474122
 30
0.0
 10
4.8977704485
 20
3.0686148379
 30
0.0
 10
4.8876677752
 20
3.065776531
 30
0.0
 10
4.8774669237
 20
3.0637430508
 30
0.0
 10
4.8672014407
 20
3.0625192187
 30
0.0
 10
4.8603306096
 20
3.0622469691
 30
0.0
 10
4.8569020859
 20
3.0622468929
 30
0.0
  0
SPLINE
  5
3FA
100
AcDbEntity
  8
0
100
AcDbSpline
 62
7
  6
CONTINUOUS
 70
0
 71
3
 72
45
 73
41
 74
0
 42
0.0000001
 43
0.0000001
 44
0.0000000001
 40
0.0
 40
0.0
 40
0.0
 40
0.0
 40
0.0128513267
 40
0.0257402646
 40
0.038691441
 40
0.051730823
 40
0.0648871307
 40
0.0781878531
 40
0.1053036192
 40
0.1332505709
 40
0.1621439873
 40
0.1920543393
 40
0.2230077703
 40
0.2549895349
 40
0.287948694
 40
0.3218028922
 40
0.3564428168
 40
0.3917370601
 40
0.4275370898
 40
0.4636814477
 40
0.5
 40
0.5363185523
 40
0.5724629102
 40
0.6082629399
 40
0.6435571832
 40
0.6781971078
 40
0.712051306
 40
0.7450104651
 40
0.7769922297
 40
0.8079456607
 40
0.8378560127
 40
0.8667494291
 40
0.8946963808
 40
0.9218121469
 40
0.9351128693
 40
0.948269177
 40
0.961308559
 40
0.9742597354
 40
0.9871486733
 40
1.0
 40
1.0
 40
1.0
 40
1.0
 10
4.7225460044
 20
3.5092467061
 30
0.0
 10
4.7247092373
 20
3.5092467061
 30
0.0
 10
4.7290435236
 20
3.5090957054
 30
0.0
 10
4.7355260214
 20
3.5084187937
 30
0.0
 10
4.7419781718
 20
3.5072926198
 30
0.0
 10
4.7483821301
 20
3.5057190783
 30
0.0
 10
4.7547227644
 20
3.503703175
 30
0.0
 10
4.7631240934
 20
3.5004114321
 30
0.0
 10
4.7734124222
 20
3.495183484
 30
0.0
 10
4.7851700437
 20
3.4872862201
 30
0.0
 10
4.796313935
 20
3.4778040186
 30
0.0
 10
4.8067383686
 20
3.4668314637
 30
0.0
 10
4.8163462806
 20
3.4544750397
 30
0.0
 10
4.8250482969
 20
3.4408543461
 30
0.0
 10
4.8327633039
 20
3.4261000943
 30
0.0
 10
4.8394187172
 20
3.4103532647
 30
0.0
 10
4.8449517977
 20
3.3937643098
 30
0.0
 10
4.8493107117
 20
3.3764918486
 30
0.0
 10
4.852454213
 20
3.3587008638
 30
0.0
 10
4.8543521369
 20
3.3405613294
 30
0.0
 10
4.8549867176
 20
3.3222467061
 30
0.0
 10
4.8543521369
 20
3.3039320829
 30
0.0
 10
4.852454213
 20
3.2857925484
 30
0.0
 10
4.8493107117
 20
3.2680015637
 30
0.0
 10
4.8449517977
 20
3.2507291024
 30
0.0
 10
4.8394187172
 20
3.2341401476
 30
0.0
 10
4.8327633039
 20
3.2183933179
 30
0.0
 10
4.8250482969
 20
3.2036390662
 30
0.0
 10
4.8163462806
 20
3.1900183726
 30
0.0
 10
4.8067383686
 20
3.1776619486
 30
0.0
 10
4.796313935
 20
3.1666893937
 30
0.0
 10
4.7851700437
 20
3.1572071921
 30
0.0
 10
4.7734124222
 20
3.1493099283
 30
0.0
 10
4.7631240934
 20
3.1440819801
 30
0.0
 10
4.7547227644
 20
3.1407902372
 30
0.0
 10
4.7483821301
 20
3.138774334
 30
0.0
 10
4.7419781718
 20
3.1372007925
 30
0.0
 10
4.7355260214
 20
3.1360746185
 30
0.0
 10
4.7290435236
 20
3.1353977068
 30
0.0
 10
4.7247092373
 20
3.1352467061
 30
0.0
 10
4.7225460044
 20
3.1352467061
 30
0.0
  0
SPLINE
  5
3FB
100
AcDbEntity
  8
0
100
AcDbSpline
 62
7
  6
CONTINUOUS
 70
0
 71
3
 72
15
 73
11
 74
0
 42
0.0000001
 43
0.0000001
 44
0.0000000001
 40
0.0
 40
0.0
 40
0.0
 40
0.0
 40
0.1093848924
 40
0.2247529651
 40
0.3455303054
 40
0.4709316038
 40
0.5999829275
 40
0.7318632405
 40
0.865594525
 40
1.0
 40
1.0
 40
1.0
 40
1.0
 10
4.848330565
 20
3.1030750679
 30
0.0
 10
4.8490344456
 20
3.1025010657
 30
0.0
 10
4.8503717541
 20
3.1011844705
 30
0.0
 10
4.8520928986
 20
3.0988783375
 30
0.0
 10
4.8535648607
 20
3.0962533677
 30
0.0
 10
4.8547772028
 20
3.0933770957
 30
0.0
 10
4.8557233757
 20
3.0903069007
 30
0.0
 10
4.8564000008
 20
3.0870961522
 30
0.0
 10
4.8568058108
 20
3.083795896
 30
0.0
 10
4.8568962928
 20
3.0815684211
 30
0.0
 10
4.8568962928
 20
3.0804524134
 30
0.0
  0
SPLINE
  5
3FC
100
AcDbEntity
  8
0
100
AcDbSpline
 62
7
  6
CONTINUOUS
 70
0
 71
3
 72
15
 73
11
 74
0
 42
0.0000001
 43
0.0000001
 44
0.0000000001
 40
0.0
 40
0.0
 40
0.0
 40
0.0
 40
0.1017444407
 40
0.2096088461
 40
0.3245474155
 40
0.4470525223
 40
0.5769030157
 40
0.7131920169
 40
0.8546475917
 40
1.0
 40
1.0
 40
1.0
 40
1.0
 10
4.7345919217
 20
3.5387530571
 30
0.0
 10
4.7382816445
 20
3.5342340879
 30
0.0
 10
4.746099445
 20
3.5250983665
 30
0.0
 10
4.7588963165
 20
3.5115762741
 30
0.0
 10
4.773252648
 20
3.497927173
 30
0.0
 10
4.789258455
 20
3.4842256022
 30
0.0
 10
4.8068679739
 20
3.4705565879
 30
0.0
 10
4.8259071473
 20
3.456992759
 30
0.0
 10
4.8461272848
 20
3.4435813396
 30
0.0
 10
4.8600668274
 20
3.4348523896
 30
0.0
 10
4.8671744432
 20
3.4304998816
 30
0.0
  0
SPLINE
  5
3FD
100
AcDbEntity
  8
0
100
AcDbSpline
 62
7
  6
CONTINUOUS
 70
0
 71
3
 72
15
 73
11
 74
0
 42
0.0000001
 43
0.0000001
 44
0.0000000001
 40
0.0
 40
0.0
 40
0.0
 40
0.0
 40
0.1093848924
 40
0.2247529651
 40
0.3455303054
 40
0.4709316038
 40
0.5999829275
 40
0.7318632405
 40
0.865594525
 40
1.0
 40
1.0
 40
1.0
 40
1.0
 10
4.848330565
 20
3.5414183444
 30
0.0
 10
4.8490344456
 20
3.5419923465
 30
0.0
 10
4.8503717541
 20
3.5433089417
 30
0.0
 10
4.8520928986
 20
3.5456150748
 30
0.0
 10
4.8535648607
 20
3.5482400445
 30
0.0
 10
4.8547772028
 20
3.5511163166
 30
0.0
 10
4.8557233757
 20
3.5541865116
 30
0.0
 10
4.8564000008
 20
3.55739726
 30
0.0
 10
4.8568058108
 20
3.5606975162
 30
0.0
 10
4.8568962928
 20
3.5629249911
 30
0.0
 10
4.8568962928
 20
3.5640409989
 30
0.0
  0
SPLINE
  5
3FE
100
AcDbEntity
  8
0
100
AcDbSpline
 62
7
  6
CONTINUOUS
 70
0
 71
3
 72
45
 73
41
 74
0
 42
0.0000001
 43
0.0000001
 44
0.0000000001
 40
0.0
 40
0.0
 40
0.0
 40
0.0
 40
0.0128513267
 40
0.0257402646
 40
0.038691441
 40
0.051730823
 40
0.0648871307
 40
0.0781878531
 40
0.1053036192
 40
0.1332505709
 40
0.1621439873
 40
0.1920543393
 40
0.2230077703
 40
0.2549895349
 40
0.287948694
 40
0.3218028922
 40
0.3564428168
 40
0.3917370601
 40
0.4275370898
 40
0.4636814477
 40
0.5
 40
0.5363185523
 40
0.5724629102
 40
0.6082629399
 40
0.6435571832
 40
0.6781971078
 40
0.712051306
 40
0.7450104651
 40
0.7769922297
 40
0.8079456607
 40
0.8378560127
 40
0.8667494291
 40
0.8946963808
 40
0.9218121469
 40
0.9351128693
 40
0.948269177
 40
0.961308559
 40
0.9742597354
 40
0.9871486733
 40
1.0
 40
1.0
 40
1.0
 40
1.0
 10
4.7225460044
 20
3.1352467061
 30
0.0
 10
4.7203827714
 20
3.1352467061
 30
0.0
 10
4.7160484851
 20
3.1353977068
 30
0.0
 10
4.7095659873
 20
3.1360746185
 30
0.0
 10
4.7031138369
 20
3.1372007925
 30
0.0
 10
4.6967098786
 20
3.138774334
 30
0.0
 10
4.6903692443
 20
3.1407902372
 30
0.0
 10
4.6819679153
 20
3.1440819801
 30
0.0
 10
4.6716795865
 20
3.1493099283
 30
0.0
 10
4.659921965
 20
3.1572071921
 30
0.0
 10
4.6487780737
 20
3.1666893937
 30
0.0
 10
4.6383536401
 20
3.1776619486
 30
0.0
 10
4.6287457281
 20
3.1900183726
 30
0.0
 10
4.6200437118
 20
3.2036390662
 30
0.0
 10
4.6123287048
 20
3.2183933179
 30
0.0
 10
4.6056732915
 20
3.2341401476
 30
0.0
 10
4.600140211
 20
3.2507291024
 30
0.0
 10
4.595781297
 20
3.2680015637
 30
0.0
 10
4.5926377957
 20
3.2857925484
 30
0.0
 10
4.5907398718
 20
3.3039320829
 30
0.0
 10
4.5901052911
 20
3.3222467061
 30
0.0
 10
4.5907398718
 20
3.3405613294
 30
0.0
 10
4.5926377957
 20
3.3587008638
 30
0.0
 10
4.595781297
 20
3.3764918486
 30
0.0
 10
4.600140211
 20
3.3937643098
 30
0.0
 10
4.6056732915
 20
3.4103532647
 30
0.0
 10
4.6123287048
 20
3.4261000943
 30
0.0
 10
4.6200437118
 20
3.4408543461
 30
0.0
 10
4.6287457281
 20
3.4544750397
 30
0.0
 10
4.6383536401
 20
3.4668314637
 30
0.0
 10
4.6487780737
 20
3.4778040186
 30
0.0
 10
4.659921965
 20
3.4872862201
 30
0.0
 10
4.6716795865
 20
3.495183484
 30
0.0
 10
4.6819679153
 20
3.5004114321
 30
0.0
 10
4.6903692443
 20
3.503703175
 30
0.0
 10
4.6967098786
 20
3.5057190783
 30
0.0
 10
4.7031138369
 20
3.5072926198
 30
0.0
 10
4.7095659873
 20
3.5084187937
 30
0.0
 10
4.7160484851
 20
3.5090957054
 30
0.0
 10
4.7203827714
 20
3.5092467061
 30
0.0
 10
4.7225460044
 20
3.5092467061
 30
0.0
  0
SPLINE
  5
3FF
100
AcDbEntity
  8
0
100
AcDbSpline
 62
7
  6
CONTINUOUS
 70
0
 71
3
 72
9
 73
5
 74
0
 42
0.0000001
 43
0.0000001
 44
0.0000000001
 40
0.0
 40
0.0
 40
0.0
 40
0.0
 40
0.5084663508
 40
1.0
 40
1.0
 40
1.0
 40
1.0
 10
4.7345919217
 20
5.4057403552
 30
0.0
 10
4.7262644484
 20
5.4108398703
 30
0.0
 10
4.7100029781
 20
5.4210608037
 30
0.0
 10
4.6940748465
 20
5.4317991221
 30
0.0
 10
4.6863636566
 20
5.4372437927
 30
0.0
  0
SPLINE
  5
400
100
AcDbEntity
  8
0
100
AcDbSpline
 62
7
  6
CONTINUOUS
 70
0
 71
3
 72
20
 73
16
 74
0
 42
0.0000001
 43
0.0000001
 44
0.0000000001
 40
0.0
 40
0.0
 40
0.0
 40
0.0
 40
0.1385985849
 40
0.2725675714
 40
0.4020337648
 40
0.4651966383
 40
0.5273702468
 40
0.5886263382
 40
0.6490469601
 40
0.7087270383
 40
0.7677720097
 40
0.8262958673
 40
0.8844218539
 40
0.9422788188
 40
1.0
 40
1.0
 40
1.0
 40
1.0
 10
5.0211476171
 20
5.4368510569
 30
0.0
 10
5.0169751104
 20
5.4310490369
 30
0.0
 10
5.0082463324
 20
5.4200018374
 30
0.0
 10
4.9938376882
 20
5.4050519068
 30
0.0
 10
4.980911935
 20
5.3941992533
 30
0.0
 10
4.9701622603
 20
5.3866346102
 30
0.0
 10
4.9619797974
 20
5.3815623422
 30
0.0
 10
4.953632359
 20
5.3770569676
 30
0.0
 10
4.9451387435
 20
5.3731301055
 30
0.0
 10
4.9365192219
 20
5.3697911921
 30
0.0
 10
4.927794438
 20
5.3670474064
 30
0.0
 10
4.9189846965
 20
5.3649067966
 30
0.0
 10
4.910111083
 20
5.3633738735
 30
0.0
 10
4.9011952811
 20
5.3624519126
 30
0.0
 10
4.8952337006
 20
5.362246959
 30
0.0
 10
4.892257425
 20
5.3622468929
 30
0.0
  0
SPLINE
  5
401
100
AcDbEntity
  8
0
100
AcDbSpline
 62
7
  6
CONTINUOUS
 70
0
 71
3
 72
11
 73
7
 74
0
 42
0.0000001
 43
0.0000001
 44
0.0000000001
 40
0.0
 40
0.0
 40
0.0
 40
0.0
 40
0.2401732686
 40
0.4850365616
 40
0.7374846583
 40
1.0
 40
1.0
 40
1.0
 40
1.0
 10
4.8414106543
 20
5.4057403552
 30
0.0
 10
4.8420155241
 20
5.4057403552
 30
0.0
 10
4.8432399181
 20
5.4056204873
 30
0.0
 10
4.8450325585
 20
5.4050984043
 30
0.0
 10
4.8467554442
 20
5.404245629
 30
0.0
 10
4.8478181954
 20
5.4034928962
 30
0.0
 10
4.848330565
 20
5.4030750679
 30
0.0
  0
SPLINE
  5
402
100
AcDbEntity
  8
0
100
AcDbSpline
 62
7
  6
CONTINUOUS
 70
0
 71
3
 72
15
 73
11
 74
0
 42
0.0000001
 43
0.0000001
 44
0.0000000001
 40
0.0
 40
0.0
 40
0.0
 40
0.0
 40
0.119057511
 40
0.2387427078
 40
0.3596605012
 40
0.482372663
 40
0.6073780386
 40
0.7351040355
 40
0.8658915427
 40
1.0
 40
1.0
 40
1.0
 40
1.0
 10
4.8569020859
 20
5.3622468929
 30
0.0
 10
4.8524305946
 20
5.3622467936
 30
0.0
 10
4.8434571718
 20
5.3627100205
 30
0.0
 10
4.8300881079
 20
5.3647923446
 30
0.0
 10
4.8168639691
 20
5.3682482099
 30
0.0
 10
4.8038588833
 20
5.3730599063
 30
0.0
 10
4.7911412944
 20
5.3791976228
 30
0.0
 10
4.7787799389
 20
5.386629423
 30
0.0
 10
4.7668395137
 20
5.3953111776
 30
0.0
 10
4.7592981625
 20
5.4018198262
 30
0.0
 10
4.7556162746
 20
5.4052567888
 30
0.0
  0
SPLINE
  5
403
100
AcDbEntity
  8
0
100
AcDbSpline
 62
7
  6
CONTINUOUS
 70
0
 71
3
 72
20
 73
16
 74
0
 42
0.0000001
 43
0.0000001
 44
0.0000000001
 40
0.0
 40
0.0
 40
0.0
 40
0.0
 40
0.1385985849
 40
0.2725675714
 40
0.4020337648
 40
0.4651966383
 40
0.5273702468
 40
0.5886263382
 40
0.6490469601
 40
0.7087270383
 40
0.7677720097
 40
0.8262958673
 40
0.8844218539
 40
0.9422788188
 40
1.0
 40
1.0
 40
1.0
 40
1.0
 10
4.9857922781
 20
5.4368510569
 30
0.0
 10
4.9816197714
 20
5.4310490369
 30
0.0
 10
4.9728909933
 20
5.4200018374
 30
0.0
 10
4.9584823491
 20
5.4050519068
 30
0.0
 10
4.945556596
 20
5.3941992533
 30
0.0
 10
4.9348069213
 20
5.3866346102
 30
0.0
 10
4.9266244584
 20
5.3815623422
 30
0.0
 10
4.9182770199
 20
5.3770569676
 30
0.0
 10
4.9097834045
 20
5.3731301055
 30
0.0
 10
4.9011638828
 20
5.3697911921
 30
0.0
 10
4.892439099
 20
5.3670474064
 30
0.0
 10
4.8836293575
 20
5.3649067966
 30
0.0
 10
4.874755744
 20
5.3633738735
 30
0.0
 10
4.8658399421
 20
5.3624519126
 30
0.0
 10
4.8598783616
 20
5.362246959
 30
0.0
 10
4.8569020859
 20
5.3622468929
 30
0.0
  0
SPLINE
  5
404
100
AcDbEntity
  8
0
100
AcDbSpline
 62
7
  6
CONTINUOUS
 70
0
 71
3
 72
15
 73
11
 74
0
 42
0.0000001
 43
0.0000001
 44
0.0000000001
 40
0.0
 40
0.0
 40
0.0
 40
0.0
 40
0.1093848924
 40
0.2247529651
 40
0.3455303054
 40
0.4709316038
 40
0.5999829275
 40
0.7318632405
 40
0.865594525
 40
1.0
 40
1.0
 40
1.0
 40
1.0
 10
4.848330565
 20
5.4030750679
 30
0.0
 10
4.8490344456
 20
5.4025010657
 30
0.0
 10
4.8503717541
 20
5.4011844705
 30
0.0
 10
4.8520928986
 20
5.3988783375
 30
0.0
 10
4.8535648607
 20
5.3962533677
 30
0.0
 10
4.8547772028
 20
5.3933770957
 30
0.0
 10
4.8557233757
 20
5.3903069007
 30
0.0
 10
4.8564000008
 20
5.3870961522
 30
0.0
 10
4.8568058108
 20
5.383795896
 30
0.0
 10
4.8568962928
 20
5.3815684211
 30
0.0
 10
4.8568962928
 20
5.3804524134
 30
0.0
  0
SPLINE
  5
405
100
AcDbEntity
  8
0
100
AcDbSpline
 62
7
  6
CONTINUOUS
 70
0
 71
3
 72
9
 73
5
 74
0
 42
0.0000001
 43
0.0000001
 44
0.0000000001
 40
0.0
 40
0.0
 40
0.0
 40
0.0
 40
0.4915336492
 40
1.0
 40
1.0
 40
1.0
 40
1.0
 10
16.341137428
 20
5.4372437927
 30
0.0
 10
16.3334262381
 20
5.4317991221
 30
0.0
 10
16.3174981064
 20
5.4210608037
 30
0.0
 10
16.3012366362
 20
5.4108398703
 30
0.0
 10
16.2929091629
 20
5.4057403552
 30
0.0
  0
SPLINE
  5
406
100
AcDbEntity
  8
0
100
AcDbSpline
 62
7
  6
CONTINUOUS
 70
0
 71
3
 72
17
 73
13
 74
0
 42
0.0000001
 43
0.0000001
 44
0.0000000001
 40
0.0
 40
0.0
 40
0.0
 40
0.0
 40
0.1341655017
 40
0.2649905088
 40
0.3927303475
 40
0.4555651072
 40
0.5177644712
 40
0.6404514855
 40
0.7011012981
 40
0.7613669052
 40
0.8810005192
 40
1.0
 40
1.0
 40
1.0
 40
1.0
 10
16.2723157714
 20
5.405660118
 30
0.0
 10
16.2686237073
 20
5.4021925243
 30
0.0
 10
16.2610590736
 20
5.3956258546
 30
0.0
 10
16.2490778333
 20
5.3868633936
 30
0.0
 10
16.2386777893
 20
5.3805780871
 30
0.0
 10
16.2301859464
 20
5.3762173459
 30
0.0
 10
16.221672899
 20
5.3723391037
 30
0.0
 10
16.2129680509
 20
5.3691023924
 30
0.0
 10
16.2041302742
 20
5.3665469126
 30
0.0
 10
16.1952872824
 20
5.3644645894
 30
0.0
 10
16.1841187552
 20
5.3627157056
 30
0.0
 10
16.1751031545
 20
5.3622469927
 30
0.0
 10
16.1706105849
 20
5.3622468929
 30
0.0
  0
SPLINE
  5
407
100
AcDbEntity
  8
0
100
AcDbSpline
 62
7
  6
CONTINUOUS
 70
0
 71
3
 72
11
 73
7
 74
0
 42
0.0000001
 43
0.0000001
 44
0.0000000001
 40
0.0
 40
0.0
 40
0.0
 40
0.0
 40
0.2401732686
 40
0.4850365616
 40
0.7374846583
 40
1.0
 40
1.0
 40
1.0
 40
1.0
 10
16.1860904303
 20
5.4057403552
 30
0.0
 10
16.1854855605
 20
5.4057403552
 30
0.0
 10
16.1842611664
 20
5.4056204873
 30
0.0
 10
16.182468526
 20
5.4050984043
 30
0.0
 10
16.1807456404
 20
5.404245629
 30
0.0
 10
16.1796828891
 20
5.4034928962
 30
0.0
 10
16.1791705196
 20
5.4030750679
 30
0.0
  0
SPLINE
  5
408
100
AcDbEntity
  8
0
100
AcDbSpline
 62
7
  6
CONTINUOUS
 70
0
 71
3
 72
19
 73
15
 74
0
 42
0.0000001
 43
0.0000001
 44
0.0000000001
 40
0.0
 40
0.0
 40
0.0
 40
0.0
 40
0.0577073035
 40
0.1155505714
 40
0.1736641662
 40
0.2321773502
 40
0.2912133042
 40
0.3508876793
 40
0.4113052323
 40
0.4725612675
 40
0.5978556224
 40
0.7273464982
 40
0.8613545526
 40
1.0
 40
1.0
 40
1.0
 40
1.0
 10
16.1352552458
 20
5.3622468929
 30
0.0
 10
16.1322716378
 20
5.3622468267
 30
0.0
 10
16.1262953582
 20
5.3624524863
 30
0.0
 10
16.1173575302
 20
5.3633774122
 30
0.0
 10
16.1084623476
 20
5.3649176979
 30
0.0
 10
16.0996314557
 20
5.367068076
 30
0.0
 10
16.0908858587
 20
5.3698239509
 30
0.0
 10
16.0822467894
 20
5.3731790112
 30
0.0
 10
16.0737339631
 20
5.3771240201
 30
0.0
 10
16.0624974338
 20
5.3832033848
 30
0.0
 10
16.0488573681
 20
5.3922746204
 30
0.0
 10
16.0334519662
 20
5.4052483088
 30
0.0
 10
16.0190222876
 20
5.4202661824
 30
0.0
 10
16.0102862498
 20
5.4313614545
 30
0.0
 10
16.0061111183
 20
5.4371883666
 30
0.0
  0
SPLINE
  5
409
100
AcDbEntity
  8
0
100
AcDbSpline
 62
7
  6
CONTINUOUS
 70
0
 71
3
 72
19
 73
15
 74
0
 42
0.0000001
 43
0.0000001
 44
0.0000000001
 40
0.0
 40
0.0
 40
0.0
 40
0.0
 40
0.0577073035
 40
0.1155505714
 40
0.1736641662
 40
0.2321773502
 40
0.2912133042
 40
0.3508876793
 40
0.4113052323
 40
0.4725612675
 40
0.5978556224
 40
0.7273464982
 40
0.8613545526
 40
1.0
 40
1.0
 40
1.0
 40
1.0
 10
16.1706105849
 20
5.3622468929
 30
0.0
 10
16.1676269768
 20
5.3622468267
 30
0.0
 10
16.1616506973
 20
5.3624524863
 30
0.0
 10
16.1527128692
 20
5.3633774122
 30
0.0
 10
16.1438176867
 20
5.3649176979
 30
0.0
 10
16.1349867948
 20
5.367068076
 30
0.0
 10
16.1262411977
 20
5.3698239509
 30
0.0
 10
16.1176021284
 20
5.3731790112
 30
0.0
 10
16.1090893022
 20
5.3771240201
 30
0.0
 10
16.0978527729
 20
5.3832033848
 30
0.0
 10
16.0842127071
 20
5.3922746204
 30
0.0
 10
16.0688073052
 20
5.4052483088
 30
0.0
 10
16.0543776267
 20
5.4202661824
 30
0.0
 10
16.0456415888
 20
5.4313614545
 30
0.0
 10
16.0414664574
 20
5.4371883666
 30
0.0
  0
SPLINE
  5
40A
100
AcDbEntity
  8
0
100
AcDbSpline
 62
7
  6
CONTINUOUS
 70
0
 71
3
 72
15
 73
11
 74
0
 42
0.0000001
 43
0.0000001
 44
0.0000000001
 40
0.0
 40
0.0
 40
0.0
 40
0.0
 40
0.1093848924
 40
0.2247529651
 40
0.3455303054
 40
0.4709316038
 40
0.5999829275
 40
0.7318632405
 40
0.865594525
 40
1.0
 40
1.0
 40
1.0
 40
1.0
 10
16.1791705196
 20
5.4030750679
 30
0.0
 10
16.178466639
 20
5.4025010657
 30
0.0
 10
16.1771293304
 20
5.4011844705
 30
0.0
 10
16.175408186
 20
5.3988783375
 30
0.0
 10
16.1739362239
 20
5.3962533677
 30
0.0
 10
16.1727238817
 20
5.3933770957
 30
0.0
 10
16.1717777088
 20
5.3903069007
 30
0.0
 10
16.1711010837
 20
5.3870961522
 30
0.0
 10
16.1706952738
 20
5.383795896
 30
0.0
 10
16.1706047918
 20
5.3815684211
 30
0.0
 10
16.1706047918
 20
5.3804524134
 30
0.0
  0
SPLINE
  5
40B
100
AcDbEntity
  8
0
100
AcDbSpline
 62
7
  6
CONTINUOUS
 70
0
 71
3
 72
15
 73
11
 74
0
 42
0.0000001
 43
0.0000001
 44
0.0000000001
 40
0.0
 40
0.0
 40
0.0
 40
0.0
 40
0.1453524083
 40
0.2868079831
 40
0.4230969843
 40
0.5529474777
 40
0.6754525845
 40
0.7903911539
 40
0.8982555593
 40
1.0
 40
1.0
 40
1.0
 40
1.0
 10
16.2929091629
 20
3.5387530571
 30
0.0
 10
16.3000167786
 20
3.5344005491
 30
0.0
 10
16.3139563212
 20
3.5256715991
 30
0.0
 10
16.3341764587
 20
3.5122601797
 30
0.0
 10
16.3532156321
 20
3.4986963508
 30
0.0
 10
16.370825151
 20
3.4850273365
 30
0.0
 10
16.386830958
 20
3.4713257657
 30
0.0
 10
16.4011872895
 20
3.4576766646
 30
0.0
 10
16.413984161
 20
3.4441545722
 30
0.0
 10
16.4218019615
 20
3.4350188507
 30
0.0
 10
16.4254916843
 20
3.4304998816
 30
0.0
  0
SPLINE
  5
40C
100
AcDbEntity
  8
0
100
AcDbSpline
 62
7
  6
CONTINUOUS
 70
0
 71
3
 72
19
 73
15
 74
0
 42
0.0000001
 43
0.0000001
 44
0.0000000001
 40
0.0
 40
0.0
 40
0.0
 40
0.0
 40
0.1239135187
 40
0.2486584689
 40
0.3113153546
 40
0.3741210923
 40
0.4370327446
 40
0.5
 40
0.5629672554
 40
0.6258789077
 40
0.6886846454
 40
0.7513415311
 40
0.8760864813
 40
1.0
 40
1.0
 40
1.0
 40
1.0
 10
16.4254916843
 20
3.4304998816
 30
0.0
 10
16.4272939054
 20
3.4216708375
 30
0.0
 10
16.4305928728
 20
3.4038863808
 30
0.0
 10
16.433744684
 20
3.3814582047
 30
0.0
 10
16.4355783719
 20
3.3633535566
 30
0.0
 10
16.4365838764
 20
3.3496898896
 30
0.0
 10
16.4371960907
 20
3.3359802787
 30
0.0
 10
16.4374022013
 20
3.3222467061
 30
0.0
 10
16.4371960907
 20
3.3085131335
 30
0.0
 10
16.4365838764
 20
3.2948035227
 30
0.0
 10
16.4355783719
 20
3.2811398557
 30
0.0
 10
16.433744684
 20
3.2630352076
 30
0.0
 10
16.4305928728
 20
3.2406070315
 30
0.0
 10
16.4272939054
 20
3.2228225748
 30
0.0
 10
16.4254916843
 20
3.2139935307
 30
0.0
  0
SPLINE
  5
40D
100
AcDbEntity
  8
0
100
AcDbSpline
 62
7
  6
CONTINUOUS
 70
0
 71
3
 72
15
 73
11
 74
0
 42
0.0000001
 43
0.0000001
 44
0.0000000001
 40
0.0
 40
0.0
 40
0.0
 40
0.0
 40
0.1017444407
 40
0.2096088461
 40
0.3245474155
 40
0.4470525223
 40
0.5769030157
 40
0.7131920169
 40
0.8546475917
 40
1.0
 40
1.0
 40
1.0
 40
1.0
 10
16.4254916843
 20
3.2139935307
 30
0.0
 10
16.4218019615
 20
3.2094745615
 30
0.0
 10
16.413984161
 20
3.2003388401
 30
0.0
 10
16.4011872895
 20
3.1868167476
 30
0.0
 10
16.386830958
 20
3.1731676466
 30
0.0
 10
16.370825151
 20
3.1594660758
 30
0.0
 10
16.3532156321
 20
3.1457970615
 30
0.0
 10
16.3341764587
 20
3.1322332326
 30
0.0
 10
16.3139563212
 20
3.1188218131
 30
0.0
 10
16.3000167786
 20
3.1100928632
 30
0.0
 10
16.2929091629
 20
3.1057403552
 30
0.0
  0
SPLINE
  5
40E
100
AcDbEntity
  8
0
100
AcDbSpline
 62
7
  6
CONTINUOUS
 70
0
 71
3
 72
15
 73
11
 74
0
 42
0.0000001
 43
0.0000001
 44
0.0000000001
 40
0.0
 40
0.0
 40
0.0
 40
0.0
 40
0.1341084573
 40
0.2648959645
 40
0.3926219614
 40
0.517627337
 40
0.6403394988
 40
0.7612572922
 40
0.880942489
 40
1.0
 40
1.0
 40
1.0
 40
1.0
 10
16.2718848099
 20
3.5392366234
 30
0.0
 10
16.268202922
 20
3.542673586
 30
0.0
 10
16.2606615708
 20
3.5491822346
 30
0.0
 10
16.2487211456
 20
3.5578639892
 30
0.0
 10
16.2363597901
 20
3.5652957895
 30
0.0
 10
16.2236422013
 20
3.571433506
 30
0.0
 10
16.2106371154
 20
3.5762452023
 30
0.0
 10
16.1974129766
 20
3.5797010677
 30
0.0
 10
16.1840439128
 20
3.5817833917
 30
0.0
 10
16.17507049
 20
3.5822466186
 30
0.0
 10
16.1705989986
 20
3.5822465193
 30
0.0
  0
SPLINE
  5
40F
100
AcDbEntity
  8
0
100
AcDbSpline
 62
7
  6
CONTINUOUS
 70
0
 71
3
 72
17
 73
13
 74
0
 42
0.0000001
 43
0.0000001
 44
0.0000000001
 40
0.0
 40
0.0
 40
0.0
 40
0.0
 40
0.1341655017
 40
0.2649905088
 40
0.3927303475
 40
0.4555651072
 40
0.5177644712
 40
0.6404514855
 40
0.7011012981
 40
0.7613669052
 40
0.8810005192
 40
1.0
 40
1.0
 40
1.0
 40
1.0
 10
16.2723157714
 20
3.105660118
 30
0.0
 10
16.2686237073
 20
3.1021925243
 30
0.0
 10
16.2610590736
 20
3.0956258546
 30
0.0
 10
16.2490778333
 20
3.0868633936
 30
0.0
 10
16.2386777893
 20
3.0805780871
 30
0.0
 10
16.2301859464
 20
3.0762173459
 30
0.0
 10
16.221672899
 20
3.0723391037
 30
0.0
 10
16.2129680509
 20
3.0691023924
 30
0.0
 10
16.2041302742
 20
3.0665469126
 30
0.0
 10
16.1952872824
 20
3.0644645894
 30
0.0
 10
16.1841187552
 20
3.0627157056
 30
0.0
 10
16.1751031545
 20
3.0622469927
 30
0.0
 10
16.1706105849
 20
3.0622468929
 30
0.0
  0
SPLINE
  5
410
100
AcDbEntity
  8
0
100
AcDbSpline
 62
7
  6
CONTINUOUS
 70
0
 71
3
 72
11
 73
7
 74
0
 42
0.0000001
 43
0.0000001
 44
0.0000000001
 40
0.0
 40
0.0
 40
0.0
 40
0.0
 40
0.2401732686
 40
0.4850365616
 40
0.7374846583
 40
1.0
 40
1.0
 40
1.0
 40
1.0
 10
16.1860904303
 20
3.1057403552
 30
0.0
 10
16.1854855605
 20
3.1057403552
 30
0.0
 10
16.1842611664
 20
3.1056204873
 30
0.0
 10
16.182468526
 20
3.1050984043
 30
0.0
 10
16.1807456404
 20
3.104245629
 30
0.0
 10
16.1796828891
 20
3.1034928962
 30
0.0
 10
16.1791705196
 20
3.1030750679
 30
0.0
  0
SPLINE
  5
411
100
AcDbEntity
  8
0
100
AcDbSpline
 62
7
  6
CONTINUOUS
 70
0
 71
3
 72
11
 73
7
 74
0
 42
0.0000001
 43
0.0000001
 44
0.0000000001
 40
0.0
 40
0.0
 40
0.0
 40
0.0
 40
0.2401732686
 40
0.4850365616
 40
0.7374846583
 40
1.0
 40
1.0
 40
1.0
 40
1.0
 10
16.1860904303
 20
3.5387530571
 30
0.0
 10
16.1854855605
 20
3.5387530571
 30
0.0
 10
16.1842611664
 20
3.538872925
 30
0.0
 10
16.182468526
 20
3.5393950079
 30
0.0
 10
16.1807456404
 20
3.5402477832
 30
0.0
 10
16.1796828891
 20
3.5410005161
 30
0.0
 10
16.1791705196
 20
3.5414183444
 30
0.0
  0
SPLINE
  5
412
100
AcDbEntity
  8
0
100
AcDbSpline
 62
7
  6
CONTINUOUS
 70
0
 71
3
 72
23
 73
19
 74
0
 42
0.0000001
 43
0.0000001
 44
0.0000000001
 40
0.0
 40
0.0
 40
0.0
 40
0.0
 40
0.0552200583
 40
0.1106748871
 40
0.1665926736
 40
0.2231878726
 40
0.2806564376
 40
0.3391704851
 40
0.3988763535
 40
0.4598908728
 40
0.5223035786
 40
0.5861741968
 40
0.6515348273
 40
0.7183856123
 40
0.7867085174
 40
0.8564722864
 40
0.9276136373
 40
1.0
 40
1.0
 40
1.0
 40
1.0
 10
16.1352552458
 20
3.0622468929
 30
0.0
 10
16.1312427618
 20
3.0622468038
 30
0.0
 10
16.1231957725
 20
3.0626193996
 30
0.0
 10
16.111190738
 20
3.0642950182
 30
0.0
 10
16.0992900643
 20
3.0670788542
 30
0.0
 10
16.0875470012
 20
3.070958678
 30
0.0
 10
16.0760119907
 20
3.0759166152
 30
0.0
 10
16.0647345955
 20
3.0819302543
 30
0.0
 10
16.053763253
 20
3.0889731997
 30
0.0
 10
16.0431440922
 20
3.0970137808
 30
0.0
 10
16.0329227388
 20
3.1060177679
 30
0.0
 10
16.0231415209
 20
3.1159453421
 30
0.0
 10
16.0138429974
 20
3.1267544874
 30
0.0
 10
16.0050648968
 20
3.1383973266
 30
0.0
 10
15.9968454502
 20
3.150825741
 30
0.0
 10
15.9892177928
 20
3.1639870054
 30
0.0
 10
15.9822171546
 20
3.1778229052
 30
0.0
 10
15.9780206552
 20
3.1873770329
 30
0.0
 10
15.9760326194
 20
3.1922467061
 30
0.0
  0
SPLINE
  5
413
100
AcDbEntity
  8
0
100
AcDbSpline
 62
7
  6
CONTINUOUS
 70
0
 71
3
 72
33
 73
29
 74
0
 42
0.0000001
 43
0.0000001
 44
0.0000000001
 40
0.0
 40
0.0
 40
0.0
 40
0.0
 40
0.0248617031
 40
0.0498293083
 40
0.0750052916
 40
0.1004865152
 40
0.1263607673
 40
0.1527060222
 40
0.1795875392
 40
0.2070587667
 40
0.2351590604
 40
0.2639158084
 40
0.293342707
 40
0.3234424266
 40
0.3855854026
 40
0.4501825721
 40
0.5169033937
 40
0.585309275
 40
0.6548820701
 40
0.7250511664
 40
0.7601826356
 40
0.7952393726
 40
0.8301469022
 40
0.8648309296
 40
0.8992215798
 40
0.9332580601
 40
0.9668772299
 40
1.0
 40
1.0
 40
1.0
 40
1.0
 10
16.1352436596
 20
3.5822465193
 30
0.0
 10
16.1312313566
 20
3.5822464302
 30
0.0
 10
16.1231847203
 20
3.5818729767
 30
0.0
 10
16.1111803553
 20
3.5801963118
 30
0.0
 10
16.0992802217
 20
3.5774120021
 30
0.0
 10
16.0875380206
 20
3.5735310099
 30
0.0
 10
16.076003437
 20
3.5685730521
 30
0.0
 10
16.0647271269
 20
3.5625583197
 30
0.0
 10
16.0537560108
 20
3.5555157008
 30
0.0
 10
16.0431381302
 20
3.5474741387
 30
0.0
 10
16.0329168613
 20
3.5384706582
 30
0.0
 10
16.0231371231
 20
3.5285425869
 30
0.0
 10
16.0138382016
 20
3.5177339154
 30
0.0
 10
16.00201195
 20
3.5020449297
 30
0.0
 10
15.988690779
 20
3.4804454788
 30
0.0
 10
15.9753838531
 20
3.4521356451
 30
0.0
 10
15.9647973795
 20
3.4216313425
 30
0.0
 10
15.9571080316
 20
3.3894495617
 30
0.0
 10
15.9524427285
 20
3.3561343287
 30
0.0
 10
15.9511398077
 20
3.3278984733
 30
0.0
 10
15.9516638972
 20
3.3052464156
 30
0.0
 10
15.9528412728
 20
3.2883200397
 30
0.0
 10
15.9547987683
 20
3.2715390759
 30
0.0
 10
15.9575263215
 20
3.2549746541
 30
0.0
 10
15.9610141372
 20
3.2386971174
 30
0.0
 10
15.9652466862
 20
3.2227745497
 30
0.0
 10
15.9702066511
 20
3.207278324
 30
0.0
 10
15.9740122049
 20
3.1971956907
 30
0.0
 10
15.9760326194
 20
3.1922467061
 30
0.0
  0
SPLINE
  5
414
100
AcDbEntity
  8
0
100
AcDbSpline
 62
7
  6
CONTINUOUS
 70
0
 71
3
 72
17
 73
13
 74
0
 42
0.0000001
 43
0.0000001
 44
0.0000000001
 40
0.0
 40
0.0
 40
0.0
 40
0.0
 40
0.0507521541
 40
0.1062279752
 40
0.1656818145
 40
0.2283685672
 40
0.3603916239
 40
0.4965882669
 40
0.6320482742
 40
0.7629485808
 40
0.8864675634
 40
1.0
 40
1.0
 40
1.0
 40
1.0
 10
16.0535079088
 20
3.2139935307
 30
0.0
 10
16.0529336054
 20
3.2139935307
 30
0.0
 10
16.0517313193
 20
3.2139389335
 30
0.0
 10
16.0498676325
 20
3.2137247849
 30
0.0
 10
16.047886974
 20
3.2133770407
 30
0.0
 10
16.045082343
 20
3.2127355761
 30
0.0
 10
16.0414928573
 20
3.2116530577
 30
0.0
 10
16.0372251379
 20
3.2100146194
 30
0.0
 10
16.0330880509
 20
3.208100284
 30
0.0
 10
16.029208863
 20
3.205992159
 30
0.0
 10
16.0256890137
 20
3.2037623176
 30
0.0
 10
16.0235317678
 20
3.2021620849
 30
0.0
 10
16.0225366318
 20
3.2013495598
 30
0.0
  0
SPLINE
  5
415
100
AcDbEntity
  8
0
100
AcDbSpline
 62
7
  6
CONTINUOUS
 70
0
 71
3
 72
45
 73
41
 74
0
 42
0.0000001
 43
0.0000001
 44
0.0000000001
 40
0.0
 40
0.0
 40
0.0
 40
0.0
 40
0.0128513267
 40
0.0257402646
 40
0.038691441
 40
0.051730823
 40
0.0648871307
 40
0.0781878531
 40
0.1053036192
 40
0.1332505709
 40
0.1621439873
 40
0.1920543393
 40
0.2230077703
 40
0.2549895349
 40
0.287948694
 40
0.3218028922
 40
0.3564428168
 40
0.3917370601
 40
0.4275370898
 40
0.4636814477
 40
0.5
 40
0.5363185523
 40
0.5724629102
 40
0.6082629399
 40
0.6435571832
 40
0.6781971078
 40
0.712051306
 40
0.7450104651
 40
0.7769922297
 40
0.8079456607
 40
0.8378560127
 40
0.8667494291
 40
0.8946963808
 40
0.9218121469
 40
0.9351128693
 40
0.948269177
 40
0.961308559
 40
0.9742597354
 40
0.9871486733
 40
1.0
 40
1.0
 40
1.0
 40
1.0
 10
16.3049550802
 20
3.5092467061
 30
0.0
 10
16.3071183131
 20
3.5092467061
 30
0.0
 10
16.3114525994
 20
3.5090957054
 30
0.0
 10
16.3179350972
 20
3.5084187937
 30
0.0
 10
16.3243872476
 20
3.5072926198
 30
0.0
 10
16.3307912059
 20
3.5057190783
 30
0.0
 10
16.3371318402
 20
3.503703175
 30
0.0
 10
16.3455331692
 20
3.5004114321
 30
0.0
 10
16.355821498
 20
3.495183484
 30
0.0
 10
16.3675791195
 20
3.4872862201
 30
0.0
 10
16.3787230108
 20
3.4778040186
 30
0.0
 10
16.3891474445
 20
3.4668314637
 30
0.0
 10
16.3987553564
 20
3.4544750397
 30
0.0
 10
16.4074573727
 20
3.4408543461
 30
0.0
 10
16.4151723797
 20
3.4261000943
 30
0.0
 10
16.4218277931
 20
3.4103532647
 30
0.0
 10
16.4273608736
 20
3.3937643098
 30
0.0
 10
16.4317197875
 20
3.3764918486
 30
0.0
 10
16.4348632889
 20
3.3587008638
 30
0.0
 10
16.4367612127
 20
3.3405613294
 30
0.0
 10
16.4373957935
 20
3.3222467061
 30
0.0
 10
16.4367612127
 20
3.3039320829
 30
0.0
 10
16.4348632889
 20
3.2857925484
 30
0.0
 10
16.4317197875
 20
3.2680015637
 30
0.0
 10
16.4273608736
 20
3.2507291024
 30
0.0
 10
16.4218277931
 20
3.2341401476
 30
0.0
 10
16.4151723797
 20
3.2183933179
 30
0.0
 10
16.4074573727
 20
3.2036390662
 30
0.0
 10
16.3987553564
 20
3.1900183726
 30
0.0
 10
16.3891474445
 20
3.1776619486
 30
0.0
 10
16.3787230108
 20
3.1666893937
 30
0.0
 10
16.3675791195
 20
3.1572071921
 30
0.0
 10
16.355821498
 20
3.1493099283
 30
0.0
 10
16.3455331692
 20
3.1440819801
 30
0.0
 10
16.3371318402
 20
3.1407902372
 30
0.0
 10
16.3307912059
 20
3.138774334
 30
0.0
 10
16.3243872476
 20
3.1372007925
 30
0.0
 10
16.3179350972
 20
3.1360746185
 30
0.0
 10
16.3114525994
 20
3.1353977068
 30
0.0
 10
16.3071183131
 20
3.1352467061
 30
0.0
 10
16.3049550802
 20
3.1352467061
 30
0.0
  0
SPLINE
  5
416
100
AcDbEntity
  8
0
100
AcDbSpline
 62
7
  6
CONTINUOUS
 70
0
 71
3
 72
17
 73
13
 74
0
 42
0.0000001
 43
0.0000001
 44
0.0000000001
 40
0.0
 40
0.0
 40
0.0
 40
0.0
 40
0.0507521541
 40
0.1062279752
 40
0.1656818145
 40
0.2283685672
 40
0.3603916239
 40
0.4965882669
 40
0.6320482742
 40
0.7629485808
 40
0.8864675634
 40
1.0
 40
1.0
 40
1.0
 40
1.0
 10
16.0535079088
 20
3.4304998816
 30
0.0
 10
16.0529336054
 20
3.4304998816
 30
0.0
 10
16.0517313193
 20
3.4305544787
 30
0.0
 10
16.0498676325
 20
3.4307686274
 30
0.0
 10
16.047886974
 20
3.4311163715
 30
0.0
 10
16.045082343
 20
3.4317578361
 30
0.0
 10
16.0414928573
 20
3.4328403546
 30
0.0
 10
16.0372251379
 20
3.4344787928
 30
0.0
 10
16.0330880509
 20
3.4363931282
 30
0.0
 10
16.029208863
 20
3.4385012532
 30
0.0
 10
16.0256890137
 20
3.4407310947
 30
0.0
 10
16.0235317678
 20
3.4423313273
 30
0.0
 10
16.0225366318
 20
3.4431438525
 30
0.0
  0
SPLINE
  5
417
100
AcDbEntity
  8
0
100
AcDbSpline
 62
7
  6
CONTINUOUS
 70
0
 71
3
 72
15
 73
11
 74
0
 42
0.0000001
 43
0.0000001
 44
0.0000000001
 40
0.0
 40
0.0
 40
0.0
 40
0.0
 40
0.1017444407
 40
0.2096088461
 40
0.3245474155
 40
0.4470525223
 40
0.5769030157
 40
0.7131920169
 40
0.8546475917
 40
1.0
 40
1.0
 40
1.0
 40
1.0
 10
16.2929091629
 20
3.1057403552
 30
0.0
 10
16.28921944
 20
3.1102593243
 30
0.0
 10
16.2814016396
 20
3.1193950458
 30
0.0
 10
16.268604768
 20
3.1329171382
 30
0.0
 10
16.2542484365
 20
3.1465662392
 30
0.0
 10
16.2382426296
 20
3.1602678101
 30
0.0
 10
16.2206331106
 20
3.1739368243
 30
0.0
 10
16.2015939372
 20
3.1875006533
 30
0.0
 10
16.1813737998
 20
3.2009120727
 30
0.0
 10
16.1674342572
 20
3.2096410227
 30
0.0
 10
16.1603266414
 20
3.2139935307
 30
0.0
  0
SPLINE
  5
418
100
AcDbEntity
  8
0
100
AcDbSpline
 62
7
  6
CONTINUOUS
 70
0
 71
3
 72
45
 73
41
 74
0
 42
0.0000001
 43
0.0000001
 44
0.0000000001
 40
0.0
 40
0.0
 40
0.0
 40
0.0
 40
0.0128513267
 40
0.0257402646
 40
0.038691441
 40
0.051730823
 40
0.0648871307
 40
0.0781878531
 40
0.1053036192
 40
0.1332505709
 40
0.1621439873
 40
0.1920543393
 40
0.2230077703
 40
0.2549895349
 40
0.287948694
 40
0.3218028922
 40
0.3564428168
 40
0.3917370601
 40
0.4275370898
 40
0.4636814477
 40
0.5
 40
0.5363185523
 40
0.5724629102
 40
0.6082629399
 40
0.6435571832
 40
0.6781971078
 40
0.712051306
 40
0.7450104651
 40
0.7769922297
 40
0.8079456607
 40
0.8378560127
 40
0.8667494291
 40
0.8946963808
 40
0.9218121469
 40
0.9351128693
 40
0.948269177
 40
0.961308559
 40
0.9742597354
 40
0.9871486733
 40
1.0
 40
1.0
 40
1.0
 40
1.0
 10
16.3049550802
 20
3.1352467061
 30
0.0
 10
16.3027918473
 20
3.1352467061
 30
0.0
 10
16.2984575609
 20
3.1353977068
 30
0.0
 10
16.2919750631
 20
3.1360746185
 30
0.0
 10
16.2855229127
 20
3.1372007925
 30
0.0
 10
16.2791189544
 20
3.138774334
 30
0.0
 10
16.2727783201
 20
3.1407902372
 30
0.0
 10
16.2643769912
 20
3.1440819801
 30
0.0
 10
16.2540886624
 20
3.1493099283
 30
0.0
 10
16.2423310409
 20
3.1572071921
 30
0.0
 10
16.2311871496
 20
3.1666893937
 30
0.0
 10
16.2207627159
 20
3.1776619486
 30
0.0
 10
16.2111548039
 20
3.1900183726
 30
0.0
 10
16.2024527877
 20
3.2036390662
 30
0.0
 10
16.1947377807
 20
3.2183933179
 30
0.0
 10
16.1880823673
 20
3.2341401476
 30
0.0
 10
16.1825492868
 20
3.2507291024
 30
0.0
 10
16.1781903728
 20
3.2680015637
 30
0.0
 10
16.1750468715
 20
3.2857925484
 30
0.0
 10
16.1731489476
 20
3.3039320829
 30
0.0
 10
16.1725143669
 20
3.3222467061
 30
0.0
 10
16.1731489476
 20
3.3405613294
 30
0.0
 10
16.1750468715
 20
3.3587008638
 30
0.0
 10
16.1781903728
 20
3.3764918486
 30
0.0
 10
16.1825492868
 20
3.3937643098
 30
0.0
 10
16.1880823673
 20
3.4103532647
 30
0.0
 10
16.1947377807
 20
3.4261000943
 30
0.0
 10
16.2024527877
 20
3.4408543461
 30
0.0
 10
16.2111548039
 20
3.4544750397
 30
0.0
 10
16.2207627159
 20
3.4668314637
 30
0.0
 10
16.2311871496
 20
3.4778040186
 30
0.0
 10
16.2423310409
 20
3.4872862201
 30
0.0
 10
16.2540886624
 20
3.495183484
 30
0.0
 10
16.2643769912
 20
3.5004114321
 30
0.0
 10
16.2727783201
 20
3.503703175
 30
0.0
 10
16.2791189544
 20
3.5057190783
 30
0.0
 10
16.2855229127
 20
3.5072926198
 30
0.0
 10
16.2919750631
 20
3.5084187937
 30
0.0
 10
16.2984575609
 20
3.5090957054
 30
0.0
 10
16.3027918473
 20
3.5092467061
 30
0.0
 10
16.3049550802
 20
3.5092467061
 30
0.0
  0
SPLINE
  5
419
100
AcDbEntity
  8
0
100
AcDbSpline
 62
7
  6
CONTINUOUS
 70
0
 71
3
 72
19
 73
15
 74
0
 42
0.0000001
 43
0.0000001
 44
0.0000000001
 40
0.0
 40
0.0
 40
0.0
 40
0.0
 40
0.1239135187
 40
0.2486584689
 40
0.3113153546
 40
0.3741210923
 40
0.4370327446
 40
0.5
 40
0.5629672554
 40
0.6258789077
 40
0.6886846454
 40
0.7513415311
 40
0.8760864813
 40
1.0
 40
1.0
 40
1.0
 40
1.0
 10
16.1603266414
 20
3.2139935307
 30
0.0
 10
16.1621288625
 20
3.2228225748
 30
0.0
 10
16.1654278299
 20
3.2406070315
 30
0.0
 10
16.1685796411
 20
3.2630352076
 30
0.0
 10
16.170413329
 20
3.2811398557
 30
0.0
 10
16.1714188334
 20
3.2948035227
 30
0.0
 10
16.1720310478
 20
3.3085131335
 30
0.0
 10
16.1722371583
 20
3.3222467061
 30
0.0
 10
16.1720310478
 20
3.3359802787
 30
0.0
 10
16.1714188334
 20
3.3496898896
 30
0.0
 10
16.170413329
 20
3.3633535566
 30
0.0
 10
16.1685796411
 20
3.3814582047
 30
0.0
 10
16.1654278299
 20
3.4038863808
 30
0.0
 10
16.1621288625
 20
3.4216708375
 30
0.0
 10
16.1603266414
 20
3.4304998816
 30
0.0
  0
SPLINE
  5
41A
100
AcDbEntity
  8
0
100
AcDbSpline
 62
7
  6
CONTINUOUS
 70
0
 71
3
 72
21
 73
17
 74
0
 42
0.0000001
 43
0.0000001
 44
0.0000000001
 40
0.0
 40
0.0
 40
0.0
 40
0.0
 40
0.0566618503
 40
0.1134977482
 40
0.1706786381
 40
0.2283672895
 40
0.2867171675
 40
0.3458675365
 40
0.4059430179
 40
0.4670516685
 40
0.5292822755
 40
0.5927076509
 40
0.7232805692
 40
0.7905388518
 40
0.8590958702
 40
1.0
 40
1.0
 40
1.0
 40
1.0
 10
16.1706105849
 20
3.0622468929
 30
0.0
 10
16.1672025265
 20
3.0622468172
 30
0.0
 10
16.1603729071
 20
3.0625153207
 30
0.0
 10
16.1501682842
 20
3.0637229422
 30
0.0
 10
16.1400274171
 20
3.0657322689
 30
0.0
 10
16.1299824973
 20
3.068535161
 30
0.0
 10
16.120065235
 20
3.0721244961
 30
0.0
 10
16.110305963
 20
3.076487005
 30
0.0
 10
16.1007351312
 20
3.0816096406
 30
0.0
 10
16.0913825812
 20
3.0874761331
 30
0.0
 10
16.0822759352
 20
3.0940673754
 30
0.0
 10
16.0703882805
 20
3.1038884193
 30
0.0
 10
16.0592248288
 20
3.115009682
 30
0.0
 10
16.0488641443
 20
3.1272395413
 30
0.0
 10
16.0388103418
 20
3.1405121161
 30
0.0
 10
16.0320111658
 20
3.1511524427
 30
0.0
 10
16.0277960747
 20
3.1585049068
 30
0.0
  0
SPLINE
  5
41B
100
AcDbEntity
  8
0
100
AcDbSpline
 62
7
  6
CONTINUOUS
 70
0
 71
3
 72
9
 73
5
 74
0
 42
0.0000001
 43
0.0000001
 44
0.0000000001
 40
0.0
 40
0.0
 40
0.0
 40
0.0
 40
0.4946307613
 40
1.0
 40
1.0
 40
1.0
 40
1.0
 10
16.0277960747
 20
3.1585049068
 30
0.0
 10
16.0247176643
 20
3.163874637
 30
0.0
 10
16.0188748943
 20
3.1749527148
 30
0.0
 10
16.0137781804
 20
3.1863918822
 30
0.0
 10
16.0113879585
 20
3.1922467061
 30
0.0
  0
SPLINE
  5
41C
100
AcDbEntity
  8
0
100
AcDbSpline
 62
7
  6
CONTINUOUS
 70
0
 71
3
 72
15
 73
11
 74
0
 42
0.0000001
 43
0.0000001
 44
0.0000000001
 40
0.0
 40
0.0
 40
0.0
 40
0.0
 40
0.1453524083
 40
0.2868079831
 40
0.4230969843
 40
0.5529474777
 40
0.6754525845
 40
0.7903911539
 40
0.8982555593
 40
1.0
 40
1.0
 40
1.0
 40
1.0
 10
16.1603266414
 20
3.4304998816
 30
0.0
 10
16.1674342572
 20
3.4348523896
 30
0.0
 10
16.1813737998
 20
3.4435813396
 30
0.0
 10
16.2015939372
 20
3.456992759
 30
0.0
 10
16.2206331106
 20
3.4705565879
 30
0.0
 10
16.2382426296
 20
3.4842256022
 30
0.0
 10
16.2542484365
 20
3.497927173
 30
0.0
 10
16.268604768
 20
3.5115762741
 30
0.0
 10
16.2814016396
 20
3.5250983665
 30
0.0
 10
16.28921944
 20
3.5342340879
 30
0.0
 10
16.2929091629
 20
3.5387530571
 30
0.0
  0
SPLINE
  5
41D
100
AcDbEntity
  8
0
100
AcDbSpline
 62
7
  6
CONTINUOUS
 70
0
 71
3
 72
20
 73
16
 74
0
 42
0.0000001
 43
0.0000001
 44
0.0000000001
 40
0.0
 40
0.0
 40
0.0
 40
0.0
 40
0.0566137342
 40
0.1134039531
 40
0.1705427511
 40
0.2281953963
 40
0.2865160793
 40
0.345645426
 40
0.4057094376
 40
0.4668152743
 40
0.5290540647
 40
0.5924965055
 40
0.7231290236
 40
0.8589841251
 40
1.0
 40
1.0
 40
1.0
 40
1.0
 10
16.1705989986
 20
3.5822465193
 30
0.0
 10
16.1671704749
 20
3.5822464432
 30
0.0
 10
16.1602996438
 20
3.5819741935
 30
0.0
 10
16.1500341609
 20
3.5807503615
 30
0.0
 10
16.1398333094
 20
3.5787168813
 30
0.0
 10
16.1297306361
 20
3.5758785743
 30
0.0
 10
16.1197575835
 20
3.5722460001
 30
0.0
 10
16.1099455212
 20
3.5678308217
 30
0.0
 10
16.1003256602
 20
3.5626464983
 30
0.0
 10
16.0909271995
 20
3.5567112636
 30
0.0
 10
16.0817801712
 20
3.5500421089
 30
0.0
 10
16.0698422923
 20
3.5401070727
 30
0.0
 10
16.0557070857
 20
3.5259113801
 30
0.0
 10
16.0403660663
 20
3.5065225938
 30
0.0
 10
16.0313843185
 20
3.49232326
 30
0.0
 10
16.0271723881
 20
3.4848942812
 30
0.0
  0
SPLINE
  5
41E
100
AcDbEntity
  8
0
100
AcDbSpline
 62
7
  6
CONTINUOUS
 70
0
 71
3
 72
14
 73
10
 74
0
 42
0.0000001
 43
0.0000001
 44
0.0000000001
 40
0.0
 40
0.0
 40
0.0
 40
0.0
 40
0.2381042876
 40
0.3610735831
 40
0.4861790505
 40
0.6130445436
 40
0.7412619196
 40
0.8703974319
 40
1.0
 40
1.0
 40
1.0
 40
1.0
 10
16.0271723881
 20
3.4848942812
 30
0.0
 10
16.0205591248
 20
3.473229845
 30
0.0
 10
16.0118548692
 20
3.4547552022
 30
0.0
 10
16.0027103048
 20
3.4289366542
 30
0.0
 10
15.9969636087
 20
3.4086022722
 30
0.0
 10
15.9924464663
 20
3.3876605231
 30
0.0
 10
15.9891893689
 20
3.3662561544
 30
0.0
 10
15.9872164783
 20
3.3445419622
 30
0.0
 10
15.9867656141
 20
3.3299679969
 30
0.0
 10
15.9867573082
 20
3.3226694888
 30
0.0
  0
SPLINE
  5
41F
100
AcDbEntity
  8
0
100
AcDbSpline
 62
7
  6
CONTINUOUS
 70
0
 71
3
 72
13
 73
9
 74
0
 42
0.0000001
 43
0.0000001
 44
0.0000000001
 40
0.0
 40
0.0
 40
0.0
 40
0.0
 40
0.1277988676
 40
0.2553149622
 40
0.445452709
 40
0.6334695907
 40
0.8185951084
 40
1.0
 40
1.0
 40
1.0
 40
1.0
 10
15.9867582344
 20
3.3213259525
 30
0.0
 10
15.9867724063
 20
3.3156948514
 30
0.0
 10
15.9870589625
 20
3.3044439113
 30
0.0
 10
15.9884615437
 20
3.2848603982
 30
0.0
 10
15.9913375118
 20
3.2627462853
 30
0.0
 10
15.9962718826
 20
3.2384006725
 30
0.0
 10
16.0028562341
 20
3.2148480171
 30
0.0
 10
16.0083668407
 20
3.1996469033
 30
0.0
 10
16.0113879585
 20
3.1922467061
 30
0.0
  0
SPLINE
  5
420
100
AcDbEntity
  8
0
100
AcDbSpline
 62
7
  6
CONTINUOUS
 70
0
 71
3
 72
15
 73
11
 74
0
 42
0.0000001
 43
0.0000001
 44
0.0000000001
 40
0.0
 40
0.0
 40
0.0
 40
0.0
 40
0.1093848924
 40
0.2247529651
 40
0.3455303054
 40
0.4709316038
 40
0.5999829275
 40
0.7318632405
 40
0.865594525
 40
1.0
 40
1.0
 40
1.0
 40
1.0
 10
16.1791705196
 20
3.1030750679
 30
0.0
 10
16.178466639
 20
3.1025010657
 30
0.0
 10
16.1771293304
 20
3.1011844705
 30
0.0
 10
16.175408186
 20
3.0988783375
 30
0.0
 10
16.1739362239
 20
3.0962533677
 30
0.0
 10
16.1727238817
 20
3.0933770957
 30
0.0
 10
16.1717777088
 20
3.0903069007
 30
0.0
 10
16.1711010837
 20
3.0870961522
 30
0.0
 10
16.1706952738
 20
3.083795896
 30
0.0
 10
16.1706047918
 20
3.0815684211
 30
0.0
 10
16.1706047918
 20
3.0804524134
 30
0.0
  0
SPLINE
  5
421
100
AcDbEntity
  8
0
100
AcDbSpline
 62
7
  6
CONTINUOUS
 70
0
 71
3
 72
15
 73
11
 74
0
 42
0.0000001
 43
0.0000001
 44
0.0000000001
 40
0.0
 40
0.0
 40
0.0
 40
0.0
 40
0.1093848924
 40
0.2247529651
 40
0.3455303054
 40
0.4709316038
 40
0.5999829275
 40
0.7318632405
 40
0.865594525
 40
1.0
 40
1.0
 40
1.0
 40
1.0
 10
16.1791705196
 20
3.5414183444
 30
0.0
 10
16.178466639
 20
3.5419923465
 30
0.0
 10
16.1771293304
 20
3.5433089417
 30
0.0
 10
16.175408186
 20
3.5456150748
 30
0.0
 10
16.1739362239
 20
3.5482400445
 30
0.0
 10
16.1727238817
 20
3.5511163166
 30
0.0
 10
16.1717777088
 20
3.5541865116
 30
0.0
 10
16.1711010837
 20
3.55739726
 30
0.0
 10
16.1706952738
 20
3.5606975162
 30
0.0
 10
16.1706047918
 20
3.5629249911
 30
0.0
 10
16.1706047918
 20
3.5640409989
 30
0.0
  0
SPLINE
  5
422
100
AcDbEntity
  8
0
100
AcDbSpline
 62
7
  6
CONTINUOUS
 70
0
 71
3
 72
9
 73
5
 74
0
 42
0.0000001
 43
0.0000001
 44
0.0000000001
 40
0.0
 40
0.0
 40
0.0
 40
0.0
 40
0.2458307554
 40
1.0
 40
1.0
 40
1.0
 40
1.0
 10
5.0593949309
 20
3.2134356801
 30
0.0
 10
5.0603051862
 20
3.2138869471
 30
0.0
 10
5.0639639591
 20
3.2158106028
 30
0.0
 10
5.0674408536
 20
3.2180759872
 30
0.0
 10
5.0699399754
 20
3.2199385511
 30
0.0
  0
SPLINE
  5
423
100
AcDbEntity
  8
0
100
AcDbSpline
 62
3
  6
CONTINUOUS
 70
0
 71
3
 72
23
 73
19
 74
0
 42
0.0000001
 43
0.0000001
 44
0.0000000001
 40
0.0
 40
0.0
 40
0.0
 40
0.0
 40
0.0557391309
 40
0.1136846023
 40
0.1746087534
 40
0.2380772329
 40
0.3033206259
 40
0.3692689926
 40
0.4349964924
 40
0.5004903438
 40
0.5659173094
 40
0.6314736909
 40
0.6971448232
 40
0.7620977231
 40
0.8254131818
 40
0.8863029061
 40
0.9443124325
 40
1.0
 40
1.0
 40
1.0
 40
1.0
 10
5.0551782139
 20
3.4432614928
 30
0.0
 10
5.0584472496
 20
3.4396287537
 30
0.0
 10
5.0647016048
 20
3.4318371089
 30
0.0
 10
5.0729657448
 20
3.4189200734
 30
0.0
 10
5.0802410586
 20
3.4046576708
 30
0.0
 10
5.0864027132
 20
3.3891888946
 30
0.0
 10
5.0912344642
 20
3.3727962076
 30
0.0
 10
5.0946967511
 20
3.3558609362
 30
0.0
 10
5.0967286157
 20
3.3386732012
 30
0.0
 10
5.097346548
 20
3.3214242913
 30
0.0
 10
5.0965971278
 20
3.3041955084
 30
0.0
 10
5.0944365428
 20
3.2870692081
 30
0.0
 10
5.0908632919
 20
3.2702232889
 30
0.0
 10
5.0859204862
 20
3.253929651
 30
0.0
 10
5.0796536225
 20
3.2385486766
 30
0.0
 10
5.0722670232
 20
3.2243549019
 30
0.0
 10
5.0638726109
 20
3.2115237419
 30
0.0
 10
5.0575406693
 20
3.2037938646
 30
0.0
 10
5.0542385338
 20
3.2001973216
 30
0.0
  0
SPLINE
  5
424
100
AcDbEntity
  8
0
100
AcDbSpline
 62
7
  6
CONTINUOUS
 70
0
 71
3
 72
21
 73
17
 74
0
 42
0.0000001
 43
0.0000001
 44
0.0000000001
 40
0.0
 40
0.0
 40
0.0
 40
0.0
 40
0.1256853361
 40
0.1883323231
 40
0.2508510309
 40
0.3132535003
 40
0.3755604261
 40
0.4377981636
 40
0.5
 40
0.5622018364
 40
0.6244395739
 40
0.6867464997
 40
0.7491489691
 40
0.8116676769
 40
0.8743146639
 40
1.0
 40
1.0
 40
1.0
 40
1.0
 10
58.0348570202
 20
12.3432467061
 30
0.0
 10
58.0378103853
 20
12.3521068016
 30
0.0
 10
58.0418752209
 20
12.3655103398
 30
0.0
 10
58.0463626625
 20
12.383605592
 30
0.0
 10
58.0492040608
 20
12.3972544755
 30
0.0
 10
58.0514764329
 20
12.4109843629
 30
0.0
 10
58.0531354848
 20
12.4247813958
 30
0.0
 10
58.0541458484
 20
12.4386265009
 30
0.0
 10
58.0544860226
 20
12.4524967061
 30
0.0
 10
58.0541458484
 20
12.4663669113
 30
0.0
 10
58.0531354848
 20
12.4802120165
 30
0.0
 10
58.0514764329
 20
12.4940090493
 30
0.0
 10
58.0492040608
 20
12.5077389368
 30
0.0
 10
58.0463626625
 20
12.5213878203
 30
0.0
 10
58.0418752209
 20
12.5394830724
 30
0.0
 10
58.0378103853
 20
12.5528866107
 30
0.0
 10
58.0348570202
 20
12.5617467061
 30
0.0
  0
SPLINE
  5
425
100
AcDbEntity
  8
0
100
AcDbSpline
 62
7
  6
CONTINUOUS
 70
0
 71
3
 72
15
 73
11
 74
0
 42
0.0000001
 43
0.0000001
 44
0.0000000001
 40
0.0
 40
0.0
 40
0.0
 40
0.0
 40
0.1251627666
 40
0.250197413
 40
0.3751281672
 40
0.5000000062
 40
0.6248718446
 40
0.7498025984
 40
0.8748372369
 40
1.0
 40
1.0
 40
1.0
 40
1.0
 10
57.9161977035
 20
12.3432467061
 30
0.0
 10
57.9175974784
 20
12.3522949938
 30
0.0
 10
57.9201414809
 20
12.3704231954
 30
0.0
 10
57.9230320624
 20
12.3977179711
 30
0.0
 10
57.9248430267
 20
12.425086287
 30
0.0
 10
57.9254608485
 20
12.4524967074
 30
0.0
 10
57.9248430264
 20
12.4799071278
 30
0.0
 10
57.923032062
 20
12.5072754431
 30
0.0
 10
57.9201414806
 20
12.5345702179
 30
0.0
 10
57.9175974784
 20
12.5526984187
 30
0.0
 10
57.9161977035
 20
12.5617467061
 30
0.0
  0
SPLINE
  5
426
100
AcDbEntity
  8
0
100
AcDbSpline
 62
7
  6
CONTINUOUS
 70
0
 71
3
 72
15
 73
11
 74
0
 42
0.0000001
 43
0.0000001
 44
0.0000000001
 40
0.0
 40
0.0
 40
0.0
 40
0.0
 40
0.1251627617
 40
0.2501974103
 40
0.3751281702
 40
0.5000000121
 40
0.6248718587
 40
0.7498026271
 40
0.8748372674
 40
1.0
 40
1.0
 40
1.0
 40
1.0
 10
57.9161977035
 20
12.5617467061
 30
0.0
 10
57.9175974784
 20
12.5707949935
 30
0.0
 10
57.9201414807
 20
12.5889231949
 30
0.0
 10
57.9230320624
 20
12.6162179707
 30
0.0
 10
57.9248430268
 20
12.6435862875
 30
0.0
 10
57.9254608485
 20
12.6709967091
 30
0.0
 10
57.924843026
 20
12.6984071313
 30
0.0
 10
57.9230320614
 20
12.7257754484
 30
0.0
 10
57.920141479
 20
12.7530702221
 30
0.0
 10
57.9175974781
 20
12.7711984209
 30
0.0
 10
57.9161977035
 20
12.7802467061
 30
0.0
  0
SPLINE
  5
427
100
AcDbEntity
  8
0
100
AcDbSpline
 62
7
  6
CONTINUOUS
 70
0
 71
3
 72
21
 73
17
 74
0
 42
0.0000001
 43
0.0000001
 44
0.0000000001
 40
0.0
 40
0.0
 40
0.0
 40
0.0
 40
0.1256853361
 40
0.1883323231
 40
0.2508510309
 40
0.3132535003
 40
0.3755604261
 40
0.4377981636
 40
0.5
 40
0.5622018364
 40
0.6244395739
 40
0.6867464997
 40
0.7491489691
 40
0.8116676769
 40
0.8743146639
 40
1.0
 40
1.0
 40
1.0
 40
1.0
 10
58.0348570202
 20
12.5617467061
 30
0.0
 10
58.0378103853
 20
12.5706068016
 30
0.0
 10
58.0418752209
 20
12.5840103398
 30
0.0
 10
58.0463626625
 20
12.602105592
 30
0.0
 10
58.0492040608
 20
12.6157544755
 30
0.0
 10
58.0514764329
 20
12.6294843629
 30
0.0
 10
58.0531354848
 20
12.6432813958
 30
0.0
 10
58.0541458484
 20
12.6571265009
 30
0.0
 10
58.0544860226
 20
12.6709967061
 30
0.0
 10
58.0541458484
 20
12.6848669113
 30
0.0
 10
58.0531354848
 20
12.6987120165
 30
0.0
 10
58.0514764329
 20
12.7125090493
 30
0.0
 10
58.0492040608
 20
12.7262389368
 30
0.0
 10
58.0463626625
 20
12.7398878203
 30
0.0
 10
58.0418752209
 20
12.7579830724
 30
0.0
 10
58.0378103853
 20
12.7713866107
 30
0.0
 10
58.0348570202
 20
12.7802467061
 30
0.0
  0
SPLINE
  5
428
100
AcDbEntity
  8
0
100
AcDbSpline
 62
7
  6
CONTINUOUS
 70
0
 71
3
 72
21
 73
17
 74
0
 42
0.0000001
 43
0.0000001
 44
0.0000000001
 40
0.0
 40
0.0
 40
0.0
 40
0.0
 40
0.1256853361
 40
0.1883323231
 40
0.2508510309
 40
0.3132535003
 40
0.3755604261
 40
0.4377981636
 40
0.5
 40
0.5622018364
 40
0.6244395739
 40
0.6867464997
 40
0.7491489691
 40
0.8116676769
 40
0.8743146639
 40
1.0
 40
1.0
 40
1.0
 40
1.0
 10
40.8604656361
 20
12.7802467061
 30
0.0
 10
40.857512271
 20
12.7713866107
 30
0.0
 10
40.8534474354
 20
12.7579830724
 30
0.0
 10
40.8489599938
 20
12.7398878203
 30
0.0
 10
40.8461185955
 20
12.7262389368
 30
0.0
 10
40.8438462234
 20
12.7125090493
 30
0.0
 10
40.8421871715
 20
12.6987120165
 30
0.0
 10
40.8411768079
 20
12.6848669113
 30
0.0
 10
40.8408366337
 20
12.6709967061
 30
0.0
 10
40.8411768079
 20
12.6571265009
 30
0.0
 10
40.8421871715
 20
12.6432813958
 30
0.0
 10
40.8438462234
 20
12.6294843629
 30
0.0
 10
40.8461185955
 20
12.6157544755
 30
0.0
 10
40.8489599938
 20
12.602105592
 30
0.0
 10
40.8534474354
 20
12.5840103398
 30
0.0
 10
40.857512271
 20
12.5706068016
 30
0.0
 10
40.8604656361
 20
12.5617467061
 30
0.0
  0
SPLINE
  5
429
100
AcDbEntity
  8
0
100
AcDbSpline
 62
7
  6
CONTINUOUS
 70
0
 71
3
 72
15
 73
11
 74
0
 42
0.0000001
 43
0.0000001
 44
0.0000000001
 40
0.0
 40
0.0
 40
0.0
 40
0.0
 40
0.1251627617
 40
0.2501974103
 40
0.3751281702
 40
0.5000000121
 40
0.6248718587
 40
0.7498026271
 40
0.8748372674
 40
1.0
 40
1.0
 40
1.0
 40
1.0
 10
40.9791249528
 20
12.5617467061
 30
0.0
 10
40.9777251779
 20
12.5526984188
 30
0.0
 10
40.9751811756
 20
12.5345702174
 30
0.0
 10
40.9722905939
 20
12.5072754415
 30
0.0
 10
40.9704796295
 20
12.4799071248
 30
0.0
 10
40.9698618078
 20
12.4524967032
 30
0.0
 10
40.9704796303
 20
12.4250862809
 30
0.0
 10
40.9722905949
 20
12.3977179638
 30
0.0
 10
40.9751811773
 20
12.3704231902
 30
0.0
 10
40.9777251782
 20
12.3522949914
 30
0.0
 10
40.9791249528
 20
12.3432467061
 30
0.0
  0
SPLINE
  5
42A
100
AcDbEntity
  8
0
100
AcDbSpline
 62
7
  6
CONTINUOUS
 70
0
 71
3
 72
21
 73
17
 74
0
 42
0.0000001
 43
0.0000001
 44
0.0000000001
 40
0.0
 40
0.0
 40
0.0
 40
0.0
 40
0.1256853361
 40
0.1883323231
 40
0.2508510309
 40
0.3132535003
 40
0.3755604261
 40
0.4377981636
 40
0.5
 40
0.5622018364
 40
0.6244395739
 40
0.6867464997
 40
0.7491489691
 40
0.8116676769
 40
0.8743146639
 40
1.0
 40
1.0
 40
1.0
 40
1.0
 10
40.8604656361
 20
12.5617467061
 30
0.0
 10
40.857512271
 20
12.5528866107
 30
0.0
 10
40.8534474354
 20
12.5394830724
 30
0.0
 10
40.8489599938
 20
12.5213878203
 30
0.0
 10
40.8461185955
 20
12.5077389368
 30
0.0
 10
40.8438462234
 20
12.4940090493
 30
0.0
 10
40.8421871715
 20
12.4802120165
 30
0.0
 10
40.8411768079
 20
12.4663669113
 30
0.0
 10
40.8408366337
 20
12.4524967061
 30
0.0
 10
40.8411768079
 20
12.4386265009
 30
0.0
 10
40.8421871715
 20
12.4247813958
 30
0.0
 10
40.8438462234
 20
12.4109843629
 30
0.0
 10
40.8461185955
 20
12.3972544755
 30
0.0
 10
40.8489599938
 20
12.383605592
 30
0.0
 10
40.8534474354
 20
12.3655103398
 30
0.0
 10
40.857512271
 20
12.3521068016
 30
0.0
 10
40.8604656361
 20
12.3432467061
 30
0.0
  0
SPLINE
  5
42B
100
AcDbEntity
  8
0
100
AcDbSpline
 62
7
  6
CONTINUOUS
 70
0
 71
3
 72
15
 73
11
 74
0
 42
0.0000001
 43
0.0000001
 44
0.0000000001
 40
0.0
 40
0.0
 40
0.0
 40
0.0
 40
0.1251627666
 40
0.250197413
 40
0.3751281672
 40
0.5000000062
 40
0.6248718446
 40
0.7498025984
 40
0.8748372369
 40
1.0
 40
1.0
 40
1.0
 40
1.0
 10
40.9791249528
 20
12.7802467061
 30
0.0
 10
40.9777251779
 20
12.7711984184
 30
0.0
 10
40.9751811754
 20
12.7530702168
 30
0.0
 10
40.9722905939
 20
12.7257754412
 30
0.0
 10
40.9704796296
 20
12.6984071252
 30
0.0
 10
40.9698618078
 20
12.6709967048
 30
0.0
 10
40.9704796299
 20
12.6435862844
 30
0.0
 10
40.9722905943
 20
12.6162179692
 30
0.0
 10
40.9751811757
 20
12.5889231943
 30
0.0
 10
40.9777251779
 20
12.5707949936
 30
0.0
 10
40.9791249528
 20
12.5617467061
 30
0.0
  0
SPLINE
  5
42C
100
AcDbEntity
  8
0
100
AcDbSpline
 62
7
  6
CONTINUOUS
 70
0
 71
3
 72
9
 73
5
 74
0
 42
0.0000001
 43
0.0000001
 44
0.0000000001
 40
0.0
 40
0.0
 40
0.0
 40
0.0
 40
0.5084663508
 40
1.0
 40
1.0
 40
1.0
 40
1.0
 10
43.6685027076
 20
5.4057403552
 30
0.0
 10
43.6601752342
 20
5.4108398703
 30
0.0
 10
43.643913764
 20
5.4210608037
 30
0.0
 10
43.6279856323
 20
5.4317991221
 30
0.0
 10
43.6202744425
 20
5.4372437927
 30
0.0
  0
SPLINE
  5
42D
100
AcDbEntity
  8
0
100
AcDbSpline
 62
7
  6
CONTINUOUS
 70
0
 71
3
 72
20
 73
16
 74
0
 42
0.0000001
 43
0.0000001
 44
0.0000000001
 40
0.0
 40
0.0
 40
0.0
 40
0.0
 40
0.1385985849
 40
0.2725675714
 40
0.4020337648
 40
0.4651966383
 40
0.5273702468
 40
0.5886263382
 40
0.6490469601
 40
0.7087270383
 40
0.7677720097
 40
0.8262958673
 40
0.8844218539
 40
0.9422788188
 40
1.0
 40
1.0
 40
1.0
 40
1.0
 10
43.955058403
 20
5.4368510569
 30
0.0
 10
43.9508858963
 20
5.4310490369
 30
0.0
 10
43.9421571183
 20
5.4200018374
 30
0.0
 10
43.9277484741
 20
5.4050519068
 30
0.0
 10
43.9148227209
 20
5.3941992533
 30
0.0
 10
43.9040730462
 20
5.3866346102
 30
0.0
 10
43.8958905833
 20
5.3815623422
 30
0.0
 10
43.8875431449
 20
5.3770569676
 30
0.0
 10
43.8790495294
 20
5.3731301055
 30
0.0
 10
43.8704300077
 20
5.3697911921
 30
0.0
 10
43.8617052239
 20
5.3670474064
 30
0.0
 10
43.8528954824
 20
5.3649067966
 30
0.0
 10
43.8440218689
 20
5.3633738735
 30
0.0
 10
43.835106067
 20
5.3624519126
 30
0.0
 10
43.8291444865
 20
5.362246959
 30
0.0
 10
43.8261682109
 20
5.3622468929
 30
0.0
  0
SPLINE
  5
42E
100
AcDbEntity
  8
0
100
AcDbSpline
 62
7
  6
CONTINUOUS
 70
0
 71
3
 72
11
 73
7
 74
0
 42
0.0000001
 43
0.0000001
 44
0.0000000001
 40
0.0
 40
0.0
 40
0.0
 40
0.0
 40
0.2401732686
 40
0.4850365616
 40
0.7374846583
 40
1.0
 40
1.0
 40
1.0
 40
1.0
 10
43.7753214402
 20
5.4057403552
 30
0.0
 10
43.77592631
 20
5.4057403552
 30
0.0
 10
43.777150704
 20
5.4056204873
 30
0.0
 10
43.7789433444
 20
5.4050984043
 30
0.0
 10
43.7806662301
 20
5.404245629
 30
0.0
 10
43.7817289813
 20
5.4034928962
 30
0.0
 10
43.7822413508
 20
5.4030750679
 30
0.0
  0
SPLINE
  5
42F
100
AcDbEntity
  8
0
100
AcDbSpline
 62
7
  6
CONTINUOUS
 70
0
 71
3
 72
15
 73
11
 74
0
 42
0.0000001
 43
0.0000001
 44
0.0000000001
 40
0.0
 40
0.0
 40
0.0
 40
0.0
 40
0.119057511
 40
0.2387427078
 40
0.3596605012
 40
0.482372663
 40
0.6073780386
 40
0.7351040355
 40
0.8658915427
 40
1.0
 40
1.0
 40
1.0
 40
1.0
 10
43.7908128718
 20
5.3622468929
 30
0.0
 10
43.7863413804
 20
5.3622467936
 30
0.0
 10
43.7773679576
 20
5.3627100205
 30
0.0
 10
43.7639988938
 20
5.3647923446
 30
0.0
 10
43.750774755
 20
5.3682482099
 30
0.0
 10
43.7377696691
 20
5.3730599063
 30
0.0
 10
43.7250520803
 20
5.3791976228
 30
0.0
 10
43.7126907248
 20
5.386629423
 30
0.0
 10
43.7007502996
 20
5.3953111776
 30
0.0
 10
43.6932089484
 20
5.4018198262
 30
0.0
 10
43.6895270605
 20
5.4052567888
 30
0.0
  0
SPLINE
  5
430
100
AcDbEntity
  8
0
100
AcDbSpline
 62
7
  6
CONTINUOUS
 70
0
 71
3
 72
20
 73
16
 74
0
 42
0.0000001
 43
0.0000001
 44
0.0000000001
 40
0.0
 40
0.0
 40
0.0
 40
0.0
 40
0.1385985849
 40
0.2725675714
 40
0.4020337648
 40
0.4651966383
 40
0.5273702468
 40
0.5886263382
 40
0.6490469601
 40
0.7087270383
 40
0.7677720097
 40
0.8262958673
 40
0.8844218539
 40
0.9422788188
 40
1.0
 40
1.0
 40
1.0
 40
1.0
 10
43.919703064
 20
5.4368510569
 30
0.0
 10
43.9155305573
 20
5.4310490369
 30
0.0
 10
43.9068017792
 20
5.4200018374
 30
0.0
 10
43.892393135
 20
5.4050519068
 30
0.0
 10
43.8794673819
 20
5.3941992533
 30
0.0
 10
43.8687177072
 20
5.3866346102
 30
0.0
 10
43.8605352443
 20
5.3815623422
 30
0.0
 10
43.8521878058
 20
5.3770569676
 30
0.0
 10
43.8436941904
 20
5.3731301055
 30
0.0
 10
43.8350746687
 20
5.3697911921
 30
0.0
 10
43.8263498849
 20
5.3670474064
 30
0.0
 10
43.8175401434
 20
5.3649067966
 30
0.0
 10
43.8086665299
 20
5.3633738735
 30
0.0
 10
43.799750728
 20
5.3624519126
 30
0.0
 10
43.7937891475
 20
5.362246959
 30
0.0
 10
43.7908128718
 20
5.3622468929
 30
0.0
  0
SPLINE
  5
431
100
AcDbEntity
  8
0
100
AcDbSpline
 62
7
  6
CONTINUOUS
 70
0
 71
3
 72
15
 73
11
 74
0
 42
0.0000001
 43
0.0000001
 44
0.0000000001
 40
0.0
 40
0.0
 40
0.0
 40
0.0
 40
0.1093848924
 40
0.2247529651
 40
0.3455303054
 40
0.4709316038
 40
0.5999829275
 40
0.7318632405
 40
0.865594525
 40
1.0
 40
1.0
 40
1.0
 40
1.0
 10
43.7822413508
 20
5.4030750679
 30
0.0
 10
43.7829452314
 20
5.4025010657
 30
0.0
 10
43.78428254
 20
5.4011844705
 30
0.0
 10
43.7860036845
 20
5.3988783375
 30
0.0
 10
43.7874756466
 20
5.3962533677
 30
0.0
 10
43.7886879887
 20
5.3933770957
 30
0.0
 10
43.7896341616
 20
5.3903069007
 30
0.0
 10
43.7903107867
 20
5.3870961522
 30
0.0
 10
43.7907165966
 20
5.383795896
 30
0.0
 10
43.7908070787
 20
5.3815684211
 30
0.0
 10
43.7908070787
 20
5.3804524134
 30
0.0
  0
SPLINE
  5
432
100
AcDbEntity
  8
0
100
AcDbSpline
 62
7
  6
CONTINUOUS
 70
0
 71
3
 72
9
 73
5
 74
0
 42
0.0000001
 43
0.0000001
 44
0.0000000001
 40
0.0
 40
0.0
 40
0.0
 40
0.0
 40
0.4915336492
 40
1.0
 40
1.0
 40
1.0
 40
1.0
 10
55.2750482138
 20
5.4372437927
 30
0.0
 10
55.267337024
 20
5.4317991221
 30
0.0
 10
55.2514088923
 20
5.4210608037
 30
0.0
 10
55.2351474221
 20
5.4108398703
 30
0.0
 10
55.2268199487
 20
5.4057403552
 30
0.0
  0
SPLINE
  5
433
100
AcDbEntity
  8
0
100
AcDbSpline
 62
7
  6
CONTINUOUS
 70
0
 71
3
 72
17
 73
13
 74
0
 42
0.0000001
 43
0.0000001
 44
0.0000000001
 40
0.0
 40
0.0
 40
0.0
 40
0.0
 40
0.1341655017
 40
0.2649905088
 40
0.3927303475
 40
0.4555651072
 40
0.5177644712
 40
0.6404514855
 40
0.7011012981
 40
0.7613669052
 40
0.8810005192
 40
1.0
 40
1.0
 40
1.0
 40
1.0
 10
55.2062265572
 20
5.405660118
 30
0.0
 10
55.2025344932
 20
5.4021925243
 30
0.0
 10
55.1949698595
 20
5.3956258546
 30
0.0
 10
55.1829886192
 20
5.3868633936
 30
0.0
 10
55.1725885752
 20
5.3805780871
 30
0.0
 10
55.1640967322
 20
5.3762173459
 30
0.0
 10
55.1555836849
 20
5.3723391037
 30
0.0
 10
55.1468788368
 20
5.3691023924
 30
0.0
 10
55.1380410601
 20
5.3665469126
 30
0.0
 10
55.1291980683
 20
5.3644645894
 30
0.0
 10
55.1180295411
 20
5.3627157056
 30
0.0
 10
55.1090139403
 20
5.3622469927
 30
0.0
 10
55.1045213708
 20
5.3622468929
 30
0.0
  0
SPLINE
  5
434
100
AcDbEntity
  8
0
100
AcDbSpline
 62
7
  6
CONTINUOUS
 70
0
 71
3
 72
11
 73
7
 74
0
 42
0.0000001
 43
0.0000001
 44
0.0000000001
 40
0.0
 40
0.0
 40
0.0
 40
0.0
 40
0.2401732686
 40
0.4850365616
 40
0.7374846583
 40
1.0
 40
1.0
 40
1.0
 40
1.0
 10
55.1200012162
 20
5.4057403552
 30
0.0
 10
55.1193963463
 20
5.4057403552
 30
0.0
 10
55.1181719523
 20
5.4056204873
 30
0.0
 10
55.1163793119
 20
5.4050984043
 30
0.0
 10
55.1146564262
 20
5.404245629
 30
0.0
 10
55.113593675
 20
5.4034928962
 30
0.0
 10
55.1130813055
 20
5.4030750679
 30
0.0
  0
SPLINE
  5
435
100
AcDbEntity
  8
0
100
AcDbSpline
 62
7
  6
CONTINUOUS
 70
0
 71
3
 72
19
 73
15
 74
0
 42
0.0000001
 43
0.0000001
 44
0.0000000001
 40
0.0
 40
0.0
 40
0.0
 40
0.0
 40
0.0577073035
 40
0.1155505714
 40
0.1736641662
 40
0.2321773502
 40
0.2912133042
 40
0.3508876793
 40
0.4113052323
 40
0.4725612675
 40
0.5978556224
 40
0.7273464982
 40
0.8613545526
 40
1.0
 40
1.0
 40
1.0
 40
1.0
 10
55.0691660317
 20
5.3622468929
 30
0.0
 10
55.0661824236
 20
5.3622468267
 30
0.0
 10
55.0602061441
 20
5.3624524863
 30
0.0
 10
55.0512683161
 20
5.3633774122
 30
0.0
 10
55.0423731335
 20
5.3649176979
 30
0.0
 10
55.0335422416
 20
5.367068076
 30
0.0
 10
55.0247966445
 20
5.3698239509
 30
0.0
 10
55.0161575753
 20
5.3731790112
 30
0.0
 10
55.007644749
 20
5.3771240201
 30
0.0
 10
54.9964082197
 20
5.3832033848
 30
0.0
 10
54.9827681539
 20
5.3922746204
 30
0.0
 10
54.967362752
 20
5.4052483088
 30
0.0
 10
54.9529330735
 20
5.4202661824
 30
0.0
 10
54.9441970357
 20
5.4313614545
 30
0.0
 10
54.9400219042
 20
5.4371883666
 30
0.0
  0
SPLINE
  5
436
100
AcDbEntity
  8
0
100
AcDbSpline
 62
7
  6
CONTINUOUS
 70
0
 71
3
 72
19
 73
15
 74
0
 42
0.0000001
 43
0.0000001
 44
0.0000000001
 40
0.0
 40
0.0
 40
0.0
 40
0.0
 40
0.0577073035
 40
0.1155505714
 40
0.1736641662
 40
0.2321773502
 40
0.2912133042
 40
0.3508876793
 40
0.4113052323
 40
0.4725612675
 40
0.5978556224
 40
0.7273464982
 40
0.8613545526
 40
1.0
 40
1.0
 40
1.0
 40
1.0
 10
55.1045213708
 20
5.3622468929
 30
0.0
 10
55.1015377627
 20
5.3622468267
 30
0.0
 10
55.0955614832
 20
5.3624524863
 30
0.0
 10
55.0866236551
 20
5.3633774122
 30
0.0
 10
55.0777284725
 20
5.3649176979
 30
0.0
 10
55.0688975806
 20
5.367068076
 30
0.0
 10
55.0601519836
 20
5.3698239509
 30
0.0
 10
55.0515129143
 20
5.3731790112
 30
0.0
 10
55.0430000881
 20
5.3771240201
 30
0.0
 10
55.0317635588
 20
5.3832033848
 30
0.0
 10
55.018123493
 20
5.3922746204
 30
0.0
 10
55.0027180911
 20
5.4052483088
 30
0.0
 10
54.9882884125
 20
5.4202661824
 30
0.0
 10
54.9795523747
 20
5.4313614545
 30
0.0
 10
54.9753772433
 20
5.4371883666
 30
0.0
  0
SPLINE
  5
437
100
AcDbEntity
  8
0
100
AcDbSpline
 62
7
  6
CONTINUOUS
 70
0
 71
3
 72
15
 73
11
 74
0
 42
0.0000001
 43
0.0000001
 44
0.0000000001
 40
0.0
 40
0.0
 40
0.0
 40
0.0
 40
0.1093848924
 40
0.2247529651
 40
0.3455303054
 40
0.4709316038
 40
0.5999829275
 40
0.7318632405
 40
0.865594525
 40
1.0
 40
1.0
 40
1.0
 40
1.0
 10
55.1130813055
 20
5.4030750679
 30
0.0
 10
55.1123774249
 20
5.4025010657
 30
0.0
 10
55.1110401163
 20
5.4011844705
 30
0.0
 10
55.1093189719
 20
5.3988783375
 30
0.0
 10
55.1078470097
 20
5.3962533677
 30
0.0
 10
55.1066346676
 20
5.3933770957
 30
0.0
 10
55.1056884947
 20
5.3903069007
 30
0.0
 10
55.1050118696
 20
5.3870961522
 30
0.0
 10
55.1046060597
 20
5.383795896
 30
0.0
 10
55.1045155776
 20
5.3815684211
 30
0.0
 10
55.1045155776
 20
5.3804524134
 30
0.0
  0
SPLINE
  5
438
100
AcDbEntity
  8
0
100
AcDbSpline
 62
7
  6
CONTINUOUS
 70
0
 71
3
 72
15
 73
11
 74
0
 42
0.0000001
 43
0.0000001
 44
0.0000000001
 40
0.0
 40
0.0
 40
0.0
 40
0.0
 40
0.1453524083
 40
0.2868079831
 40
0.4230969843
 40
0.5529474777
 40
0.6754525845
 40
0.7903911539
 40
0.8982555593
 40
1.0
 40
1.0
 40
1.0
 40
1.0
 10
55.2268199487
 20
3.5387530571
 30
0.0
 10
55.2339275645
 20
3.5344005491
 30
0.0
 10
55.2478671071
 20
3.5256715991
 30
0.0
 10
55.2680872446
 20
3.5122601797
 30
0.0
 10
55.287126418
 20
3.4986963508
 30
0.0
 10
55.3047359369
 20
3.4850273365
 30
0.0
 10
55.3207417439
 20
3.4713257657
 30
0.0
 10
55.3350980754
 20
3.4576766646
 30
0.0
 10
55.3478949469
 20
3.4441545722
 30
0.0
 10
55.3557127474
 20
3.4350188507
 30
0.0
 10
55.3594024702
 20
3.4304998816
 30
0.0
  0
SPLINE
  5
439
100
AcDbEntity
  8
0
100
AcDbSpline
 62
7
  6
CONTINUOUS
 70
0
 71
3
 72
19
 73
15
 74
0
 42
0.0000001
 43
0.0000001
 44
0.0000000001
 40
0.0
 40
0.0
 40
0.0
 40
0.0
 40
0.1239135187
 40
0.2486584689
 40
0.3113153546
 40
0.3741210923
 40
0.4370327446
 40
0.5
 40
0.5629672554
 40
0.6258789077
 40
0.6886846454
 40
0.7513415311
 40
0.8760864813
 40
1.0
 40
1.0
 40
1.0
 40
1.0
 10
55.3594024702
 20
3.4304998816
 30
0.0
 10
55.3612046913
 20
3.4216708375
 30
0.0
 10
55.3645036587
 20
3.4038863808
 30
0.0
 10
55.3676554699
 20
3.3814582047
 30
0.0
 10
55.3694891578
 20
3.3633535566
 30
0.0
 10
55.3704946622
 20
3.3496898896
 30
0.0
 10
55.3711068766
 20
3.3359802787
 30
0.0
 10
55.3713129871
 20
3.3222467061
 30
0.0
 10
55.3711068766
 20
3.3085131335
 30
0.0
 10
55.3704946622
 20
3.2948035227
 30
0.0
 10
55.3694891578
 20
3.2811398557
 30
0.0
 10
55.3676554699
 20
3.2630352076
 30
0.0
 10
55.3645036587
 20
3.2406070315
 30
0.0
 10
55.3612046913
 20
3.2228225748
 30
0.0
 10
55.3594024702
 20
3.2139935307
 30
0.0
  0
SPLINE
  5
43A
100
AcDbEntity
  8
0
100
AcDbSpline
 62
7
  6
CONTINUOUS
 70
0
 71
3
 72
15
 73
11
 74
0
 42
0.0000001
 43
0.0000001
 44
0.0000000001
 40
0.0
 40
0.0
 40
0.0
 40
0.0
 40
0.1017444407
 40
0.2096088461
 40
0.3245474155
 40
0.4470525223
 40
0.5769030157
 40
0.7131920169
 40
0.8546475917
 40
1.0
 40
1.0
 40
1.0
 40
1.0
 10
55.3594024702
 20
3.2139935307
 30
0.0
 10
55.3557127474
 20
3.2094745615
 30
0.0
 10
55.3478949469
 20
3.2003388401
 30
0.0
 10
55.3350980754
 20
3.1868167476
 30
0.0
 10
55.3207417439
 20
3.1731676466
 30
0.0
 10
55.3047359369
 20
3.1594660758
 30
0.0
 10
55.287126418
 20
3.1457970615
 30
0.0
 10
55.2680872446
 20
3.1322332326
 30
0.0
 10
55.2478671071
 20
3.1188218131
 30
0.0
 10
55.2339275645
 20
3.1100928632
 30
0.0
 10
55.2268199487
 20
3.1057403552
 30
0.0
  0
SPLINE
  5
43B
100
AcDbEntity
  8
0
100
AcDbSpline
 62
7
  6
CONTINUOUS
 70
0
 71
3
 72
15
 73
11
 74
0
 42
0.0000001
 43
0.0000001
 44
0.0000000001
 40
0.0
 40
0.0
 40
0.0
 40
0.0
 40
0.1341084573
 40
0.2648959645
 40
0.3926219614
 40
0.517627337
 40
0.6403394988
 40
0.7612572922
 40
0.880942489
 40
1.0
 40
1.0
 40
1.0
 40
1.0
 10
55.2057955958
 20
3.5392366234
 30
0.0
 10
55.2021137079
 20
3.542673586
 30
0.0
 10
55.1945723567
 20
3.5491822346
 30
0.0
 10
55.1826319315
 20
3.5578639892
 30
0.0
 10
55.170270576
 20
3.5652957895
 30
0.0
 10
55.1575529872
 20
3.571433506
 30
0.0
 10
55.1445479013
 20
3.5762452023
 30
0.0
 10
55.1313237625
 20
3.5797010677
 30
0.0
 10
55.1179546987
 20
3.5817833917
 30
0.0
 10
55.1089812759
 20
3.5822466186
 30
0.0
 10
55.1045097845
 20
3.5822465193
 30
0.0
  0
SPLINE
  5
43C
100
AcDbEntity
  8
0
100
AcDbSpline
 62
7
  6
CONTINUOUS
 70
0
 71
3
 72
17
 73
13
 74
0
 42
0.0000001
 43
0.0000001
 44
0.0000000001
 40
0.0
 40
0.0
 40
0.0
 40
0.0
 40
0.1341655017
 40
0.2649905088
 40
0.3927303475
 40
0.4555651072
 40
0.5177644712
 40
0.6404514855
 40
0.7011012981
 40
0.7613669052
 40
0.8810005192
 40
1.0
 40
1.0
 40
1.0
 40
1.0
 10
55.2062265572
 20
3.105660118
 30
0.0
 10
55.2025344932
 20
3.1021925243
 30
0.0
 10
55.1949698595
 20
3.0956258546
 30
0.0
 10
55.1829886192
 20
3.0868633936
 30
0.0
 10
55.1725885752
 20
3.0805780871
 30
0.0
 10
55.1640967322
 20
3.0762173459
 30
0.0
 10
55.1555836849
 20
3.0723391037
 30
0.0
 10
55.1468788368
 20
3.0691023924
 30
0.0
 10
55.1380410601
 20
3.0665469126
 30
0.0
 10
55.1291980683
 20
3.0644645894
 30
0.0
 10
55.1180295411
 20
3.0627157056
 30
0.0
 10
55.1090139403
 20
3.0622469927
 30
0.0
 10
55.1045213708
 20
3.0622468929
 30
0.0
  0
SPLINE
  5
43D
100
AcDbEntity
  8
0
100
AcDbSpline
 62
7
  6
CONTINUOUS
 70
0
 71
3
 72
11
 73
7
 74
0
 42
0.0000001
 43
0.0000001
 44
0.0000000001
 40
0.0
 40
0.0
 40
0.0
 40
0.0
 40
0.2401732686
 40
0.4850365616
 40
0.7374846583
 40
1.0
 40
1.0
 40
1.0
 40
1.0
 10
55.1200012162
 20
3.1057403552
 30
0.0
 10
55.1193963463
 20
3.1057403552
 30
0.0
 10
55.1181719523
 20
3.1056204873
 30
0.0
 10
55.1163793119
 20
3.1050984043
 30
0.0
 10
55.1146564262
 20
3.104245629
 30
0.0
 10
55.113593675
 20
3.1034928962
 30
0.0
 10
55.1130813055
 20
3.1030750679
 30
0.0
  0
SPLINE
  5
43E
100
AcDbEntity
  8
0
100
AcDbSpline
 62
7
  6
CONTINUOUS
 70
0
 71
3
 72
11
 73
7
 74
0
 42
0.0000001
 43
0.0000001
 44
0.0000000001
 40
0.0
 40
0.0
 40
0.0
 40
0.0
 40
0.2401732686
 40
0.4850365616
 40
0.7374846583
 40
1.0
 40
1.0
 40
1.0
 40
1.0
 10
55.1200012162
 20
3.5387530571
 30
0.0
 10
55.1193963463
 20
3.5387530571
 30
0.0
 10
55.1181719523
 20
3.538872925
 30
0.0
 10
55.1163793119
 20
3.5393950079
 30
0.0
 10
55.1146564262
 20
3.5402477832
 30
0.0
 10
55.113593675
 20
3.5410005161
 30
0.0
 10
55.1130813055
 20
3.5414183444
 30
0.0
  0
SPLINE
  5
43F
100
AcDbEntity
  8
0
100
AcDbSpline
 62
7
  6
CONTINUOUS
 70
0
 71
3
 72
23
 73
19
 74
0
 42
0.0000001
 43
0.0000001
 44
0.0000000001
 40
0.0
 40
0.0
 40
0.0
 40
0.0
 40
0.0552200583
 40
0.1106748871
 40
0.1665926736
 40
0.2231878726
 40
0.2806564376
 40
0.3391704851
 40
0.3988763535
 40
0.4598908728
 40
0.5223035786
 40
0.5861741968
 40
0.6515348273
 40
0.7183856123
 40
0.7867085174
 40
0.8564722864
 40
0.9276136373
 40
1.0
 40
1.0
 40
1.0
 40
1.0
 10
55.0691660317
 20
3.0622468929
 30
0.0
 10
55.0651535477
 20
3.0622468038
 30
0.0
 10
55.0571065584
 20
3.0626193996
 30
0.0
 10
55.0451015238
 20
3.0642950182
 30
0.0
 10
55.0332008502
 20
3.0670788542
 30
0.0
 10
55.0214577871
 20
3.070958678
 30
0.0
 10
55.0099227765
 20
3.0759166152
 30
0.0
 10
54.9986453814
 20
3.0819302543
 30
0.0
 10
54.9876740389
 20
3.0889731997
 30
0.0
 10
54.9770548781
 20
3.0970137808
 30
0.0
 10
54.9668335246
 20
3.1060177679
 30
0.0
 10
54.9570523068
 20
3.1159453421
 30
0.0
 10
54.9477537833
 20
3.1267544874
 30
0.0
 10
54.9389756827
 20
3.1383973266
 30
0.0
 10
54.9307562361
 20
3.150825741
 30
0.0
 10
54.9231285787
 20
3.1639870054
 30
0.0
 10
54.9161279405
 20
3.1778229052
 30
0.0
 10
54.9119314411
 20
3.1873770329
 30
0.0
 10
54.9099434053
 20
3.1922467061
 30
0.0
  0
SPLINE
  5
440
100
AcDbEntity
  8
0
100
AcDbSpline
 62
7
  6
CONTINUOUS
 70
0
 71
3
 72
33
 73
29
 74
0
 42
0.0000001
 43
0.0000001
 44
0.0000000001
 40
0.0
 40
0.0
 40
0.0
 40
0.0
 40
0.0248617031
 40
0.0498293083
 40
0.0750052916
 40
0.1004865152
 40
0.1263607673
 40
0.1527060222
 40
0.1795875392
 40
0.2070587667
 40
0.2351590604
 40
0.2639158084
 40
0.293342707
 40
0.3234424266
 40
0.3855854026
 40
0.4501825721
 40
0.5169033937
 40
0.585309275
 40
0.6548820701
 40
0.7250511664
 40
0.7601826356
 40
0.7952393726
 40
0.8301469022
 40
0.8648309296
 40
0.8992215798
 40
0.9332580601
 40
0.9668772299
 40
1.0
 40
1.0
 40
1.0
 40
1.0
 10
55.0691544454
 20
3.5822465193
 30
0.0
 10
55.0651421425
 20
3.5822464302
 30
0.0
 10
55.0570955062
 20
3.5818729767
 30
0.0
 10
55.0450911412
 20
3.5801963118
 30
0.0
 10
55.0331910076
 20
3.5774120021
 30
0.0
 10
55.0214488065
 20
3.5735310099
 30
0.0
 10
55.0099142229
 20
3.5685730521
 30
0.0
 10
54.9986379128
 20
3.5625583197
 30
0.0
 10
54.9876667967
 20
3.5555157008
 30
0.0
 10
54.9770489161
 20
3.5474741387
 30
0.0
 10
54.9668276472
 20
3.5384706582
 30
0.0
 10
54.957047909
 20
3.5285425869
 30
0.0
 10
54.9477489875
 20
3.5177339154
 30
0.0
 10
54.9359227359
 20
3.5020449297
 30
0.0
 10
54.9226015649
 20
3.4804454788
 30
0.0
 10
54.909294639
 20
3.4521356451
 30
0.0
 10
54.8987081654
 20
3.4216313425
 30
0.0
 10
54.8910188175
 20
3.3894495617
 30
0.0
 10
54.8863535144
 20
3.3561343287
 30
0.0
 10
54.8850505935
 20
3.3278984733
 30
0.0
 10
54.8855746831
 20
3.3052464156
 30
0.0
 10
54.8867520587
 20
3.2883200397
 30
0.0
 10
54.8887095541
 20
3.2715390759
 30
0.0
 10
54.8914371074
 20
3.2549746541
 30
0.0
 10
54.8949249231
 20
3.2386971174
 30
0.0
 10
54.8991574721
 20
3.2227745497
 30
0.0
 10
54.904117437
 20
3.207278324
 30
0.0
 10
54.9079229908
 20
3.1971956907
 30
0.0
 10
54.9099434053
 20
3.1922467061
 30
0.0
  0
SPLINE
  5
441
100
AcDbEntity
  8
0
100
AcDbSpline
 62
7
  6
CONTINUOUS
 70
0
 71
3
 72
17
 73
13
 74
0
 42
0.0000001
 43
0.0000001
 44
0.0000000001
 40
0.0
 40
0.0
 40
0.0
 40
0.0
 40
0.0507521541
 40
0.1062279752
 40
0.1656818145
 40
0.2283685672
 40
0.3603916239
 40
0.4965882669
 40
0.6320482742
 40
0.7629485808
 40
0.8864675634
 40
1.0
 40
1.0
 40
1.0
 40
1.0
 10
54.9874186947
 20
3.2139935307
 30
0.0
 10
54.9868443913
 20
3.2139935307
 30
0.0
 10
54.9856421052
 20
3.2139389335
 30
0.0
 10
54.9837784184
 20
3.2137247849
 30
0.0
 10
54.9817977599
 20
3.2133770407
 30
0.0
 10
54.9789931289
 20
3.2127355761
 30
0.0
 10
54.9754036432
 20
3.2116530577
 30
0.0
 10
54.9711359237
 20
3.2100146194
 30
0.0
 10
54.9669988368
 20
3.208100284
 30
0.0
 10
54.9631196489
 20
3.205992159
 30
0.0
 10
54.9595997996
 20
3.2037623176
 30
0.0
 10
54.9574425537
 20
3.2021620849
 30
0.0
 10
54.9564474177
 20
3.2013495598
 30
0.0
  0
SPLINE
  5
442
100
AcDbEntity
  8
0
100
AcDbSpline
 62
7
  6
CONTINUOUS
 70
0
 71
3
 72
45
 73
41
 74
0
 42
0.0000001
 43
0.0000001
 44
0.0000000001
 40
0.0
 40
0.0
 40
0.0
 40
0.0
 40
0.0128513267
 40
0.0257402646
 40
0.038691441
 40
0.051730823
 40
0.0648871307
 40
0.0781878531
 40
0.1053036192
 40
0.1332505709
 40
0.1621439873
 40
0.1920543393
 40
0.2230077703
 40
0.2549895349
 40
0.287948694
 40
0.3218028922
 40
0.3564428168
 40
0.3917370601
 40
0.4275370898
 40
0.4636814477
 40
0.5
 40
0.5363185523
 40
0.5724629102
 40
0.6082629399
 40
0.6435571832
 40
0.6781971078
 40
0.712051306
 40
0.7450104651
 40
0.7769922297
 40
0.8079456607
 40
0.8378560127
 40
0.8667494291
 40
0.8946963808
 40
0.9218121469
 40
0.9351128693
 40
0.948269177
 40
0.961308559
 40
0.9742597354
 40
0.9871486733
 40
1.0
 40
1.0
 40
1.0
 40
1.0
 10
55.2388658661
 20
3.5092467061
 30
0.0
 10
55.241029099
 20
3.5092467061
 30
0.0
 10
55.2453633853
 20
3.5090957054
 30
0.0
 10
55.2518458831
 20
3.5084187937
 30
0.0
 10
55.2582980335
 20
3.5072926198
 30
0.0
 10
55.2647019918
 20
3.5057190783
 30
0.0
 10
55.2710426261
 20
3.503703175
 30
0.0
 10
55.2794439551
 20
3.5004114321
 30
0.0
 10
55.2897322839
 20
3.495183484
 30
0.0
 10
55.3014899054
 20
3.4872862201
 30
0.0
 10
55.3126337967
 20
3.4778040186
 30
0.0
 10
55.3230582304
 20
3.4668314637
 30
0.0
 10
55.3326661423
 20
3.4544750397
 30
0.0
 10
55.3413681586
 20
3.4408543461
 30
0.0
 10
55.3490831656
 20
3.4261000943
 30
0.0
 10
55.3557385789
 20
3.4103532647
 30
0.0
 10
55.3612716595
 20
3.3937643098
 30
0.0
 10
55.3656305734
 20
3.3764918486
 30
0.0
 10
55.3687740748
 20
3.3587008638
 30
0.0
 10
55.3706719986
 20
3.3405613294
 30
0.0
 10
55.3713065794
 20
3.3222467061
 30
0.0
 10
55.3706719986
 20
3.3039320829
 30
0.0
 10
55.3687740748
 20
3.2857925484
 30
0.0
 10
55.3656305734
 20
3.2680015637
 30
0.0
 10
55.3612716595
 20
3.2507291024
 30
0.0
 10
55.3557385789
 20
3.2341401476
 30
0.0
 10
55.3490831656
 20
3.2183933179
 30
0.0
 10
55.3413681586
 20
3.2036390662
 30
0.0
 10
55.3326661423
 20
3.1900183726
 30
0.0
 10
55.3230582304
 20
3.1776619486
 30
0.0
 10
55.3126337967
 20
3.1666893937
 30
0.0
 10
55.3014899054
 20
3.1572071921
 30
0.0
 10
55.2897322839
 20
3.1493099283
 30
0.0
 10
55.2794439551
 20
3.1440819801
 30
0.0
 10
55.2710426261
 20
3.1407902372
 30
0.0
 10
55.2647019918
 20
3.138774334
 30
0.0
 10
55.2582980335
 20
3.1372007925
 30
0.0
 10
55.2518458831
 20
3.1360746185
 30
0.0
 10
55.2453633853
 20
3.1353977068
 30
0.0
 10
55.241029099
 20
3.1352467061
 30
0.0
 10
55.2388658661
 20
3.1352467061
 30
0.0
  0
SPLINE
  5
443
100
AcDbEntity
  8
0
100
AcDbSpline
 62
7
  6
CONTINUOUS
 70
0
 71
3
 72
17
 73
13
 74
0
 42
0.0000001
 43
0.0000001
 44
0.0000000001
 40
0.0
 40
0.0
 40
0.0
 40
0.0
 40
0.0507521541
 40
0.1062279752
 40
0.1656818145
 40
0.2283685672
 40
0.3603916239
 40
0.4965882669
 40
0.6320482742
 40
0.7629485808
 40
0.8864675634
 40
1.0
 40
1.0
 40
1.0
 40
1.0
 10
54.9874186947
 20
3.4304998816
 30
0.0
 10
54.9868443913
 20
3.4304998816
 30
0.0
 10
54.9856421052
 20
3.4305544787
 30
0.0
 10
54.9837784184
 20
3.4307686274
 30
0.0
 10
54.9817977599
 20
3.4311163715
 30
0.0
 10
54.9789931289
 20
3.4317578361
 30
0.0
 10
54.9754036432
 20
3.4328403546
 30
0.0
 10
54.9711359237
 20
3.4344787928
 30
0.0
 10
54.9669988368
 20
3.4363931282
 30
0.0
 10
54.9631196489
 20
3.4385012532
 30
0.0
 10
54.9595997996
 20
3.4407310947
 30
0.0
 10
54.9574425537
 20
3.4423313273
 30
0.0
 10
54.9564474177
 20
3.4431438525
 30
0.0
  0
SPLINE
  5
444
100
AcDbEntity
  8
0
100
AcDbSpline
 62
7
  6
CONTINUOUS
 70
0
 71
3
 72
15
 73
11
 74
0
 42
0.0000001
 43
0.0000001
 44
0.0000000001
 40
0.0
 40
0.0
 40
0.0
 40
0.0
 40
0.1017444407
 40
0.2096088461
 40
0.3245474155
 40
0.4470525223
 40
0.5769030157
 40
0.7131920169
 40
0.8546475917
 40
1.0
 40
1.0
 40
1.0
 40
1.0
 10
55.2268199487
 20
3.1057403552
 30
0.0
 10
55.2231302259
 20
3.1102593243
 30
0.0
 10
55.2153124254
 20
3.1193950458
 30
0.0
 10
55.2025155539
 20
3.1329171382
 30
0.0
 10
55.1881592224
 20
3.1465662392
 30
0.0
 10
55.1721534154
 20
3.1602678101
 30
0.0
 10
55.1545438965
 20
3.1739368243
 30
0.0
 10
55.1355047231
 20
3.1875006533
 30
0.0
 10
55.1152845856
 20
3.2009120727
 30
0.0
 10
55.1013450431
 20
3.2096410227
 30
0.0
 10
55.0942374273
 20
3.2139935307
 30
0.0
  0
SPLINE
  5
445
100
AcDbEntity
  8
0
100
AcDbSpline
 62
7
  6
CONTINUOUS
 70
0
 71
3
 72
45
 73
41
 74
0
 42
0.0000001
 43
0.0000001
 44
0.0000000001
 40
0.0
 40
0.0
 40
0.0
 40
0.0
 40
0.0128513267
 40
0.0257402646
 40
0.038691441
 40
0.051730823
 40
0.0648871307
 40
0.0781878531
 40
0.1053036192
 40
0.1332505709
 40
0.1621439873
 40
0.1920543393
 40
0.2230077703
 40
0.2549895349
 40
0.287948694
 40
0.3218028922
 40
0.3564428168
 40
0.3917370601
 40
0.4275370898
 40
0.4636814477
 40
0.5
 40
0.5363185523
 40
0.5724629102
 40
0.6082629399
 40
0.6435571832
 40
0.6781971078
 40
0.712051306
 40
0.7450104651
 40
0.7769922297
 40
0.8079456607
 40
0.8378560127
 40
0.8667494291
 40
0.8946963808
 40
0.9218121469
 40
0.9351128693
 40
0.948269177
 40
0.961308559
 40
0.9742597354
 40
0.9871486733
 40
1.0
 40
1.0
 40
1.0
 40
1.0
 10
55.2388658661
 20
3.1352467061
 30
0.0
 10
55.2367026331
 20
3.1352467061
 30
0.0
 10
55.2323683468
 20
3.1353977068
 30
0.0
 10
55.225885849
 20
3.1360746185
 30
0.0
 10
55.2194336986
 20
3.1372007925
 30
0.0
 10
55.2130297403
 20
3.138774334
 30
0.0
 10
55.206689106
 20
3.1407902372
 30
0.0
 10
55.1982877771
 20
3.1440819801
 30
0.0
 10
55.1879994482
 20
3.1493099283
 30
0.0
 10
55.1762418267
 20
3.1572071921
 30
0.0
 10
55.1650979355
 20
3.1666893937
 30
0.0
 10
55.1546735018
 20
3.1776619486
 30
0.0
 10
55.1450655898
 20
3.1900183726
 30
0.0
 10
55.1363635735
 20
3.2036390662
 30
0.0
 10
55.1286485665
 20
3.2183933179
 30
0.0
 10
55.1219931532
 20
3.2341401476
 30
0.0
 10
55.1164600727
 20
3.2507291024
 30
0.0
 10
55.1121011587
 20
3.2680015637
 30
0.0
 10
55.1089576574
 20
3.2857925484
 30
0.0
 10
55.1070597335
 20
3.3039320829
 30
0.0
 10
55.1064251528
 20
3.3222467061
 30
0.0
 10
55.1070597335
 20
3.3405613294
 30
0.0
 10
55.1089576574
 20
3.3587008638
 30
0.0
 10
55.1121011587
 20
3.3764918486
 30
0.0
 10
55.1164600727
 20
3.3937643098
 30
0.0
 10
55.1219931532
 20
3.4103532647
 30
0.0
 10
55.1286485665
 20
3.4261000943
 30
0.0
 10
55.1363635735
 20
3.4408543461
 30
0.0
 10
55.1450655898
 20
3.4544750397
 30
0.0
 10
55.1546735018
 20
3.4668314637
 30
0.0
 10
55.1650979355
 20
3.4778040186
 30
0.0
 10
55.1762418267
 20
3.4872862201
 30
0.0
 10
55.1879994482
 20
3.495183484
 30
0.0
 10
55.1982877771
 20
3.5004114321
 30
0.0
 10
55.206689106
 20
3.503703175
 30
0.0
 10
55.2130297403
 20
3.5057190783
 30
0.0
 10
55.2194336986
 20
3.5072926198
 30
0.0
 10
55.225885849
 20
3.5084187937
 30
0.0
 10
55.2323683468
 20
3.5090957054
 30
0.0
 10
55.2367026331
 20
3.5092467061
 30
0.0
 10
55.2388658661
 20
3.5092467061
 30
0.0
  0
SPLINE
  5
446
100
AcDbEntity
  8
0
100
AcDbSpline
 62
7
  6
CONTINUOUS
 70
0
 71
3
 72
19
 73
15
 74
0
 42
0.0000001
 43
0.0000001
 44
0.0000000001
 40
0.0
 40
0.0
 40
0.0
 40
0.0
 40
0.1239135187
 40
0.2486584689
 40
0.3113153546
 40
0.3741210923
 40
0.4370327446
 40
0.5
 40
0.5629672554
 40
0.6258789077
 40
0.6886846454
 40
0.7513415311
 40
0.8760864813
 40
1.0
 40
1.0
 40
1.0
 40
1.0
 10
55.0942374273
 20
3.2139935307
 30
0.0
 10
55.0960396484
 20
3.2228225748
 30
0.0
 10
55.0993386158
 20
3.2406070315
 30
0.0
 10
55.102490427
 20
3.2630352076
 30
0.0
 10
55.1043241148
 20
3.2811398557
 30
0.0
 10
55.1053296193
 20
3.2948035227
 30
0.0
 10
55.1059418337
 20
3.3085131335
 30
0.0
 10
55.1061479442
 20
3.3222467061
 30
0.0
 10
55.1059418337
 20
3.3359802787
 30
0.0
 10
55.1053296193
 20
3.3496898896
 30
0.0
 10
55.1043241148
 20
3.3633535566
 30
0.0
 10
55.102490427
 20
3.3814582047
 30
0.0
 10
55.0993386158
 20
3.4038863808
 30
0.0
 10
55.0960396484
 20
3.4216708375
 30
0.0
 10
55.0942374273
 20
3.4304998816
 30
0.0
  0
SPLINE
  5
447
100
AcDbEntity
  8
0
100
AcDbSpline
 62
7
  6
CONTINUOUS
 70
0
 71
3
 72
23
 73
19
 74
0
 42
0.0000001
 43
0.0000001
 44
0.0000000001
 40
0.0
 40
0.0
 40
0.0
 40
0.0
 40
0.0552200583
 40
0.1106748871
 40
0.1665926736
 40
0.2231878726
 40
0.2806564376
 40
0.3391704851
 40
0.3988763535
 40
0.4598908728
 40
0.5223035786
 40
0.5861741968
 40
0.6515348273
 40
0.7183856123
 40
0.7867085174
 40
0.8564722864
 40
0.9276136373
 40
1.0
 40
1.0
 40
1.0
 40
1.0
 10
55.1045213708
 20
3.0622468929
 30
0.0
 10
55.1005088867
 20
3.0622468038
 30
0.0
 10
55.0924618974
 20
3.0626193996
 30
0.0
 10
55.0804568629
 20
3.0642950182
 30
0.0
 10
55.0685561893
 20
3.0670788542
 30
0.0
 10
55.0568131261
 20
3.070958678
 30
0.0
 10
55.0452781156
 20
3.0759166152
 30
0.0
 10
55.0340007205
 20
3.0819302543
 30
0.0
 10
55.0230293779
 20
3.0889731997
 30
0.0
 10
55.0124102171
 20
3.0970137808
 30
0.0
 10
55.0021888637
 20
3.1060177679
 30
0.0
 10
54.9924076458
 20
3.1159453421
 30
0.0
 10
54.9831091224
 20
3.1267544874
 30
0.0
 10
54.9743310217
 20
3.1383973266
 30
0.0
 10
54.9661115752
 20
3.150825741
 30
0.0
 10
54.9584839178
 20
3.1639870054
 30
0.0
 10
54.9514832796
 20
3.1778229052
 30
0.0
 10
54.9472867801
 20
3.1873770329
 30
0.0
 10
54.9452987444
 20
3.1922467061
 30
0.0
  0
SPLINE
  5
448
100
AcDbEntity
  8
0
100
AcDbSpline
 62
7
  6
CONTINUOUS
 70
0
 71
3
 72
15
 73
11
 74
0
 42
0.0000001
 43
0.0000001
 44
0.0000000001
 40
0.0
 40
0.0
 40
0.0
 40
0.0
 40
0.1453524083
 40
0.2868079831
 40
0.4230969843
 40
0.5529474777
 40
0.6754525845
 40
0.7903911539
 40
0.8982555593
 40
1.0
 40
1.0
 40
1.0
 40
1.0
 10
55.0942374273
 20
3.4304998816
 30
0.0
 10
55.1013450431
 20
3.4348523896
 30
0.0
 10
55.1152845856
 20
3.4435813396
 30
0.0
 10
55.1355047231
 20
3.456992759
 30
0.0
 10
55.1545438965
 20
3.4705565879
 30
0.0
 10
55.1721534154
 20
3.4842256022
 30
0.0
 10
55.1881592224
 20
3.497927173
 30
0.0
 10
55.2025155539
 20
3.5115762741
 30
0.0
 10
55.2153124254
 20
3.5250983665
 30
0.0
 10
55.2231302259
 20
3.5342340879
 30
0.0
 10
55.2268199487
 20
3.5387530571
 30
0.0
  0
SPLINE
  5
449
100
AcDbEntity
  8
0
100
AcDbSpline
 62
7
  6
CONTINUOUS
 70
0
 71
3
 72
33
 73
29
 74
0
 42
0.0000001
 43
0.0000001
 44
0.0000000001
 40
0.0
 40
0.0
 40
0.0
 40
0.0
 40
0.0248617031
 40
0.0498293083
 40
0.0750052916
 40
0.1004865152
 40
0.1263607673
 40
0.1527060222
 40
0.1795875392
 40
0.2070587667
 40
0.2351590604
 40
0.2639158084
 40
0.293342707
 40
0.3234424266
 40
0.3855854026
 40
0.4501825721
 40
0.5169033937
 40
0.585309275
 40
0.6548820701
 40
0.7250511664
 40
0.7601826356
 40
0.7952393726
 40
0.8301469022
 40
0.8648309296
 40
0.8992215798
 40
0.9332580601
 40
0.9668772299
 40
1.0
 40
1.0
 40
1.0
 40
1.0
 10
55.1045097845
 20
3.5822465193
 30
0.0
 10
55.1004974815
 20
3.5822464302
 30
0.0
 10
55.0924508452
 20
3.5818729767
 30
0.0
 10
55.0804464803
 20
3.5801963118
 30
0.0
 10
55.0685463467
 20
3.5774120021
 30
0.0
 10
55.0568041456
 20
3.5735310099
 30
0.0
 10
55.0452695619
 20
3.5685730521
 30
0.0
 10
55.0339932518
 20
3.5625583197
 30
0.0
 10
55.0230221357
 20
3.5555157008
 30
0.0
 10
55.0124042551
 20
3.5474741387
 30
0.0
 10
55.0021829862
 20
3.5384706582
 30
0.0
 10
54.9924032481
 20
3.5285425869
 30
0.0
 10
54.9831043266
 20
3.5177339154
 30
0.0
 10
54.971278075
 20
3.5020449297
 30
0.0
 10
54.9579569039
 20
3.4804454788
 30
0.0
 10
54.9446499781
 20
3.4521356451
 30
0.0
 10
54.9340635044
 20
3.4216313425
 30
0.0
 10
54.9263741565
 20
3.3894495617
 30
0.0
 10
54.9217088535
 20
3.3561343287
 30
0.0
 10
54.9204059326
 20
3.3278984733
 30
0.0
 10
54.9209300222
 20
3.3052464156
 30
0.0
 10
54.9221073978
 20
3.2883200397
 30
0.0
 10
54.9240648932
 20
3.2715390759
 30
0.0
 10
54.9267924464
 20
3.2549746541
 30
0.0
 10
54.9302802622
 20
3.2386971174
 30
0.0
 10
54.9345128112
 20
3.2227745497
 30
0.0
 10
54.939472776
 20
3.207278324
 30
0.0
 10
54.9432783299
 20
3.1971956907
 30
0.0
 10
54.9452987444
 20
3.1922467061
 30
0.0
  0
SPLINE
  5
44A
100
AcDbEntity
  8
0
100
AcDbSpline
 62
7
  6
CONTINUOUS
 70
0
 71
3
 72
15
 73
11
 74
0
 42
0.0000001
 43
0.0000001
 44
0.0000000001
 40
0.0
 40
0.0
 40
0.0
 40
0.0
 40
0.1093848924
 40
0.2247529651
 40
0.3455303054
 40
0.4709316038
 40
0.5999829275
 40
0.7318632405
 40
0.865594525
 40
1.0
 40
1.0
 40
1.0
 40
1.0
 10
55.1130813055
 20
3.1030750679
 30
0.0
 10
55.1123774249
 20
3.1025010657
 30
0.0
 10
55.1110401163
 20
3.1011844705
 30
0.0
 10
55.1093189719
 20
3.0988783375
 30
0.0
 10
55.1078470097
 20
3.0962533677
 30
0.0
 10
55.1066346676
 20
3.0933770957
 30
0.0
 10
55.1056884947
 20
3.0903069007
 30
0.0
 10
55.1050118696
 20
3.0870961522
 30
0.0
 10
55.1046060597
 20
3.083795896
 30
0.0
 10
55.1045155776
 20
3.0815684211
 30
0.0
 10
55.1045155776
 20
3.0804524134
 30
0.0
  0
SPLINE
  5
44B
100
AcDbEntity
  8
0
100
AcDbSpline
 62
7
  6
CONTINUOUS
 70
0
 71
3
 72
15
 73
11
 74
0
 42
0.0000001
 43
0.0000001
 44
0.0000000001
 40
0.0
 40
0.0
 40
0.0
 40
0.0
 40
0.1093848924
 40
0.2247529651
 40
0.3455303054
 40
0.4709316038
 40
0.5999829275
 40
0.7318632405
 40
0.865594525
 40
1.0
 40
1.0
 40
1.0
 40
1.0
 10
55.1130813055
 20
3.5414183444
 30
0.0
 10
55.1123774249
 20
3.5419923465
 30
0.0
 10
55.1110401163
 20
3.5433089417
 30
0.0
 10
55.1093189719
 20
3.5456150748
 30
0.0
 10
55.1078470097
 20
3.5482400445
 30
0.0
 10
55.1066346676
 20
3.5511163166
 30
0.0
 10
55.1056884947
 20
3.5541865116
 30
0.0
 10
55.1050118696
 20
3.55739726
 30
0.0
 10
55.1046060597
 20
3.5606975162
 30
0.0
 10
55.1045155776
 20
3.5629249911
 30
0.0
 10
55.1045155776
 20
3.5640409989
 30
0.0
  0
SPLINE
  5
44C
100
AcDbEntity
  8
0
100
AcDbSpline
 62
7
  6
CONTINUOUS
 70
0
 71
3
 72
15
 73
11
 74
0
 42
0.0000001
 43
0.0000001
 44
0.0000000001
 40
0.0
 40
0.0
 40
0.0
 40
0.0
 40
0.1453524083
 40
0.2868079831
 40
0.4230969843
 40
0.5529474777
 40
0.6754525845
 40
0.7903911539
 40
0.8982555593
 40
1.0
 40
1.0
 40
1.0
 40
1.0
 10
43.6685027076
 20
3.1057403552
 30
0.0
 10
43.6613950918
 20
3.1100928632
 30
0.0
 10
43.6474555492
 20
3.1188218131
 30
0.0
 10
43.6272354117
 20
3.1322332326
 30
0.0
 10
43.6081962383
 20
3.1457970615
 30
0.0
 10
43.5905867194
 20
3.1594660758
 30
0.0
 10
43.5745809124
 20
3.1731676466
 30
0.0
 10
43.5602245809
 20
3.1868167476
 30
0.0
 10
43.5474277094
 20
3.2003388401
 30
0.0
 10
43.5396099089
 20
3.2094745615
 30
0.0
 10
43.5359201861
 20
3.2139935307
 30
0.0
  0
SPLINE
  5
44D
100
AcDbEntity
  8
0
100
AcDbSpline
 62
7
  6
CONTINUOUS
 70
0
 71
3
 72
19
 73
15
 74
0
 42
0.0000001
 43
0.0000001
 44
0.0000000001
 40
0.0
 40
0.0
 40
0.0
 40
0.0
 40
0.1239135187
 40
0.2486584689
 40
0.3113153546
 40
0.3741210923
 40
0.4370327446
 40
0.5
 40
0.5629672554
 40
0.6258789077
 40
0.6886846454
 40
0.7513415311
 40
0.8760864813
 40
1.0
 40
1.0
 40
1.0
 40
1.0
 10
43.5359201861
 20
3.2139935307
 30
0.0
 10
43.534117965
 20
3.2228225748
 30
0.0
 10
43.5308189976
 20
3.2406070315
 30
0.0
 10
43.5276671864
 20
3.2630352076
 30
0.0
 10
43.5258334985
 20
3.2811398557
 30
0.0
 10
43.5248279941
 20
3.2948035227
 30
0.0
 10
43.5242157797
 20
3.3085131335
 30
0.0
 10
43.5240096692
 20
3.3222467061
 30
0.0
 10
43.5242157797
 20
3.3359802787
 30
0.0
 10
43.5248279941
 20
3.3496898896
 30
0.0
 10
43.5258334985
 20
3.3633535566
 30
0.0
 10
43.5276671864
 20
3.3814582047
 30
0.0
 10
43.5308189976
 20
3.4038863808
 30
0.0
 10
43.534117965
 20
3.4216708375
 30
0.0
 10
43.5359201861
 20
3.4304998816
 30
0.0
  0
SPLINE
  5
44E
100
AcDbEntity
  8
0
100
AcDbSpline
 62
7
  6
CONTINUOUS
 70
0
 71
3
 72
15
 73
11
 74
0
 42
0.0000001
 43
0.0000001
 44
0.0000000001
 40
0.0
 40
0.0
 40
0.0
 40
0.0
 40
0.1017444407
 40
0.2096088461
 40
0.3245474155
 40
0.4470525223
 40
0.5769030157
 40
0.7131920169
 40
0.8546475917
 40
1.0
 40
1.0
 40
1.0
 40
1.0
 10
43.5359201861
 20
3.4304998816
 30
0.0
 10
43.5396099089
 20
3.4350188507
 30
0.0
 10
43.5474277094
 20
3.4441545722
 30
0.0
 10
43.5602245809
 20
3.4576766646
 30
0.0
 10
43.5745809124
 20
3.4713257657
 30
0.0
 10
43.5905867194
 20
3.4850273365
 30
0.0
 10
43.6081962383
 20
3.4986963508
 30
0.0
 10
43.6272354117
 20
3.5122601797
 30
0.0
 10
43.6474555492
 20
3.5256715991
 30
0.0
 10
43.6613950918
 20
3.5344005491
 30
0.0
 10
43.6685027076
 20
3.5387530571
 30
0.0
  0
SPLINE
  5
44F
100
AcDbEntity
  8
0
100
AcDbSpline
 62
7
  6
CONTINUOUS
 70
0
 71
3
 72
33
 73
29
 74
0
 42
0.0000001
 43
0.0000001
 44
0.0000000001
 40
0.0
 40
0.0
 40
0.0
 40
0.0
 40
0.0331227701
 40
0.0667419399
 40
0.1007784202
 40
0.1351690704
 40
0.1698530978
 40
0.2047606274
 40
0.2398173644
 40
0.2749488336
 40
0.3451179299
 40
0.414690725
 40
0.4830966063
 40
0.5498174279
 40
0.6144145974
 40
0.6765575734
 40
0.706657293
 40
0.7360841916
 40
0.7648409396
 40
0.7929412333
 40
0.8204124608
 40
0.8472939778
 40
0.8736392327
 40
0.8995134848
 40
0.9249947084
 40
0.9501706917
 40
0.9751382969
 40
1.0
 40
1.0
 40
1.0
 40
1.0
 10
43.985379251
 20
3.4522467061
 30
0.0
 10
43.9873996655
 20
3.4472977215
 30
0.0
 10
43.9912052193
 20
3.4372150883
 30
0.0
 10
43.9961651842
 20
3.4217188626
 30
0.0
 10
44.0003977332
 20
3.4057962949
 30
0.0
 10
44.0038855489
 20
3.3895187582
 30
0.0
 10
44.0066131022
 20
3.3729543363
 30
0.0
 10
44.0085705976
 20
3.3561733725
 30
0.0
 10
44.0097479732
 20
3.3392469966
 30
0.0
 10
44.0102720628
 20
3.3165949389
 30
0.0
 10
44.0089691419
 20
3.2883590836
 30
0.0
 10
44.0043038388
 20
3.2550438506
 30
0.0
 10
43.9966144909
 20
3.2228620698
 30
0.0
 10
43.9860280173
 20
3.1923577672
 30
0.0
 10
43.9727210914
 20
3.1640479335
 30
0.0
 10
43.9593999204
 20
3.1424484825
 30
0.0
 10
43.9475736688
 20
3.1267594968
 30
0.0
 10
43.9382747473
 20
3.1159508253
 30
0.0
 10
43.9284950091
 20
3.1060227541
 30
0.0
 10
43.9182737402
 20
3.0970192736
 30
0.0
 10
43.9076558596
 20
3.0889777115
 30
0.0
 10
43.8966847435
 20
3.0819350926
 30
0.0
 10
43.8854084334
 20
3.0759203602
 30
0.0
 10
43.8738738498
 20
3.0709624024
 30
0.0
 10
43.8621316487
 20
3.0670814101
 30
0.0
 10
43.8502315151
 20
3.0642971004
 30
0.0
 10
43.8382271501
 20
3.0626204356
 30
0.0
 10
43.8301805138
 20
3.062246982
 30
0.0
 10
43.8261682109
 20
3.0622468929
 30
0.0
  0
SPLINE
  5
450
100
AcDbEntity
  8
0
100
AcDbSpline
 62
7
  6
CONTINUOUS
 70
0
 71
3
 72
23
 73
19
 74
0
 42
0.0000001
 43
0.0000001
 44
0.0000000001
 40
0.0
 40
0.0
 40
0.0
 40
0.0
 40
0.0723863627
 40
0.1435277136
 40
0.2132914826
 40
0.2816143877
 40
0.3484651727
 40
0.4138258032
 40
0.4776964214
 40
0.5401091272
 40
0.6011236465
 40
0.6608295149
 40
0.7193435624
 40
0.7768121274
 40
0.8334073264
 40
0.8893251129
 40
0.9447799417
 40
1.0
 40
1.0
 40
1.0
 40
1.0
 10
43.985379251
 20
3.4522467061
 30
0.0
 10
43.9833912152
 20
3.4571163793
 30
0.0
 10
43.9791947158
 20
3.4666705071
 30
0.0
 10
43.9721940776
 20
3.4805064068
 30
0.0
 10
43.9645664202
 20
3.4936676713
 30
0.0
 10
43.9563469736
 20
3.5060960857
 30
0.0
 10
43.947568873
 20
3.5177389249
 30
0.0
 10
43.9382703495
 20
3.5285480701
 30
0.0
 10
43.9284891317
 20
3.5384756443
 30
0.0
 10
43.9182677782
 20
3.5474796315
 30
0.0
 10
43.9076486175
 20
3.5555202125
 30
0.0
 10
43.8966772749
 20
3.5625631579
 30
0.0
 10
43.8853998798
 20
3.5685767971
 30
0.0
 10
43.8738648692
 20
3.5735347343
 30
0.0
 10
43.8621218061
 20
3.577414558
 30
0.0
 10
43.8502211325
 20
3.5801983941
 30
0.0
 10
43.8382160979
 20
3.5818740126
 30
0.0
 10
43.8301691086
 20
3.5822466084
 30
0.0
 10
43.8261566246
 20
3.5822465193
 30
0.0
  0
SPLINE
  5
451
100
AcDbEntity
  8
0
100
AcDbSpline
 62
7
  6
CONTINUOUS
 70
0
 71
3
 72
11
 73
7
 74
0
 42
0.0000001
 43
0.0000001
 44
0.0000000001
 40
0.0
 40
0.0
 40
0.0
 40
0.0
 40
0.2401732686
 40
0.4850365616
 40
0.7374846583
 40
1.0
 40
1.0
 40
1.0
 40
1.0
 10
43.7753214402
 20
3.1057403552
 30
0.0
 10
43.77592631
 20
3.1057403552
 30
0.0
 10
43.777150704
 20
3.1056204873
 30
0.0
 10
43.7789433444
 20
3.1050984043
 30
0.0
 10
43.7806662301
 20
3.104245629
 30
0.0
 10
43.7817289813
 20
3.1034928962
 30
0.0
 10
43.7822413508
 20
3.1030750679
 30
0.0
  0
SPLINE
  5
452
100
AcDbEntity
  8
0
100
AcDbSpline
 62
7
  6
CONTINUOUS
 70
0
 71
3
 72
11
 73
7
 74
0
 42
0.0000001
 43
0.0000001
 44
0.0000000001
 40
0.0
 40
0.0
 40
0.0
 40
0.0
 40
0.2401732686
 40
0.4850365616
 40
0.7374846583
 40
1.0
 40
1.0
 40
1.0
 40
1.0
 10
43.7753214402
 20
3.5387530571
 30
0.0
 10
43.77592631
 20
3.5387530571
 30
0.0
 10
43.777150704
 20
3.538872925
 30
0.0
 10
43.7789433444
 20
3.5393950079
 30
0.0
 10
43.7806662301
 20
3.5402477832
 30
0.0
 10
43.7817289813
 20
3.5410005161
 30
0.0
 10
43.7822413508
 20
3.5414183444
 30
0.0
  0
SPLINE
  5
453
100
AcDbEntity
  8
0
100
AcDbSpline
 62
7
  6
CONTINUOUS
 70
0
 71
3
 72
15
 73
11
 74
0
 42
0.0000001
 43
0.0000001
 44
0.0000000001
 40
0.0
 40
0.0
 40
0.0
 40
0.0
 40
0.119057511
 40
0.2387427078
 40
0.3596605012
 40
0.482372663
 40
0.6073780386
 40
0.7351040355
 40
0.8658915427
 40
1.0
 40
1.0
 40
1.0
 40
1.0
 10
43.7908128718
 20
3.0622468929
 30
0.0
 10
43.7863413804
 20
3.0622467936
 30
0.0
 10
43.7773679576
 20
3.0627100205
 30
0.0
 10
43.7639988938
 20
3.0647923446
 30
0.0
 10
43.750774755
 20
3.0682482099
 30
0.0
 10
43.7377696691
 20
3.0730599063
 30
0.0
 10
43.7250520803
 20
3.0791976228
 30
0.0
 10
43.7126907248
 20
3.086629423
 30
0.0
 10
43.7007502996
 20
3.0953111776
 30
0.0
 10
43.6932089484
 20
3.1018198262
 30
0.0
 10
43.6895270605
 20
3.1052567888
 30
0.0
  0
SPLINE
  5
454
100
AcDbEntity
  8
0
100
AcDbSpline
 62
7
  6
CONTINUOUS
 70
0
 71
3
 72
17
 73
13
 74
0
 42
0.0000001
 43
0.0000001
 44
0.0000000001
 40
0.0
 40
0.0
 40
0.0
 40
0.0
 40
0.1189994808
 40
0.2386330948
 40
0.2988987019
 40
0.3595485145
 40
0.4822355288
 40
0.5444348928
 40
0.6072696525
 40
0.7350094912
 40
0.8658344983
 40
1.0
 40
1.0
 40
1.0
 40
1.0
 10
43.7908012855
 20
3.5822465193
 30
0.0
 10
43.786308716
 20
3.5822464196
 30
0.0
 10
43.7772931152
 20
3.5817777067
 30
0.0
 10
43.766124588
 20
3.5800288228
 30
0.0
 10
43.7572815962
 20
3.5779464996
 30
0.0
 10
43.7484438195
 20
3.5753910199
 30
0.0
 10
43.7397389714
 20
3.5721543085
 30
0.0
 10
43.7312259241
 20
3.5682760663
 30
0.0
 10
43.7227340811
 20
3.5639153252
 30
0.0
 10
43.7123340371
 20
3.5576300187
 30
0.0
 10
43.7003527968
 20
3.5488675577
 30
0.0
 10
43.6927881631
 20
3.5423008879
 30
0.0
 10
43.6890960991
 20
3.5388332943
 30
0.0
  0
SPLINE
  5
455
100
AcDbEntity
  8
0
100
AcDbSpline
 62
7
  6
CONTINUOUS
 70
0
 71
3
 72
19
 73
15
 74
0
 42
0.0000001
 43
0.0000001
 44
0.0000000001
 40
0.0
 40
0.0
 40
0.0
 40
0.0
 40
0.1239135187
 40
0.2486584689
 40
0.3113153546
 40
0.3741210923
 40
0.4370327446
 40
0.5
 40
0.5629672554
 40
0.6258789077
 40
0.6886846454
 40
0.7513415311
 40
0.8760864813
 40
1.0
 40
1.0
 40
1.0
 40
1.0
 10
43.801085229
 20
3.4304998816
 30
0.0
 10
43.7992830079
 20
3.4216708375
 30
0.0
 10
43.7959840406
 20
3.4038863808
 30
0.0
 10
43.7928322293
 20
3.3814582047
 30
0.0
 10
43.7909985415
 20
3.3633535566
 30
0.0
 10
43.789993037
 20
3.3496898896
 30
0.0
 10
43.7893808226
 20
3.3359802787
 30
0.0
 10
43.7891747121
 20
3.3222467061
 30
0.0
 10
43.7893808226
 20
3.3085131335
 30
0.0
 10
43.789993037
 20
3.2948035227
 30
0.0
 10
43.7909985415
 20
3.2811398557
 30
0.0
 10
43.7928322293
 20
3.2630352076
 30
0.0
 10
43.7959840406
 20
3.2406070315
 30
0.0
 10
43.7992830079
 20
3.2228225748
 30
0.0
 10
43.801085229
 20
3.2139935307
 30
0.0
  0
SPLINE
  5
456
100
AcDbEntity
  8
0
100
AcDbSpline
 62
7
  6
CONTINUOUS
 70
0
 71
3
 72
17
 73
13
 74
0
 42
0.0000001
 43
0.0000001
 44
0.0000000001
 40
0.0
 40
0.0
 40
0.0
 40
0.0
 40
0.0507521541
 40
0.1062279752
 40
0.1656818145
 40
0.2283685672
 40
0.3603916239
 40
0.4965882669
 40
0.6320482742
 40
0.7629485808
 40
0.8864675634
 40
1.0
 40
1.0
 40
1.0
 40
1.0
 10
43.9079039616
 20
3.2139935307
 30
0.0
 10
43.908478265
 20
3.2139935307
 30
0.0
 10
43.9096805511
 20
3.2139389335
 30
0.0
 10
43.9115442379
 20
3.2137247849
 30
0.0
 10
43.9135248964
 20
3.2133770407
 30
0.0
 10
43.9163295274
 20
3.2127355761
 30
0.0
 10
43.9199190131
 20
3.2116530577
 30
0.0
 10
43.9241867326
 20
3.2100146194
 30
0.0
 10
43.9283238195
 20
3.208100284
 30
0.0
 10
43.9322030074
 20
3.205992159
 30
0.0
 10
43.9357228567
 20
3.2037623176
 30
0.0
 10
43.9378801026
 20
3.2021620849
 30
0.0
 10
43.9388752386
 20
3.2013495598
 30
0.0
  0
SPLINE
  5
457
100
AcDbEntity
  8
0
100
AcDbSpline
 62
7
  6
CONTINUOUS
 70
0
 71
3
 72
17
 73
13
 74
0
 42
0.0000001
 43
0.0000001
 44
0.0000000001
 40
0.0
 40
0.0
 40
0.0
 40
0.0
 40
0.0507521541
 40
0.1062279752
 40
0.1656818145
 40
0.2283685672
 40
0.3603916239
 40
0.4965882669
 40
0.6320482742
 40
0.7629485808
 40
0.8864675634
 40
1.0
 40
1.0
 40
1.0
 40
1.0
 10
43.9079039616
 20
3.4304998816
 30
0.0
 10
43.908478265
 20
3.4304998816
 30
0.0
 10
43.9096805511
 20
3.4305544787
 30
0.0
 10
43.9115442379
 20
3.4307686274
 30
0.0
 10
43.9135248964
 20
3.4311163715
 30
0.0
 10
43.9163295274
 20
3.4317578361
 30
0.0
 10
43.9199190131
 20
3.4328403546
 30
0.0
 10
43.9241867326
 20
3.4344787928
 30
0.0
 10
43.9283238195
 20
3.4363931282
 30
0.0
 10
43.9322030074
 20
3.4385012532
 30
0.0
 10
43.9357228567
 20
3.4407310947
 30
0.0
 10
43.9378801026
 20
3.4423313273
 30
0.0
 10
43.9388752386
 20
3.4431438525
 30
0.0
  0
SPLINE
  5
458
100
AcDbEntity
  8
0
100
AcDbSpline
 62
7
  6
CONTINUOUS
 70
0
 71
3
 72
15
 73
11
 74
0
 42
0.0000001
 43
0.0000001
 44
0.0000000001
 40
0.0
 40
0.0
 40
0.0
 40
0.0
 40
0.1453524083
 40
0.2868079831
 40
0.4230969843
 40
0.5529474777
 40
0.6754525845
 40
0.7903911539
 40
0.8982555593
 40
1.0
 40
1.0
 40
1.0
 40
1.0
 10
43.801085229
 20
3.2139935307
 30
0.0
 10
43.7939776132
 20
3.2096410227
 30
0.0
 10
43.7800380707
 20
3.2009120727
 30
0.0
 10
43.7598179332
 20
3.1875006533
 30
0.0
 10
43.7407787598
 20
3.1739368243
 30
0.0
 10
43.7231692409
 20
3.1602678101
 30
0.0
 10
43.7071634339
 20
3.1465662392
 30
0.0
 10
43.6928071024
 20
3.1329171382
 30
0.0
 10
43.6800102309
 20
3.1193950458
 30
0.0
 10
43.6721924304
 20
3.1102593243
 30
0.0
 10
43.6685027076
 20
3.1057403552
 30
0.0
  0
SPLINE
  5
459
100
AcDbEntity
  8
0
100
AcDbSpline
 62
7
  6
CONTINUOUS
 70
0
 71
3
 72
9
 73
5
 74
0
 42
0.0000001
 43
0.0000001
 44
0.0000000001
 40
0.0
 40
0.0
 40
0.0
 40
0.0
 40
0.5053692387
 40
1.0
 40
1.0
 40
1.0
 40
1.0
 10
43.9500239119
 20
3.4522467061
 30
0.0
 10
43.9476336901
 20
3.4581015301
 30
0.0
 10
43.9425369761
 20
3.4695406974
 30
0.0
 10
43.9366942062
 20
3.4806187752
 30
0.0
 10
43.9336157957
 20
3.4859885055
 30
0.0
  0
SPLINE
  5
45A
100
AcDbEntity
  8
0
100
AcDbSpline
 62
7
  6
CONTINUOUS
 70
0
 71
3
 72
21
 73
17
 74
0
 42
0.0000001
 43
0.0000001
 44
0.0000000001
 40
0.0
 40
0.0
 40
0.0
 40
0.0
 40
0.1409041298
 40
0.2094611482
 40
0.2767194308
 40
0.4072923491
 40
0.4707177245
 40
0.5329483315
 40
0.5940569821
 40
0.6541324635
 40
0.7132828325
 40
0.7716327105
 40
0.8293213619
 40
0.8865022518
 40
0.9433381497
 40
1.0
 40
1.0
 40
1.0
 40
1.0
 10
43.9336157957
 20
3.4859885055
 30
0.0
 10
43.9294007047
 20
3.4933409695
 30
0.0
 10
43.9226015287
 20
3.5039812962
 30
0.0
 10
43.9125477261
 20
3.517253871
 30
0.0
 10
43.9021870416
 20
3.5294837302
 30
0.0
 10
43.8910235899
 20
3.540604993
 30
0.0
 10
43.8791359353
 20
3.5504260369
 30
0.0
 10
43.8700292892
 20
3.5570172792
 30
0.0
 10
43.8606767392
 20
3.5628837716
 30
0.0
 10
43.8511059075
 20
3.5680064073
 30
0.0
 10
43.8413466354
 20
3.5723689162
 30
0.0
 10
43.8314293731
 20
3.5759582512
 30
0.0
 10
43.8213844534
 20
3.5787611433
 30
0.0
 10
43.8112435863
 20
3.5807704701
 30
0.0
 10
43.8010389633
 20
3.5819780916
 30
0.0
 10
43.7942093439
 20
3.582246595
 30
0.0
 10
43.7908012855
 20
3.5822465193
 30
0.0
  0
SPLINE
  5
45B
100
AcDbEntity
  8
0
100
AcDbSpline
 62
7
  6
CONTINUOUS
 70
0
 71
3
 72
12
 73
8
 74
0
 42
0.0000001
 43
0.0000001
 44
0.0000000001
 40
0.0
 40
0.0
 40
0.0
 40
0.0
 40
0.1205191725
 40
0.2428344148
 40
0.4290465437
 40
0.6179052566
 40
1.0
 40
1.0
 40
1.0
 40
1.0
 10
43.9500239119
 20
3.4522467061
 30
0.0
 10
43.9520305869
 20
3.4473313764
 30
0.0
 10
43.9558119453
 20
3.4373183226
 30
0.0
 10
43.9615848758
 20
3.4193140523
 30
0.0
 10
43.96697098
 20
3.3980519918
 30
0.0
 10
43.9728226665
 20
3.3651953304
 30
0.0
 10
43.9746112741
 20
3.33999961
 30
0.0
 10
43.974653636
 20
3.3231674598
 30
0.0
  0
SPLINE
  5
45C
100
AcDbEntity
  8
0
100
AcDbSpline
 62
7
  6
CONTINUOUS
 70
0
 71
3
 72
14
 73
10
 74
0
 42
0.0000001
 43
0.0000001
 44
0.0000000001
 40
0.0
 40
0.0
 40
0.0
 40
0.0
 40
0.1296025681
 40
0.2587380804
 40
0.3869554564
 40
0.5138209495
 40
0.6389264169
 40
0.7618957124
 40
1.0
 40
1.0
 40
1.0
 40
1.0
 10
43.9746545623
 20
3.3218239234
 30
0.0
 10
43.9746462563
 20
3.3145254153
 30
0.0
 10
43.9741953921
 20
3.2999514501
 30
0.0
 10
43.9722225016
 20
3.2782372579
 30
0.0
 10
43.9689654041
 20
3.2568328892
 30
0.0
 10
43.9644482617
 20
3.23589114
 30
0.0
 10
43.9587015656
 20
3.2155567581
 30
0.0
 10
43.9495570012
 20
3.18973821
 30
0.0
 10
43.9408527456
 20
3.1712635672
 30
0.0
 10
43.9342394823
 20
3.1595991311
 30
0.0
  0
SPLINE
  5
45D
100
AcDbEntity
  8
0
100
AcDbSpline
 62
7
  6
CONTINUOUS
 70
0
 71
3
 72
20
 73
16
 74
0
 42
0.0000001
 43
0.0000001
 44
0.0000000001
 40
0.0
 40
0.0
 40
0.0
 40
0.0
 40
0.1410158749
 40
0.2768709764
 40
0.4075034945
 40
0.4709459353
 40
0.5331847257
 40
0.5942905624
 40
0.654354574
 40
0.7134839207
 40
0.7718046037
 40
0.8294572489
 40
0.8865960469
 40
0.9433862658
 40
1.0
 40
1.0
 40
1.0
 40
1.0
 10
43.9342394823
 20
3.1595991311
 30
0.0
 10
43.9300275519
 20
3.1521701522
 30
0.0
 10
43.9210458041
 20
3.1379708185
 30
0.0
 10
43.9057047847
 20
3.1185820321
 30
0.0
 10
43.8915695781
 20
3.1043863396
 30
0.0
 10
43.8796316992
 20
3.0944513033
 30
0.0
 10
43.8704846709
 20
3.0877821486
 30
0.0
 10
43.8610862102
 20
3.081846914
 30
0.0
 10
43.8514663492
 20
3.0766625906
 30
0.0
 10
43.841654287
 20
3.0722474122
 30
0.0
 10
43.8316812343
 20
3.0686148379
 30
0.0
 10
43.821578561
 20
3.065776531
 30
0.0
 10
43.8113777096
 20
3.0637430508
 30
0.0
 10
43.8011122266
 20
3.0625192187
 30
0.0
 10
43.7942413955
 20
3.0622469691
 30
0.0
 10
43.7908128718
 20
3.0622468929
 30
0.0
  0
SPLINE
  5
45E
100
AcDbEntity
  8
0
100
AcDbSpline
 62
7
  6
CONTINUOUS
 70
0
 71
3
 72
45
 73
41
 74
0
 42
0.0000001
 43
0.0000001
 44
0.0000000001
 40
0.0
 40
0.0
 40
0.0
 40
0.0
 40
0.0128513267
 40
0.0257402646
 40
0.038691441
 40
0.051730823
 40
0.0648871307
 40
0.0781878531
 40
0.1053036192
 40
0.1332505709
 40
0.1621439873
 40
0.1920543393
 40
0.2230077703
 40
0.2549895349
 40
0.287948694
 40
0.3218028922
 40
0.3564428168
 40
0.3917370601
 40
0.4275370898
 40
0.4636814477
 40
0.5
 40
0.5363185523
 40
0.5724629102
 40
0.6082629399
 40
0.6435571832
 40
0.6781971078
 40
0.712051306
 40
0.7450104651
 40
0.7769922297
 40
0.8079456607
 40
0.8378560127
 40
0.8667494291
 40
0.8946963808
 40
0.9218121469
 40
0.9351128693
 40
0.948269177
 40
0.961308559
 40
0.9742597354
 40
0.9871486733
 40
1.0
 40
1.0
 40
1.0
 40
1.0
 10
43.6564567902
 20
3.5092467061
 30
0.0
 10
43.6586200232
 20
3.5092467061
 30
0.0
 10
43.6629543095
 20
3.5090957054
 30
0.0
 10
43.6694368073
 20
3.5084187937
 30
0.0
 10
43.6758889577
 20
3.5072926198
 30
0.0
 10
43.682292916
 20
3.5057190783
 30
0.0
 10
43.6886335503
 20
3.503703175
 30
0.0
 10
43.6970348792
 20
3.5004114321
 30
0.0
 10
43.7073232081
 20
3.495183484
 30
0.0
 10
43.7190808296
 20
3.4872862201
 30
0.0
 10
43.7302247208
 20
3.4778040186
 30
0.0
 10
43.7406491545
 20
3.4668314637
 30
0.0
 10
43.7502570665
 20
3.4544750397
 30
0.0
 10
43.7589590828
 20
3.4408543461
 30
0.0
 10
43.7666740898
 20
3.4261000943
 30
0.0
 10
43.7733295031
 20
3.4103532647
 30
0.0
 10
43.7788625836
 20
3.3937643098
 30
0.0
 10
43.7832214976
 20
3.3764918486
 30
0.0
 10
43.7863649989
 20
3.3587008638
 30
0.0
 10
43.7882629228
 20
3.3405613294
 30
0.0
 10
43.7888975035
 20
3.3222467061
 30
0.0
 10
43.7882629228
 20
3.3039320829
 30
0.0
 10
43.7863649989
 20
3.2857925484
 30
0.0
 10
43.7832214976
 20
3.2680015637
 30
0.0
 10
43.7788625836
 20
3.2507291024
 30
0.0
 10
43.7733295031
 20
3.2341401476
 30
0.0
 10
43.7666740898
 20
3.2183933179
 30
0.0
 10
43.7589590828
 20
3.2036390662
 30
0.0
 10
43.7502570665
 20
3.1900183726
 30
0.0
 10
43.7406491545
 20
3.1776619486
 30
0.0
 10
43.7302247208
 20
3.1666893937
 30
0.0
 10
43.7190808296
 20
3.1572071921
 30
0.0
 10
43.7073232081
 20
3.1493099283
 30
0.0
 10
43.6970348792
 20
3.1440819801
 30
0.0
 10
43.6886335503
 20
3.1407902372
 30
0.0
 10
43.682292916
 20
3.138774334
 30
0.0
 10
43.6758889577
 20
3.1372007925
 30
0.0
 10
43.6694368073
 20
3.1360746185
 30
0.0
 10
43.6629543095
 20
3.1353977068
 30
0.0
 10
43.6586200232
 20
3.1352467061
 30
0.0
 10
43.6564567902
 20
3.1352467061
 30
0.0
  0
SPLINE
  5
45F
100
AcDbEntity
  8
0
100
AcDbSpline
 62
7
  6
CONTINUOUS
 70
0
 71
3
 72
15
 73
11
 74
0
 42
0.0000001
 43
0.0000001
 44
0.0000000001
 40
0.0
 40
0.0
 40
0.0
 40
0.0
 40
0.1093848924
 40
0.2247529651
 40
0.3455303054
 40
0.4709316038
 40
0.5999829275
 40
0.7318632405
 40
0.865594525
 40
1.0
 40
1.0
 40
1.0
 40
1.0
 10
43.7822413508
 20
3.1030750679
 30
0.0
 10
43.7829452314
 20
3.1025010657
 30
0.0
 10
43.78428254
 20
3.1011844705
 30
0.0
 10
43.7860036845
 20
3.0988783375
 30
0.0
 10
43.7874756466
 20
3.0962533677
 30
0.0
 10
43.7886879887
 20
3.0933770957
 30
0.0
 10
43.7896341616
 20
3.0903069007
 30
0.0
 10
43.7903107867
 20
3.0870961522
 30
0.0
 10
43.7907165966
 20
3.083795896
 30
0.0
 10
43.7908070787
 20
3.0815684211
 30
0.0
 10
43.7908070787
 20
3.0804524134
 30
0.0
  0
SPLINE
  5
460
100
AcDbEntity
  8
0
100
AcDbSpline
 62
7
  6
CONTINUOUS
 70
0
 71
3
 72
15
 73
11
 74
0
 42
0.0000001
 43
0.0000001
 44
0.0000000001
 40
0.0
 40
0.0
 40
0.0
 40
0.0
 40
0.1017444407
 40
0.2096088461
 40
0.3245474155
 40
0.4470525223
 40
0.5769030157
 40
0.7131920169
 40
0.8546475917
 40
1.0
 40
1.0
 40
1.0
 40
1.0
 10
43.6685027076
 20
3.5387530571
 30
0.0
 10
43.6721924304
 20
3.5342340879
 30
0.0
 10
43.6800102309
 20
3.5250983665
 30
0.0
 10
43.6928071024
 20
3.5115762741
 30
0.0
 10
43.7071634339
 20
3.497927173
 30
0.0
 10
43.7231692409
 20
3.4842256022
 30
0.0
 10
43.7407787598
 20
3.4705565879
 30
0.0
 10
43.7598179332
 20
3.456992759
 30
0.0
 10
43.7800380707
 20
3.4435813396
 30
0.0
 10
43.7939776132
 20
3.4348523896
 30
0.0
 10
43.801085229
 20
3.4304998816
 30
0.0
  0
SPLINE
  5
461
100
AcDbEntity
  8
0
100
AcDbSpline
 62
7
  6
CONTINUOUS
 70
0
 71
3
 72
15
 73
11
 74
0
 42
0.0000001
 43
0.0000001
 44
0.0000000001
 40
0.0
 40
0.0
 40
0.0
 40
0.0
 40
0.1093848924
 40
0.2247529651
 40
0.3455303054
 40
0.4709316038
 40
0.5999829275
 40
0.7318632405
 40
0.865594525
 40
1.0
 40
1.0
 40
1.0
 40
1.0
 10
43.7822413508
 20
3.5414183444
 30
0.0
 10
43.7829452314
 20
3.5419923465
 30
0.0
 10
43.78428254
 20
3.5433089417
 30
0.0
 10
43.7860036845
 20
3.5456150748
 30
0.0
 10
43.7874756466
 20
3.5482400445
 30
0.0
 10
43.7886879887
 20
3.5511163166
 30
0.0
 10
43.7896341616
 20
3.5541865116
 30
0.0
 10
43.7903107867
 20
3.55739726
 30
0.0
 10
43.7907165966
 20
3.5606975162
 30
0.0
 10
43.7908070787
 20
3.5629249911
 30
0.0
 10
43.7908070787
 20
3.5640409989
 30
0.0
  0
SPLINE
  5
462
100
AcDbEntity
  8
0
100
AcDbSpline
 62
7
  6
CONTINUOUS
 70
0
 71
3
 72
45
 73
41
 74
0
 42
0.0000001
 43
0.0000001
 44
0.0000000001
 40
0.0
 40
0.0
 40
0.0
 40
0.0
 40
0.0128513267
 40
0.0257402646
 40
0.038691441
 40
0.051730823
 40
0.0648871307
 40
0.0781878531
 40
0.1053036192
 40
0.1332505709
 40
0.1621439873
 40
0.1920543393
 40
0.2230077703
 40
0.2549895349
 40
0.287948694
 40
0.3218028922
 40
0.3564428168
 40
0.3917370601
 40
0.4275370898
 40
0.4636814477
 40
0.5
 40
0.5363185523
 40
0.5724629102
 40
0.6082629399
 40
0.6435571832
 40
0.6781971078
 40
0.712051306
 40
0.7450104651
 40
0.7769922297
 40
0.8079456607
 40
0.8378560127
 40
0.8667494291
 40
0.8946963808
 40
0.9218121469
 40
0.9351128693
 40
0.948269177
 40
0.961308559
 40
0.9742597354
 40
0.9871486733
 40
1.0
 40
1.0
 40
1.0
 40
1.0
 10
43.6564567902
 20
3.1352467061
 30
0.0
 10
43.6542935573
 20
3.1352467061
 30
0.0
 10
43.649959271
 20
3.1353977068
 30
0.0
 10
43.6434767732
 20
3.1360746185
 30
0.0
 10
43.6370246228
 20
3.1372007925
 30
0.0
 10
43.6306206645
 20
3.138774334
 30
0.0
 10
43.6242800302
 20
3.1407902372
 30
0.0
 10
43.6158787012
 20
3.1440819801
 30
0.0
 10
43.6055903724
 20
3.1493099283
 30
0.0
 10
43.5938327509
 20
3.1572071921
 30
0.0
 10
43.5826888596
 20
3.1666893937
 30
0.0
 10
43.572264426
 20
3.1776619486
 30
0.0
 10
43.562656514
 20
3.1900183726
 30
0.0
 10
43.5539544977
 20
3.2036390662
 30
0.0
 10
43.5462394907
 20
3.2183933179
 30
0.0
 10
43.5395840774
 20
3.2341401476
 30
0.0
 10
43.5340509968
 20
3.2507291024
 30
0.0
 10
43.5296920829
 20
3.2680015637
 30
0.0
 10
43.5265485815
 20
3.2857925484
 30
0.0
 10
43.5246506577
 20
3.3039320829
 30
0.0
 10
43.5240160769
 20
3.3222467061
 30
0.0
 10
43.5246506577
 20
3.3405613294
 30
0.0
 10
43.5265485815
 20
3.3587008638
 30
0.0
 10
43.5296920829
 20
3.3764918486
 30
0.0
 10
43.5340509968
 20
3.3937643098
 30
0.0
 10
43.5395840774
 20
3.4103532647
 30
0.0
 10
43.5462394907
 20
3.4261000943
 30
0.0
 10
43.5539544977
 20
3.4408543461
 30
0.0
 10
43.562656514
 20
3.4544750397
 30
0.0
 10
43.572264426
 20
3.4668314637
 30
0.0
 10
43.5826888596
 20
3.4778040186
 30
0.0
 10
43.5938327509
 20
3.4872862201
 30
0.0
 10
43.6055903724
 20
3.495183484
 30
0.0
 10
43.6158787012
 20
3.5004114321
 30
0.0
 10
43.6242800302
 20
3.503703175
 30
0.0
 10
43.6306206645
 20
3.5057190783
 30
0.0
 10
43.6370246228
 20
3.5072926198
 30
0.0
 10
43.6434767732
 20
3.5084187937
 30
0.0
 10
43.649959271
 20
3.5090957054
 30
0.0
 10
43.6542935573
 20
3.5092467061
 30
0.0
 10
43.6564567902
 20
3.5092467061
 30
0.0
  0
LINE
  5
463
100
AcDbEntity
  8
0
100
AcDbLine
 62
7
  6
CONTINUOUS
 10
15.4742213153
 20
-23.8944016195
 11
15.4961213153
 21
-23.9070455904
  0
LINE
  5
464
100
AcDbEntity
  8
0
100
AcDbLine
 62
7
  6
CONTINUOUS
 10
15.2867213153
 20
-24.002654795
 11
15.2867213153
 21
-24.0279427368
  0
LINE
  5
465
100
AcDbEntity
  8
0
100
AcDbLine
 62
7
  6
CONTINUOUS
 10
15.4742213153
 20
-23.6778952685
 11
15.4961213153
 21
-23.6652512977
  0
LINE
  5
466
100
AcDbEntity
  8
0
100
AcDbLine
 62
7
  6
CONTINUOUS
 10
15.2867213153
 20
-23.5696420931
 11
15.2867213153
 21
-23.5443541513
  0
LINE
  5
467
100
AcDbEntity
  8
0
100
AcDbLine
 62
7
  6
CONTINUOUS
 10
15.0992213153
 20
-23.6778952685
 11
15.0773213153
 21
-23.6652512977
  0
LINE
  5
468
100
AcDbEntity
  8
0
100
AcDbLine
 62
7
  6
CONTINUOUS
 10
15.0992213153
 20
-23.8944016195
 11
15.0773213153
 21
-23.9070455904
  0
LINE
  5
469
100
AcDbEntity
  8
0
100
AcDbLine
 62
7
  6
CONTINUOUS
 10
15.4742213153
 20
-33.4403431655
 11
15.4961213153
 21
-33.4529871364
  0
LINE
  5
46A
100
AcDbEntity
  8
0
100
AcDbLine
 62
7
  6
CONTINUOUS
 10
15.2867213153
 20
-33.548596341
 11
15.2867213153
 21
-33.5738842828
  0
LINE
  5
46B
100
AcDbEntity
  8
0
100
AcDbLine
 62
7
  6
CONTINUOUS
 10
15.4742213153
 20
-33.2238368146
 11
15.4961213153
 21
-33.2111928437
  0
LINE
  5
46C
100
AcDbEntity
  8
0
100
AcDbLine
 62
7
  6
CONTINUOUS
 10
15.2867213153
 20
-33.1155836391
 11
15.2867213153
 21
-33.0902956973
  0
LINE
  5
46D
100
AcDbEntity
  8
0
100
AcDbLine
 62
7
  6
CONTINUOUS
 10
15.0992213153
 20
-33.2238368146
 11
15.0773213153
 21
-33.2111928437
  0
LINE
  5
46E
100
AcDbEntity
  8
0
100
AcDbLine
 62
7
  6
CONTINUOUS
 10
15.0992213153
 20
-33.4403431655
 11
15.0773213153
 21
-33.4529871364
  0
LINE
  5
46F
100
AcDbEntity
  8
0
100
AcDbLine
 62
7
  6
CONTINUOUS
 10
5.9282797693
 20
-33.4403431655
 11
5.9501797693
 21
-33.4529871364
  0
LINE
  5
470
100
AcDbEntity
  8
0
100
AcDbLine
 62
7
  6
CONTINUOUS
 10
5.7407797693
 20
-33.548596341
 11
5.7407797693
 21
-33.5738842828
  0
LINE
  5
471
100
AcDbEntity
  8
0
100
AcDbLine
 62
7
  6
CONTINUOUS
 10
5.9282797693
 20
-33.2238368146
 11
5.9501797693
 21
-33.2111928437
  0
LINE
  5
472
100
AcDbEntity
  8
0
100
AcDbLine
 62
7
  6
CONTINUOUS
 10
5.7407797693
 20
-33.1155836391
 11
5.7407797693
 21
-33.0902956973
  0
LINE
  5
473
100
AcDbEntity
  8
0
100
AcDbLine
 62
7
  6
CONTINUOUS
 10
5.5532797693
 20
-33.2238368146
 11
5.5313797693
 21
-33.2111928437
  0
LINE
  5
474
100
AcDbEntity
  8
0
100
AcDbLine
 62
7
  6
CONTINUOUS
 10
5.5532797693
 20
-33.4403431655
 11
5.5313797693
 21
-33.4529871364
  0
LINE
  5
475
100
AcDbEntity
  8
0
100
AcDbLine
 62
7
  6
CONTINUOUS
 10
5.9282797693
 20
-23.8944016195
 11
5.9501797693
 21
-23.9070455904
  0
LINE
  5
476
100
AcDbEntity
  8
0
100
AcDbLine
 62
7
  6
CONTINUOUS
 10
5.7407797693
 20
-24.002654795
 11
5.7407797693
 21
-24.0279427368
  0
LINE
  5
477
100
AcDbEntity
  8
0
100
AcDbLine
 62
7
  6
CONTINUOUS
 10
5.9282797693
 20
-23.6778952685
 11
5.9501797693
 21
-23.6652512977
  0
LINE
  5
478
100
AcDbEntity
  8
0
100
AcDbLine
 62
7
  6
CONTINUOUS
 10
5.7407797693
 20
-23.5696420931
 11
5.7407797693
 21
-23.5443541513
  0
LINE
  5
479
100
AcDbEntity
  8
0
100
AcDbLine
 62
7
  6
CONTINUOUS
 10
5.5532797693
 20
-23.6778952685
 11
5.5313797693
 21
-23.6652512977
  0
LINE
  5
47A
100
AcDbEntity
  8
0
100
AcDbLine
 62
7
  6
CONTINUOUS
 10
5.5532797693
 20
-23.8944016195
 11
5.5313797693
 21
-23.9070455904
  0
LINE
  5
47B
100
AcDbEntity
  8
0
100
AcDbLine
 62
7
  6
CONTINUOUS
 10
14.7671145341
 20
-24.6015084007
 11
14.7890145341
 21
-24.6141523716
  0
LINE
  5
47C
100
AcDbEntity
  8
0
100
AcDbLine
 62
7
  6
CONTINUOUS
 10
14.5796145341
 20
-24.7097615762
 11
14.5796145341
 21
-24.7350495179
  0
LINE
  5
47D
100
AcDbEntity
  8
0
100
AcDbLine
 62
7
  6
CONTINUOUS
 10
14.7671145341
 20
-24.3850020497
 11
14.7890145341
 21
-24.3723580788
  0
LINE
  5
47E
100
AcDbEntity
  8
0
100
AcDbLine
 62
7
  6
CONTINUOUS
 10
14.5796145341
 20
-24.2767488743
 11
14.5796145341
 21
-24.2514609325
  0
LINE
  5
47F
100
AcDbEntity
  8
0
100
AcDbLine
 62
7
  6
CONTINUOUS
 10
14.3921145341
 20
-24.3850020497
 11
14.3702145341
 21
-24.3723580788
  0
LINE
  5
480
100
AcDbEntity
  8
0
100
AcDbLine
 62
7
  6
CONTINUOUS
 10
14.3921145341
 20
-24.6015084007
 11
14.3702145341
 21
-24.6141523716
  0
LINE
  5
481
100
AcDbEntity
  8
0
100
AcDbLine
 62
7
  6
CONTINUOUS
 10
14.7671145341
 20
-32.7332363843
 11
14.7890145341
 21
-32.7458803552
  0
LINE
  5
482
100
AcDbEntity
  8
0
100
AcDbLine
 62
7
  6
CONTINUOUS
 10
14.5796145341
 20
-32.8414895598
 11
14.5796145341
 21
-32.8667775016
  0
LINE
  5
483
100
AcDbEntity
  8
0
100
AcDbLine
 62
7
  6
CONTINUOUS
 10
14.7671145341
 20
-32.5167300334
 11
14.7890145341
 21
-32.5040860625
  0
LINE
  5
484
100
AcDbEntity
  8
0
100
AcDbLine
 62
7
  6
CONTINUOUS
 10
14.5796145341
 20
-32.4084768579
 11
14.5796145341
 21
-32.3831889161
  0
LINE
  5
485
100
AcDbEntity
  8
0
100
AcDbLine
 62
7
  6
CONTINUOUS
 10
14.3921145341
 20
-32.5167300334
 11
14.3702145341
 21
-32.5040860625
  0
LINE
  5
486
100
AcDbEntity
  8
0
100
AcDbLine
 62
7
  6
CONTINUOUS
 10
14.3921145341
 20
-32.7332363843
 11
14.3702145341
 21
-32.7458803552
  0
LINE
  5
487
100
AcDbEntity
  8
0
100
AcDbLine
 62
7
  6
CONTINUOUS
 10
6.6353865504
 20
-32.7332363843
 11
6.6572865504
 21
-32.7458803552
  0
LINE
  5
488
100
AcDbEntity
  8
0
100
AcDbLine
 62
7
  6
CONTINUOUS
 10
6.4478865504
 20
-32.8414895598
 11
6.4478865504
 21
-32.8667775016
  0
LINE
  5
489
100
AcDbEntity
  8
0
100
AcDbLine
 62
7
  6
CONTINUOUS
 10
6.6353865504
 20
-32.5167300334
 11
6.6572865504
 21
-32.5040860625
  0
LINE
  5
48A
100
AcDbEntity
  8
0
100
AcDbLine
 62
7
  6
CONTINUOUS
 10
6.4478865504
 20
-32.4084768579
 11
6.4478865504
 21
-32.3831889161
  0
LINE
  5
48B
100
AcDbEntity
  8
0
100
AcDbLine
 62
7
  6
CONTINUOUS
 10
6.2603865504
 20
-32.5167300334
 11
6.2384865504
 21
-32.5040860625
  0
LINE
  5
48C
100
AcDbEntity
  8
0
100
AcDbLine
 62
7
  6
CONTINUOUS
 10
6.2603865504
 20
-32.7332363843
 11
6.2384865504
 21
-32.7458803552
  0
LINE
  5
48D
100
AcDbEntity
  8
0
100
AcDbLine
 62
7
  6
CONTINUOUS
 10
6.6353865504
 20
-24.6015084007
 11
6.6572865504
 21
-24.6141523716
  0
LINE
  5
48E
100
AcDbEntity
  8
0
100
AcDbLine
 62
7
  6
CONTINUOUS
 10
6.4478865504
 20
-24.7097615762
 11
6.4478865504
 21
-24.7350495179
  0
LINE
  5
48F
100
AcDbEntity
  8
0
100
AcDbLine
 62
7
  6
CONTINUOUS
 10
6.6353865504
 20
-24.3850020497
 11
6.6572865504
 21
-24.3723580788
  0
LINE
  5
490
100
AcDbEntity
  8
0
100
AcDbLine
 62
7
  6
CONTINUOUS
 10
6.4478865504
 20
-24.2767488743
 11
6.4478865504
 21
-24.2514609325
  0
LINE
  5
491
100
AcDbEntity
  8
0
100
AcDbLine
 62
7
  6
CONTINUOUS
 10
6.2603865504
 20
-24.3850020497
 11
6.2384865504
 21
-24.3723580788
  0
LINE
  5
492
100
AcDbEntity
  8
0
100
AcDbLine
 62
7
  6
CONTINUOUS
 10
6.2603865504
 20
-24.6015084007
 11
6.2384865504
 21
-24.6141523716
  0
SPLINE
  5
493
100
AcDbEntity
  8
0
100
AcDbSpline
 62
7
  6
CONTINUOUS
 70
0
 71
3
 72
15
 73
11
 74
0
 42
0.0000001
 43
0.0000001
 44
0.0000000001
 40
0.0
 40
0.0
 40
0.0
 40
0.0
 40
0.1252146822
 40
0.2499116931
 40
0.3743170529
 40
0.498661262
 40
0.6231754954
 40
0.7480888588
 40
0.8736249174
 40
1.0
 40
1.0
 40
1.0
 40
1.0
 10
9.4400264124
 20
-27.7250922854
 30
0.0
 10
9.4348604616
 20
-27.7309664067
 30
0.0
 10
9.4248970644
 20
-27.7430012119
 30
0.0
 10
9.4110918816
 20
-27.7618931004
 30
0.0
 10
9.3984896642
 20
-27.7815443943
 30
0.0
 10
9.3871148153
 20
-27.8019174187
 30
0.0
 10
9.3769884728
 20
-27.8229741017
 30
0.0
 10
9.3681295669
 20
-27.8446751269
 30
0.0
 10
9.3605548052
 20
-27.8669787646
 30
0.0
 10
9.3563859406
 20
-27.8821654367
 30
0.0
 10
9.3545189927
 20
-27.8898365698
 30
0.0
  0
SPLINE
  5
494
100
AcDbEntity
  8
0
100
AcDbSpline
 62
7
  6
CONTINUOUS
 70
0
 71
3
 72
15
 73
11
 74
0
 42
0.0000001
 43
0.0000001
 44
0.0000000001
 40
0.0
 40
0.0
 40
0.0
 40
0.0
 40
0.1261099833
 40
0.2512738785
 40
0.3757984041
 40
0.5
 40
0.6242015959
 40
0.7487261215
 40
0.8738900167
 40
1.0
 40
1.0
 40
1.0
 40
1.0
 10
9.3545189927
 20
-27.8898365698
 30
0.0
 10
9.3477636976
 20
-27.8962871848
 30
0.0
 10
9.3347429016
 20
-27.9096097838
 30
0.0
 10
9.316726727
 20
-27.9308557421
 30
0.0
 10
9.3003570718
 20
-27.9532219806
 30
0.0
 10
9.2856786122
 20
-27.9766485277
 30
0.0
 10
9.2727298571
 20
-28.0010737201
 30
0.0
 10
9.261544954
 20
-28.0264333766
 30
0.0
 10
9.2521535017
 20
-28.0526588207
 30
0.0
 10
9.2471261905
 20
-28.0705964602
 30
0.0
 10
9.2449174416
 20
-28.0796720249
 30
0.0
  0
ELLIPSE
  5
495
100
AcDbEntity
  8
0
100
AcDbEllipse
 62
7
  6
CONTINUOUS
 10
9.8379501448
 20
-28.1689456756
 30
0.0
 11
0.0775
 21
0.1342339376
 31
0.0
 40
0.0524077793
 41
-3.1415926536
 42
0.0
  0
ELLIPSE
  5
496
100
AcDbEntity
  8
0
100
AcDbEllipse
 62
7
  6
CONTINUOUS
 10
10.6176747239
 20
-28.3791172543
 30
0.0
 11
0.312026085
 21
0.5404450325
 31
0.0
 40
0.942904759
 41
1.5031998078
 42
1.5662361117
  0
ELLIPSE
  5
497
100
AcDbEntity
  8
0
100
AcDbEllipse
 62
7
  6
CONTINUOUS
 10
10.4098263606
 20
-28.7391211798
 30
0.0
 11
0.312026085
 21
0.5404450325
 31
0.0
 40
0.942904759
 41
-4.7078287653
 42
-4.6447924614
  0
ENDSEC
  0
SECTION
  2
OBJECTS
  0
DICTIONARY
  5
C
100
AcDbDictionary
280
0
281
1
  3
ACAD_GROUP
350
D
  3
ACAD_MLINESTYLE
350
17
  3
ACAD_LAYOUT
350
1A
  3
ACAD_PLOTSETTINGS
350
19
  3
ACAD_PLOTSTYLENAME
350
E
  0
DICTIONARY
  5
D
102
{ACAD_REACTORS
330
C
102
}
100
AcDbDictionary
280
0
281
1
  0
ACDBDICTIONARYWDFLT
  5
E
102
{ACAD_REACTORS
330
C
102
}
100
AcDbDictionary
281
1
  3
Normal
350
F
100
AcDbDictionaryWithDefault
340
F
  0
DICTIONARY
  5
17
102
{ACAD_REACTORS
330
C
102
}
100
AcDbDictionary
280
0
281
1
  3
Standard
350
18
  0
DICTIONARY
  5
19
102
{ACAD_REACTORS
330
C
102
}
100
AcDbDictionary
281
1
  0
DICTIONARY
  5
1A
102
{ACAD_REACTORS
330
C
102
}
100
AcDbDictionary
281
1
  3
Model
350
498
  3
Layout1
350
499
  0
ACDBPLACEHOLDER
  5
F
102
{ACAD_REACTORS
330
E
102
}
  0
MLINESTYLE
  5
18
102
{ACAD_REACTORS
330
17
102
}
100
AcDbMlineStyle
  2
STANDARD
 70
0
  3

 62
256
 51
90.0
 52
90.0
 71
2
 49
0.5
 62
256
  6
BYLAYER
 49
-0.5
 62
256
  6
BYLAYER
  0
LAYOUT
  5
498
102
{ACAD_REACTORS
330
1A
102
}
100
AcDbPlotSettings
  1

  2
none_device
  4

  6

 40
0.0
 41
0.0
 42
0.0
 43
0.0
 44
431.8
 45
279.4
 46
0.0
 47
0.0
 48
0.0
 49
0.0
140
0.0
141
0.0
142
1.0
143
1.0
 70
1024
 72
0
 73
0
 74
0
  7

 75
0
147
1.0
148
0.0
149
0.0
100
AcDbLayout
  1
Model
 70
0
 71
0
 10
0.0
 20
0.0
 11
17.0
 21
11.0
 12
0.0
 22
0.0
 32
0.0
 14
0.0
 24
0.0
 34
0.0
 15
0.0
 25
0.0
 35
0.0
146
0.0
 13
0.0
 23
0.0
 33
0.0
 16
1.0
 26
0.0
 36
0.0
 17
0.0
 27
1.0
 37
0.0
 76
0
330
239
345
0
346
0
  0
LAYOUT
  5
499
102
{ACAD_REACTORS
330
1A
102
}
100
AcDbPlotSettings
  1

  2
none_device
  4

  6

 40
0.0
 41
0.0
 42
0.0
 43
0.0
 44
431.8
 45
279.4
 46
0.0
 47
0.0
 48
0.0
 49
0.0
140
0.0
141
0.0
142
1.0
143
1.0
 70
0
 72
0
 73
0
 74
0
  7

 75
0
147
1.0
148
0.0
149
0.0
100
AcDbLayout
  1
Layout1
 70
0
 71
1
 10
0.0
 20
0.0
 11
17.0
 21
11.0
 12
0.0
 22
0.0
 32
0.0
 14
0.0
 24
0.0
 34
0.0
 15
0.0
 25
0.0
 35
0.0
146
0.0
 13
0.0
 23
0.0
 33
0.0
 16
1.0
 26
0.0
 36
0.0
 17
0.0
 27
1.0
 37
0.0
 76
0
330
23A
345
0
346
0
  0
ENDSEC
  0
EOF
