999
DXF file: N:\Master\master\M3_ProE_files\Lenexa\MADAM DXF\47401.dxf
999
Pro/ENGINEER 2010280 by Parametric Technology Corporation
  0
SECTION
  2
HEADER
  9
$ACADVER
  1
AC1021
  9
$DWGCODEPAGE
  3
ANSI_1252
  9
$EXTMAX
 10
17.0
 20
11.0
 30
0.0
  9
$EXTMIN
 10
0.0
 20
-0.0
 30
0.0
  9
$LIMMIN
 10
0.0
 20
-0.0
  9
$LIMMAX
 10
17.0
 20
11.0
  9
$VIEWCTR
 10
8.5
 20
5.5
  9
$VIEWSIZE
 40
11.0
  9
$CLAYER
  8
0
  9
$LTSCALE
 40
0.935
  9
$CELTYPE
  6
BYLAYER
  9
$DIMSCALE
 40
1.0
  9
$DIMASZ
 40
0.125
  9
$DIMEXO
 40
0.10625
  9
$DIMDLI
 40
0.646
  9
$DIMEXE
 40
0.306
  9
$DIMCEN
 40
0.153
  9
$DIMLFAC
 40
1.0
  9
$DIMBLK
  1
_FILLED
  9
$DIMTXT
 40
0.15625
  9
$DIMTOL
 70
1
  9
$DIMLIM
 70
0
  9
$DIMTFAC
 40
1.0
  9
$DIMTP
 40
0.7
  9
$DIMTM
 40
0.7
  9
$PDMODE
 70
3
  9
$PDSIZE
 40
0.3125
  9
$HANDSEED
  5
47B
  9
$TILEMODE
 70
1
  9
$MEASUREMENT
 70
0
  9
$INSUNITS
 70
1
  0
ENDSEC
  0
SECTION
  2
CLASSES
  0
CLASS
  1
ACDBDICTIONARYWDFLT
  2
AcDbDictionaryWithDefault
  3
AutoCAD 2000
 90
0
 91
1
280
0
281
0
  0
CLASS
  1
ACDBPLACEHOLDER
  2
AcDbPlaceHolder
  3
AutoCAD 2000
 90
0
 91
1
280
0
281
0
  0
CLASS
  1
LAYOUT
  2
AcDbLayout
  3
AutoCAD 2000
 90
0
 91
0
280
0
281
0
  0
ENDSEC
  0
SECTION
  2
TABLES
  0
TABLE
  2
VPORT
  5
8
100
AcDbSymbolTable
 70
2
  0
VPORT
  5
1F4
100
AcDbSymbolTableRecord
100
AcDbViewportTableRecord
  2
*ACTIVE
 70
0
 10
0.0
 20
0.0
 11
1.0
 21
1.0
 12
8.5
 22
5.5
 13
0.0
 23
0.0
 14
1.0
 24
1.0
 15
0.0
 25
0.0
 16
0.0
 26
0.0
 36
1.0
 17
0.0
 27
0.0
 37
0.0
 40
11.0
 41
1.5454545455
 42
50.0
 43
0.0
 44
0.0
 50
0.0
 51
0.0
 71
0
 72
100
 73
1
 74
1
 75
0
 76
0
 77
0
 78
0
  0
ENDTAB
  0
TABLE
  2
LTYPE
  5
5
100
AcDbSymbolTable
 70
6
  0
LTYPE
  5
14
100
AcDbSymbolTableRecord
100
AcDbLinetypeTableRecord
  2
BYBLOCK
 70
0
  3

 72
65
 73
0
 40
0.0
  0
LTYPE
  5
15
100
AcDbSymbolTableRecord
100
AcDbLinetypeTableRecord
  2
BYLAYER
 70
0
  3

 72
65
 73
0
 40
0.0
  0
LTYPE
  5
16
100
AcDbSymbolTableRecord
100
AcDbLinetypeTableRecord
  2
CONTINUOUS
 70
64
  3
Solid line
 72
65
 73
0
 40
0.0
  0
LTYPE
  5
1F5
100
AcDbSymbolTableRecord
100
AcDbLinetypeTableRecord
  2
CENTER
 70
64
  3
____ _ ____ _ ____ _ ____ _ ____ _ ____ _ ____
 72
65
 73
4
 40
0.6
 49
0.375
 74
0
 49
-0.075
 74
0
 49
0.075
 74
0
 49
-0.075
 74
0
  0
LTYPE
  5
1F6
100
AcDbSymbolTableRecord
100
AcDbLinetypeTableRecord
  2
HIDDEN
 70
64
  3
- - - - - - - - - - - - - - - - - - - -
 72
65
 73
2
 40
0.2
 49
0.1
 74
0
 49
-0.1
 74
0
  0
LTYPE
  5
1F7
100
AcDbSymbolTableRecord
100
AcDbLinetypeTableRecord
  2
PHANTOM
 70
64
  3
_____ _ _ _____ _ _ _____ _ _ _____
 72
65
 73
6
 40
0.8
 49
0.45
 74
0
 49
-0.05
 74
0
 49
0.1
 74
0
 49
-0.05
 74
0
 49
0.1
 74
0
 49
-0.05
 74
0
  0
LTYPE
  5
1F8
100
AcDbSymbolTableRecord
100
AcDbLinetypeTableRecord
  2
DOT
 70
64
  3
. . . . . . . . . . . . . . . . . . . .
 72
65
 73
2
 40
0.2
 49
0.1
 74
0
 49
-0.1
 74
0
  0
LTYPE
  5
1F9
100
AcDbSymbolTableRecord
100
AcDbLinetypeTableRecord
  2
DASHED
 70
64
  3
- - - - - - - - - - - - - - - - - - - -
 72
65
 73
2
 40
0.2
 49
0.1
 74
0
 49
-0.1
 74
0
  0
ENDTAB
  0
TABLE
  2
LAYER
  5
2
100
AcDbSymbolTable
 70
36
  0
LAYER
  5
10
100
AcDbSymbolTableRecord
100
AcDbLayerTableRecord
  2
0
 70
0
 62
7
  6
CONTINUOUS
370
-3
390
F
  0
LAYER
  5
1FA
100
AcDbSymbolTableRecord
100
AcDbLayerTableRecord
  2
DEFAULT_1
 70
0
 62
7
  6
CENTER
370
-3
390
F
  0
LAYER
  5
1FB
100
AcDbSymbolTableRecord
100
AcDbLayerTableRecord
  2
DEFAULT_2
 70
0
 62
8
  6
HIDDEN
370
-3
390
F
  0
LAYER
  5
1FC
100
AcDbSymbolTableRecord
100
AcDbLayerTableRecord
  2
DEFAULT_3
 70
0
 62
7
  6
PHANTOM
370
-3
390
F
  0
LAYER
  5
1FD
100
AcDbSymbolTableRecord
100
AcDbLayerTableRecord
  2
01_ALL_DTM_PLN
 70
0
 62
7
  6
CONTINUOUS
370
-3
390
F
  0
LAYER
  5
1FE
100
AcDbSymbolTableRecord
100
AcDbLayerTableRecord
  2
01__ASM_ALL_DTM_PLN
 70
0
 62
7
  6
CONTINUOUS
370
-3
390
F
  0
LAYER
  5
1FF
100
AcDbSymbolTableRecord
100
AcDbLayerTableRecord
  2
01__ASM_DEF_DTM_PLN
 70
0
 62
7
  6
CONTINUOUS
370
-3
390
F
  0
LAYER
  5
200
100
AcDbSymbolTableRecord
100
AcDbLayerTableRecord
  2
01___PRT_ALL_DTM_PLN
 70
0
 62
7
  6
CONTINUOUS
370
-3
390
F
  0
LAYER
  5
201
100
AcDbSymbolTableRecord
100
AcDbLayerTableRecord
  2
01___PRT_DEF_DTM_PLN
 70
0
 62
7
  6
CONTINUOUS
370
-3
390
F
  0
LAYER
  5
202
100
AcDbSymbolTableRecord
100
AcDbLayerTableRecord
  2
02_ALL_AXES
 70
0
 62
7
  6
CONTINUOUS
370
-3
390
F
  0
LAYER
  5
203
100
AcDbSymbolTableRecord
100
AcDbLayerTableRecord
  2
02__ASM_ALL_AXES
 70
0
 62
7
  6
CONTINUOUS
370
-3
390
F
  0
LAYER
  5
204
100
AcDbSymbolTableRecord
100
AcDbLayerTableRecord
  2
02___PRT_ALL_AXES
 70
0
 62
7
  6
CONTINUOUS
370
-3
390
F
  0
LAYER
  5
205
100
AcDbSymbolTableRecord
100
AcDbLayerTableRecord
  2
03_ALL_CURVES
 70
0
 62
7
  6
CONTINUOUS
370
-3
390
F
  0
LAYER
  5
206
100
AcDbSymbolTableRecord
100
AcDbLayerTableRecord
  2
03__ASM_ALL_CURVES
 70
0
 62
7
  6
CONTINUOUS
370
-3
390
F
  0
LAYER
  5
207
100
AcDbSymbolTableRecord
100
AcDbLayerTableRecord
  2
03___PRT_ALL_CURVES
 70
0
 62
7
  6
CONTINUOUS
370
-3
390
F
  0
LAYER
  5
208
100
AcDbSymbolTableRecord
100
AcDbLayerTableRecord
  2
04_ALL_DTM_PNT
 70
0
 62
7
  6
CONTINUOUS
370
-3
390
F
  0
LAYER
  5
209
100
AcDbSymbolTableRecord
100
AcDbLayerTableRecord
  2
04__ASM_ALL_DTM_PNT
 70
0
 62
7
  6
CONTINUOUS
370
-3
390
F
  0
LAYER
  5
20A
100
AcDbSymbolTableRecord
100
AcDbLayerTableRecord
  2
04___PRT_ALL_DTM_PNT
 70
0
 62
7
  6
CONTINUOUS
370
-3
390
F
  0
LAYER
  5
20B
100
AcDbSymbolTableRecord
100
AcDbLayerTableRecord
  2
05_ALL_DTM_CSYS
 70
0
 62
7
  6
CONTINUOUS
370
-3
390
F
  0
LAYER
  5
20C
100
AcDbSymbolTableRecord
100
AcDbLayerTableRecord
  2
05__ASM_ALL_DTM_CSYS
 70
0
 62
7
  6
CONTINUOUS
370
-3
390
F
  0
LAYER
  5
20D
100
AcDbSymbolTableRecord
100
AcDbLayerTableRecord
  2
05__ASM_DEF_DTM_CSYS
 70
0
 62
7
  6
CONTINUOUS
370
-3
390
F
  0
LAYER
  5
20E
100
AcDbSymbolTableRecord
100
AcDbLayerTableRecord
  2
05___PRT_ALL_DTM_CSYS
 70
0
 62
7
  6
CONTINUOUS
370
-3
390
F
  0
LAYER
  5
20F
100
AcDbSymbolTableRecord
100
AcDbLayerTableRecord
  2
05___PRT_DEF_DTM_CSYS
 70
0
 62
7
  6
CONTINUOUS
370
-3
390
F
  0
LAYER
  5
210
100
AcDbSymbolTableRecord
100
AcDbLayerTableRecord
  2
06_ALL_SURFS
 70
0
 62
7
  6
CONTINUOUS
370
-3
390
F
  0
LAYER
  5
211
100
AcDbSymbolTableRecord
100
AcDbLayerTableRecord
  2
06__ASM_ALL_SURFS
 70
0
 62
7
  6
CONTINUOUS
370
-3
390
F
  0
LAYER
  5
212
100
AcDbSymbolTableRecord
100
AcDbLayerTableRecord
  2
06___PRT_ALL_SURFS
 70
0
 62
7
  6
CONTINUOUS
370
-3
390
F
  0
LAYER
  5
213
100
AcDbSymbolTableRecord
100
AcDbLayerTableRecord
  2
07__ASM_ALL_SKELETONS
 70
0
 62
7
  6
CONTINUOUS
370
-3
390
F
  0
LAYER
  5
214
100
AcDbSymbolTableRecord
100
AcDbLayerTableRecord
  2
904PLANES
 70
0
 62
7
  6
CONTINUOUS
370
-3
390
F
  0
LAYER
  5
215
100
AcDbSymbolTableRecord
100
AcDbLayerTableRecord
  2
90517DTMS
 70
0
 62
7
  6
CONTINUOUS
370
-3
390
F
  0
LAYER
  5
216
100
AcDbSymbolTableRecord
100
AcDbLayerTableRecord
  2
AXIS
 70
0
 62
7
  6
CONTINUOUS
370
-3
390
F
  0
LAYER
  5
217
100
AcDbSymbolTableRecord
100
AcDbLayerTableRecord
  2
BAFFLE_DTMS
 70
0
 62
7
  6
CONTINUOUS
370
-3
390
F
  0
LAYER
  5
218
100
AcDbSymbolTableRecord
100
AcDbLayerTableRecord
  2
BD_ANGLE
 70
0
 62
7
  6
CONTINUOUS
370
-3
390
F
  0
LAYER
  5
219
100
AcDbSymbolTableRecord
100
AcDbLayerTableRecord
  2
CONDUIT_DTMS
 70
0
 62
7
  6
CONTINUOUS
370
-3
390
F
  0
LAYER
  5
21A
100
AcDbSymbolTableRecord
100
AcDbLayerTableRecord
  2
CS
 70
0
 62
7
  6
CONTINUOUS
370
-3
390
F
  0
LAYER
  5
21B
100
AcDbSymbolTableRecord
100
AcDbLayerTableRecord
  2
CSYS
 70
0
 62
7
  6
CONTINUOUS
370
-3
390
F
  0
LAYER
  5
21C
100
AcDbSymbolTableRecord
100
AcDbLayerTableRecord
  2
CURVE
 70
0
 62
7
  6
CONTINUOUS
370
-3
390
F
  0
LAYER
  5
21D
100
AcDbSymbolTableRecord
100
AcDbLayerTableRecord
  2
CURVES
 70
0
 62
7
  6
CONTINUOUS
370
-3
390
F
  0
LAYER
  5
21E
100
AcDbSymbolTableRecord
100
AcDbLayerTableRecord
  2
DATUM_PLANES
 70
0
 62
7
  6
CONTINUOUS
370
-3
390
F
  0
LAYER
  5
21F
100
AcDbSymbolTableRecord
100
AcDbLayerTableRecord
  2
DEF_DTMS
 70
0
 62
7
  6
CONTINUOUS
370
-3
390
F
  0
LAYER
  5
220
100
AcDbSymbolTableRecord
100
AcDbLayerTableRecord
  2
GENPLANES
 70
0
 62
7
  6
CONTINUOUS
370
-3
390
F
  0
LAYER
  5
221
100
AcDbSymbolTableRecord
100
AcDbLayerTableRecord
  2
HEAD
 70
0
 62
7
  6
CONTINUOUS
370
-3
390
F
  0
LAYER
  5
222
100
AcDbSymbolTableRecord
100
AcDbLayerTableRecord
  2
HUB_DTMS
 70
0
 62
7
  6
CONTINUOUS
370
-3
390
F
  0
LAYER
  5
223
100
AcDbSymbolTableRecord
100
AcDbLayerTableRecord
  2
IGES_ITEMS
 70
0
 62
7
  6
CONTINUOUS
370
-3
390
F
  0
LAYER
  5
224
100
AcDbSymbolTableRecord
100
AcDbLayerTableRecord
  2
IGS_ITEMS
 70
0
 62
7
  6
CONTINUOUS
370
-3
390
F
  0
LAYER
  5
225
100
AcDbSymbolTableRecord
100
AcDbLayerTableRecord
  2
INTF_1
 70
0
 62
7
  6
CONTINUOUS
370
-3
390
F
  0
LAYER
  5
226
100
AcDbSymbolTableRecord
100
AcDbLayerTableRecord
  2
J_BOX_ANGLE
 70
0
 62
7
  6
CONTINUOUS
370
-3
390
F
  0
LAYER
  5
227
100
AcDbSymbolTableRecord
100
AcDbLayerTableRecord
  2
LAY0001
 70
0
 62
7
  6
CONTINUOUS
370
-3
390
F
  0
LAYER
  5
228
100
AcDbSymbolTableRecord
100
AcDbLayerTableRecord
  2
MTR_HOLE_ANG_DTM
 70
0
 62
7
  6
CONTINUOUS
370
-3
390
F
  0
LAYER
  5
229
100
AcDbSymbolTableRecord
100
AcDbLayerTableRecord
  2
NEW
 70
0
 62
7
  6
CONTINUOUS
370
-3
390
F
  0
LAYER
  5
22A
100
AcDbSymbolTableRecord
100
AcDbLayerTableRecord
  2
PARTDTMS
 70
0
 62
7
  6
CONTINUOUS
370
-3
390
F
  0
LAYER
  5
22B
100
AcDbSymbolTableRecord
100
AcDbLayerTableRecord
  2
PLANE
 70
0
 62
7
  6
CONTINUOUS
370
-3
390
F
  0
LAYER
  5
22C
100
AcDbSymbolTableRecord
100
AcDbLayerTableRecord
  2
PLANES
 70
0
 62
7
  6
CONTINUOUS
370
-3
390
F
  0
LAYER
  5
22D
100
AcDbSymbolTableRecord
100
AcDbLayerTableRecord
  2
POINT
 70
0
 62
7
  6
CONTINUOUS
370
-3
390
F
  0
LAYER
  5
22E
100
AcDbSymbolTableRecord
100
AcDbLayerTableRecord
  2
ROUND
 70
0
 62
7
  6
CONTINUOUS
370
-3
390
F
  0
LAYER
  5
22F
100
AcDbSymbolTableRecord
100
AcDbLayerTableRecord
  2
STANDOFF_DTMS
 70
0
 62
7
  6
CONTINUOUS
370
-3
390
F
  0
LAYER
  5
230
100
AcDbSymbolTableRecord
100
AcDbLayerTableRecord
  2
STIFF_ANGLE
 70
0
 62
7
  6
CONTINUOUS
370
-3
390
F
  0
LAYER
  5
231
100
AcDbSymbolTableRecord
100
AcDbLayerTableRecord
  2
SURFACE
 70
0
 62
7
  6
CONTINUOUS
370
-3
390
F
  0
LAYER
  5
232
100
AcDbSymbolTableRecord
100
AcDbLayerTableRecord
  2
TOP_SURFACE
 70
0
 62
7
  6
CONTINUOUS
370
-3
390
F
  0
LAYER
  5
233
100
AcDbSymbolTableRecord
100
AcDbLayerTableRecord
  2
WITNESS
 70
0
 62
7
  6
CONTINUOUS
370
-3
390
F
  0
LAYER
  5
234
100
AcDbSymbolTableRecord
100
AcDbLayerTableRecord
  2
XSEC_DATUMS
 70
0
 62
7
  6
CONTINUOUS
370
-3
390
F
  0
ENDTAB
  0
TABLE
  2
STYLE
  5
3
100
AcDbSymbolTable
 70
1
  0
STYLE
  5
11
100
AcDbSymbolTableRecord
100
AcDbTextStyleTableRecord
  2
STANDARD
 70
0
 40
0.0
 41
0.8
 50
0.0
 71
0
 42
0.2
  3
txt
  4

  0
STYLE
  5
235
100
AcDbSymbolTableRecord
100
AcDbTextStyleTableRecord
  2
TEXTSTYLE_1
 70
0
 40
0.0
 41
0.8
 50
0.0
 71
0
 42
0.2
  3
gdt
  4

  0
ENDTAB
  0
TABLE
  2
VIEW
  5
6
100
AcDbSymbolTable
 70
0
  0
ENDTAB
  0
TABLE
  2
UCS
  5
7
100
AcDbSymbolTable
 70
0
  0
ENDTAB
  0
TABLE
  2
APPID
  5
9
100
AcDbSymbolTable
 70
1
  0
APPID
  5
236
100
AcDbSymbolTableRecord
100
AcDbRegAppTableRecord
  2
ACAD
 70
0
  0
ENDTAB
  0
TABLE
  2
BLOCK_RECORD
  5
1
100
AcDbSymbolTable
 70
0
  0
BLOCK_RECORD
  5
237
100
AcDbSymbolTableRecord
100
AcDbBlockTableRecord
  2
*Model_Space
  0
BLOCK_RECORD
  5
238
100
AcDbSymbolTableRecord
100
AcDbBlockTableRecord
  2
*Paper_Space
  0
ENDTAB
  0
TABLE
  2
DIMSTYLE
  5
A
100
AcDbSymbolTable
 70
1
100
AcDbDimStyleTable
 71
0
  0
DIMSTYLE
105
239
100
AcDbSymbolTableRecord
100
AcDbDimStyleTableRecord
  2
STANDARD
 70
0
  3

  4

 40
1.0
 41
0.125
 42
0.0625
 43
0.38
 44
0.18
 45
0.0
 46
0.0
 47
0.7
 48
0.7
140
0.15625
141
0.09
142
0.0
143
25.4
144
1.0
145
0.0
146
1.0
147
0.09
 71
1.0
 72
0.0
 73
1
 74
1
 75
0
 76
0
 77
0
 78
4
170
0
171
2
172
0
173
0
174
0
175
0
176
0
177
0
178
0
270
2
271
2
272
2
273
2
274
2
275
0
280
0
281
0
282
0
283
1
284
4
285
0
286
0
287
3
288
0
340
11
  0
ENDTAB
  0
ENDSEC
  0
SECTION
  2
BLOCKS
  0
BLOCK
  5
20
100
AcDbEntity
  8
0
100
AcDbBlockBegin
  2
*Model_Space
 70
0
 10
0.0
 20
0.0
 30
0.0
  3
*Model_Space
  1

  0
ENDBLK
  5
21
100
AcDbEntity
  8
0
100
AcDbBlockEnd
  0
BLOCK
  5
1C
100
AcDbEntity
  8
0
100
AcDbBlockBegin
  2
*Paper_Space
 70
0
 10
0.0
 20
0.0
 30
0.0
  3
*Paper_Space
  1

  0
ENDBLK
  5
1D
100
AcDbEntity
  8
0
100
AcDbBlockEnd
  0
ENDSEC
  0
SECTION
  2
ENTITIES
  0
MTEXT
  5
23A
100
AcDbEntity
  8
0
100
AcDbMText
 62
2
  6
CONTINUOUS
  7
STANDARD
 71
1
 72
1
 10
36.3069204885
 20
-30.4532295849
 30
0.0
 11
1.0
 21
0.0
 31
0.0
 44
0.9
  1
47401
 40
4.0
 41
16.0
  0
LINE
  5
23B
100
AcDbEntity
  8
0
100
AcDbLine
 62
3
  6
CONTINUOUS
 10
-11.6096267
 20
-2.5279075779
 11
-11.6096267
 21
-3.9079075779
  0
LINE
  5
23C
100
AcDbEntity
  8
0
100
AcDbLine
 62
7
  6
CONTINUOUS
 10
-11.5496267
 20
-2.5279075779
 11
-11.5496267
 21
-3.9079075779
  0
LINE
  5
23D
100
AcDbEntity
  8
0
100
AcDbLine
 62
3
  6
CONTINUOUS
 10
-11.4896267
 20
-2.4079075779
 11
-11.4896267
 21
-3.9079075779
  0
LINE
  5
23E
100
AcDbEntity
  8
0
100
AcDbLine
 62
3
  6
CONTINUOUS
 10
-12.81383188
 20
2.8330924221
 11
-10.6449259225
 21
8.7921125654
  0
LINE
  5
23F
100
AcDbEntity
  8
0
100
AcDbLine
 62
7
  6
CONTINUOUS
 10
-9.6402333017
 20
-2.3404075779
 11
-9.6402333017
 21
-2.4079075779
  0
LINE
  5
240
100
AcDbEntity
  8
0
100
AcDbLine
 62
3
  6
CONTINUOUS
 10
-9.3002333017
 20
-2.3404075779
 11
-9.3002333017
 21
2.3270924221
  0
LINE
  5
241
100
AcDbEntity
  8
0
100
AcDbLine
 62
3
  6
CONTINUOUS
 10
-8.2353869913
 20
9.7790823504
 11
-6.0904994034
 21
15.6721125654
  0
LINE
  5
242
100
AcDbEntity
  8
0
100
AcDbLine
 62
3
  6
CONTINUOUS
 10
-8.2236760328
 20
-2.3404075779
 11
-8.2236760328
 21
2.3270924221
  0
LINE
  5
243
100
AcDbEntity
  8
0
100
AcDbLine
 62
7
  6
CONTINUOUS
 10
-7.5323407314
 20
9.5150924221
 11
-7.5323407314
 21
9.4500924221
  0
LINE
  5
244
100
AcDbEntity
  8
0
100
AcDbLine
 62
7
  6
CONTINUOUS
 10
-7.4373333979
 20
9.5150924221
 11
-7.4373333979
 21
9.6950924221
  0
LINE
  5
245
100
AcDbEntity
  8
0
100
AcDbLine
 62
7
  6
CONTINUOUS
 10
-7.3123370647
 20
9.5150924221
 11
-7.3123370647
 21
9.6950924221
  0
LINE
  5
246
100
AcDbEntity
  8
0
100
AcDbLine
 62
7
  6
CONTINUOUS
 10
14.6091600966
 20
-3.9079075779
 11
14.5491600966
 21
-3.9079075779
  0
LINE
  5
247
100
AcDbEntity
  8
0
100
AcDbLine
 62
7
  6
CONTINUOUS
 10
-11.6096267
 20
-3.9079075779
 11
-11.5496267
 21
-3.9079075779
  0
LINE
  5
248
100
AcDbEntity
  8
0
100
AcDbLine
 62
3
  6
CONTINUOUS
 10
14.4891600966
 20
-3.9079075779
 11
-11.4896267
 21
-3.9079075779
  0
LINE
  5
249
100
AcDbEntity
  8
0
100
AcDbLine
 62
7
  6
CONTINUOUS
 10
-7.1402333017
 20
-2.3404075779
 11
-7.1402333017
 21
-2.4029075779
  0
LINE
  5
24A
100
AcDbEntity
  8
0
100
AcDbLine
 62
7
  6
CONTINUOUS
 10
-7.0623443981
 20
9.5150924221
 11
-7.0623443981
 21
9.6950924221
  0
LINE
  5
24B
100
AcDbEntity
  8
0
100
AcDbLine
 62
7
  6
CONTINUOUS
 10
-7.0402333017
 20
-2.4029075779
 11
-7.0402333017
 21
-2.3979075779
  0
LINE
  5
24C
100
AcDbEntity
  8
0
100
AcDbLine
 62
7
  6
CONTINUOUS
 10
-6.9373480648
 20
9.5150924221
 11
-6.9373480648
 21
9.6950924221
  0
LINE
  5
24D
100
AcDbEntity
  8
0
100
AcDbLine
 62
7
  6
CONTINUOUS
 10
-6.8902333017
 20
-2.4079075779
 11
-6.8902333017
 21
-2.4029075779
  0
LINE
  5
24E
100
AcDbEntity
  8
0
100
AcDbLine
 62
7
  6
CONTINUOUS
 10
-6.8902333017
 20
-2.3979075779
 11
-6.8902333017
 21
-2.3579075779
  0
LINE
  5
24F
100
AcDbEntity
  8
0
100
AcDbLine
 62
7
  6
CONTINUOUS
 10
-6.8423407314
 20
9.5150924221
 11
-6.8423407314
 21
9.4500924221
  0
LINE
  5
250
100
AcDbEntity
  8
0
100
AcDbLine
 62
3
  6
CONTINUOUS
 10
-5.8084339689
 20
-2.3979075779
 11
-5.8084339689
 21
2.3270924221
  0
LINE
  5
251
100
AcDbEntity
  8
0
100
AcDbLine
 62
7
  6
CONTINUOUS
 10
-5.7902333017
 20
-2.4029075779
 11
-5.7902333017
 21
-2.3979075779
  0
LINE
  5
252
100
AcDbEntity
  8
0
100
AcDbLine
 62
7
  6
CONTINUOUS
 10
-5.7815919015
 20
-2.4079075779
 11
-5.7815919015
 21
2.3270924221
  0
LINE
  5
253
100
AcDbEntity
  8
0
100
AcDbLine
 62
3
  6
CONTINUOUS
 10
-11.4896267
 20
-2.4079075779
 11
14.4891600966
 21
-2.4079075779
  0
LINE
  5
254
100
AcDbEntity
  8
0
100
AcDbLine
 62
7
  6
CONTINUOUS
 10
-7.0402333017
 20
-2.3979075779
 11
-5.7902333017
 21
-2.3979075779
  0
LINE
  5
255
100
AcDbEntity
  8
0
100
AcDbLine
 62
7
  6
CONTINUOUS
 10
-7.1402333017
 20
-2.3579075779
 11
-6.8902333017
 21
-2.3579075779
  0
LINE
  5
256
100
AcDbEntity
  8
0
100
AcDbLine
 62
7
  6
CONTINUOUS
 10
-7.1402333017
 20
-2.3404075779
 11
-9.6402333017
 21
-2.3404075779
  0
LINE
  5
257
100
AcDbEntity
  8
0
100
AcDbLine
 62
3
  6
CONTINUOUS
 10
-6.1067970537
 20
-1.7269075779
 11
-6.2358240197
 21
-1.7269075779
  0
LINE
  5
258
100
AcDbEntity
  8
0
100
AcDbLine
 62
3
  6
CONTINUOUS
 10
9.0691492987
 20
-1.7269075779
 11
9.1982103093
 21
-1.7269075779
  0
LINE
  5
259
100
AcDbEntity
  8
0
100
AcDbLine
 62
3
  6
CONTINUOUS
 10
-6.2358240197
 20
-1.5289075779
 11
-6.1067970537
 21
-1.5289075779
  0
LINE
  5
25A
100
AcDbEntity
  8
0
100
AcDbLine
 62
3
  6
CONTINUOUS
 10
9.0691492987
 20
-1.5289075779
 11
9.1982103093
 21
-1.5289075779
  0
LINE
  5
25B
100
AcDbEntity
  8
0
100
AcDbLine
 62
3
  6
CONTINUOUS
 10
-6.1075123767
 20
1.7730924221
 11
-6.2351215023
 21
1.7730924221
  0
LINE
  5
25C
100
AcDbEntity
  8
0
100
AcDbLine
 62
3
  6
CONTINUOUS
 10
9.0698643618
 20
1.7730924221
 11
9.1975071527
 21
1.7730924221
  0
LINE
  5
25D
100
AcDbEntity
  8
0
100
AcDbLine
 62
3
  6
CONTINUOUS
 10
-6.2351215023
 20
1.9710924221
 11
-6.1075123767
 21
1.9710924221
  0
LINE
  5
25E
100
AcDbEntity
  8
0
100
AcDbLine
 62
3
  6
CONTINUOUS
 10
9.0698643618
 20
1.9710924221
 11
9.1975071527
 21
1.9710924221
  0
LINE
  5
25F
100
AcDbEntity
  8
0
100
AcDbLine
 62
7
  6
CONTINUOUS
 10
-13.0942066642
 20
2.3270924221
 11
16.0937400608
 21
2.3270924221
  0
LINE
  5
260
100
AcDbEntity
  8
0
100
AcDbLine
 62
7
  6
CONTINUOUS
 10
-13.0942066642
 20
2.8330924221
 11
16.0937400608
 21
2.8330924221
  0
LINE
  5
261
100
AcDbEntity
  8
0
100
AcDbLine
 62
3
  6
CONTINUOUS
 10
-9.7052308402
 20
9.4500924221
 11
12.7047642368
 21
9.4500924221
  0
LINE
  5
262
100
AcDbEntity
  8
0
100
AcDbLine
 62
7
  6
CONTINUOUS
 10
7.9275448058
 20
9.5150924221
 11
7.2375448058
 21
9.5150924221
  0
LINE
  5
263
100
AcDbEntity
  8
0
100
AcDbLine
 62
7
  6
CONTINUOUS
 10
-6.8423407314
 20
9.5150924221
 11
-7.5323407314
 21
9.5150924221
  0
LINE
  5
264
100
AcDbEntity
  8
0
100
AcDbLine
 62
7
  6
CONTINUOUS
 10
-7.4373333979
 20
9.6950924221
 11
-6.9373480648
 21
9.6950924221
  0
LINE
  5
265
100
AcDbEntity
  8
0
100
AcDbLine
 62
7
  6
CONTINUOUS
 10
7.3660448058
 20
9.6950924221
 11
7.7990448058
 21
9.6950924221
  0
LINE
  5
266
100
AcDbEntity
  8
0
100
AcDbLine
 62
7
  6
CONTINUOUS
 10
7.2375448058
 20
9.5150924221
 11
7.2375448058
 21
9.4500924221
  0
LINE
  5
267
100
AcDbEntity
  8
0
100
AcDbLine
 62
7
  6
CONTINUOUS
 10
7.3660448058
 20
9.5150924221
 11
7.3660448058
 21
9.6950924221
  0
LINE
  5
268
100
AcDbEntity
  8
0
100
AcDbLine
 62
7
  6
CONTINUOUS
 10
7.5825448058
 20
9.5150924221
 11
7.5825448058
 21
9.6950924221
  0
LINE
  5
269
100
AcDbEntity
  8
0
100
AcDbLine
 62
7
  6
CONTINUOUS
 10
7.7990448058
 20
9.5150924221
 11
7.7990448058
 21
9.6950924221
  0
LINE
  5
26A
100
AcDbEntity
  8
0
100
AcDbLine
 62
7
  6
CONTINUOUS
 10
7.9275448058
 20
9.5150924221
 11
7.9275448058
 21
9.4500924221
  0
LINE
  5
26B
100
AcDbEntity
  8
0
100
AcDbLine
 62
3
  6
CONTINUOUS
 10
12.2997666983
 20
-2.4079075779
 11
12.2997666983
 21
2.3270924221
  0
LINE
  5
26C
100
AcDbEntity
  8
0
100
AcDbLine
 62
3
  6
CONTINUOUS
 10
-5.1507651229
 20
16.3300924221
 11
8.1502985195
 21
16.3300924221
  0
LINE
  5
26D
100
AcDbEntity
  8
0
100
AcDbLine
 62
3
  6
CONTINUOUS
 10
11.2349203879
 20
9.7790823504
 11
9.0900328
 21
15.6721125654
  0
LINE
  5
26E
100
AcDbEntity
  8
0
100
AcDbLine
 62
3
  6
CONTINUOUS
 10
15.8133652767
 20
2.8330924221
 11
13.6444593191
 21
8.7921125654
  0
LINE
  5
26F
100
AcDbEntity
  8
0
100
AcDbLine
 62
3
  6
CONTINUOUS
 10
14.4891600966
 20
-2.4079075779
 11
14.4891600966
 21
-3.9079075779
  0
LINE
  5
270
100
AcDbEntity
  8
0
100
AcDbLine
 62
7
  6
CONTINUOUS
 10
14.5491600966
 20
-2.5279075779
 11
14.5491600966
 21
-3.9079075779
  0
LINE
  5
271
100
AcDbEntity
  8
0
100
AcDbLine
 62
3
  6
CONTINUOUS
 10
14.6091600966
 20
-2.5279075779
 11
14.6091600966
 21
-3.9079075779
  0
LINE
  5
272
100
AcDbEntity
  8
0
100
AcDbLine
 62
3
  6
CONTINUOUS
 10
31.2168494649
 20
-2.5279075779
 11
31.2168494649
 21
-3.9079075779
  0
LINE
  5
273
100
AcDbEntity
  8
0
100
AcDbLine
 62
7
  6
CONTINUOUS
 10
31.2768494649
 20
-2.5279075779
 11
31.2768494649
 21
-3.9079075779
  0
LINE
  5
274
100
AcDbEntity
  8
0
100
AcDbLine
 62
3
  6
CONTINUOUS
 10
31.3368494649
 20
-2.4079075779
 11
31.3368494649
 21
-3.9079075779
  0
LINE
  5
275
100
AcDbEntity
  8
0
100
AcDbLine
 62
3
  6
CONTINUOUS
 10
30.0126442849
 20
2.8330924221
 11
32.1815502424
 21
8.7921125654
  0
LINE
  5
276
100
AcDbEntity
  8
0
100
AcDbLine
 62
3
  6
CONTINUOUS
 10
33.5262428632
 20
-2.4079075779
 11
33.5262428632
 21
2.3270924221
  0
LINE
  5
277
100
AcDbEntity
  8
0
100
AcDbLine
 62
3
  6
CONTINUOUS
 10
34.5910891736
 20
9.7790823504
 11
36.7359767615
 21
15.6721125654
  0
LINE
  5
278
100
AcDbEntity
  8
0
100
AcDbLine
 62
7
  6
CONTINUOUS
 10
57.4356362615
 20
-3.9079075779
 11
57.3756362615
 21
-3.9079075779
  0
LINE
  5
279
100
AcDbEntity
  8
0
100
AcDbLine
 62
3
  6
CONTINUOUS
 10
57.3156362615
 20
-3.9079075779
 11
31.3368494649
 21
-3.9079075779
  0
LINE
  5
27A
100
AcDbEntity
  8
0
100
AcDbLine
 62
7
  6
CONTINUOUS
 10
31.2168494649
 20
-3.9079075779
 11
31.2768494649
 21
-3.9079075779
  0
LINE
  5
27B
100
AcDbEntity
  8
0
100
AcDbLine
 62
7
  6
CONTINUOUS
 10
35.2941354335
 20
9.5150924221
 11
35.2941354335
 21
9.4500924221
  0
LINE
  5
27C
100
AcDbEntity
  8
0
100
AcDbLine
 62
7
  6
CONTINUOUS
 10
35.389142767
 20
9.5150924221
 11
35.389142767
 21
9.6950924221
  0
LINE
  5
27D
100
AcDbEntity
  8
0
100
AcDbLine
 62
7
  6
CONTINUOUS
 10
35.5141391002
 20
9.5150924221
 11
35.5141391002
 21
9.6950924221
  0
LINE
  5
27E
100
AcDbEntity
  8
0
100
AcDbLine
 62
7
  6
CONTINUOUS
 10
35.7641317668
 20
9.5150924221
 11
35.7641317668
 21
9.6950924221
  0
LINE
  5
27F
100
AcDbEntity
  8
0
100
AcDbLine
 62
7
  6
CONTINUOUS
 10
35.8891281001
 20
9.5150924221
 11
35.8891281001
 21
9.6950924221
  0
LINE
  5
280
100
AcDbEntity
  8
0
100
AcDbLine
 62
7
  6
CONTINUOUS
 10
35.9841354335
 20
9.5150924221
 11
35.9841354335
 21
9.4500924221
  0
LINE
  5
281
100
AcDbEntity
  8
0
100
AcDbLine
 62
3
  6
CONTINUOUS
 10
57.3156362615
 20
-2.4079075779
 11
31.3368494649
 21
-2.4079075779
  0
LINE
  5
282
100
AcDbEntity
  8
0
100
AcDbLine
 62
3
  6
CONTINUOUS
 10
52.0276933261
 20
-1.7269075779
 11
51.8986835346
 21
-1.7269075779
  0
LINE
  5
283
100
AcDbEntity
  8
0
100
AcDbLine
 62
3
  6
CONTINUOUS
 10
36.6227081519
 20
-1.7269075779
 11
36.751682416
 21
-1.7269075779
  0
LINE
  5
284
100
AcDbEntity
  8
0
100
AcDbLine
 62
3
  6
CONTINUOUS
 10
36.6227081519
 20
-1.5289075779
 11
36.751682416
 21
-1.5289075779
  0
LINE
  5
285
100
AcDbEntity
  8
0
100
AcDbLine
 62
3
  6
CONTINUOUS
 10
51.8986835346
 20
-1.5289075779
 11
52.0276933261
 21
-1.5289075779
  0
LINE
  5
286
100
AcDbEntity
  8
0
100
AcDbLine
 62
3
  6
CONTINUOUS
 10
52.0269904533
 20
1.7730924221
 11
51.8993983186
 21
1.7730924221
  0
LINE
  5
287
100
AcDbEntity
  8
0
100
AcDbLine
 62
3
  6
CONTINUOUS
 10
36.6234108278
 20
1.7730924221
 11
36.7509678255
 21
1.7730924221
  0
LINE
  5
288
100
AcDbEntity
  8
0
100
AcDbLine
 62
3
  6
CONTINUOUS
 10
36.6234108278
 20
1.9710924221
 11
36.7509678255
 21
1.9710924221
  0
LINE
  5
289
100
AcDbEntity
  8
0
100
AcDbLine
 62
3
  6
CONTINUOUS
 10
51.8993983186
 20
1.9710924221
 11
52.0269904533
 21
1.9710924221
  0
LINE
  5
28A
100
AcDbEntity
  8
0
100
AcDbLine
 62
7
  6
CONTINUOUS
 10
29.7184711855
 20
2.3270924221
 11
58.9340145409
 21
2.3270924221
  0
LINE
  5
28B
100
AcDbEntity
  8
0
100
AcDbLine
 62
7
  6
CONTINUOUS
 10
29.7184711855
 20
2.8330924221
 11
58.9340145409
 21
2.8330924221
  0
LINE
  5
28C
100
AcDbEntity
  8
0
100
AcDbLine
 62
3
  6
CONTINUOUS
 10
33.1212453247
 20
9.4500924221
 11
55.5312404017
 21
9.4500924221
  0
LINE
  5
28D
100
AcDbEntity
  8
0
100
AcDbLine
 62
7
  6
CONTINUOUS
 10
50.7540209707
 20
9.5150924221
 11
50.0640209707
 21
9.5150924221
  0
LINE
  5
28E
100
AcDbEntity
  8
0
100
AcDbLine
 62
7
  6
CONTINUOUS
 10
35.9841354335
 20
9.5150924221
 11
35.2941354335
 21
9.5150924221
  0
LINE
  5
28F
100
AcDbEntity
  8
0
100
AcDbLine
 62
7
  6
CONTINUOUS
 10
35.389142767
 20
9.6950924221
 11
35.8891281001
 21
9.6950924221
  0
LINE
  5
290
100
AcDbEntity
  8
0
100
AcDbLine
 62
7
  6
CONTINUOUS
 10
50.1925209707
 20
9.6950924221
 11
50.6255209707
 21
9.6950924221
  0
LINE
  5
291
100
AcDbEntity
  8
0
100
AcDbLine
 62
7
  6
CONTINUOUS
 10
50.0640209707
 20
9.5150924221
 11
50.0640209707
 21
9.4500924221
  0
LINE
  5
292
100
AcDbEntity
  8
0
100
AcDbLine
 62
7
  6
CONTINUOUS
 10
50.1925209707
 20
9.5150924221
 11
50.1925209707
 21
9.6950924221
  0
LINE
  5
293
100
AcDbEntity
  8
0
100
AcDbLine
 62
7
  6
CONTINUOUS
 10
50.4090209707
 20
9.5150924221
 11
50.4090209707
 21
9.6950924221
  0
LINE
  5
294
100
AcDbEntity
  8
0
100
AcDbLine
 62
7
  6
CONTINUOUS
 10
50.6255209707
 20
9.5150924221
 11
50.6255209707
 21
9.6950924221
  0
LINE
  5
295
100
AcDbEntity
  8
0
100
AcDbLine
 62
7
  6
CONTINUOUS
 10
50.7540209707
 20
9.5150924221
 11
50.7540209707
 21
9.4500924221
  0
LINE
  5
296
100
AcDbEntity
  8
0
100
AcDbLine
 62
3
  6
CONTINUOUS
 10
55.1262428632
 20
-2.4079075779
 11
55.1262428632
 21
2.3270924221
  0
LINE
  5
297
100
AcDbEntity
  8
0
100
AcDbLine
 62
3
  6
CONTINUOUS
 10
37.675711042
 20
16.3300924221
 11
50.9767746844
 21
16.3300924221
  0
LINE
  5
298
100
AcDbEntity
  8
0
100
AcDbLine
 62
3
  6
CONTINUOUS
 10
54.0613965528
 20
9.7790823504
 11
51.9165089649
 21
15.6721125654
  0
LINE
  5
299
100
AcDbEntity
  8
0
100
AcDbLine
 62
3
  6
CONTINUOUS
 10
58.6398414416
 20
2.8330924221
 11
56.470935484
 21
8.7921125654
  0
LINE
  5
29A
100
AcDbEntity
  8
0
100
AcDbLine
 62
3
  6
CONTINUOUS
 10
57.3156362615
 20
-2.4079075779
 11
57.3156362615
 21
-3.9079075779
  0
LINE
  5
29B
100
AcDbEntity
  8
0
100
AcDbLine
 62
7
  6
CONTINUOUS
 10
57.3756362615
 20
-2.5279075779
 11
57.3756362615
 21
-3.9079075779
  0
LINE
  5
29C
100
AcDbEntity
  8
0
100
AcDbLine
 62
3
  6
CONTINUOUS
 10
57.4356362615
 20
-2.5279075779
 11
57.4356362615
 21
-3.9079075779
  0
LINE
  5
29D
100
AcDbEntity
  8
0
100
AcDbLine
 62
3
  6
CONTINUOUS
 10
-11.6096267
 20
-19.4526472141
 11
-11.6096267
 21
-45.4314340107
  0
LINE
  5
29E
100
AcDbEntity
  8
0
100
AcDbLine
 62
7
  6
CONTINUOUS
 10
-11.5496267
 20
-19.4526472141
 11
-11.5496267
 21
-45.4314340107
  0
LINE
  5
29F
100
AcDbEntity
  8
0
100
AcDbLine
 62
7
  6
CONTINUOUS
 10
-11.4896267
 20
-19.3326472141
 11
-11.4896267
 21
-19.4526472141
  0
LINE
  5
2A0
100
AcDbEntity
  8
0
100
AcDbLine
 62
7
  6
CONTINUOUS
 10
-11.4896267
 20
-45.4314340107
 11
-11.4896267
 21
-45.5514340107
  0
LINE
  5
2A1
100
AcDbEntity
  8
0
100
AcDbLine
 62
3
  6
CONTINUOUS
 10
-11.4896267
 20
-45.5514340107
 11
14.4891600966
 21
-45.5514340107
  0
LINE
  5
2A2
100
AcDbEntity
  8
0
100
AcDbLine
 62
7
  6
CONTINUOUS
 10
-11.4896267
 20
-45.4914340107
 11
14.4891600966
 21
-45.4914340107
  0
LINE
  5
2A3
100
AcDbEntity
  8
0
100
AcDbLine
 62
7
  6
CONTINUOUS
 10
-11.4896267
 20
-45.4314340107
 11
-11.6096267
 21
-45.4314340107
  0
LINE
  5
2A4
100
AcDbEntity
  8
0
100
AcDbLine
 62
7
  6
CONTINUOUS
 10
14.4891600966
 20
-45.4314340107
 11
14.6091600966
 21
-45.4314340107
  0
LINE
  5
2A5
100
AcDbEntity
  8
0
100
AcDbLine
 62
7
  6
CONTINUOUS
 10
-5.6110307692
 20
-25.5477494958
 11
-5.5027775937
 21
-25.3602494958
  0
LINE
  5
2A6
100
AcDbEntity
  8
0
100
AcDbLine
 62
7
  6
CONTINUOUS
 10
-5.1780180673
 20
-25.5477494958
 11
-5.2862712428
 21
-25.7352494958
  0
LINE
  5
2A7
100
AcDbEntity
  8
0
100
AcDbLine
 62
7
  6
CONTINUOUS
 10
-5.5027775937
 20
-39.5238317289
 11
-5.6110307692
 21
-39.3363317289
  0
LINE
  5
2A8
100
AcDbEntity
  8
0
100
AcDbLine
 62
7
  6
CONTINUOUS
 10
-5.2862712428
 20
-39.1488317289
 11
-5.1780180673
 21
-39.3363317289
  0
LINE
  5
2A9
100
AcDbEntity
  8
0
100
AcDbLine
 62
7
  6
CONTINUOUS
 10
-4.5503705974
 20
-26.6084096676
 11
-4.4421174219
 21
-26.4209096676
  0
LINE
  5
2AA
100
AcDbEntity
  8
0
100
AcDbLine
 62
7
  6
CONTINUOUS
 10
-4.1173578955
 20
-26.6084096676
 11
-4.225611071
 21
-26.7959096676
  0
LINE
  5
2AB
100
AcDbEntity
  8
0
100
AcDbLine
 62
7
  6
CONTINUOUS
 10
-4.4421174219
 20
-38.4631715572
 11
-4.5503705974
 21
-38.2756715572
  0
LINE
  5
2AC
100
AcDbEntity
  8
0
100
AcDbLine
 62
7
  6
CONTINUOUS
 10
-4.225611071
 20
-38.0881715572
 11
-4.1173578955
 21
-38.2756715572
  0
LINE
  5
2AD
100
AcDbEntity
  8
0
100
AcDbLine
 62
7
  6
CONTINUOUS
 10
8.5023109904
 20
-39.5238317289
 11
8.2858046394
 21
-39.5238317289
  0
LINE
  5
2AE
100
AcDbEntity
  8
0
100
AcDbLine
 62
7
  6
CONTINUOUS
 10
-5.2862712428
 20
-39.5238317289
 11
-5.5027775937
 21
-39.5238317289
  0
LINE
  5
2AF
100
AcDbEntity
  8
0
100
AcDbLine
 62
7
  6
CONTINUOUS
 10
-5.5027775937
 20
-39.1488317289
 11
-5.2862712428
 21
-39.1488317289
  0
LINE
  5
2B0
100
AcDbEntity
  8
0
100
AcDbLine
 62
7
  6
CONTINUOUS
 10
8.2858046394
 20
-39.1488317289
 11
8.5023109904
 21
-39.1488317289
  0
LINE
  5
2B1
100
AcDbEntity
  8
0
100
AcDbLine
 62
7
  6
CONTINUOUS
 10
7.4416508186
 20
-38.4631715572
 11
7.2251444676
 21
-38.4631715572
  0
LINE
  5
2B2
100
AcDbEntity
  8
0
100
AcDbLine
 62
7
  6
CONTINUOUS
 10
-4.225611071
 20
-38.4631715572
 11
-4.4421174219
 21
-38.4631715572
  0
LINE
  5
2B3
100
AcDbEntity
  8
0
100
AcDbLine
 62
7
  6
CONTINUOUS
 10
-4.4421174219
 20
-38.0881715572
 11
-4.225611071
 21
-38.0881715572
  0
LINE
  5
2B4
100
AcDbEntity
  8
0
100
AcDbLine
 62
7
  6
CONTINUOUS
 10
7.2251444676
 20
-38.0881715572
 11
7.4416508186
 21
-38.0881715572
  0
LINE
  5
2B5
100
AcDbEntity
  8
0
100
AcDbLine
 62
7
  6
CONTINUOUS
 10
-5.6110307692
 20
-39.3363317289
 11
-5.5027775937
 21
-39.1488317289
  0
LINE
  5
2B6
100
AcDbEntity
  8
0
100
AcDbLine
 62
7
  6
CONTINUOUS
 10
-5.1780180673
 20
-39.3363317289
 11
-5.2862712428
 21
-39.5238317289
  0
LINE
  5
2B7
100
AcDbEntity
  8
0
100
AcDbLine
 62
7
  6
CONTINUOUS
 10
-4.5503705974
 20
-38.2756715572
 11
-4.4421174219
 21
-38.0881715572
  0
LINE
  5
2B8
100
AcDbEntity
  8
0
100
AcDbLine
 62
7
  6
CONTINUOUS
 10
-4.1173578955
 20
-38.2756715572
 11
-4.225611071
 21
-38.4631715572
  0
LINE
  5
2B9
100
AcDbEntity
  8
0
100
AcDbLine
 62
7
  6
CONTINUOUS
 10
-0.1019468641
 20
-30.9195738745
 11
0.0855531359
 21
-30.8113206991
  0
LINE
  5
2BA
100
AcDbEntity
  8
0
100
AcDbLine
 62
7
  6
CONTINUOUS
 10
-5.5027775937
 20
-25.7352494958
 11
-5.6110307692
 21
-25.5477494958
  0
LINE
  5
2BB
100
AcDbEntity
  8
0
100
AcDbLine
 62
7
  6
CONTINUOUS
 10
-5.2862712428
 20
-25.3602494958
 11
-5.1780180673
 21
-25.5477494958
  0
LINE
  5
2BC
100
AcDbEntity
  8
0
100
AcDbLine
 62
7
  6
CONTINUOUS
 10
-4.4421174219
 20
-26.7959096676
 11
-4.5503705974
 21
-26.6084096676
  0
LINE
  5
2BD
100
AcDbEntity
  8
0
100
AcDbLine
 62
7
  6
CONTINUOUS
 10
-4.225611071
 20
-26.4209096676
 11
-4.1173578955
 21
-26.6084096676
  0
LINE
  5
2BE
100
AcDbEntity
  8
0
100
AcDbLine
 62
7
  6
CONTINUOUS
 10
-0.1019468641
 20
-33.9645073502
 11
-0.1019468641
 21
-33.7480009993
  0
LINE
  5
2BF
100
AcDbEntity
  8
0
100
AcDbLine
 62
7
  6
CONTINUOUS
 10
-0.1019468641
 20
-31.1360802255
 11
-0.1019468641
 21
-30.9195738745
  0
LINE
  5
2C0
100
AcDbEntity
  8
0
100
AcDbLine
 62
7
  6
CONTINUOUS
 10
0.2730531359
 20
-30.9195738745
 11
0.2730531359
 21
-31.1360802255
  0
LINE
  5
2C1
100
AcDbEntity
  8
0
100
AcDbLine
 62
7
  6
CONTINUOUS
 10
0.2730531359
 20
-33.7480009993
 11
0.2730531359
 21
-33.9645073502
  0
LINE
  5
2C2
100
AcDbEntity
  8
0
100
AcDbLine
 62
7
  6
CONTINUOUS
 10
0.2730531359
 20
-31.1360802255
 11
0.0855531359
 21
-31.244333401
  0
LINE
  5
2C3
100
AcDbEntity
  8
0
100
AcDbLine
 62
7
  6
CONTINUOUS
 10
2.7264802607
 20
-30.9195738745
 11
2.9139802607
 21
-30.8113206991
  0
LINE
  5
2C4
100
AcDbEntity
  8
0
100
AcDbLine
 62
7
  6
CONTINUOUS
 10
0.0855531359
 20
-34.0727605257
 11
-0.1019468641
 21
-33.9645073502
  0
LINE
  5
2C5
100
AcDbEntity
  8
0
100
AcDbLine
 62
7
  6
CONTINUOUS
 10
0.0855531359
 20
-33.6397478238
 11
0.2730531359
 21
-33.7480009993
  0
LINE
  5
2C6
100
AcDbEntity
  8
0
100
AcDbLine
 62
7
  6
CONTINUOUS
 10
1.4047666983
 20
-34.5649160209
 11
1.4047666983
 21
-33.2588574102
  0
LINE
  5
2C7
100
AcDbEntity
  8
0
100
AcDbLine
 62
7
  6
CONTINUOUS
 10
1.4047666983
 20
-30.3191652039
 11
1.4047666983
 21
-31.6252238146
  0
LINE
  5
2C8
100
AcDbEntity
  8
0
100
AcDbLine
 62
7
  6
CONTINUOUS
 10
1.4091317945
 20
-34.9207311871
 11
1.4091317945
 21
-34.5651068653
  0
LINE
  5
2C9
100
AcDbEntity
  8
0
100
AcDbLine
 62
7
  6
CONTINUOUS
 10
1.4091317945
 20
-29.9633500377
 11
1.4091317945
 21
-30.3189743595
  0
LINE
  5
2CA
100
AcDbEntity
  8
0
100
AcDbLine
 62
7
  6
CONTINUOUS
 10
1.5904016021
 20
-34.9207311871
 11
1.5904016021
 21
-34.5651068653
  0
LINE
  5
2CB
100
AcDbEntity
  8
0
100
AcDbLine
 62
7
  6
CONTINUOUS
 10
1.5904016021
 20
-29.9633500377
 11
1.5904016021
 21
-30.3189743595
  0
LINE
  5
2CC
100
AcDbEntity
  8
0
100
AcDbLine
 62
7
  6
CONTINUOUS
 10
1.5947666983
 20
-34.5649160209
 11
1.5947666983
 21
-33.2588574102
  0
LINE
  5
2CD
100
AcDbEntity
  8
0
100
AcDbLine
 62
7
  6
CONTINUOUS
 10
1.5947666983
 20
-30.3191652039
 11
1.5947666983
 21
-31.6252238146
  0
LINE
  5
2CE
100
AcDbEntity
  8
0
100
AcDbLine
 62
7
  6
CONTINUOUS
 10
2.0230257164
 20
-33.3362800006
 11
2.0230257164
 21
-33.2436352603
  0
LINE
  5
2CF
100
AcDbEntity
  8
0
100
AcDbLine
 62
7
  6
CONTINUOUS
 10
2.0247934833
 20
-31.6422137314
 11
2.0247934833
 21
-31.5495689911
  0
LINE
  5
2D0
100
AcDbEntity
  8
0
100
AcDbLine
 62
7
  6
CONTINUOUS
 10
2.7264802607
 20
-33.9645073502
 11
2.7264802607
 21
-33.7480009993
  0
LINE
  5
2D1
100
AcDbEntity
  8
0
100
AcDbLine
 62
7
  6
CONTINUOUS
 10
2.7264802607
 20
-31.1360802255
 11
2.7264802607
 21
-30.9195738745
  0
LINE
  5
2D2
100
AcDbEntity
  8
0
100
AcDbLine
 62
7
  6
CONTINUOUS
 10
2.0247934833
 20
-31.5495689911
 11
1.8677266287
 21
-31.7066358457
  0
LINE
  5
2D3
100
AcDbEntity
  8
0
100
AcDbLine
 62
7
  6
CONTINUOUS
 10
2.1791527001
 20
-31.4526546106
 11
2.3266306341
 21
-31.3051766766
  0
LINE
  5
2D4
100
AcDbEntity
  8
0
100
AcDbLine
 62
7
  6
CONTINUOUS
 10
2.0247934833
 20
-31.6422137314
 11
1.8795747263
 21
-31.7874324884
  0
LINE
  5
2D5
100
AcDbEntity
  8
0
100
AcDbLine
 62
7
  6
CONTINUOUS
 10
2.0700091914
 20
-31.6525950171
 11
2.224551149
 21
-31.4980530595
  0
LINE
  5
2D6
100
AcDbEntity
  8
0
100
AcDbLine
 62
7
  6
CONTINUOUS
 10
1.7136664996
 20
-32.0952047362
 11
1.6440357601
 21
-32.1648354757
  0
LINE
  5
2D7
100
AcDbEntity
  8
WITNESS
100
AcDbLine
 62
4
  6
CONTINUOUS
 10
3.6207334885
 20
-30.3203667154
 11
3.7975101838
 21
-30.1435900201
  0
LINE
  5
2D8
100
AcDbEntity
  8
0
100
AcDbLine
 62
7
  6
CONTINUOUS
 10
2.3341527001
 20
-31.6076546106
 11
2.4816306341
 21
-31.4601766766
  0
LINE
  5
2D9
100
AcDbEntity
  8
WITNESS
100
AcDbLine
 62
4
  6
CONTINUOUS
 10
3.6214405953
 20
-30.3210738222
 11
3.7982172906
 21
-30.1442971269
  0
LINE
  5
2DA
100
AcDbEntity
  8
0
100
AcDbLine
 62
7
  6
CONTINUOUS
 10
1.776971835
 20
-32.2977715506
 11
1.8466025745
 21
-32.2281408111
  0
LINE
  5
2DB
100
AcDbEntity
  8
0
100
AcDbLine
 62
7
  6
CONTINUOUS
 10
2.2892122936
 20
-31.8717981193
 11
2.4437542512
 21
-31.7172561617
  0
LINE
  5
2DC
100
AcDbEntity
  8
0
100
AcDbLine
 62
7
  6
CONTINUOUS
 10
2.2995935793
 20
-31.9170138273
 11
2.1543748223
 21
-32.0622325844
  0
LINE
  5
2DD
100
AcDbEntity
  8
0
100
AcDbLine
 62
7
  6
CONTINUOUS
 10
2.4891527001
 20
-31.7626546106
 11
2.6366306341
 21
-31.6151766766
  0
LINE
  5
2DE
100
AcDbEntity
  8
0
100
AcDbLine
 62
7
  6
CONTINUOUS
 10
2.3922383196
 20
-31.9170138273
 11
2.2351714649
 21
-32.074080682
  0
LINE
  5
2DF
100
AcDbEntity
  8
0
100
AcDbLine
 62
7
  6
CONTINUOUS
 10
1.6539016659
 20
-32.7121697135
 11
1.7686091311
 21
-32.5974622483
  0
LINE
  5
2E0
100
AcDbEntity
  8
0
100
AcDbLine
 62
7
  6
CONTINUOUS
 10
2.0230257164
 20
-33.2436352603
 11
2.3013613462
 21
-32.9652996305
  0
LINE
  5
2E1
100
AcDbEntity
  8
0
100
AcDbLine
 62
7
  6
CONTINUOUS
 10
2.3940060865
 20
-32.9652996305
 11
2.3181174525
 21
-33.0411882644
  0
LINE
  5
2E2
100
AcDbEntity
  8
0
100
AcDbLine
 62
7
  6
CONTINUOUS
 10
2.0989143504
 20
-33.2603913666
 11
2.0230257164
 21
-33.3362800006
  0
LINE
  5
2E3
100
AcDbEntity
  8
0
100
AcDbLine
 62
7
  6
CONTINUOUS
 10
3.1014802607
 20
-31.1360802255
 11
2.9139802607
 21
-31.244333401
  0
LINE
  5
2E4
100
AcDbEntity
  8
0
100
AcDbLine
 62
7
  6
CONTINUOUS
 10
-0.1019468641
 20
-33.7480009993
 11
0.0855531359
 21
-33.6397478238
  0
LINE
  5
2E5
100
AcDbEntity
  8
0
100
AcDbLine
 62
7
  6
CONTINUOUS
 10
0.2730531359
 20
-33.9645073502
 11
0.0855531359
 21
-34.0727605257
  0
LINE
  5
2E6
100
AcDbEntity
  8
0
100
AcDbLine
 62
7
  6
CONTINUOUS
 10
2.3013613462
 20
-32.9652996305
 11
2.3940060865
 21
-32.9652996305
  0
LINE
  5
2E7
100
AcDbEntity
  8
0
100
AcDbLine
 62
7
  6
CONTINUOUS
 10
3.6226421068
 20
-32.5370406124
 11
2.3165834961
 21
-32.5370406124
  0
LINE
  5
2E8
100
AcDbEntity
  8
0
100
AcDbLine
 62
7
  6
CONTINUOUS
 10
-0.6231087102
 20
-32.5370406124
 11
0.6829499005
 21
-32.5370406124
  0
LINE
  5
2E9
100
AcDbEntity
  8
0
100
AcDbLine
 62
7
  6
CONTINUOUS
 10
3.978457273
 20
-32.5326755162
 11
3.6228329512
 21
-32.5326755162
  0
LINE
  5
2EA
100
AcDbEntity
  8
0
100
AcDbLine
 62
7
  6
CONTINUOUS
 10
-0.9789238764
 20
-32.5326755162
 11
-0.6232995546
 21
-32.5326755162
  0
LINE
  5
2EB
100
AcDbEntity
  8
0
100
AcDbLine
 62
7
  6
CONTINUOUS
 10
2.9139802607
 20
-34.0727605257
 11
2.7264802607
 21
-33.9645073502
  0
LINE
  5
2EC
100
AcDbEntity
  8
0
100
AcDbLine
 62
7
  6
CONTINUOUS
 10
2.9139802607
 20
-33.6397478238
 11
3.1014802607
 21
-33.7480009993
  0
LINE
  5
2ED
100
AcDbEntity
  8
0
100
AcDbLine
 62
7
  6
CONTINUOUS
 10
0.0855531359
 20
-31.244333401
 11
-0.1019468641
 21
-31.1360802255
  0
LINE
  5
2EE
100
AcDbEntity
  8
0
100
AcDbLine
 62
7
  6
CONTINUOUS
 10
2.0230257164
 20
-33.3362800006
 11
1.8653670066
 21
-33.1786212908
  0
LINE
  5
2EF
100
AcDbEntity
  8
0
100
AcDbLine
 62
7
  6
CONTINUOUS
 10
2.1791527001
 20
-33.4314266142
 11
2.3266306341
 21
-33.5789045482
  0
LINE
  5
2F0
100
AcDbEntity
  8
0
100
AcDbLine
 62
7
  6
CONTINUOUS
 10
2.0230257164
 20
-33.2436352603
 11
1.8773341022
 21
-33.0979436461
  0
LINE
  5
2F1
100
AcDbEntity
  8
0
100
AcDbLine
 62
7
  6
CONTINUOUS
 10
2.224551149
 20
-33.3860281653
 11
2.0697274448
 21
-33.2312044611
  0
LINE
  5
2F2
100
AcDbEntity
  8
0
100
AcDbLine
 62
7
  6
CONTINUOUS
 10
2.3341527001
 20
-33.2764266142
 11
2.4816306341
 21
-33.4239045482
  0
LINE
  5
2F3
100
AcDbEntity
  8
0
100
AcDbLine
 62
7
  6
CONTINUOUS
 10
2.4437542512
 20
-33.1668250631
 11
2.288930547
 21
-33.0120013589
  0
LINE
  5
2F4
100
AcDbEntity
  8
0
100
AcDbLine
 62
7
  6
CONTINUOUS
 10
2.3013613462
 20
-32.9652996305
 11
2.155669732
 21
-32.8196080162
  0
LINE
  5
2F5
100
AcDbEntity
  8
0
100
AcDbLine
 62
7
  6
CONTINUOUS
 10
2.4891527001
 20
-33.1214266142
 11
2.6366306341
 21
-33.2689045482
  0
LINE
  5
2F6
100
AcDbEntity
  8
0
100
AcDbLine
 62
7
  6
CONTINUOUS
 10
2.3940060865
 20
-32.9652996305
 11
2.2363473767
 21
-32.8076409206
  0
LINE
  5
2F7
100
AcDbEntity
  8
0
100
AcDbLine
 62
7
  6
CONTINUOUS
 10
1.7783667701
 20
-32.2963766155
 11
1.6454306952
 21
-32.1634405406
  0
LINE
  5
2F8
100
AcDbEntity
  8
0
100
AcDbLine
 62
7
  6
CONTINUOUS
 10
1.8466025745
 20
-32.2281408111
 11
1.7136664996
 21
-32.0952047362
  0
LINE
  5
2F9
100
AcDbEntity
  8
0
100
AcDbLine
 62
7
  6
CONTINUOUS
 10
3.1014802607
 20
-30.9195738745
 11
3.1014802607
 21
-31.1360802255
  0
LINE
  5
2FA
100
AcDbEntity
  8
0
100
AcDbLine
 62
7
  6
CONTINUOUS
 10
3.1014802607
 20
-33.7480009993
 11
3.1014802607
 21
-33.9645073502
  0
LINE
  5
2FB
100
AcDbEntity
  8
0
100
AcDbLine
 62
7
  6
CONTINUOUS
 10
7.1168912922
 20
-26.6084096676
 11
7.2251444676
 21
-26.4209096676
  0
LINE
  5
2FC
100
AcDbEntity
  8
0
100
AcDbLine
 62
7
  6
CONTINUOUS
 10
7.549903994
 20
-26.6084096676
 11
7.4416508186
 21
-26.7959096676
  0
LINE
  5
2FD
100
AcDbEntity
  8
0
100
AcDbLine
 62
7
  6
CONTINUOUS
 10
8.1775514639
 20
-25.5477494958
 11
8.2858046394
 21
-25.3602494958
  0
LINE
  5
2FE
100
AcDbEntity
  8
0
100
AcDbLine
 62
7
  6
CONTINUOUS
 10
8.6105641658
 20
-25.5477494958
 11
8.5023109904
 21
-25.7352494958
  0
LINE
  5
2FF
100
AcDbEntity
  8
0
100
AcDbLine
 62
7
  6
CONTINUOUS
 10
2.4891527001
 20
-33.1214266142
 11
2.1791527001
 21
-33.4314266142
  0
LINE
  5
300
100
AcDbEntity
  8
0
100
AcDbLine
 62
7
  6
CONTINUOUS
 10
2.7264802607
 20
-33.7480009993
 11
2.9139802607
 21
-33.6397478238
  0
LINE
  5
301
100
AcDbEntity
  8
0
100
AcDbLine
 62
7
  6
CONTINUOUS
 10
3.1014802607
 20
-33.9645073502
 11
2.9139802607
 21
-34.0727605257
  0
LINE
  5
302
100
AcDbEntity
  8
0
100
AcDbLine
 62
7
  6
CONTINUOUS
 10
3.978457273
 20
-32.3514057086
 11
3.6228329512
 21
-32.3514057086
  0
LINE
  5
303
100
AcDbEntity
  8
0
100
AcDbLine
 62
7
  6
CONTINUOUS
 10
-0.9789238764
 20
-32.3514057086
 11
-0.6232995546
 21
-32.3514057086
  0
LINE
  5
304
100
AcDbEntity
  8
0
100
AcDbLine
 62
7
  6
CONTINUOUS
 10
3.6226421068
 20
-32.3470406124
 11
2.3165834961
 21
-32.3470406124
  0
LINE
  5
305
100
AcDbEntity
  8
0
100
AcDbLine
 62
7
  6
CONTINUOUS
 10
-0.6231087102
 20
-32.3470406124
 11
0.6829499005
 21
-32.3470406124
  0
LINE
  5
306
100
AcDbEntity
  8
0
100
AcDbLine
 62
7
  6
CONTINUOUS
 10
2.3922383196
 20
-31.9170138273
 11
2.2995935793
 21
-31.9170138273
  0
LINE
  5
307
100
AcDbEntity
  8
0
100
AcDbLine
 62
7
  6
CONTINUOUS
 10
0.0855531359
 20
-30.8113206991
 11
0.2730531359
 21
-30.9195738745
  0
LINE
  5
308
100
AcDbEntity
  8
0
100
AcDbLine
 62
7
  6
CONTINUOUS
 10
2.9139802607
 20
-31.244333401
 11
2.7264802607
 21
-31.1360802255
  0
LINE
  5
309
100
AcDbEntity
  8
0
100
AcDbLine
 62
7
  6
CONTINUOUS
 10
2.2995935793
 20
-31.9170138273
 11
2.0247934833
 21
-31.6422137314
  0
LINE
  5
30A
100
AcDbEntity
  8
0
100
AcDbLine
 62
7
  6
CONTINUOUS
 10
2.0247934833
 20
-31.5495689911
 11
2.0989143504
 21
-31.6236898581
  0
LINE
  5
30B
100
AcDbEntity
  8
0
100
AcDbLine
 62
7
  6
CONTINUOUS
 10
2.3181174525
 20
-31.8428929603
 11
2.3922383196
 21
-31.9170138273
  0
LINE
  5
30C
100
AcDbEntity
  8
0
100
AcDbLine
 62
7
  6
CONTINUOUS
 10
2.1791527001
 20
-31.4526546106
 11
2.4891527001
 21
-31.7626546106
  0
LINE
  5
30D
100
AcDbEntity
  8
0
100
AcDbLine
 62
7
  6
CONTINUOUS
 10
7.2251444676
 20
-38.4631715572
 11
7.1168912922
 21
-38.2756715572
  0
LINE
  5
30E
100
AcDbEntity
  8
0
100
AcDbLine
 62
7
  6
CONTINUOUS
 10
7.4416508186
 20
-38.0881715572
 11
7.549903994
 21
-38.2756715572
  0
LINE
  5
30F
100
AcDbEntity
  8
0
100
AcDbLine
 62
7
  6
CONTINUOUS
 10
8.2858046394
 20
-39.5238317289
 11
8.1775514639
 21
-39.3363317289
  0
LINE
  5
310
100
AcDbEntity
  8
0
100
AcDbLine
 62
7
  6
CONTINUOUS
 10
2.9139802607
 20
-30.8113206991
 11
3.1014802607
 21
-30.9195738745
  0
LINE
  5
311
100
AcDbEntity
  8
WITNESS
100
AcDbLine
 62
4
  6
CONTINUOUS
 10
3.6214405953
 20
-30.3210738222
 11
3.6207334885
 21
-30.3203667154
  0
LINE
  5
312
100
AcDbEntity
  8
WITNESS
100
AcDbLine
 62
4
  6
CONTINUOUS
 10
3.7975101838
 20
-30.1435900201
 11
3.7982172906
 21
-30.1442971269
  0
LINE
  5
313
100
AcDbEntity
  8
0
100
AcDbLine
 62
7
  6
CONTINUOUS
 10
8.5023109904
 20
-39.1488317289
 11
8.6105641658
 21
-39.3363317289
  0
LINE
  5
314
100
AcDbEntity
  8
0
100
AcDbLine
 62
7
  6
CONTINUOUS
 10
7.4416508186
 20
-26.7959096676
 11
7.2251444676
 21
-26.7959096676
  0
LINE
  5
315
100
AcDbEntity
  8
0
100
AcDbLine
 62
7
  6
CONTINUOUS
 10
-4.225611071
 20
-26.7959096676
 11
-4.4421174219
 21
-26.7959096676
  0
LINE
  5
316
100
AcDbEntity
  8
0
100
AcDbLine
 62
7
  6
CONTINUOUS
 10
7.1168912922
 20
-38.2756715572
 11
7.2251444676
 21
-38.0881715572
  0
LINE
  5
317
100
AcDbEntity
  8
0
100
AcDbLine
 62
7
  6
CONTINUOUS
 10
7.549903994
 20
-38.2756715572
 11
7.4416508186
 21
-38.4631715572
  0
LINE
  5
318
100
AcDbEntity
  8
0
100
AcDbLine
 62
7
  6
CONTINUOUS
 10
-4.4421174219
 20
-26.4209096676
 11
-4.225611071
 21
-26.4209096676
  0
LINE
  5
319
100
AcDbEntity
  8
0
100
AcDbLine
 62
7
  6
CONTINUOUS
 10
7.2251444676
 20
-26.4209096676
 11
7.4416508186
 21
-26.4209096676
  0
LINE
  5
31A
100
AcDbEntity
  8
0
100
AcDbLine
 62
7
  6
CONTINUOUS
 10
8.5023109904
 20
-25.7352494958
 11
8.2858046394
 21
-25.7352494958
  0
LINE
  5
31B
100
AcDbEntity
  8
0
100
AcDbLine
 62
7
  6
CONTINUOUS
 10
-5.2862712428
 20
-25.7352494958
 11
-5.5027775937
 21
-25.7352494958
  0
LINE
  5
31C
100
AcDbEntity
  8
0
100
AcDbLine
 62
7
  6
CONTINUOUS
 10
-5.5027775937
 20
-25.3602494958
 11
-5.2862712428
 21
-25.3602494958
  0
LINE
  5
31D
100
AcDbEntity
  8
0
100
AcDbLine
 62
7
  6
CONTINUOUS
 10
8.2858046394
 20
-25.3602494958
 11
8.5023109904
 21
-25.3602494958
  0
LINE
  5
31E
100
AcDbEntity
  8
0
100
AcDbLine
 62
7
  6
CONTINUOUS
 10
7.2251444676
 20
-26.7959096676
 11
7.1168912922
 21
-26.6084096676
  0
LINE
  5
31F
100
AcDbEntity
  8
0
100
AcDbLine
 62
7
  6
CONTINUOUS
 10
7.4416508186
 20
-26.4209096676
 11
7.549903994
 21
-26.6084096676
  0
LINE
  5
320
100
AcDbEntity
  8
0
100
AcDbLine
 62
7
  6
CONTINUOUS
 10
8.1775514639
 20
-39.3363317289
 11
8.2858046394
 21
-39.1488317289
  0
LINE
  5
321
100
AcDbEntity
  8
0
100
AcDbLine
 62
7
  6
CONTINUOUS
 10
8.6105641658
 20
-39.3363317289
 11
8.5023109904
 21
-39.5238317289
  0
LINE
  5
322
100
AcDbEntity
  8
0
100
AcDbLine
 62
7
  6
CONTINUOUS
 10
8.2858046394
 20
-25.7352494958
 11
8.1775514639
 21
-25.5477494958
  0
LINE
  5
323
100
AcDbEntity
  8
0
100
AcDbLine
 62
7
  6
CONTINUOUS
 10
8.5023109904
 20
-25.3602494958
 11
8.6105641658
 21
-25.5477494958
  0
LINE
  5
324
100
AcDbEntity
  8
0
100
AcDbLine
 62
7
  6
CONTINUOUS
 10
14.4891600966
 20
-19.3326472141
 11
14.4891600966
 21
-19.4526472141
  0
LINE
  5
325
100
AcDbEntity
  8
0
100
AcDbLine
 62
7
  6
CONTINUOUS
 10
14.4891600966
 20
-45.4314340107
 11
14.4891600966
 21
-45.5514340107
  0
LINE
  5
326
100
AcDbEntity
  8
0
100
AcDbLine
 62
7
  6
CONTINUOUS
 10
14.5491600966
 20
-45.4314340107
 11
14.5491600966
 21
-19.4526472141
  0
LINE
  5
327
100
AcDbEntity
  8
0
100
AcDbLine
 62
3
  6
CONTINUOUS
 10
14.6091600966
 20
-45.4314340107
 11
14.6091600966
 21
-19.4526472141
  0
LINE
  5
328
100
AcDbEntity
  8
0
100
AcDbLine
 62
7
  6
CONTINUOUS
 10
-11.4896267
 20
-19.4526472141
 11
-11.6096267
 21
-19.4526472141
  0
LINE
  5
329
100
AcDbEntity
  8
0
100
AcDbLine
 62
7
  6
CONTINUOUS
 10
14.4891600966
 20
-19.4526472141
 11
14.6091600966
 21
-19.4526472141
  0
LINE
  5
32A
100
AcDbEntity
  8
0
100
AcDbLine
 62
7
  6
CONTINUOUS
 10
14.4891600966
 20
-19.3926472141
 11
-11.4896267
 21
-19.3926472141
  0
LINE
  5
32B
100
AcDbEntity
  8
0
100
AcDbLine
 62
3
  6
CONTINUOUS
 10
14.4891600966
 20
-19.3326472141
 11
-11.4896267
 21
-19.3326472141
  0
ARC
  5
32C
100
AcDbEntity
  8
0
100
AcDbCircle
 62
7
  6
CONTINUOUS
 10
-13.1081101261
 20
2.5800924221
 40
0.253
100
AcDbArc
 50
90.0
 51
270.0
  0
CIRCLE
  5
32D
100
AcDbEntity
  8
0
100
AcDbCircle
 62
3
  6
CONTINUOUS
 10
-5.0002333017
 20
-3.1579075779
 40
0.155
  0
ARC
  5
32E
100
AcDbEntity
  8
0
100
AcDbCircle
 62
3
  6
CONTINUOUS
 10
-11.4896267
 20
-2.5279075779
 40
0.12
100
AcDbArc
 50
90.0
 51
180.0
  0
ARC
  5
32F
100
AcDbEntity
  8
0
100
AcDbCircle
 62
7
  6
CONTINUOUS
 10
-6.1710559538
 20
1.9116134644
 40
0.0604247595
100
AcDbArc
 50
121.2268651227
 51
123.2130660265
  0
ARC
  5
330
100
AcDbEntity
  8
0
100
AcDbCircle
 62
7
  6
CONTINUOUS
 10
-6.1717542607
 20
-1.5883801379
 40
0.0604188363
100
AcDbArc
 50
121.2308976785
 51
123.2155623837
  0
ARC
  5
331
100
AcDbEntity
  8
0
100
AcDbCircle
 62
7
  6
CONTINUOUS
 10
-6.1712313226
 20
1.8322931138
 40
0.0600958926
100
AcDbArc
 50
236.7814988117
 51
238.7785700391
  0
ARC
  5
332
100
AcDbEntity
  8
0
100
AcDbCircle
 62
7
  6
CONTINUOUS
 10
-6.1719295349
 20
-1.6677130984
 40
0.0600901765
100
AcDbArc
 50
236.7790095651
 51
238.7745303727
  0
ARC
  5
333
100
AcDbEntity
  8
0
100
AcDbCircle
 62
7
  6
CONTINUOUS
 10
-11.4896267
 20
-2.5279075779
 40
0.06
100
AcDbArc
 50
90.0
 51
180.0
  0
ARC
  5
334
100
AcDbEntity
  8
0
100
AcDbCircle
 62
7
  6
CONTINUOUS
 10
-6.1717645602
 20
1.8314182766
 40
0.0590713556
100
AcDbArc
 50
238.7810335294
 51
239.2240564585
  0
ARC
  5
335
100
AcDbEntity
  8
0
100
AcDbCircle
 62
7
  6
CONTINUOUS
 10
-6.1717645603
 20
1.9127665677
 40
0.0590713555
100
AcDbArc
 50
120.7759435414
 51
121.2189664712
  0
ARC
  5
336
100
AcDbEntity
  8
0
100
AcDbCircle
 62
7
  6
CONTINUOUS
 10
-6.172462025
 20
-1.6685865656
 40
0.0590671985
100
AcDbArc
 50
238.7769929295
 51
239.2177269651
  0
ARC
  5
337
100
AcDbEntity
  8
0
100
AcDbCircle
 62
7
  6
CONTINUOUS
 10
-6.172462025
 20
-1.5872285902
 40
0.0590671984
100
AcDbArc
 50
120.7822730347
 51
121.2230070705
  0
ARC
  5
338
100
AcDbEntity
  8
0
100
AcDbCircle
 62
3
  6
CONTINUOUS
 10
-9.7052333017
 20
8.4500924221
 40
1.0
100
AcDbArc
 50
90.0
 51
160.0
  0
ARC
  5
339
100
AcDbEntity
  8
0
100
AcDbCircle
 62
3
  6
CONTINUOUS
 10
-5.1508067826
 20
15.3300924221
 40
1.0
100
AcDbArc
 50
90.0
 51
160.0
  0
ARC
  5
33A
100
AcDbEntity
  8
0
100
AcDbCircle
 62
3
  6
CONTINUOUS
 10
-8.7052333017
 20
9.9500924221
 40
0.5
100
AcDbArc
 50
270.0
 51
340.0
  0
ARC
  5
33B
100
AcDbEntity
  8
AXIS
100
AcDbCircle
 62
7
  6
CONTINUOUS
 10
-7.1873407314
 20
9.6950924221
 40
0.2
100
AcDbArc
 50
0.0
 51
180.0
  0
ARC
  5
33C
100
AcDbEntity
  8
0
100
AcDbCircle
 62
7
  6
CONTINUOUS
 10
16.1076435227
 20
2.5800924221
 40
0.253
100
AcDbArc
 50
270.0
 51
90.0
  0
CIRCLE
  5
33D
100
AcDbEntity
  8
0
100
AcDbCircle
 62
3
  6
CONTINUOUS
 10
7.9997666983
 20
-3.1579075779
 40
0.155
  0
ARC
  5
33E
100
AcDbEntity
  8
0
100
AcDbCircle
 62
3
  6
CONTINUOUS
 10
14.4891600966
 20
-2.5279075779
 40
0.12
100
AcDbArc
 50
0.0
 51
90.0
  0
ARC
  5
33F
100
AcDbEntity
  8
0
100
AcDbCircle
 62
3
  6
CONTINUOUS
 10
9.0753267308
 20
-1.5904489626
 40
0.0623640072
100
AcDbArc
 50
119.2349100917
 51
122.528129302
  0
ARC
  5
340
100
AcDbEntity
  8
0
100
AcDbCircle
 62
3
  6
CONTINUOUS
 10
9.0760435891
 20
1.9095568557
 40
0.06235873
100
AcDbArc
 50
119.2408958354
 51
122.5304683872
  0
ARC
  5
341
100
AcDbEntity
  8
0
100
AcDbCircle
 62
3
  6
CONTINUOUS
 10
9.0750577792
 20
-1.6658159077
 40
0.0618402234
100
AcDbArc
 50
237.4579201013
 51
240.7790405048
  0
ARC
  5
342
100
AcDbEntity
  8
0
100
AcDbCircle
 62
3
  6
CONTINUOUS
 10
9.075774783
 20
1.8341785914
 40
0.0618352926
100
AcDbArc
 50
237.455604579
 51
240.7730311983
  0
ARC
  5
343
100
AcDbEntity
  8
0
100
AcDbCircle
 62
7
  6
CONTINUOUS
 10
14.4891600966
 20
-2.5279075779
 40
0.06
100
AcDbArc
 50
0.0
 51
90.0
  0
ARC
  5
344
100
AcDbEntity
  8
0
100
AcDbCircle
 62
3
  6
CONTINUOUS
 10
9.0737323735
 20
-1.5876025482
 40
0.0591014853
100
AcDbArc
 50
112.3138184224
 51
119.2338329408
  0
ARC
  5
345
100
AcDbEntity
  8
0
100
AcDbCircle
 62
3
  6
CONTINUOUS
 10
9.0744485144
 20
1.9124039824
 40
0.0590952361
100
AcDbArc
 50
112.3157316636
 51
119.2398794157
  0
ARC
  5
346
100
AcDbEntity
  8
0
100
AcDbCircle
 62
3
  6
CONTINUOUS
 10
9.0734555966
 20
-1.6687858163
 40
0.0584661258
100
AcDbArc
 50
240.7285201548
 51
247.723828482
  0
ARC
  5
347
100
AcDbEntity
  8
0
100
AcDbCircle
 62
3
  6
CONTINUOUS
 10
9.0741714544
 20
1.8312071686
 40
0.0584593195
100
AcDbArc
 50
240.7224137218
 51
247.7219751989
  0
ARC
  5
348
100
AcDbEntity
  8
0
100
AcDbCircle
 62
3
  6
CONTINUOUS
 10
8.1503401792
 20
15.3300924221
 40
1.0
100
AcDbArc
 50
20.0
 51
90.0
  0
ARC
  5
349
100
AcDbEntity
  8
0
100
AcDbCircle
 62
3
  6
CONTINUOUS
 10
12.7047666983
 20
8.4500924221
 40
1.0
100
AcDbArc
 50
20.0
 51
90.0
  0
ARC
  5
34A
100
AcDbEntity
  8
0
100
AcDbCircle
 62
3
  6
CONTINUOUS
 10
11.7047666983
 20
9.9500924221
 40
0.5
100
AcDbArc
 50
200.0
 51
270.0
  0
ARC
  5
34B
100
AcDbEntity
  8
AXIS
100
AcDbCircle
 62
7
  6
CONTINUOUS
 10
7.5825448058
 20
9.6950924221
 40
0.2
100
AcDbArc
 50
0.0
 51
180.0
  0
ARC
  5
34C
100
AcDbEntity
  8
0
100
AcDbCircle
 62
7
  6
CONTINUOUS
 10
29.7183660388
 20
2.5800924221
 40
0.253
100
AcDbArc
 50
90.0
 51
270.0
  0
CIRCLE
  5
34D
100
AcDbEntity
  8
0
100
AcDbCircle
 62
3
  6
CONTINUOUS
 10
37.8262428632
 20
-3.1579075779
 40
0.155
  0
ARC
  5
34E
100
AcDbEntity
  8
0
100
AcDbCircle
 62
3
  6
CONTINUOUS
 10
31.3368494649
 20
-2.5279075779
 40
0.12
100
AcDbArc
 50
90.0
 51
180.0
  0
ARC
  5
34F
100
AcDbEntity
  8
0
100
AcDbCircle
 62
3
  6
CONTINUOUS
 10
36.7162592629
 20
-1.6636508313
 40
0.0643688302
100
AcDbArc
 50
301.2121086641
 51
304.3257023036
  0
ARC
  5
350
100
AcDbEntity
  8
0
100
AcDbCircle
 62
3
  6
CONTINUOUS
 10
36.715541643
 20
1.8363427273
 40
0.0643629974
100
AcDbArc
 50
301.2146043722
 51
304.3300324759
  0
ARC
  5
351
100
AcDbEntity
  8
0
100
AcDbCircle
 62
3
  6
CONTINUOUS
 10
36.7165483746
 20
-1.5917151758
 40
0.0638348754
100
AcDbArc
 50
55.6612724282
 51
58.8009166041
  0
ARC
  5
352
100
AcDbEntity
  8
0
100
AcDbCircle
 62
3
  6
CONTINUOUS
 10
36.715831001
 20
1.9082915894
 40
0.0638286374
100
AcDbArc
 50
55.656923413
 51
58.7984397388
  0
ARC
  5
353
100
AcDbEntity
  8
0
100
AcDbCircle
 62
7
  6
CONTINUOUS
 10
36.6655072946
 20
1.909828555
 40
0.0625392422
100
AcDbArc
 50
123.1865465986
 51
125.1563179084
  0
ARC
  5
354
100
AcDbEntity
  8
0
100
AcDbCircle
 62
7
  6
CONTINUOUS
 10
36.664808321
 20
-1.590165145
 40
0.0625335005
100
AcDbArc
 50
123.1890487327
 51
125.1597040374
  0
ARC
  5
355
100
AcDbEntity
  8
0
100
AcDbCircle
 62
7
  6
CONTINUOUS
 10
36.6653132674
 20
1.8340704804
 40
0.0621938471
100
AcDbArc
 50
234.8382119608
 51
236.8189235322
  0
ARC
  5
356
100
AcDbEntity
  8
0
100
AcDbCircle
 62
7
  6
CONTINUOUS
 10
36.6646141629
 20
-1.6659359808
 40
0.0621878986
100
AcDbArc
 50
234.834819575
 51
236.8164276548
  0
ARC
  5
357
100
AcDbEntity
  8
0
100
AcDbCircle
 62
3
  6
CONTINUOUS
 10
36.7175844096
 20
-1.6658008532
 40
0.0618433154
100
AcDbArc
 50
299.512966039
 51
301.1943391044
  0
ARC
  5
358
100
AcDbEntity
  8
0
100
AcDbCircle
 62
3
  6
CONTINUOUS
 10
36.716867178
 20
1.8341923422
 40
0.06183697
100
AcDbArc
 50
299.5180212086
 51
301.1968015266
  0
ARC
  5
359
100
AcDbEntity
  8
0
100
AcDbCircle
 62
3
  6
CONTINUOUS
 10
36.7177154104
 20
-1.5897906027
 40
0.0615841083
100
AcDbArc
 50
58.8021221959
 51
60.4905726607
  0
ARC
  5
35A
100
AcDbEntity
  8
0
100
AcDbCircle
 62
3
  6
CONTINUOUS
 10
36.7169980783
 20
1.9102159965
 40
0.0615779908
100
AcDbArc
 50
58.7996679867
 51
60.4855092776
  0
ARC
  5
35B
100
AcDbEntity
  8
0
100
AcDbCircle
 62
7
  6
CONTINUOUS
 10
31.3368494649
 20
-2.5279075779
 40
0.06
100
AcDbArc
 50
90.0
 51
180.0
  0
ARC
  5
35C
100
AcDbEntity
  8
0
100
AcDbCircle
 62
3
  6
CONTINUOUS
 10
36.7189155549
 20
-1.6681968694
 40
0.0591024507
100
AcDbArc
 50
291.3852385965
 51
299.5342015862
  0
ARC
  5
35D
100
AcDbEntity
  8
0
100
AcDbCircle
 62
3
  6
CONTINUOUS
 10
36.718198931
 20
1.8317956616
 40
0.0590952297
100
AcDbArc
 50
291.3872196748
 51
299.5392985945
  0
ARC
  5
35E
100
AcDbEntity
  8
0
100
AcDbCircle
 62
3
  6
CONTINUOUS
 10
36.7192352828
 20
-1.5869467483
 40
0.0583605875
100
AcDbArc
 50
60.4139155999
 51
68.6666442174
  0
ARC
  5
35F
100
AcDbEntity
  8
0
100
AcDbCircle
 62
3
  6
CONTINUOUS
 10
36.7185189116
 20
1.9130611445
 40
0.0583528779
100
AcDbArc
 50
60.4087576401
 51
68.6647240906
  0
ARC
  5
360
100
AcDbEntity
  8
0
100
AcDbCircle
 62
3
  6
CONTINUOUS
 10
37.6756693823
 20
15.3300924221
 40
1.0
100
AcDbArc
 50
90.0
 51
160.0
  0
ARC
  5
361
100
AcDbEntity
  8
0
100
AcDbCircle
 62
3
  6
CONTINUOUS
 10
33.1212428632
 20
8.4500924221
 40
1.0
100
AcDbArc
 50
90.0
 51
160.0
  0
ARC
  5
362
100
AcDbEntity
  8
0
100
AcDbCircle
 62
3
  6
CONTINUOUS
 10
34.1212428632
 20
9.9500924221
 40
0.5
100
AcDbArc
 50
270.0
 51
340.0
  0
ARC
  5
363
100
AcDbEntity
  8
AXIS
100
AcDbCircle
 62
7
  6
CONTINUOUS
 10
35.6391354335
 20
9.6950924221
 40
0.2
100
AcDbArc
 50
0.0
 51
180.0
  0
ARC
  5
364
100
AcDbEntity
  8
0
100
AcDbCircle
 62
7
  6
CONTINUOUS
 10
58.9341196876
 20
2.5800924221
 40
0.253
100
AcDbArc
 50
270.0
 51
90.0
  0
CIRCLE
  5
365
100
AcDbEntity
  8
0
100
AcDbCircle
 62
3
  6
CONTINUOUS
 10
50.8262428632
 20
-3.1579075779
 40
0.155
  0
ARC
  5
366
100
AcDbEntity
  8
0
100
AcDbCircle
 62
3
  6
CONTINUOUS
 10
57.3156362615
 20
-2.5279075779
 40
0.12
100
AcDbArc
 50
0.0
 51
90.0
  0
ARC
  5
367
100
AcDbEntity
  8
0
100
AcDbCircle
 62
7
  6
CONTINUOUS
 10
57.3156362615
 20
-2.5279075779
 40
0.06
100
AcDbArc
 50
0.0
 51
90.0
  0
ARC
  5
368
100
AcDbEntity
  8
0
100
AcDbCircle
 62
3
  6
CONTINUOUS
 10
55.5312428632
 20
8.4500924221
 40
1.0
100
AcDbArc
 50
20.0
 51
90.0
  0
ARC
  5
369
100
AcDbEntity
  8
0
100
AcDbCircle
 62
3
  6
CONTINUOUS
 10
50.9768163441
 20
15.3300924221
 40
1.0
100
AcDbArc
 50
20.0
 51
90.0
  0
ARC
  5
36A
100
AcDbEntity
  8
0
100
AcDbCircle
 62
3
  6
CONTINUOUS
 10
54.5312428632
 20
9.9500924221
 40
0.5
100
AcDbArc
 50
200.0
 51
270.0
  0
ARC
  5
36B
100
AcDbEntity
  8
AXIS
100
AcDbCircle
 62
7
  6
CONTINUOUS
 10
50.4090209707
 20
9.6950924221
 40
0.2
100
AcDbArc
 50
0.0
 51
180.0
  0
CIRCLE
  5
36C
100
AcDbEntity
  8
0
100
AcDbCircle
 62
7
  6
CONTINUOUS
 10
-5.3945244183
 20
-39.3363317289
 40
0.625
  0
CIRCLE
  5
36D
100
AcDbEntity
  8
0
100
AcDbCircle
 62
7
  6
CONTINUOUS
 10
-4.3338642465
 20
-38.2756715572
 40
0.625
  0
CIRCLE
  5
36E
100
AcDbEntity
  8
0
100
AcDbCircle
 62
7
  6
CONTINUOUS
 10
-4.3338642465
 20
-38.2756715572
 40
0.26
  0
CIRCLE
  5
36F
100
AcDbEntity
  8
0
100
AcDbCircle
 62
7
  6
CONTINUOUS
 10
-5.3945244183
 20
-39.3363317289
 40
0.26
  0
CIRCLE
  5
370
100
AcDbEntity
  8
0
100
AcDbCircle
 62
7
  6
CONTINUOUS
 10
-4.3338642465
 20
-38.2756715572
 40
0.187
  0
CIRCLE
  5
371
100
AcDbEntity
  8
0
100
AcDbCircle
 62
7
  6
CONTINUOUS
 10
-5.3945244183
 20
-39.3363317289
 40
0.187
  0
ARC
  5
372
100
AcDbEntity
  8
0
100
AcDbCircle
 62
7
  6
CONTINUOUS
 10
-2.9417248848
 20
-34.7441343519
 40
5.3497282195
100
AcDbArc
 50
34.8128959132
 51
35.6620747504
  0
CIRCLE
  5
373
100
AcDbEntity
  8
0
100
AcDbCircle
 62
7
  6
CONTINUOUS
 10
-0.7497438451
 20
-42.1857412602
 40
0.345
  0
ARC
  5
374
100
AcDbEntity
  8
0
100
AcDbCircle
 62
7
  6
CONTINUOUS
 10
-0.8993386935
 20
-37.0208641419
 40
5.5178645302
100
AcDbArc
 50
54.3508632523
 51
55.1741660841
  0
ARC
  5
375
100
AcDbEntity
  8
0
100
AcDbCircle
 62
7
  6
CONTINUOUS
 10
0.5911201388
 20
-34.2237143844
 40
0.125
100
AcDbArc
 50
143.9892993452
 51
242.9785986903
  0
ARC
  5
376
100
AcDbEntity
  8
0
100
AcDbCircle
 62
7
  6
CONTINUOUS
 10
-3.0790568312
 20
-30.0429352206
 40
5.5178645301
100
AcDbArc
 50
324.3508632523
 51
325.1741660841
  0
ARC
  5
377
100
AcDbEntity
  8
0
100
AcDbCircle
 62
7
  6
CONTINUOUS
 10
-0.8023270412
 20
-28.0005490292
 40
5.3497282195
100
AcDbArc
 50
304.8128959132
 51
305.6620747504
  0
ARC
  5
378
100
AcDbEntity
  8
0
100
AcDbCircle
 62
7
  6
CONTINUOUS
 10
-0.7765770394
 20
-32.7455094418
 40
2.6772101553
100
AcDbArc
 50
350.6899274564
 51
352.4354929354
  0
ARC
  5
379
100
AcDbEntity
  8
0
100
AcDbCircle
 62
7
  6
CONTINUOUS
 10
-0.7147511289
 20
-32.1265999044
 40
2.6164023351
100
AcDbArc
 50
7.4482822205
 51
9.2366177025
  0
CIRCLE
  5
37A
100
AcDbEntity
  8
0
100
AcDbCircle
 62
7
  6
CONTINUOUS
 10
-5.3945244183
 20
-25.5477494958
 40
0.625
  0
CIRCLE
  5
37B
100
AcDbEntity
  8
0
100
AcDbCircle
 62
7
  6
CONTINUOUS
 10
-4.3338642465
 20
-26.6084096676
 40
0.625
  0
ARC
  5
37C
100
AcDbEntity
  8
0
100
AcDbCircle
 62
7
  6
CONTINUOUS
 10
0.0855531359
 20
-33.8562541748
 40
0.5
100
AcDbArc
 50
323.9892993452
 51
126.0107006548
  0
ARC
  5
37D
100
AcDbEntity
  8
0
100
AcDbCircle
 62
7
  6
CONTINUOUS
 10
0.0855531359
 20
-31.02782705
 40
0.5
100
AcDbArc
 50
233.9892993452
 51
36.0107006548
  0
CIRCLE
  5
37E
100
AcDbEntity
  8
0
100
AcDbCircle
 62
7
  6
CONTINUOUS
 10
0.0855531359
 20
-33.8562541748
 40
0.2655
  0
CIRCLE
  5
37F
100
AcDbEntity
  8
0
100
AcDbCircle
 62
7
  6
CONTINUOUS
 10
0.0855531359
 20
-31.02782705
 40
0.2655
  0
CIRCLE
  5
380
100
AcDbEntity
  8
0
100
AcDbCircle
 62
7
  6
CONTINUOUS
 10
-4.3338642465
 20
-26.6084096676
 40
0.26
  0
CIRCLE
  5
381
100
AcDbEntity
  8
0
100
AcDbCircle
 62
7
  6
CONTINUOUS
 10
-5.3945244183
 20
-25.5477494958
 40
0.26
  0
CIRCLE
  5
382
100
AcDbEntity
  8
0
100
AcDbCircle
 62
7
  6
CONTINUOUS
 10
0.0855531359
 20
-33.8562541748
 40
0.187
  0
CIRCLE
  5
383
100
AcDbEntity
  8
0
100
AcDbCircle
 62
7
  6
CONTINUOUS
 10
0.0855531359
 20
-31.02782705
 40
0.187
  0
CIRCLE
  5
384
100
AcDbEntity
  8
0
100
AcDbCircle
 62
7
  6
CONTINUOUS
 10
-4.3338642465
 20
-26.6084096676
 40
0.187
  0
CIRCLE
  5
385
100
AcDbEntity
  8
0
100
AcDbCircle
 62
7
  6
CONTINUOUS
 10
-5.3945244183
 20
-25.5477494958
 40
0.187
  0
ARC
  5
386
100
AcDbEntity
  8
0
100
AcDbCircle
 62
7
  6
CONTINUOUS
 10
-0.2819070737
 20
-33.3506871719
 40
0.125
100
AcDbArc
 50
207.0214013097
 51
306.0107006548
  0
ARC
  5
387
100
AcDbEntity
  8
0
100
AcDbCircle
 62
7
  6
CONTINUOUS
 10
0.5911201388
 20
-30.6603668404
 40
0.125
100
AcDbArc
 50
117.0214013097
 51
216.0107006548
  0
ARC
  5
388
100
AcDbEntity
  8
0
100
AcDbCircle
 62
7
  6
CONTINUOUS
 10
-0.2819070737
 20
-31.5333940528
 40
0.125
100
AcDbArc
 50
53.9892993452
 51
152.9785986903
  0
ARC
  5
389
100
AcDbEntity
  8
0
100
AcDbCircle
 62
7
  6
CONTINUOUS
 10
6.0785902277
 20
-34.8411460041
 40
5.51786453
100
AcDbArc
 50
144.3508632522
 51
145.1741660841
  0
ARC
  5
38A
100
AcDbEntity
  8
0
100
AcDbCircle
 62
7
  6
CONTINUOUS
 10
3.8018604378
 20
-36.8835321955
 40
5.3497282195
100
AcDbArc
 50
124.8128959132
 51
125.6620747504
  0
ARC
  5
38B
100
AcDbEntity
  8
0
100
AcDbCircle
 62
7
  6
CONTINUOUS
 10
1.8072485882
 20
-34.7108326198
 40
2.6712504132
100
AcDbArc
 50
80.7817434522
 51
82.5333566247
  0
CIRCLE
  5
38C
100
AcDbEntity
  8
0
100
AcDbCircle
 62
7
  6
CONTINUOUS
 10
7.3333976431
 20
-38.2756715572
 40
0.625
  0
CIRCLE
  5
38D
100
AcDbEntity
  8
0
100
AcDbCircle
 62
7
  6
CONTINUOUS
 10
8.3940578149
 20
-39.3363317289
 40
0.625
  0
CIRCLE
  5
38E
100
AcDbEntity
  8
0
100
AcDbCircle
 62
7
  6
CONTINUOUS
 10
7.3333976431
 20
-38.2756715572
 40
0.26
  0
CIRCLE
  5
38F
100
AcDbEntity
  8
0
100
AcDbCircle
 62
7
  6
CONTINUOUS
 10
8.3940578149
 20
-39.3363317289
 40
0.26
  0
CIRCLE
  5
390
100
AcDbEntity
  8
0
100
AcDbCircle
 62
7
  6
CONTINUOUS
 10
7.3333976431
 20
-38.2756715572
 40
0.187
  0
CIRCLE
  5
391
100
AcDbEntity
  8
0
100
AcDbCircle
 62
7
  6
CONTINUOUS
 10
8.3940578149
 20
-39.3363317289
 40
0.187
  0
ARC
  5
392
100
AcDbEntity
  8
0
100
AcDbCircle
 62
7
  6
CONTINUOUS
 10
2.4084132579
 20
-34.2237143844
 40
0.125
100
AcDbArc
 50
297.0214013097
 51
36.0107006548
  0
ARC
  5
393
100
AcDbEntity
  8
0
100
AcDbCircle
 62
7
  6
CONTINUOUS
 10
1.4997666983
 20
-32.4420406124
 40
14.8608768244
100
AcDbArc
 50
242.146935967
 51
298.3465739702
  0
ARC
  5
394
100
AcDbEntity
  8
0
100
AcDbCircle
 62
7
  6
CONTINUOUS
 10
1.4997666983
 20
-32.4420406124
 40
14.8608768244
100
AcDbArc
 50
151.9950762459
 51
208.0465106891
  0
ARC
  5
395
100
AcDbEntity
  8
0
100
AcDbCircle
 62
7
  6
CONTINUOUS
 10
1.4997666983
 20
-32.4420406124
 40
14.8608768244
100
AcDbArc
 50
62.146935967
 51
117.8470199318
  0
ARC
  5
396
100
AcDbEntity
  8
0
100
AcDbCircle
 62
7
  6
CONTINUOUS
 10
1.4997666983
 20
-32.4420406124
 40
14.8608768244
100
AcDbArc
 50
331.9950762459
 51
28.0465106891
  0
CIRCLE
  5
397
100
AcDbEntity
  8
0
100
AcDbCircle
 62
7
  6
CONTINUOUS
 10
1.4997666983
 20
-32.4420406124
 40
6.6124187794
  0
CIRCLE
  5
398
100
AcDbEntity
  8
0
100
AcDbCircle
 62
7
  6
CONTINUOUS
 10
1.4997666983
 20
-32.4420406124
 40
6.3132924168
  0
CIRCLE
  5
399
100
AcDbEntity
  8
0
100
AcDbCircle
 62
7
  6
CONTINUOUS
 10
1.4997666983
 20
-32.4420406124
 40
5.4526816641
  0
CIRCLE
  5
39A
100
AcDbEntity
  8
0
100
AcDbCircle
 62
7
  6
CONTINUOUS
 10
1.4997666983
 20
-32.4420406124
 40
2.5
  0
CIRCLE
  5
39B
100
AcDbEntity
  8
0
100
AcDbCircle
 62
7
  6
CONTINUOUS
 10
1.4997666983
 20
-32.4420406124
 40
2.4803470828
  0
ARC
  5
39C
100
AcDbEntity
  8
0
100
AcDbCircle
 62
7
  6
CONTINUOUS
 10
1.4997666983
 20
-32.4420406124
 40
2.125
100
AcDbArc
 50
2.4445050567
 51
27.0214013097
  0
ARC
  5
39D
100
AcDbEntity
  8
0
100
AcDbCircle
 62
7
  6
CONTINUOUS
 10
1.4997666983
 20
-32.4420406124
 40
2.125
100
AcDbArc
 50
152.9785986903
 51
177.5554949433
  0
ARC
  5
39E
100
AcDbEntity
  8
0
100
AcDbCircle
 62
7
  6
CONTINUOUS
 10
1.4997666983
 20
-32.4420406124
 40
2.125
100
AcDbArc
 50
62.9785986903
 51
87.5554949433
  0
ARC
  5
39F
100
AcDbEntity
  8
0
100
AcDbCircle
 62
7
  6
CONTINUOUS
 10
1.4997666983
 20
-32.4420406124
 40
2.125
100
AcDbArc
 50
92.4445050567
 51
117.0214013097
  0
ARC
  5
3A0
100
AcDbEntity
  8
0
100
AcDbCircle
 62
7
  6
CONTINUOUS
 10
1.4997666983
 20
-32.4420406124
 40
2.125
100
AcDbArc
 50
272.4445050567
 51
297.0214013097
  0
ARC
  5
3A1
100
AcDbEntity
  8
0
100
AcDbCircle
 62
7
  6
CONTINUOUS
 10
1.4997666983
 20
-32.4420406124
 40
2.125
100
AcDbArc
 50
242.9785986903
 51
267.5554949433
  0
ARC
  5
3A2
100
AcDbEntity
  8
0
100
AcDbCircle
 62
7
  6
CONTINUOUS
 10
1.4997666983
 20
-32.4420406124
 40
2.125
100
AcDbArc
 50
182.4445050567
 51
207.0214013097
  0
ARC
  5
3A3
100
AcDbEntity
  8
0
100
AcDbCircle
 62
7
  6
CONTINUOUS
 10
1.4997666983
 20
-32.4420406124
 40
2.125
100
AcDbArc
 50
332.9785986903
 51
357.5554949433
  0
ARC
  5
3A4
100
AcDbEntity
  8
0
100
AcDbCircle
 62
7
  6
CONTINUOUS
 10
1.4997666983
 20
-32.4420406124
 40
0.8223227354
100
AcDbArc
 50
6.6339889503
 51
26.5811014335
  0
ARC
  5
3A5
100
AcDbEntity
  8
0
100
AcDbCircle
 62
7
  6
CONTINUOUS
 10
1.4997666983
 20
-32.4420406124
 40
0.8223227354
100
AcDbArc
 50
63.4188985665
 51
83.3660110497
  0
ARC
  5
3A6
100
AcDbEntity
  8
0
100
AcDbCircle
 62
7
  6
CONTINUOUS
 10
1.4997666983
 20
-32.4420406124
 40
0.8223227354
100
AcDbArc
 50
276.6339889503
 51
296.3974090266
  0
ARC
  5
3A7
100
AcDbEntity
  8
0
100
AcDbCircle
 62
7
  6
CONTINUOUS
 10
1.4997666983
 20
-32.4420406124
 40
0.8223227354
100
AcDbArc
 50
333.6025909734
 51
353.3660110497
  0
ARC
  5
3A8
100
AcDbEntity
  8
0
100
AcDbCircle
 62
7
  6
CONTINUOUS
 10
1.4997666983
 20
-32.4420406124
 40
0.8223227354
100
AcDbArc
 50
186.6339889503
 51
263.3660110497
  0
ARC
  5
3A9
100
AcDbEntity
  8
0
100
AcDbCircle
 62
7
  6
CONTINUOUS
 10
1.4997666983
 20
-32.4420406124
 40
0.8223227354
100
AcDbArc
 50
96.6339889503
 51
173.3660110497
  0
ARC
  5
3AA
100
AcDbEntity
  8
0
100
AcDbCircle
 62
7
  6
CONTINUOUS
 10
1.4997666983
 20
-32.4420406124
 40
0.7568130113
100
AcDbArc
 50
30.1225948166
 51
59.8774051834
  0
ARC
  5
3AB
100
AcDbEntity
  8
0
100
AcDbCircle
 62
7
  6
CONTINUOUS
 10
1.4997666983
 20
-32.4420406124
 40
0.7568130113
100
AcDbArc
 50
299.9266740395
 51
330.0733259605
  0
ARC
  5
3AC
100
AcDbEntity
  8
0
100
AcDbCircle
 62
7
  6
CONTINUOUS
 10
1.4997666983
 20
-32.4420406124
 40
0.7536685445
100
AcDbArc
 50
86.2529323231
 51
93.7470676769
  0
ARC
  5
3AD
100
AcDbEntity
  8
0
100
AcDbCircle
 62
7
  6
CONTINUOUS
 10
1.4997666983
 20
-32.4420406124
 40
0.7536685445
100
AcDbArc
 50
176.2529323231
 51
183.7470676769
  0
ARC
  5
3AE
100
AcDbEntity
  8
0
100
AcDbCircle
 62
7
  6
CONTINUOUS
 10
1.4997666983
 20
-32.4420406124
 40
0.7536685445
100
AcDbArc
 50
266.2529323231
 51
273.7470676769
  0
ARC
  5
3AF
100
AcDbEntity
  8
0
100
AcDbCircle
 62
7
  6
CONTINUOUS
 10
1.4997666983
 20
-32.4420406124
 40
0.7536685445
100
AcDbArc
 50
356.2529323231
 51
3.7470676769
  0
CIRCLE
  5
3B0
100
AcDbEntity
  8
0
100
AcDbCircle
 62
7
  6
CONTINUOUS
 10
1.4997666983
 20
-32.4420406124
 40
0.75
  0
ARC
  5
3B1
100
AcDbEntity
  8
0
100
AcDbCircle
 62
7
  6
CONTINUOUS
 10
1.4997666983
 20
-32.4420406124
 40
0.3125
100
AcDbArc
 50
62.5056593048
 51
27.4943406952
  0
CIRCLE
  5
3B2
100
AcDbEntity
  8
0
100
AcDbCircle
 62
7
  6
CONTINUOUS
 10
1.4997666983
 20
-32.4420406124
 40
0.25
  0
ARC
  5
3B3
100
AcDbEntity
  8
0
100
AcDbCircle
 62
7
  6
CONTINUOUS
 10
1.9523150383
 20
-32.8945889523
 40
0.78
100
AcDbArc
 50
298.6783348578
 51
331.3216651422
  0
ARC
  5
3B4
100
AcDbEntity
  8
0
100
AcDbCircle
 62
7
  6
CONTINUOUS
 10
2.1350784006
 20
-33.2285180281
 40
0.3993281503
100
AcDbArc
 50
298.6649142479
 51
303.6576625913
  0
ARC
  5
3B5
100
AcDbEntity
  8
0
100
AcDbCircle
 62
7
  6
CONTINUOUS
 10
1.8113021304
 20
-30.2200788671
 40
2.6222396615
100
AcDbArc
 50
277.5462092989
 51
279.3283703093
  0
ARC
  5
3B6
100
AcDbEntity
  8
0
100
AcDbCircle
 62
7
  6
CONTINUOUS
 10
1.9523150383
 20
-31.9894922724
 40
0.78
100
AcDbArc
 50
28.6783348578
 51
61.3216651422
  0
ARC
  5
3B7
100
AcDbEntity
  8
0
100
AcDbCircle
 62
7
  6
CONTINUOUS
 10
2.286244114
 20
-31.8067289101
 40
0.3993281503
100
AcDbArc
 50
28.6649142478
 51
33.6576625913
  0
ARC
  5
3B8
100
AcDbEntity
  8
0
100
AcDbCircle
 62
7
  6
CONTINUOUS
 10
2.9139802607
 20
-33.8562541748
 40
0.5
100
AcDbArc
 50
53.9892993452
 51
216.0107006548
  0
CIRCLE
  5
3B9
100
AcDbEntity
  8
0
100
AcDbCircle
 62
7
  6
CONTINUOUS
 10
2.9139802607
 20
-33.8562541748
 40
0.2655
  0
CIRCLE
  5
3BA
100
AcDbEntity
  8
0
100
AcDbCircle
 62
7
  6
CONTINUOUS
 10
2.9139802607
 20
-33.8562541748
 40
0.187
  0
ARC
  5
3BB
100
AcDbEntity
  8
0
100
AcDbCircle
 62
7
  6
CONTINUOUS
 10
3.2814404703
 20
-33.3506871719
 40
0.125
100
AcDbArc
 50
233.9892993452
 51
332.9785986903
  0
ARC
  5
3BC
100
AcDbEntity
  8
0
100
AcDbCircle
 62
7
  6
CONTINUOUS
 10
2.9139802607
 20
-31.02782705
 40
0.5
100
AcDbArc
 50
143.9892993452
 51
306.0107006548
  0
CIRCLE
  5
3BD
100
AcDbEntity
  8
0
100
AcDbCircle
 62
7
  6
CONTINUOUS
 10
2.9139802607
 20
-31.02782705
 40
0.2655
  0
CIRCLE
  5
3BE
100
AcDbEntity
  8
0
100
AcDbCircle
 62
7
  6
CONTINUOUS
 10
2.9139802607
 20
-31.02782705
 40
0.187
  0
ARC
  5
3BF
100
AcDbEntity
  8
0
100
AcDbCircle
 62
7
  6
CONTINUOUS
 10
3.2814404703
 20
-31.5333940528
 40
0.125
100
AcDbArc
 50
27.0214013097
 51
126.0107006548
  0
ARC
  5
3C0
100
AcDbEntity
  8
0
100
AcDbCircle
 62
7
  6
CONTINUOUS
 10
2.4084132579
 20
-30.6603668404
 40
0.125
100
AcDbArc
 50
323.9892993452
 51
62.9785986903
  0
ARC
  5
3C1
100
AcDbEntity
  8
0
100
AcDbCircle
 62
7
  6
CONTINUOUS
 10
3.8988720902
 20
-27.8632170827
 40
5.5178645304
100
AcDbArc
 50
234.3508632523
 51
235.1741660841
  0
ARC
  5
3C2
100
AcDbEntity
  8
0
100
AcDbCircle
 62
7
  6
CONTINUOUS
 10
5.9412582814
 20
-30.1399468729
 40
5.3497282194
100
AcDbArc
 50
214.8128959132
 51
215.6620747504
  0
CIRCLE
  5
3C3
100
AcDbEntity
  8
0
100
AcDbCircle
 62
7
  6
CONTINUOUS
 10
8.3940578149
 20
-25.5477494958
 40
0.625
  0
CIRCLE
  5
3C4
100
AcDbEntity
  8
0
100
AcDbCircle
 62
7
  6
CONTINUOUS
 10
7.3333976431
 20
-26.6084096676
 40
0.625
  0
CIRCLE
  5
3C5
100
AcDbEntity
  8
0
100
AcDbCircle
 62
7
  6
CONTINUOUS
 10
7.3333976431
 20
-26.6084096676
 40
0.26
  0
CIRCLE
  5
3C6
100
AcDbEntity
  8
0
100
AcDbCircle
 62
7
  6
CONTINUOUS
 10
8.3940578149
 20
-25.5477494958
 40
0.26
  0
CIRCLE
  5
3C7
100
AcDbEntity
  8
0
100
AcDbCircle
 62
7
  6
CONTINUOUS
 10
7.3333976431
 20
-26.6084096676
 40
0.187
  0
CIRCLE
  5
3C8
100
AcDbEntity
  8
0
100
AcDbCircle
 62
7
  6
CONTINUOUS
 10
8.3940578149
 20
-25.5477494958
 40
0.187
  0
SPLINE
  5
3C9
100
AcDbEntity
  8
0
100
AcDbSpline
 62
7
  6
CONTINUOUS
 70
0
 71
3
 72
9
 73
5
 74
0
 42
0.0000001
 43
0.0000001
 44
0.0000000001
 40
0.0
 40
0.0
 40
0.0
 40
0.0
 40
0.2478436378
 40
1.0
 40
1.0
 40
1.0
 40
1.0
 10
-6.2159742377
 20
1.9701717387
 30
0.0
 10
-6.2167556741
 20
1.9700181775
 30
0.0
 10
-6.2198934772
 20
1.96932335
 30
0.0
 10
-6.2229641097
 20
1.9683293763
 30
0.0
 10
-6.2252081338
 20
1.9674318399
 30
0.0
  0
SPLINE
  5
3CA
100
AcDbEntity
  8
0
100
AcDbSpline
 62
7
  6
CONTINUOUS
 70
0
 71
3
 72
9
 73
5
 74
0
 42
0.0000001
 43
0.0000001
 44
0.0000000001
 40
0.0
 40
0.0
 40
0.0
 40
0.0
 40
0.2465219746
 40
1.0
 40
1.0
 40
1.0
 40
1.0
 10
-6.2252081338
 20
1.9674318399
 30
0.0
 10
-6.2259682124
 20
1.9671278333
 30
0.0
 10
-6.2290230848
 20
1.9658246179
 30
0.0
 10
-6.2319587965
 20
1.9642447274
 30
0.0
 10
-6.2340829839
 20
1.9629225601
 30
0.0
  0
SPLINE
  5
3CB
100
AcDbEntity
  8
0
100
AcDbSpline
 62
7
  6
CONTINUOUS
 70
0
 71
3
 72
25
 73
21
 74
0
 42
0.0000001
 43
0.0000001
 44
0.0000000001
 40
0.0
 40
0.0
 40
0.0
 40
0.0
 40
0.0533674121
 40
0.1096026881
 40
0.1388678185
 40
0.1688899913
 40
0.2310688523
 40
0.2958180835
 40
0.3626535069
 40
0.4309565482
 40
0.5
 40
0.5690434518
 40
0.6373464931
 40
0.7041819165
 40
0.7689311477
 40
0.8311100087
 40
0.8611321815
 40
0.8903973119
 40
0.9466325879
 40
1.0
 40
1.0
 40
1.0
 40
1.0
 10
-6.2340829839
 20
1.9629225601
 30
0.0
 10
-6.2372202517
 20
1.9609698167
 30
0.0
 10
-6.2433007782
 20
1.956356313
 30
0.0
 10
-6.2499597291
 20
1.9493686621
 30
0.0
 10
-6.2548314141
 20
1.943017049
 30
0.0
 10
-6.259476009
 20
1.935997732
 30
0.0
 10
-6.2645589931
 20
1.9263569705
 30
0.0
 10
-6.2693858756
 20
1.9138082208
 30
0.0
 10
-6.2728932141
 20
1.9003907482
 30
0.0
 10
-6.2750253334
 20
1.8863895466
 30
0.0
 10
-6.2757499766
 20
1.8720924221
 30
0.0
 10
-6.2750253334
 20
1.8577952976
 30
0.0
 10
-6.2728932141
 20
1.843794096
 30
0.0
 10
-6.2693858756
 20
1.8303766234
 30
0.0
 10
-6.2645589931
 20
1.8178278737
 30
0.0
 10
-6.259476009
 20
1.8081871122
 30
0.0
 10
-6.2548314141
 20
1.8011677952
 30
0.0
 10
-6.2499597291
 20
1.7948161821
 30
0.0
 10
-6.2433007782
 20
1.7878285312
 30
0.0
 10
-6.2372202517
 20
1.7832150275
 30
0.0
 10
-6.2340829839
 20
1.7812622841
 30
0.0
  0
SPLINE
  5
3CC
100
AcDbEntity
  8
0
100
AcDbSpline
 62
7
  6
CONTINUOUS
 70
0
 71
3
 72
9
 73
5
 74
0
 42
0.0000001
 43
0.0000001
 44
0.0000000001
 40
0.0
 40
0.0
 40
0.0
 40
0.0
 40
0.2539314514
 40
1.0
 40
1.0
 40
1.0
 40
1.0
 10
-6.2340829839
 20
1.7812622841
 30
0.0
 10
-6.2333671134
 20
1.7808167017
 30
0.0
 10
-6.2305112891
 20
1.779121795
 30
0.0
 10
-6.2275083957
 20
1.777673034
 30
0.0
 10
-6.2252081338
 20
1.7767530043
 30
0.0
  0
SPLINE
  5
3CD
100
AcDbEntity
  8
0
100
AcDbSpline
 62
7
  6
CONTINUOUS
 70
0
 71
3
 72
9
 73
5
 74
0
 42
0.0000001
 43
0.0000001
 44
0.0000000001
 40
0.0
 40
0.0
 40
0.0
 40
0.0
 40
0.2526819861
 40
1.0
 40
1.0
 40
1.0
 40
1.0
 10
-6.2252081338
 20
1.7767530043
 30
0.0
 10
-6.2244542764
 20
1.776451486
 30
0.0
 10
-6.2214444039
 20
1.7753256762
 30
0.0
 10
-6.2183304631
 20
1.7744761307
 30
0.0
 10
-6.2159742377
 20
1.7740131055
 30
0.0
  0
SPLINE
  5
3CE
100
AcDbEntity
  8
0
100
AcDbSpline
 62
7
  6
CONTINUOUS
 70
0
 71
3
 72
9
 73
5
 74
0
 42
0.0000001
 43
0.0000001
 44
0.0000000001
 40
0.0
 40
0.0
 40
0.0
 40
0.0
 40
0.2478427605
 40
1.0
 40
1.0
 40
1.0
 40
1.0
 10
-6.2166730033
 20
-1.5298282613
 30
0.0
 10
-6.2174543608
 20
-1.5299818226
 30
0.0
 10
-6.2205918553
 20
-1.5306766527
 30
0.0
 10
-6.2236621723
 20
-1.5316706276
 30
0.0
 10
-6.2259059574
 20
-1.5325681601
 30
0.0
  0
SPLINE
  5
3CF
100
AcDbEntity
  8
0
100
AcDbSpline
 62
7
  6
CONTINUOUS
 70
0
 71
3
 72
9
 73
5
 74
0
 42
0.0000001
 43
0.0000001
 44
0.0000000001
 40
0.0
 40
0.0
 40
0.0
 40
0.0
 40
0.2465206783
 40
1.0
 40
1.0
 40
1.0
 40
1.0
 10
-6.2259059574
 20
-1.5325681601
 30
0.0
 10
-6.2266659595
 20
-1.5328721672
 30
0.0
 10
-6.2297205358
 20
-1.5341753897
 30
0.0
 10
-6.2326559419
 20
-1.5357552801
 30
0.0
 10
-6.2347798998
 20
-1.5370774399
 30
0.0
  0
SPLINE
  5
3D0
100
AcDbEntity
  8
0
100
AcDbSpline
 62
7
  6
CONTINUOUS
 70
0
 71
3
 72
25
 73
21
 74
0
 42
0.0000001
 43
0.0000001
 44
0.0000000001
 40
0.0
 40
0.0
 40
0.0
 40
0.0
 40
0.0533651146
 40
0.1095988813
 40
0.1388635517
 40
0.1688854547
 40
0.2310643023
 40
0.2958141193
 40
0.3626505981
 40
0.4309550134
 40
0.5
 40
0.5690449866
 40
0.6373494019
 40
0.7041858807
 40
0.7689356977
 40
0.8311145453
 40
0.8611364483
 40
0.8904011187
 40
0.9466348854
 40
1.0
 40
1.0
 40
1.0
 40
1.0
 10
-6.2347798998
 20
-1.5370774399
 30
0.0
 10
-6.2379168722
 20
-1.5390301994
 30
0.0
 10
-6.2439968185
 20
-1.5436437497
 30
0.0
 10
-6.2506550474
 20
-1.5506313777
 30
0.0
 10
-6.2555262109
 20
-1.5569829679
 30
0.0
 10
-6.2601703381
 20
-1.5640023052
 30
0.0
 10
-6.2652527989
 20
-1.5736430852
 30
0.0
 10
-6.2700791715
 20
-1.5861918232
 30
0.0
 10
-6.2735861389
 20
-1.5996092815
 30
0.0
 10
-6.2757180328
 20
-1.6136104684
 30
0.0
 10
-6.2764425993
 20
-1.6279075779
 30
0.0
 10
-6.2757180328
 20
-1.6422046875
 30
0.0
 10
-6.2735861389
 20
-1.6562058744
 30
0.0
 10
-6.2700791715
 20
-1.6696233326
 30
0.0
 10
-6.2652527989
 20
-1.6821720706
 30
0.0
 10
-6.2601703381
 20
-1.6918128506
 30
0.0
 10
-6.2555262109
 20
-1.6988321879
 30
0.0
 10
-6.2506550474
 20
-1.7051837781
 30
0.0
 10
-6.2439968185
 20
-1.7121714061
 30
0.0
 10
-6.2379168722
 20
-1.7167849564
 30
0.0
 10
-6.2347798998
 20
-1.7187377159
 30
0.0
  0
SPLINE
  5
3D1
100
AcDbEntity
  8
0
100
AcDbSpline
 62
7
  6
CONTINUOUS
 70
0
 71
3
 72
9
 73
5
 74
0
 42
0.0000001
 43
0.0000001
 44
0.0000000001
 40
0.0
 40
0.0
 40
0.0
 40
0.0
 40
0.2539328411
 40
1.0
 40
1.0
 40
1.0
 40
1.0
 10
-6.2347798998
 20
-1.7187377159
 30
0.0
 10
-6.234064104
 20
-1.7191832975
 30
0.0
 10
-6.2312085878
 20
-1.720878195
 30
0.0
 10
-6.2282059958
 20
-1.7223269614
 30
0.0
 10
-6.2259059574
 20
-1.7232469957
 30
0.0
  0
SPLINE
  5
3D2
100
AcDbEntity
  8
0
100
AcDbSpline
 62
7
  6
CONTINUOUS
 70
0
 71
3
 72
9
 73
5
 74
0
 42
0.0000001
 43
0.0000001
 44
0.0000000001
 40
0.0
 40
0.0
 40
0.0
 40
0.0
 40
0.2526830038
 40
1.0
 40
1.0
 40
1.0
 40
1.0
 10
-6.2259059574
 20
-1.7232469957
 30
0.0
 10
-6.2251521781
 20
-1.7235485136
 30
0.0
 10
-6.2221426252
 20
-1.7246743191
 30
0.0
 10
-6.2190289959
 20
-1.7255238679
 30
0.0
 10
-6.2166730033
 20
-1.7259868945
 30
0.0
  0
SPLINE
  5
3D3
100
AcDbEntity
  8
0
100
AcDbSpline
 62
7
  6
CONTINUOUS
 70
0
 71
3
 72
9
 73
5
 74
0
 42
0.0000001
 43
0.0000001
 44
0.0000000001
 40
0.0
 40
0.0
 40
0.0
 40
0.0
 40
0.4952145883
 40
1.0
 40
1.0
 40
1.0
 40
1.0
 10
-6.1782300698
 20
-1.5289075779
 30
0.0
 10
-6.1815262682
 20
-1.5289075779
 30
0.0
 10
-6.1881989585
 20
-1.529601808
 30
0.0
 10
-6.1945938216
 20
-1.5316102771
 30
0.0
 10
-6.1976923377
 20
-1.5329095633
 30
0.0
  0
SPLINE
  5
3D4
100
AcDbEntity
  8
0
100
AcDbSpline
 62
7
  6
CONTINUOUS
 70
0
 71
3
 72
9
 73
5
 74
0
 42
0.0000001
 43
0.0000001
 44
0.0000000001
 40
0.0
 40
0.0
 40
0.0
 40
0.0
 40
0.2462358072
 40
1.0
 40
1.0
 40
1.0
 40
1.0
 10
-6.1976923377
 20
-1.5329095633
 30
0.0
 10
-6.1984845456
 20
-1.5332417561
 30
0.0
 10
-6.2016696222
 20
-1.5346667919
 30
0.0
 10
-6.2047188599
 20
-1.5363921265
 30
0.0
 10
-6.2069187397
 20
-1.5378327996
 30
0.0
  0
SPLINE
  5
3D5
100
AcDbEntity
  8
0
100
AcDbSpline
 62
7
  6
CONTINUOUS
 70
0
 71
3
 72
21
 73
17
 74
0
 42
0.0000001
 43
0.0000001
 44
0.0000000001
 40
0.0
 40
0.0
 40
0.0
 40
0.0
 40
0.1097086226
 40
0.169116389
 40
0.2313762885
 40
0.2961296323
 40
0.3629034945
 40
0.4310946401
 40
0.5
 40
0.5689053599
 40
0.6370965055
 40
0.7038703677
 40
0.7686237115
 40
0.830883611
 40
0.8902913774
 40
1.0
 40
1.0
 40
1.0
 40
1.0
 10
-6.2069187397
 20
-1.5378327996
 30
0.0
 10
-6.2131841766
 20
-1.541935954
 30
0.0
 10
-6.2217268125
 20
-1.5500644469
 30
0.0
 10
-6.2307091762
 20
-1.5630802185
 30
0.0
 10
-6.2365650197
 20
-1.5744211323
 30
0.0
 10
-6.2412471811
 20
-1.5868218383
 30
0.0
 10
-6.2446468694
 20
-1.6000522992
 30
0.0
 10
-6.2467135802
 20
-1.6138388664
 30
0.0
 10
-6.2474157298
 20
-1.6279075779
 30
0.0
 10
-6.2467135802
 20
-1.6419762894
 30
0.0
 10
-6.2446468694
 20
-1.6557628566
 30
0.0
 10
-6.2412471811
 20
-1.6689933175
 30
0.0
 10
-6.2365650197
 20
-1.6813940235
 30
0.0
 10
-6.2307091762
 20
-1.6927349373
 30
0.0
 10
-6.2217268125
 20
-1.7057507089
 30
0.0
 10
-6.2131841766
 20
-1.7138792018
 30
0.0
 10
-6.2069187397
 20
-1.7179823562
 30
0.0
  0
SPLINE
  5
3D6
100
AcDbEntity
  8
0
100
AcDbSpline
 62
7
  6
CONTINUOUS
 70
0
 71
3
 72
9
 73
5
 74
0
 42
0.0000001
 43
0.0000001
 44
0.0000000001
 40
0.0
 40
0.0
 40
0.0
 40
0.0
 40
0.2542476464
 40
1.0
 40
1.0
 40
1.0
 40
1.0
 10
-6.2069187397
 20
-1.7179823562
 30
0.0
 10
-6.2061767205
 20
-1.718468295
 30
0.0
 10
-6.203217251
 20
-1.7203160106
 30
0.0
 10
-6.2000915978
 20
-1.721899522
 30
0.0
 10
-6.1976923377
 20
-1.7229055925
 30
0.0
  0
SPLINE
  5
3D7
100
AcDbEntity
  8
0
100
AcDbSpline
 62
7
  6
CONTINUOUS
 70
0
 71
3
 72
9
 73
5
 74
0
 42
0.0000001
 43
0.0000001
 44
0.0000000001
 40
0.0
 40
0.0
 40
0.0
 40
0.0
 40
0.5047854117
 40
1.0
 40
1.0
 40
1.0
 40
1.0
 10
-6.1976923377
 20
-1.7229055925
 30
0.0
 10
-6.1945938216
 20
-1.7242048787
 30
0.0
 10
-6.1881989585
 20
-1.7262133478
 30
0.0
 10
-6.1815262682
 20
-1.7269075779
 30
0.0
 10
-6.1782300698
 20
-1.7269075779
 30
0.0
  0
SPLINE
  5
3D8
100
AcDbEntity
  8
0
100
AcDbSpline
 62
7
  6
CONTINUOUS
 70
0
 71
3
 72
9
 73
5
 74
0
 42
0.0000001
 43
0.0000001
 44
0.0000000001
 40
0.0
 40
0.0
 40
0.0
 40
0.0
 40
0.4952163714
 40
1.0
 40
1.0
 40
1.0
 40
1.0
 10
-6.1775302792
 20
1.9710924221
 30
0.0
 10
-6.1808267864
 20
1.9710924221
 30
0.0
 10
-6.1875000749
 20
1.9703981979
 30
0.0
 10
-6.1938955637
 20
1.9683897304
 30
0.0
 10
-6.1969943919
 20
1.9670904367
 30
0.0
  0
SPLINE
  5
3D9
100
AcDbEntity
  8
0
100
AcDbSpline
 62
7
  6
CONTINUOUS
 70
0
 71
3
 72
9
 73
5
 74
0
 42
0.0000001
 43
0.0000001
 44
0.0000000001
 40
0.0
 40
0.0
 40
0.0
 40
0.0
 40
0.2462370976
 40
1.0
 40
1.0
 40
1.0
 40
1.0
 10
-6.1969943919
 20
1.9670904367
 30
0.0
 10
-6.1977866739
 20
1.9667582444
 30
0.0
 10
-6.2009720366
 20
1.9653332164
 30
0.0
 10
-6.2040215701
 20
1.9636078815
 30
0.0
 10
-6.2062216718
 20
1.9621672004
 30
0.0
  0
SPLINE
  5
3DA
100
AcDbEntity
  8
0
100
AcDbSpline
 62
7
  6
CONTINUOUS
 70
0
 71
3
 72
21
 73
17
 74
0
 42
0.0000001
 43
0.0000001
 44
0.0000000001
 40
0.0
 40
0.0
 40
0.0
 40
0.0
 40
0.1097120592
 40
0.1691204768
 40
0.2313803854
 40
0.2961331998
 40
0.3629061111
 40
0.4310960204
 40
0.5
 40
0.5689039796
 40
0.6370938889
 40
0.7038668002
 40
0.7686196146
 40
0.8308795232
 40
0.8902879408
 40
1.0
 40
1.0
 40
1.0
 40
1.0
 10
-6.2062216718
 20
1.9621672004
 30
0.0
 10
-6.2124876112
 20
1.9580641078
 30
0.0
 10
-6.2210310467
 20
1.9499357013
 30
0.0
 10
-6.2300143478
 20
1.936919839
 30
0.0
 10
-6.2358707656
 20
1.9255789174
 30
0.0
 10
-6.2405533866
 20
1.9131782007
 30
0.0
 10
-6.2439534089
 20
1.8999477271
 30
0.0
 10
-6.2460203226
 20
1.8861611468
 30
0.0
 10
-6.2467225411
 20
1.8720924221
 30
0.0
 10
-6.2460203226
 20
1.8580236974
 30
0.0
 10
-6.2439534089
 20
1.8442371171
 30
0.0
 10
-6.2405533866
 20
1.8310066435
 30
0.0
 10
-6.2358707656
 20
1.8186059268
 30
0.0
 10
-6.2300143478
 20
1.8072650052
 30
0.0
 10
-6.2210310467
 20
1.7942491429
 30
0.0
 10
-6.2124876112
 20
1.7861207363
 30
0.0
 10
-6.2062216718
 20
1.7820176438
 30
0.0
  0
SPLINE
  5
3DB
100
AcDbEntity
  8
0
100
AcDbSpline
 62
7
  6
CONTINUOUS
 70
0
 71
3
 72
9
 73
5
 74
0
 42
0.0000001
 43
0.0000001
 44
0.0000000001
 40
0.0
 40
0.0
 40
0.0
 40
0.0
 40
0.2542462678
 40
1.0
 40
1.0
 40
1.0
 40
1.0
 10
-6.2062216718
 20
1.7820176438
 30
0.0
 10
-6.2054795806
 20
1.781531704
 30
0.0
 10
-6.2025198128
 20
1.7796839787
 30
0.0
 10
-6.1993938681
 20
1.778100473
 30
0.0
 10
-6.1969943919
 20
1.7770944075
 30
0.0
  0
SPLINE
  5
3DC
100
AcDbEntity
  8
0
100
AcDbSpline
 62
7
  6
CONTINUOUS
 70
0
 71
3
 72
9
 73
5
 74
0
 42
0.0000001
 43
0.0000001
 44
0.0000000001
 40
0.0
 40
0.0
 40
0.0
 40
0.0
 40
0.5047836286
 40
1.0
 40
1.0
 40
1.0
 40
1.0
 10
-6.1969943919
 20
1.7770944075
 30
0.0
 10
-6.1938955637
 20
1.7757951138
 30
0.0
 10
-6.1875000749
 20
1.7737866463
 30
0.0
 10
-6.1808267864
 20
1.7730924221
 30
0.0
 10
-6.1775302792
 20
1.7730924221
 30
0.0
  0
SPLINE
  5
3DD
100
AcDbEntity
  8
0
100
AcDbSpline
 62
7
  6
CONTINUOUS
 70
0
 71
3
 72
9
 73
5
 74
0
 42
0.0000001
 43
0.0000001
 44
0.0000000001
 40
0.0
 40
0.0
 40
0.0
 40
0.0
 40
0.495235091
 40
1.0
 40
1.0
 40
1.0
 40
1.0
 10
9.1696975551
 20
-1.7269075779
 30
0.0
 10
9.1729973093
 20
-1.7269075779
 30
0.0
 10
9.179676887
 20
-1.7262134161
 30
0.0
 10
9.1860789549
 20
-1.7242049643
 30
0.0
 10
9.1891810659
 20
-1.7229055925
 30
0.0
  0
SPLINE
  5
3DE
100
AcDbEntity
  8
0
100
AcDbSpline
 62
7
  6
CONTINUOUS
 70
0
 71
3
 72
9
 73
5
 74
0
 42
0.0000001
 43
0.0000001
 44
0.0000000001
 40
0.0
 40
0.0
 40
0.0
 40
0.0
 40
0.2462506491
 40
1.0
 40
1.0
 40
1.0
 40
1.0
 10
9.1891810659
 20
-1.7229055925
 30
0.0
 10
9.189974126
 20
-1.7225734058
 30
0.0
 10
9.1931624969
 20
-1.7211484593
 30
0.0
 10
9.1962151418
 20
-1.7194231219
 30
0.0
 10
9.1984175765
 20
-1.7179823562
 30
0.0
  0
SPLINE
  5
3DF
100
AcDbEntity
  8
0
100
AcDbSpline
 62
7
  6
CONTINUOUS
 70
0
 71
3
 72
21
 73
17
 74
0
 42
0.0000001
 43
0.0000001
 44
0.0000000001
 40
0.0
 40
0.0
 40
0.0
 40
0.0
 40
0.1097481938
 40
0.1691634609
 40
0.2314234657
 40
0.2961707145
 40
0.3629336274
 40
0.431110536
 40
0.5
 40
0.568889464
 40
0.6370663726
 40
0.7038292855
 40
0.7685765343
 40
0.8308365391
 40
0.8902518062
 40
1.0
 40
1.0
 40
1.0
 40
1.0
 10
9.1984175765
 20
-1.7179823562
 30
0.0
 10
9.2046887987
 20
-1.7138799135
 30
0.0
 10
9.2132406417
 20
-1.7057524147
 30
0.0
 10
9.2222338003
 20
-1.6927356
 30
0.0
 10
9.2280962568
 20
-1.681394596
 30
0.0
 10
9.232783711
 20
-1.6689937669
 30
0.0
 10
9.236187245
 20
-1.6557631599
 30
0.0
 10
9.2382562923
 20
-1.6419764424
 30
0.0
 10
9.2389592363
 20
-1.6279075779
 30
0.0
 10
9.2382562923
 20
-1.6138387134
 30
0.0
 10
9.236187245
 20
-1.6000519959
 30
0.0
 10
9.232783711
 20
-1.5868213889
 30
0.0
 10
9.2280962568
 20
-1.5744205598
 30
0.0
 10
9.2222338003
 20
-1.5630795558
 30
0.0
 10
9.2132406417
 20
-1.5500627411
 30
0.0
 10
9.2046887987
 20
-1.5419352423
 30
0.0
 10
9.1984175765
 20
-1.5378327996
 30
0.0
  0
SPLINE
  5
3E0
100
AcDbEntity
  8
0
100
AcDbSpline
 62
7
  6
CONTINUOUS
 70
0
 71
3
 72
9
 73
5
 74
0
 42
0.0000001
 43
0.0000001
 44
0.0000000001
 40
0.0
 40
0.0
 40
0.0
 40
0.0
 40
0.2542317887
 40
1.0
 40
1.0
 40
1.0
 40
1.0
 10
9.1984175765
 20
-1.5378327996
 30
0.0
 10
9.1976747272
 20
-1.5373468502
 30
0.0
 10
9.194711824
 20
-1.5354990216
 30
0.0
 10
9.1915828136
 20
-1.5339155761
 30
0.0
 10
9.1891810659
 20
-1.5329095633
 30
0.0
  0
SPLINE
  5
3E1
100
AcDbEntity
  8
0
100
AcDbSpline
 62
7
  6
CONTINUOUS
 70
0
 71
3
 72
9
 73
5
 74
0
 42
0.0000001
 43
0.0000001
 44
0.0000000001
 40
0.0
 40
0.0
 40
0.0
 40
0.0
 40
0.504764909
 40
1.0
 40
1.0
 40
1.0
 40
1.0
 10
9.1891810659
 20
-1.5329095633
 30
0.0
 10
9.1860789549
 20
-1.5316101915
 30
0.0
 10
9.179676887
 20
-1.5296017397
 30
0.0
 10
9.1729973093
 20
-1.5289075779
 30
0.0
 10
9.1696975551
 20
-1.5289075779
 30
0.0
  0
SPLINE
  5
3E2
100
AcDbEntity
  8
0
100
AcDbSpline
 62
7
  6
CONTINUOUS
 70
0
 71
3
 72
9
 73
5
 74
0
 42
0.0000001
 43
0.0000001
 44
0.0000000001
 40
0.0
 40
0.0
 40
0.0
 40
0.0
 40
0.4952368666
 40
1.0
 40
1.0
 40
1.0
 40
1.0
 10
9.1689970028
 20
1.7730924221
 30
0.0
 10
9.1722970655
 20
1.7730924221
 30
0.0
 10
9.1789772407
 20
1.773786578
 30
0.0
 10
9.1853799336
 20
1.7757950283
 30
0.0
 10
9.1884823564
 20
1.7770944075
 30
0.0
  0
SPLINE
  5
3E3
100
AcDbEntity
  8
0
100
AcDbSpline
 62
7
  6
CONTINUOUS
 70
0
 71
3
 72
9
 73
5
 74
0
 42
0.0000001
 43
0.0000001
 44
0.0000000001
 40
0.0
 40
0.0
 40
0.0
 40
0.0
 40
0.246251935
 40
1.0
 40
1.0
 40
1.0
 40
1.0
 10
9.1884823564
 20
1.7770944075
 30
0.0
 10
9.1892754905
 20
1.7774265937
 30
0.0
 10
9.1924641472
 20
1.7788515325
 30
0.0
 10
9.1955170877
 20
1.7805768701
 30
0.0
 10
9.197719744
 20
1.7820176438
 30
0.0
  0
SPLINE
  5
3E4
100
AcDbEntity
  8
0
100
AcDbSpline
 62
7
  6
CONTINUOUS
 70
0
 71
3
 72
21
 73
17
 74
0
 42
0.0000001
 43
0.0000001
 44
0.0000000001
 40
0.0
 40
0.0
 40
0.0
 40
0.0
 40
0.1097516266
 40
0.1691675445
 40
0.2314275586
 40
0.2961742788
 40
0.3629362418
 40
0.4311119151
 40
0.5
 40
0.5688880849
 40
0.6370637582
 40
0.7038257212
 40
0.7685724414
 40
0.8308324555
 40
0.8902483734
 40
1.0
 40
1.0
 40
1.0
 40
1.0
 10
9.197719744
 20
1.7820176438
 30
0.0
 10
9.2039914681
 20
1.7861200248
 30
0.0
 10
9.2125441097
 20
1.7942474374
 30
0.0
 10
9.2215382049
 20
1.8072643425
 30
0.0
 10
9.2274012351
 20
1.8186053544
 30
0.0
 10
9.2320891485
 20
1.8310061941
 30
0.0
 10
9.2354930162
 20
1.8442368138
 30
0.0
 10
9.2375622662
 20
1.8580235443
 30
0.0
 10
9.238265279
 20
1.8720924221
 30
0.0
 10
9.2375622662
 20
1.8861612999
 30
0.0
 10
9.2354930162
 20
1.8999480304
 30
0.0
 10
9.2320891485
 20
1.9131786501
 30
0.0
 10
9.2274012351
 20
1.9255794898
 30
0.0
 10
9.2215382049
 20
1.9369205017
 30
0.0
 10
9.2125441097
 20
1.9499374068
 30
0.0
 10
9.2039914681
 20
1.9580648194
 30
0.0
 10
9.197719744
 20
1.9621672004
 30
0.0
  0
SPLINE
  5
3E5
100
AcDbEntity
  8
0
100
AcDbSpline
 62
7
  6
CONTINUOUS
 70
0
 71
3
 72
9
 73
5
 74
0
 42
0.0000001
 43
0.0000001
 44
0.0000000001
 40
0.0
 40
0.0
 40
0.0
 40
0.0
 40
0.2542304148
 40
1.0
 40
1.0
 40
1.0
 40
1.0
 10
9.197719744
 20
1.9621672004
 30
0.0
 10
9.1969768227
 20
1.9626531507
 30
0.0
 10
9.1940136216
 20
1.9645009891
 30
0.0
 10
9.1908843199
 20
1.9660844289
 30
0.0
 10
9.1884823564
 20
1.9670904367
 30
0.0
  0
SPLINE
  5
3E6
100
AcDbEntity
  8
0
100
AcDbSpline
 62
7
  6
CONTINUOUS
 70
0
 71
3
 72
9
 73
5
 74
0
 42
0.0000001
 43
0.0000001
 44
0.0000000001
 40
0.0
 40
0.0
 40
0.0
 40
0.0
 40
0.5047631334
 40
1.0
 40
1.0
 40
1.0
 40
1.0
 10
9.1884823564
 20
1.9670904367
 30
0.0
 10
9.1853799336
 20
1.9683898159
 30
0.0
 10
9.1789772407
 20
1.9703982662
 30
0.0
 10
9.1722970655
 20
1.9710924221
 30
0.0
 10
9.1689970028
 20
1.9710924221
 30
0.0
  0
SPLINE
  5
3E7
100
AcDbEntity
  8
0
100
AcDbSpline
 62
7
  6
CONTINUOUS
 70
0
 71
3
 72
9
 73
5
 74
0
 42
0.0000001
 43
0.0000001
 44
0.0000000001
 40
0.0
 40
0.0
 40
0.0
 40
0.0
 40
0.4924889896
 40
1.0
 40
1.0
 40
1.0
 40
1.0
 10
-6.1859735831
 20
-1.7259018966
 30
0.0
 10
-6.1888721684
 20
-1.7253064994
 30
0.0
 10
-6.1946599025
 20
-1.7235711104
 30
0.0
 10
-6.2000714929
 20
-1.7208928576
 30
0.0
 10
-6.2026912636
 20
-1.7193322755
 30
0.0
  0
SPLINE
  5
3E8
100
AcDbEntity
  8
0
100
AcDbSpline
 62
7
  6
CONTINUOUS
 70
0
 71
3
 72
21
 73
17
 74
0
 42
0.0000001
 43
0.0000001
 44
0.0000000001
 40
0.0
 40
0.0
 40
0.0
 40
0.0
 40
0.1097188142
 40
0.169128512
 40
0.2313884384
 40
0.2961402123
 40
0.3629112546
 40
0.4310987337
 40
0.5
 40
0.5689012663
 40
0.6370887454
 40
0.7038597877
 40
0.7686115616
 40
0.830871488
 40
0.8902811858
 40
1.0
 40
1.0
 40
1.0
 40
1.0
 10
-6.2048511241
 20
-1.7179823562
 30
0.0
 10
-6.211118051
 20
-1.7138793852
 30
0.0
 10
-6.2196630583
 20
-1.7057511483
 30
0.0
 10
-6.2286482021
 20
-1.692735108
 30
0.0
 10
-6.2345057486
 20
-1.6813941709
 30
0.0
 10
-6.2391892732
 20
-1.6689934332
 30
0.0
 10
-6.2425899519
 20
-1.6557629347
 30
0.0
 10
-6.2446572644
 20
-1.6419763288
 30
0.0
 10
-6.2453596186
 20
-1.6279075779
 30
0.0
 10
-6.2446572644
 20
-1.6138388271
 30
0.0
 10
-6.2425899519
 20
-1.6000522211
 30
0.0
 10
-6.2391892732
 20
-1.5868217226
 30
0.0
 10
-6.2345057486
 20
-1.5744209849
 30
0.0
 10
-6.2286482021
 20
-1.5630800478
 30
0.0
 10
-6.2196630583
 20
-1.5500640075
 30
0.0
 10
-6.211118051
 20
-1.5419357706
 30
0.0
 10
-6.2048511241
 20
-1.5378327996
 30
0.0
  0
SPLINE
  5
3E9
100
AcDbEntity
  8
0
100
AcDbSpline
 62
7
  6
CONTINUOUS
 70
0
 71
3
 72
9
 73
5
 74
0
 42
0.0000001
 43
0.0000001
 44
0.0000000001
 40
0.0
 40
0.0
 40
0.0
 40
0.0
 40
0.5075110104
 40
1.0
 40
1.0
 40
1.0
 40
1.0
 10
-6.2026912636
 20
-1.5364828804
 30
0.0
 10
-6.2000714929
 20
-1.5349222982
 30
0.0
 10
-6.1946599025
 20
-1.5322440454
 30
0.0
 10
-6.1888721684
 20
-1.5305086565
 30
0.0
 10
-6.1859735831
 20
-1.5299132592
 30
0.0
  0
SPLINE
  5
3EA
100
AcDbEntity
  8
0
100
AcDbSpline
 62
7
  6
CONTINUOUS
 70
0
 71
3
 72
9
 73
5
 74
0
 42
0.0000001
 43
0.0000001
 44
0.0000000001
 40
0.0
 40
0.0
 40
0.0
 40
0.0
 40
0.4924938817
 40
1.0
 40
1.0
 40
1.0
 40
1.0
 10
-6.1852745254
 20
1.7740981034
 30
0.0
 10
-6.1881727396
 20
1.774693368
 30
0.0
 10
-6.1939597143
 20
1.7764282371
 30
0.0
 10
-6.1993707734
 20
1.7791055995
 30
0.0
 10
-6.2019903198
 20
1.7806656559
 30
0.0
  0
SPLINE
  5
3EB
100
AcDbEntity
  8
0
100
AcDbSpline
 62
7
  6
CONTINUOUS
 70
0
 71
3
 72
21
 73
17
 74
0
 42
0.0000001
 43
0.0000001
 44
0.0000000001
 40
0.0
 40
0.0
 40
0.0
 40
0.0
 40
0.1097222498
 40
0.1691325988
 40
0.2313925342
 40
0.2961437789
 40
0.3629138706
 40
0.4311001137
 40
0.5
 40
0.5688998863
 40
0.6370861294
 40
0.7038562211
 40
0.7686074658
 40
0.8308674012
 40
0.8902777502
 40
1.0
 40
1.0
 40
1.0
 40
1.0
 10
-6.2041538593
 20
1.7820176438
 30
0.0
 10
-6.2104212885
 20
1.786120553
 30
0.0
 10
-6.2189670951
 20
1.7942487035
 30
0.0
 10
-6.2279531761
 20
1.8072648345
 30
0.0
 10
-6.2338112968
 20
1.8186057794
 30
0.0
 10
-6.2384952809
 20
1.8310065278
 30
0.0
 10
-6.2418962935
 20
1.844237039
 30
0.0
 10
-6.2439638089
 20
1.858023658
 30
0.0
 10
-6.244666232
 20
1.8720924221
 30
0.0
 10
-6.2439638089
 20
1.8861611862
 30
0.0
 10
-6.2418962935
 20
1.8999478052
 30
0.0
 10
-6.2384952809
 20
1.9131783164
 30
0.0
 10
-6.2338112968
 20
1.9255790648
 30
0.0
 10
-6.2279531761
 20
1.9369200097
 30
0.0
 10
-6.2189670951
 20
1.9499361406
 30
0.0
 10
-6.2104212885
 20
1.9580642912
 30
0.0
 10
-6.2041538593
 20
1.9621672004
 30
0.0
  0
SPLINE
  5
3EC
100
AcDbEntity
  8
0
100
AcDbSpline
 62
7
  6
CONTINUOUS
 70
0
 71
3
 72
9
 73
5
 74
0
 42
0.0000001
 43
0.0000001
 44
0.0000000001
 40
0.0
 40
0.0
 40
0.0
 40
0.0
 40
0.5075061183
 40
1.0
 40
1.0
 40
1.0
 40
1.0
 10
-6.2019903198
 20
1.9635191883
 30
0.0
 10
-6.1993707734
 20
1.9650792447
 30
0.0
 10
-6.1939597143
 20
1.9677566071
 30
0.0
 10
-6.1881727396
 20
1.9694914762
 30
0.0
 10
-6.1852745254
 20
1.9700867408
 30
0.0
  0
SPLINE
  5
3ED
100
AcDbEntity
  8
0
100
AcDbSpline
 62
3
  6
CONTINUOUS
 70
0
 71
3
 72
11
 73
7
 74
0
 42
0.0000001
 43
0.0000001
 44
0.0000000001
 40
0.0
 40
0.0
 40
0.0
 40
0.0
 40
0.2439485286
 40
0.4905451271
 40
0.7419326148
 40
1.0
 40
1.0
 40
1.0
 40
1.0
 10
-6.1067970537
 20
-1.7269075779
 30
0.0
 10
-6.1043741651
 20
-1.7269075779
 30
0.0
 10
-6.0994952228
 20
-1.7265517681
 30
0.0
 10
-6.0922730891
 20
-1.7249776695
 30
0.0
 10
-6.0852019099
 20
-1.7223865574
 30
0.0
 10
-6.0807057235
 20
-1.7200302747
 30
0.0
 10
-6.0785132835
 20
-1.71870258
 30
0.0
  0
SPLINE
  5
3EE
100
AcDbEntity
  8
0
100
AcDbSpline
 62
3
  6
CONTINUOUS
 70
0
 71
3
 72
25
 73
21
 74
0
 42
0.0000001
 43
0.0000001
 44
0.0000000001
 40
0.0
 40
0.0
 40
0.0
 40
0.0
 40
0.0540425548
 40
0.1107743475
 40
0.1402075435
 40
0.1703406398
 40
0.2325703105
 40
0.297158586
 40
0.3636539732
 40
0.4314898076
 40
0.5
 40
0.5685101924
 40
0.6363460268
 40
0.702841414
 40
0.7674296895
 40
0.8296593602
 40
0.8597924565
 40
0.8892256525
 40
0.9459574452
 40
1.0
 40
1.0
 40
1.0
 40
1.0
 10
-6.0785132835
 20
-1.71870258
 30
0.0
 10
-6.0752895468
 20
-1.7167503541
 30
0.0
 10
-6.0690346535
 20
-1.7121447152
 30
0.0
 10
-6.0621478625
 20
-1.7051520126
 30
0.0
 10
-6.0571024413
 20
-1.6987948865
 30
0.0
 10
-6.0522966116
 20
-1.6917840695
 30
0.0
 10
-6.0470261244
 20
-1.6821548989
 30
0.0
 10
-6.0420083272
 20
-1.6696103089
 30
0.0
 10
-6.0383580938
 20
-1.656196782
 30
0.0
 10
-6.0361371733
 20
-1.6422000733
 30
0.0
 10
-6.0353814797
 20
-1.6279075779
 30
0.0
 10
-6.0361371733
 20
-1.6136150825
 30
0.0
 10
-6.0383580938
 20
-1.5996183738
 30
0.0
 10
-6.0420083272
 20
-1.5862048469
 30
0.0
 10
-6.0470261244
 20
-1.5736602569
 30
0.0
 10
-6.0522966116
 20
-1.5640310863
 30
0.0
 10
-6.0571024413
 20
-1.5570202693
 30
0.0
 10
-6.0621478625
 20
-1.5506631432
 30
0.0
 10
-6.0690346535
 20
-1.5436704406
 30
0.0
 10
-6.0752895468
 20
-1.5390648017
 30
0.0
 10
-6.0785132835
 20
-1.5371125758
 30
0.0
  0
SPLINE
  5
3EF
100
AcDbEntity
  8
0
100
AcDbSpline
 62
3
  6
CONTINUOUS
 70
0
 71
3
 72
11
 73
7
 74
0
 42
0.0000001
 43
0.0000001
 44
0.0000000001
 40
0.0
 40
0.0
 40
0.0
 40
0.0
 40
0.2580673852
 40
0.5094548729
 40
0.7560514714
 40
1.0
 40
1.0
 40
1.0
 40
1.0
 10
-6.0785132835
 20
-1.5371125758
 30
0.0
 10
-6.0807057235
 20
-1.5357848811
 30
0.0
 10
-6.0852019099
 20
-1.5334285984
 30
0.0
 10
-6.0922730891
 20
-1.5308374863
 30
0.0
 10
-6.0994952228
 20
-1.5292633877
 30
0.0
 10
-6.1043741651
 20
-1.5289075779
 30
0.0
 10
-6.1067970537
 20
-1.5289075779
 30
0.0
  0
SPLINE
  5
3F0
100
AcDbEntity
  8
0
100
AcDbSpline
 62
3
  6
CONTINUOUS
 70
0
 71
3
 72
11
 73
7
 74
0
 42
0.0000001
 43
0.0000001
 44
0.0000000001
 40
0.0
 40
0.0
 40
0.0
 40
0.0
 40
0.2439462721
 40
0.4905415934
 40
0.7419296058
 40
1.0
 40
1.0
 40
1.0
 40
1.0
 10
-6.1075123767
 20
1.7730924221
 30
0.0
 10
-6.1050897241
 20
1.7730924221
 30
0.0
 10
-6.1002112458
 20
1.7734482336
 30
0.0
 10
-6.0929898067
 20
1.7750223378
 30
0.0
 10
-6.0859193096
 20
1.7776134572
 30
0.0
 10
-6.0814235827
 20
1.7799697324
 30
0.0
 10
-6.0792313675
 20
1.78129742
 30
0.0
  0
SPLINE
  5
3F1
100
AcDbEntity
  8
0
100
AcDbSpline
 62
3
  6
CONTINUOUS
 70
0
 71
3
 72
25
 73
21
 74
0
 42
0.0000001
 43
0.0000001
 44
0.0000000001
 40
0.0
 40
0.0
 40
0.0
 40
0.0
 40
0.0540403274
 40
0.1107706507
 40
0.1402033966
 40
0.1703362272
 40
0.2325658782
 40
0.2971547194
 40
0.3636511334
 40
0.4314883083
 40
0.5
 40
0.5685116917
 40
0.6363488666
 40
0.7028452806
 40
0.7674341218
 40
0.8296637728
 40
0.8597966034
 40
0.8892293493
 40
0.9459596726
 40
1.0
 40
1.0
 40
1.0
 40
1.0
 10
-6.0792313675
 20
1.78129742
 30
0.0
 10
-6.0760079193
 20
1.7832496611
 30
0.0
 10
-6.0697535906
 20
1.7878553439
 30
0.0
 10
-6.0628675029
 20
1.7948480255
 30
0.0
 10
-6.0578225892
 20
1.8012051297
 30
0.0
 10
-6.0530172127
 20
1.8082159665
 30
0.0
 10
-6.0477472319
 20
1.8178451558
 30
0.0
 10
-6.0427299289
 20
1.8303897347
 30
0.0
 10
-6.0390800549
 20
1.8438032477
 30
0.0
 10
-6.0368593525
 20
1.8577999418
 30
0.0
 10
-6.0361037331
 20
1.8720924221
 30
0.0
 10
-6.0368593525
 20
1.8863849024
 30
0.0
 10
-6.0390800549
 20
1.9003815965
 30
0.0
 10
-6.0427299289
 20
1.9137951095
 30
0.0
 10
-6.0477472319
 20
1.9263396884
 30
0.0
 10
-6.0530172127
 20
1.9359688777
 30
0.0
 10
-6.0578225892
 20
1.9429797145
 30
0.0
 10
-6.0628675029
 20
1.9493368187
 30
0.0
 10
-6.0697535906
 20
1.9563295003
 30
0.0
 10
-6.0760079193
 20
1.9609351831
 30
0.0
 10
-6.0792313675
 20
1.9628874242
 30
0.0
  0
SPLINE
  5
3F2
100
AcDbEntity
  8
0
100
AcDbSpline
 62
3
  6
CONTINUOUS
 70
0
 71
3
 72
11
 73
7
 74
0
 42
0.0000001
 43
0.0000001
 44
0.0000000001
 40
0.0
 40
0.0
 40
0.0
 40
0.0
 40
0.2580703942
 40
0.5094584066
 40
0.7560537279
 40
1.0
 40
1.0
 40
1.0
 40
1.0
 10
-6.0792313675
 20
1.9628874242
 30
0.0
 10
-6.0814235827
 20
1.9642151118
 30
0.0
 10
-6.0859193096
 20
1.966571387
 30
0.0
 10
-6.0929898067
 20
1.9691625064
 30
0.0
 10
-6.1002112458
 20
1.9707366106
 30
0.0
 10
-6.1050897241
 20
1.9710924221
 30
0.0
 10
-6.1075123767
 20
1.9710924221
 30
0.0
  0
SPLINE
  5
3F3
100
AcDbEntity
  8
0
100
AcDbSpline
 62
3
  6
CONTINUOUS
 70
0
 71
3
 72
9
 73
5
 74
0
 42
0.0000001
 43
0.0000001
 44
0.0000000001
 40
0.0
 40
0.0
 40
0.0
 40
0.0
 40
0.2476516029
 40
1.0
 40
1.0
 40
1.0
 40
1.0
 10
9.0612051571
 20
-1.7258973856
 30
0.0
 10
9.0603660736
 20
-1.7257286969
 30
0.0
 10
9.0569949026
 20
-1.7249649755
 30
0.0
 10
9.0536991127
 20
-1.7238733014
 30
0.0
 10
9.0512927636
 20
-1.7228884659
 30
0.0
  0
SPLINE
  5
3F4
100
AcDbEntity
  8
0
100
AcDbSpline
 62
3
  6
CONTINUOUS
 70
0
 71
3
 72
25
 73
21
 74
0
 42
0.0000001
 43
0.0000001
 44
0.0000000001
 40
0.0
 40
0.0
 40
0.0
 40
0.0
 40
0.0542005186
 40
0.1110667906
 40
0.1405510103
 40
0.1707218905
 40
0.2329791657
 40
0.2975313062
 40
0.3639370176
 40
0.4316420062
 40
0.5
 40
0.5683579938
 40
0.6360629824
 40
0.7024686938
 40
0.7670208343
 40
0.8292781095
 40
0.8594489897
 40
0.8889332094
 40
0.9457994814
 40
1.0
 40
1.0
 40
1.0
 40
1.0
 10
9.0417927556
 20
-1.7179470063
 30
0.0
 10
9.0386499161
 20
-1.7159431716
 30
0.0
 10
9.032561592
 20
-1.7112658561
 30
0.0
 10
9.0258671799
 20
-1.7042459227
 30
0.0
 10
9.0209687153
 20
-1.6978976893
 30
0.0
 10
9.0163086624
 20
-1.6909214453
 30
0.0
 10
9.0112010506
 20
-1.6813768101
 30
0.0
 10
9.0063419879
 20
-1.6689796105
 30
0.0
 10
9.0028107321
 20
-1.6557533973
 30
0.0
 10
9.000662206
 20
-1.6419714555
 30
0.0
 10
8.9999315182
 20
-1.6279075779
 30
0.0
 10
9.000662206
 20
-1.6138437003
 30
0.0
 10
9.0028107321
 20
-1.6000617585
 30
0.0
 10
9.0063419879
 20
-1.5868355453
 30
0.0
 10
9.0112010506
 20
-1.5744383457
 30
0.0
 10
9.0163086624
 20
-1.5648937105
 30
0.0
 10
9.0209687153
 20
-1.5579174665
 30
0.0
 10
9.0258671799
 20
-1.5515692331
 30
0.0
 10
9.032561592
 20
-1.5445492997
 30
0.0
 10
9.0386499161
 20
-1.5398719843
 30
0.0
 10
9.0417927556
 20
-1.5378681495
 30
0.0
  0
SPLINE
  5
3F5
100
AcDbEntity
  8
0
100
AcDbSpline
 62
3
  6
CONTINUOUS
 70
0
 71
3
 72
9
 73
5
 74
0
 42
0.0000001
 43
0.0000001
 44
0.0000000001
 40
0.0
 40
0.0
 40
0.0
 40
0.0
 40
0.2528742344
 40
1.0
 40
1.0
 40
1.0
 40
1.0
 10
9.0512927636
 20
-1.5329266899
 30
0.0
 10
9.0521015604
 20
-1.5325956774
 30
0.0
 10
9.0553295187
 20
-1.5313603395
 30
0.0
 10
9.0586738026
 20
-1.5304266717
 30
0.0
 10
9.0612051571
 20
-1.5299177702
 30
0.0
  0
SPLINE
  5
3F6
100
AcDbEntity
  8
0
100
AcDbSpline
 62
3
  6
CONTINUOUS
 70
0
 71
3
 72
9
 73
5
 74
0
 42
0.0000001
 43
0.0000001
 44
0.0000000001
 40
0.0
 40
0.0
 40
0.0
 40
0.0
 40
0.2476507491
 40
1.0
 40
1.0
 40
1.0
 40
1.0
 10
9.0619209441
 20
1.7741026144
 30
0.0
 10
9.0610819361
 20
1.7742713033
 30
0.0
 10
9.0577110601
 20
1.7750350274
 30
0.0
 10
9.0544155722
 20
1.7761267028
 30
0.0
 10
9.0520094517
 20
1.7771115341
 30
0.0
  0
SPLINE
  5
3F7
100
AcDbEntity
  8
0
100
AcDbSpline
 62
3
  6
CONTINUOUS
 70
0
 71
3
 72
25
 73
21
 74
0
 42
0.0000001
 43
0.0000001
 44
0.0000000001
 40
0.0
 40
0.0
 40
0.0
 40
0.0
 40
0.0541984998
 40
0.1110634465
 40
0.1405472623
 40
0.1707179054
 40
0.2329751669
 40
0.2975278204
 40
0.3639344588
 40
0.4316406557
 40
0.5
 40
0.5683593443
 40
0.6360655412
 40
0.7024721796
 40
0.7670248331
 40
0.8292820946
 40
0.8594527377
 40
0.8889365535
 40
0.9458015002
 40
1.0
 40
1.0
 40
1.0
 40
1.0
 10
9.0425103052
 20
1.7820529937
 30
0.0
 10
9.0393677279
 20
1.7840568428
 30
0.0
 10
9.0332799171
 20
1.7887341982
 30
0.0
 10
9.0265861412
 20
1.7957541118
 30
0.0
 10
9.0216881354
 20
1.8021023253
 30
0.0
 10
9.0170284924
 20
1.8090785868
 30
0.0
 10
9.0119213382
 20
1.8186232385
 30
0.0
 10
9.0070627213
 20
1.8310204283
 30
0.0
 10
9.0035317894
 20
1.844246629
 30
0.0
 10
9.0013834601
 20
1.8580285578
 30
0.0
 10
9.000652839
 20
1.8720924221
 30
0.0
 10
9.0013834601
 20
1.8861562863
 30
0.0
 10
9.0035317894
 20
1.8999382152
 30
0.0
 10
9.0070627213
 20
1.9131644159
 30
0.0
 10
9.0119213382
 20
1.9255616057
 30
0.0
 10
9.0170284924
 20
1.9351062574
 30
0.0
 10
9.0216881354
 20
1.9420825189
 30
0.0
 10
9.0265861412
 20
1.9484307324
 30
0.0
 10
9.0332799171
 20
1.955450646
 30
0.0
 10
9.0393677279
 20
1.9601280014
 30
0.0
 10
9.0425103052
 20
1.9621318505
 30
0.0
  0
SPLINE
  5
3F8
100
AcDbEntity
  8
0
100
AcDbSpline
 62
3
  6
CONTINUOUS
 70
0
 71
3
 72
9
 73
5
 74
0
 42
0.0000001
 43
0.0000001
 44
0.0000000001
 40
0.0
 40
0.0
 40
0.0
 40
0.0
 40
0.2528752156
 40
1.0
 40
1.0
 40
1.0
 40
1.0
 10
9.0520094517
 20
1.9670733101
 30
0.0
 10
9.0528181738
 20
1.9674043221
 30
0.0
 10
9.0560458263
 20
1.9686396555
 30
0.0
 10
9.0593898122
 20
1.9695733268
 30
0.0
 10
9.0619209441
 20
1.9700822298
 30
0.0
  0
SPLINE
  5
3F9
100
AcDbEntity
  8
0
100
AcDbSpline
 62
3
  6
CONTINUOUS
 70
0
 71
3
 72
31
 73
27
 74
0
 42
0.0000001
 43
0.0000001
 44
0.0000000001
 40
0.0
 40
0.0
 40
0.0
 40
0.0
 40
0.0258986156
 40
0.0520555601
 40
0.0786818118
 40
0.1059642611
 40
0.1340639853
 40
0.1630850282
 40
0.224003589
 40
0.2559941653
 40
0.2889247994
 40
0.3571830341
 40
0.4279392227
 40
0.5
 40
0.5720607773
 40
0.6428169659
 40
0.7110752006
 40
0.7440058347
 40
0.775996411
 40
0.8369149718
 40
0.8659360147
 40
0.8940357389
 40
0.9213181882
 40
0.9479444399
 40
0.9741013844
 40
1.0
 40
1.0
 40
1.0
 40
1.0
 10
9.0691492987
 20
-1.5289075779
 30
0.0
 10
9.0668297659
 20
-1.5289075779
 30
0.0
 10
9.0621614673
 20
-1.5292336714
 30
0.0
 10
9.055243686
 20
-1.5306774354
 30
0.0
 10
9.0484575012
 20
-1.5330561929
 30
0.0
 10
9.0418715161
 20
-1.5363496575
 30
0.0
 10
9.0355549334
 20
-1.54053478
 30
0.0
 10
9.0274386281
 20
-1.5473361488
 30
0.0
 10
9.0202299243
 20
-1.5556527659
 30
0.0
 10
9.0140846947
 20
-1.5651122604
 30
0.0
 10
9.0084735253
 20
-1.5756533789
 30
0.0
 10
9.0029505999
 20
-1.5901044032
 30
0.0
 10
8.9989472534
 20
-1.6086467745
 30
0.0
 10
8.9975764988
 20
-1.6279075779
 30
0.0
 10
8.9989472534
 20
-1.6471683813
 30
0.0
 10
9.0029505999
 20
-1.6657107526
 30
0.0
 10
9.0084735253
 20
-1.6801617769
 30
0.0
 10
9.0140846947
 20
-1.6907028954
 30
0.0
 10
9.0202299243
 20
-1.7001623899
 30
0.0
 10
9.0274386281
 20
-1.7084790071
 30
0.0
 10
9.0355549334
 20
-1.7152803758
 30
0.0
 10
9.0418715161
 20
-1.7194654983
 30
0.0
 10
9.0484575012
 20
-1.7227589629
 30
0.0
 10
9.055243686
 20
-1.7251377204
 30
0.0
 10
9.0621614673
 20
-1.7265814844
 30
0.0
 10
9.0668297659
 20
-1.7269075779
 30
0.0
 10
9.0691492987
 20
-1.7269075779
 30
0.0
  0
SPLINE
  5
3FA
100
AcDbEntity
  8
0
100
AcDbSpline
 62
3
  6
CONTINUOUS
 70
0
 71
3
 72
31
 73
27
 74
0
 42
0.0000001
 43
0.0000001
 44
0.0000000001
 40
0.0
 40
0.0
 40
0.0
 40
0.0
 40
0.0258971524
 40
0.0520527104
 40
0.0786777175
 40
0.1059591185
 40
0.1340580315
 40
0.1630785218
 40
0.2239967786
 40
0.2559875905
 40
0.2889186944
 40
0.3571784709
 40
0.4279367906
 40
0.5
 40
0.5720632094
 40
0.6428215291
 40
0.7110813056
 40
0.7440124095
 40
0.7760032214
 40
0.8369214782
 40
0.8659419685
 40
0.8940408815
 40
0.9213222825
 40
0.9479472896
 40
0.9741028476
 40
1.0
 40
1.0
 40
1.0
 40
1.0
 10
9.0698643618
 20
1.9710924221
 30
0.0
 10
9.0675450393
 20
1.9710924221
 30
0.0
 10
9.0628771549
 20
1.9707663272
 30
0.0
 10
9.0559599937
 20
1.9693225588
 30
0.0
 10
9.0491744187
 20
1.9669437954
 30
0.0
 10
9.0425890276
 20
1.9636503245
 30
0.0
 10
9.0362730173
 20
1.9594651974
 30
0.0
 10
9.0281574099
 20
1.9526637911
 30
0.0
 10
9.0209493763
 20
1.944347168
 30
0.0
 10
9.0148047298
 20
1.9348877138
 30
0.0
 10
9.009194054
 20
1.924346568
 30
0.0
 10
9.0036716314
 20
1.9098955291
 30
0.0
 10
8.9996686584
 20
1.891353191
 30
0.0
 10
8.9982980313
 20
1.8720924221
 30
0.0
 10
8.9996686584
 20
1.8528316532
 30
0.0
 10
9.0036716314
 20
1.8342893151
 30
0.0
 10
9.009194054
 20
1.8198382762
 30
0.0
 10
9.0148047298
 20
1.8092971304
 30
0.0
 10
9.0209493763
 20
1.7998376762
 30
0.0
 10
9.0281574099
 20
1.7915210531
 30
0.0
 10
9.0362730173
 20
1.7847196468
 30
0.0
 10
9.0425890276
 20
1.7805345197
 30
0.0
 10
9.0491744187
 20
1.7772410488
 30
0.0
 10
9.0559599937
 20
1.7748622854
 30
0.0
 10
9.0628771549
 20
1.7734185169
 30
0.0
 10
9.0675450393
 20
1.7730924221
 30
0.0
 10
9.0698643618
 20
1.7730924221
 30
0.0
  0
SPLINE
  5
3FB
100
AcDbEntity
  8
0
100
AcDbSpline
 62
3
  6
CONTINUOUS
 70
0
 71
3
 72
31
 73
27
 74
0
 42
0.0000001
 43
0.0000001
 44
0.0000000001
 40
0.0
 40
0.0
 40
0.0
 40
0.0
 40
0.0256636629
 40
0.0515552183
 40
0.0779064723
 40
0.1049243205
 40
0.1327883186
 40
0.1616190804
 40
0.2223397123
 40
0.254335945
 40
0.2873429727
 40
0.3559519501
 40
0.427267709
 40
0.5
 40
0.572732291
 40
0.6440480499
 40
0.7126570273
 40
0.745664055
 40
0.7776602877
 40
0.8383809196
 40
0.8672116814
 40
0.8950756795
 40
0.9220935277
 40
0.9484447817
 40
0.9743363371
 40
1.0
 40
1.0
 40
1.0
 40
1.0
 10
-6.2351215023
 20
1.9710924221
 30
0.0
 10
-6.2373983621
 20
1.9710924221
 30
0.0
 10
-6.2419785701
 20
1.9707669494
 30
0.0
 10
-6.2487587191
 20
1.9693228213
 30
0.0
 10
-6.2553976671
 20
1.9669429617
 30
0.0
 10
-6.261828747
 20
1.9636478945
 30
0.0
 10
-6.2679849577
 20
1.9594609777
 30
0.0
 10
-6.2758899893
 20
1.9526496231
 30
0.0
 10
-6.2828823982
 20
1.9443288399
 30
0.0
 10
-6.2888269167
 20
1.934879725
 30
0.0
 10
-6.2942592394
 20
1.9243286372
 30
0.0
 10
-6.2995910342
 20
1.9098706792
 30
0.0
 10
-6.3034472483
 20
1.8913398925
 30
0.0
 10
-6.3047656616
 20
1.8720924221
 30
0.0
 10
-6.3034472483
 20
1.8528449517
 30
0.0
 10
-6.2995910342
 20
1.834314165
 30
0.0
 10
-6.2942592394
 20
1.819856207
 30
0.0
 10
-6.2888269167
 20
1.8093051192
 30
0.0
 10
-6.2828823982
 20
1.7998560043
 30
0.0
 10
-6.2758899893
 20
1.7915352211
 30
0.0
 10
-6.2679849577
 20
1.7847238665
 30
0.0
 10
-6.261828747
 20
1.7805369497
 30
0.0
 10
-6.2553976671
 20
1.7772418825
 30
0.0
 10
-6.2487587191
 20
1.7748620229
 30
0.0
 10
-6.2419785701
 20
1.7734178948
 30
0.0
 10
-6.2373983621
 20
1.7730924221
 30
0.0
 10
-6.2351215023
 20
1.7730924221
 30
0.0
  0
SPLINE
  5
3FC
100
AcDbEntity
  8
0
100
AcDbSpline
 62
3
  6
CONTINUOUS
 70
0
 71
3
 72
31
 73
27
 74
0
 42
0.0000001
 43
0.0000001
 44
0.0000000001
 40
0.0
 40
0.0
 40
0.0
 40
0.0
 40
0.0256749005
 40
0.0515786997
 40
0.0779423092
 40
0.1049717803
 40
0.1328459081
 40
0.1616846529
 40
0.2224130652
 40
0.2544086412
 40
0.2874119948
 40
0.3560052941
 40
0.4272966911
 40
0.5
 40
0.5727033089
 40
0.6439947059
 40
0.7125880052
 40
0.7455913588
 40
0.7775869348
 40
0.8383153471
 40
0.8671540919
 40
0.8950282197
 40
0.9220576908
 40
0.9484213003
 40
0.9743250995
 40
1.0
 40
1.0
 40
1.0
 40
1.0
 10
9.1982103093
 20
-1.7269075779
 30
0.0
 10
9.2004890907
 20
-1.7269075779
 30
0.0
 10
9.2050732319
 20
-1.7265820841
 30
0.0
 10
9.2118594835
 20
-1.7251379775
 30
0.0
 10
9.2185048752
 20
-1.7227581701
 30
0.0
 10
9.2249426603
 20
-1.7194631743
 30
0.0
 10
9.2311057471
 20
-1.7152763328
 30
0.0
 10
9.2390197541
 20
-1.7084654165
 30
0.0
 10
9.2460212831
 20
-1.7001447917
 30
0.0
 10
9.2519741926
 20
-1.6906952207
 30
0.0
 10
9.2574139683
 20
-1.6801445438
 30
0.0
 10
9.2627536825
 20
-1.6656868574
 30
0.0
 10
9.2666159621
 20
-1.64715559
 30
0.0
 10
9.2679365251
 20
-1.6279075779
 30
0.0
 10
9.2666159621
 20
-1.6086595658
 30
0.0
 10
9.2627536825
 20
-1.5901282984
 30
0.0
 10
9.2574139683
 20
-1.575670612
 30
0.0
 10
9.2519741926
 20
-1.5651199351
 30
0.0
 10
9.2460212831
 20
-1.5556703641
 30
0.0
 10
9.2390197541
 20
-1.5473497393
 30
0.0
 10
9.2311057471
 20
-1.540538823
 30
0.0
 10
9.2249426603
 20
-1.5363519816
 30
0.0
 10
9.2185048752
 20
-1.5330569858
 30
0.0
 10
9.2118594835
 20
-1.5306771783
 30
0.0
 10
9.2050732319
 20
-1.5292330717
 30
0.0
 10
9.2004890907
 20
-1.5289075779
 30
0.0
 10
9.1982103093
 20
-1.5289075779
 30
0.0
  0
SPLINE
  5
3FD
100
AcDbEntity
  8
0
100
AcDbSpline
 62
3
  6
CONTINUOUS
 70
0
 71
3
 72
31
 73
27
 74
0
 42
0.0000001
 43
0.0000001
 44
0.0000000001
 40
0.0
 40
0.0
 40
0.0
 40
0.0
 40
0.0256764132
 40
0.05158165
 40
0.077946552
 40
0.1049771121
 40
0.1328520823
 40
0.1616913998
 40
0.2224201228
 40
0.2544154517
 40
0.2874183158
 40
0.3560100148
 40
0.4272992058
 40
0.5
 40
0.5727007942
 40
0.6439899852
 40
0.7125816842
 40
0.7455845483
 40
0.7775798772
 40
0.8383086002
 40
0.8671479177
 40
0.8950228879
 40
0.922053448
 40
0.94841835
 40
0.9743235868
 40
1.0
 40
1.0
 40
1.0
 40
1.0
 10
9.1975071527
 20
1.7730924221
 30
0.0
 10
9.1997861482
 20
1.7730924221
 30
0.0
 10
9.2043707112
 20
1.7734179146
 30
0.0
 10
9.2111575948
 20
1.7748620165
 30
0.0
 10
9.2178036093
 20
1.7772418177
 30
0.0
 10
9.2242420024
 20
1.7805368068
 30
0.0
 10
9.2304056761
 20
1.7847236433
 30
0.0
 10
9.2383204009
 20
1.7915345202
 30
0.0
 10
9.2453226199
 20
1.7998551398
 30
0.0
 10
9.2512761292
 20
1.8093047527
 30
0.0
 10
9.2567164155
 20
1.8198554019
 30
0.0
 10
9.2620566492
 20
1.8343130743
 30
0.0
 10
9.2659193141
 20
1.8528443755
 30
0.0
 10
9.2672400087
 20
1.8720924221
 30
0.0
 10
9.2659193141
 20
1.8913404687
 30
0.0
 10
9.2620566492
 20
1.9098717699
 30
0.0
 10
9.2567164155
 20
1.9243294423
 30
0.0
 10
9.2512761292
 20
1.9348800915
 30
0.0
 10
9.2453226199
 20
1.9443297044
 30
0.0
 10
9.2383204009
 20
1.952650324
 30
0.0
 10
9.2304056761
 20
1.9594612009
 30
0.0
 10
9.2242420024
 20
1.9636480374
 30
0.0
 10
9.2178036093
 20
1.9669430265
 30
0.0
 10
9.2111575948
 20
1.9693228277
 30
0.0
 10
9.2043707112
 20
1.9707669296
 30
0.0
 10
9.1997861482
 20
1.9710924221
 30
0.0
 10
9.1975071527
 20
1.9710924221
 30
0.0
  0
SPLINE
  5
3FE
100
AcDbEntity
  8
0
100
AcDbSpline
 62
3
  6
CONTINUOUS
 70
0
 71
3
 72
9
 73
5
 74
0
 42
0.0000001
 43
0.0000001
 44
0.0000000001
 40
0.0
 40
0.0
 40
0.0
 40
0.0
 40
0.2476685067
 40
1.0
 40
1.0
 40
1.0
 40
1.0
 10
-6.2166477601
 20
-1.5299177702
 30
0.0
 10
-6.2174698685
 20
-1.5300864427
 30
0.0
 10
-6.2207719119
 20
-1.5308500936
 30
0.0
 10
-6.2239968969
 20
-1.5319420647
 30
0.0
 10
-6.2263483754
 20
-1.5329266899
 30
0.0
  0
SPLINE
  5
3FF
100
AcDbEntity
  8
0
100
AcDbSpline
 62
3
  6
CONTINUOUS
 70
0
 71
3
 72
9
 73
5
 74
0
 42
0.0000001
 43
0.0000001
 44
0.0000000001
 40
0.0
 40
0.0
 40
0.0
 40
0.0
 40
0.2528978127
 40
1.0
 40
1.0
 40
1.0
 40
1.0
 10
-6.2263483754
 20
-1.7228884659
 30
0.0
 10
-6.2255579302
 20
-1.7232194459
 30
0.0
 10
-6.2224022241
 20
-1.7244547029
 30
0.0
 10
-6.2191276548
 20
-1.725388584
 30
0.0
 10
-6.2166477601
 20
-1.7258973856
 30
0.0
  0
SPLINE
  5
400
100
AcDbEntity
  8
0
100
AcDbSpline
 62
3
  6
CONTINUOUS
 70
0
 71
3
 72
9
 73
5
 74
0
 42
0.0000001
 43
0.0000001
 44
0.0000000001
 40
0.0
 40
0.0
 40
0.0
 40
0.0
 40
0.2476693915
 40
1.0
 40
1.0
 40
1.0
 40
1.0
 10
-6.215946303
 20
1.9700822298
 30
0.0
 10
-6.2167684885
 20
1.9699135574
 30
0.0
 10
-6.2200708331
 20
1.9691499095
 30
0.0
 10
-6.2232961267
 20
1.9680579396
 30
0.0
 10
-6.225647839
 20
1.9670733101
 30
0.0
  0
SPLINE
  5
401
100
AcDbEntity
  8
0
100
AcDbSpline
 62
3
  6
CONTINUOUS
 70
0
 71
3
 72
9
 73
5
 74
0
 42
0.0000001
 43
0.0000001
 44
0.0000000001
 40
0.0
 40
0.0
 40
0.0
 40
0.0
 40
0.2528967883
 40
1.0
 40
1.0
 40
1.0
 40
1.0
 10
-6.225647839
 20
1.7771115341
 30
0.0
 10
-6.2248573174
 20
1.7767805536
 30
0.0
 10
-6.2217012986
 20
1.7755452918
 30
0.0
 10
-6.2184264249
 20
1.7746114144
 30
0.0
 10
-6.215946303
 20
1.7741026144
 30
0.0
  0
SPLINE
  5
402
100
AcDbEntity
  8
0
100
AcDbSpline
 62
3
  6
CONTINUOUS
 70
0
 71
3
 72
31
 73
27
 74
0
 42
0.0000001
 43
0.0000001
 44
0.0000000001
 40
0.0
 40
0.0
 40
0.0
 40
0.0
 40
0.0256620335
 40
0.0515520403
 40
0.0779019021
 40
0.104918577
 40
0.1327816679
 40
0.1616118128
 40
0.2223321106
 40
0.2543286096
 40
0.2873361648
 40
0.355946866
 40
0.4272650008
 40
0.5
 40
0.5727349992
 40
0.644053134
 40
0.7126638352
 40
0.7456713904
 40
0.7776678894
 40
0.8383881872
 40
0.8672183321
 40
0.895081423
 40
0.9220980979
 40
0.9484479597
 40
0.9743379665
 40
1.0
 40
1.0
 40
1.0
 40
1.0
 10
-6.2358240197
 20
-1.5289075779
 30
0.0
 10
-6.2381006491
 20
-1.5289075779
 30
0.0
 10
-6.2426804032
 20
-1.529233052
 30
0.0
 10
-6.2494598719
 20
-1.5306771852
 30
0.0
 10
-6.2560981495
 20
-1.5330570516
 30
0.0
 10
-6.262528575
 20
-1.536352126
 30
0.0
 10
-6.2686841539
 20
-1.540539048
 30
0.0
 10
-6.2765884128
 20
-1.5473504451
 30
0.0
 10
-6.2835800787
 20
-1.5556712339
 30
0.0
 10
-6.2895239516
 20
-1.5651203037
 30
0.0
 10
-6.2949557245
 20
-1.5756714213
 30
0.0
 10
-6.3002869598
 20
-1.5901293943
 30
0.0
 10
-6.3041427591
 20
-1.6086601446
 30
0.0
 10
-6.3054610306
 20
-1.6279075779
 30
0.0
 10
-6.3041427591
 20
-1.6471550112
 30
0.0
 10
-6.3002869598
 20
-1.6656857616
 30
0.0
 10
-6.2949557245
 20
-1.6801437345
 30
0.0
 10
-6.2895239516
 20
-1.6906948521
 30
0.0
 10
-6.2835800787
 20
-1.7001439219
 30
0.0
 10
-6.2765884128
 20
-1.7084647107
 30
0.0
 10
-6.2686841539
 20
-1.7152761078
 30
0.0
 10
-6.262528575
 20
-1.7194630298
 30
0.0
 10
-6.2560981495
 20
-1.7227581042
 30
0.0
 10
-6.2494598719
 20
-1.7251379706
 30
0.0
 10
-6.2426804032
 20
-1.7265821038
 30
0.0
 10
-6.2381006491
 20
-1.7269075779
 30
0.0
 10
-6.2358240197
 20
-1.7269075779
 30
0.0
  0
SPLINE
  5
403
100
AcDbEntity
  8
0
100
AcDbSpline
 62
7
  6
CONTINUOUS
 70
0
 71
3
 72
9
 73
5
 74
0
 42
0.0000001
 43
0.0000001
 44
0.0000000001
 40
0.0
 40
0.0
 40
0.0
 40
0.0
 40
0.4910739473
 40
1.0
 40
1.0
 40
1.0
 40
1.0
 10
36.6494778125
 20
-1.7259018966
 30
0.0
 10
36.6461770945
 20
-1.7252247202
 30
0.0
 10
36.6395811037
 20
-1.7231616836
 30
0.0
 10
36.6334998634
 20
-1.7198934457
 30
0.0
 10
36.6305772778
 20
-1.7179823562
 30
0.0
  0
SPLINE
  5
404
100
AcDbEntity
  8
0
100
AcDbSpline
 62
7
  6
CONTINUOUS
 70
0
 71
3
 72
21
 73
17
 74
0
 42
0.0000001
 43
0.0000001
 44
0.0000000001
 40
0.0
 40
0.0
 40
0.0
 40
0.0
 40
0.1103196576
 40
0.1698953845
 40
0.2321980733
 40
0.2968721238
 40
0.3634638246
 40
0.4313949239
 40
0.5
 40
0.5686050761
 40
0.6365361754
 40
0.7031278762
 40
0.7678019267
 40
0.8301046155
 40
0.8896803424
 40
1.0
 40
1.0
 40
1.0
 40
1.0
 10
36.6287979371
 20
-1.7167742804
 30
0.0
 10
36.6227672438
 20
-1.7125268723
 30
0.0
 10
36.6145784373
 20
-1.7043355882
 30
0.0
 10
36.6059758245
 20
-1.691389872
 30
0.0
 10
36.6003790555
 20
-1.6802047743
 30
0.0
 10
36.5959101291
 20
-1.6680325161
 30
0.0
 10
36.5926695523
 20
-1.655088939
 30
0.0
 10
36.5906994457
 20
-1.6416292117
 30
0.0
 10
36.5900305808
 20
-1.6279075779
 30
0.0
 10
36.5906994457
 20
-1.6141859441
 30
0.0
 10
36.5926695523
 20
-1.6007262168
 30
0.0
 10
36.5959101291
 20
-1.5877826397
 30
0.0
 10
36.6003790555
 20
-1.5756103815
 30
0.0
 10
36.6059758245
 20
-1.5644252838
 30
0.0
 10
36.6145784373
 20
-1.5514795676
 30
0.0
 10
36.6227672438
 20
-1.5432882835
 30
0.0
 10
36.6287979371
 20
-1.5390408754
 30
0.0
  0
SPLINE
  5
405
100
AcDbEntity
  8
0
100
AcDbSpline
 62
7
  6
CONTINUOUS
 70
0
 71
3
 72
9
 73
5
 74
0
 42
0.0000001
 43
0.0000001
 44
0.0000000001
 40
0.0
 40
0.0
 40
0.0
 40
0.0
 40
0.5089260527
 40
1.0
 40
1.0
 40
1.0
 40
1.0
 10
36.6305772778
 20
-1.5378327996
 30
0.0
 10
36.6334998634
 20
-1.5359217101
 30
0.0
 10
36.6395811037
 20
-1.5326534722
 30
0.0
 10
36.6461770945
 20
-1.5305904356
 30
0.0
 10
36.6494778125
 20
-1.5299132592
 30
0.0
  0
SPLINE
  5
406
100
AcDbEntity
  8
0
100
AcDbSpline
 62
7
  6
CONTINUOUS
 70
0
 71
3
 72
9
 73
5
 74
0
 42
0.0000001
 43
0.0000001
 44
0.0000000001
 40
0.0
 40
0.0
 40
0.0
 40
0.0
 40
0.4910770545
 40
1.0
 40
1.0
 40
1.0
 40
1.0
 10
36.6501777194
 20
1.7740981034
 30
0.0
 10
36.6468767039
 20
1.7747752768
 30
0.0
 10
36.6402801355
 20
1.7768382917
 30
0.0
 10
36.6341982786
 20
1.7801065402
 30
0.0
 10
36.631275394
 20
1.7820176438
 30
0.0
  0
SPLINE
  5
407
100
AcDbEntity
  8
0
100
AcDbSpline
 62
7
  6
CONTINUOUS
 70
0
 71
3
 72
21
 73
17
 74
0
 42
0.0000001
 43
0.0000001
 44
0.0000000001
 40
0.0
 40
0.0
 40
0.0
 40
0.0
 40
0.1103226953
 40
0.1698989693
 40
0.2322016449
 40
0.2968752202
 40
0.3634660879
 40
0.4313961156
 40
0.5
 40
0.5686038844
 40
0.6365339121
 40
0.7031247798
 40
0.7677983551
 40
0.8301010307
 40
0.8896773047
 40
1.0
 40
1.0
 40
1.0
 40
1.0
 10
36.629496626
 20
1.7832251972
 30
0.0
 10
36.6234653453
 20
1.7874724863
 30
0.0
 10
36.6152756186
 20
1.7956636686
 30
0.0
 10
36.6066719493
 20
1.8086095051
 30
0.0
 10
36.601074522
 20
1.8197946777
 30
0.0
 10
36.596605067
 20
1.831967043
 30
0.0
 10
36.5933641049
 20
1.8449107532
 30
0.0
 10
36.5913937642
 20
1.8583706301
 30
0.0
 10
36.5907248196
 20
1.8720924221
 30
0.0
 10
36.5913937642
 20
1.885814214
 30
0.0
 10
36.5933641049
 20
1.899274091
 30
0.0
 10
36.596605067
 20
1.9122178011
 30
0.0
 10
36.601074522
 20
1.9243901665
 30
0.0
 10
36.6066719493
 20
1.9355753391
 30
0.0
 10
36.6152756186
 20
1.9485211756
 30
0.0
 10
36.6234653453
 20
1.9567123578
 30
0.0
 10
36.629496626
 20
1.960959647
 30
0.0
  0
SPLINE
  5
408
100
AcDbEntity
  8
0
100
AcDbSpline
 62
7
  6
CONTINUOUS
 70
0
 71
3
 72
9
 73
5
 74
0
 42
0.0000001
 43
0.0000001
 44
0.0000000001
 40
0.0
 40
0.0
 40
0.0
 40
0.0
 40
0.5089229455
 40
1.0
 40
1.0
 40
1.0
 40
1.0
 10
36.631275394
 20
1.9621672004
 30
0.0
 10
36.6341982786
 20
1.964078304
 30
0.0
 10
36.6402801355
 20
1.9673465525
 30
0.0
 10
36.6468767039
 20
1.9694095674
 30
0.0
 10
36.6501777194
 20
1.9700867408
 30
0.0
  0
SPLINE
  5
409
100
AcDbEntity
  8
0
100
AcDbSpline
 62
7
  6
CONTINUOUS
 70
0
 71
3
 72
9
 73
5
 74
0
 42
0.0000001
 43
0.0000001
 44
0.0000000001
 40
0.0
 40
0.0
 40
0.0
 40
0.0
 40
0.4952222105
 40
1.0
 40
1.0
 40
1.0
 40
1.0
 10
36.6512397619
 20
-1.5289075779
 30
0.0
 10
36.6479422429
 20
-1.5289075779
 30
0.0
 10
36.6412669946
 20
-1.5296017826
 30
0.0
 10
36.6348694556
 20
-1.5316102452
 30
0.0
 10
36.6317696044
 20
-1.5329095633
 30
0.0
  0
SPLINE
  5
40A
100
AcDbEntity
  8
0
100
AcDbSpline
 62
7
  6
CONTINUOUS
 70
0
 71
3
 72
9
 73
5
 74
0
 42
0.0000001
 43
0.0000001
 44
0.0000000001
 40
0.0
 40
0.0
 40
0.0
 40
0.0
 40
0.2462413236
 40
1.0
 40
1.0
 40
1.0
 40
1.0
 10
36.6317696044
 20
-1.5329095633
 30
0.0
 10
36.63097708
 20
-1.5332417538
 30
0.0
 10
36.6277907799
 20
-1.5346667565
 30
0.0
 10
36.6247402768
 20
-1.5363920921
 30
0.0
 10
36.6225394481
 20
-1.5378327996
 30
0.0
  0
SPLINE
  5
40B
100
AcDbEntity
  8
0
100
AcDbSpline
 62
7
  6
CONTINUOUS
 70
0
 71
3
 72
21
 73
17
 74
0
 42
0.0000001
 43
0.0000001
 44
0.0000000001
 40
0.0
 40
0.0
 40
0.0
 40
0.0
 40
0.1097233196
 40
0.1691338713
 40
0.2313938096
 40
0.2961448895
 40
0.3629146852
 40
0.4311005435
 40
0.5
 40
0.5688994565
 40
0.6370853148
 40
0.7038551105
 40
0.7686061904
 40
0.8308661287
 40
0.8902766804
 40
1.0
 40
1.0
 40
1.0
 40
1.0
 10
36.6225394481
 20
-1.5378327996
 30
0.0
 10
36.6162718625
 20
-1.5419356895
 30
0.0
 10
36.6077258069
 20
-1.5500638132
 30
0.0
 10
36.5987394341
 20
-1.5630799724
 30
0.0
 10
36.5928811346
 20
-1.5744209197
 30
0.0
 10
36.5881970074
 20
-1.5868216715
 30
0.0
 10
36.5847958909
 20
-1.6000521866
 30
0.0
 10
36.5827283123
 20
-1.6138388096
 30
0.0
 10
36.5820258678
 20
-1.6279075779
 30
0.0
 10
36.5827283123
 20
-1.6419763462
 30
0.0
 10
36.5847958909
 20
-1.6557629692
 30
0.0
 10
36.5881970074
 20
-1.6689934844
 30
0.0
 10
36.5928811346
 20
-1.6813942361
 30
0.0
 10
36.5987394341
 20
-1.6927351834
 30
0.0
 10
36.6077258069
 20
-1.7057513426
 30
0.0
 10
36.6162718625
 20
-1.7138794663
 30
0.0
 10
36.6225394481
 20
-1.7179823562
 30
0.0
  0
SPLINE
  5
40C
100
AcDbEntity
  8
0
100
AcDbSpline
 62
7
  6
CONTINUOUS
 70
0
 71
3
 72
9
 73
5
 74
0
 42
0.0000001
 43
0.0000001
 44
0.0000000001
 40
0.0
 40
0.0
 40
0.0
 40
0.0
 40
0.2542417526
 40
1.0
 40
1.0
 40
1.0
 40
1.0
 10
36.6225394481
 20
-1.7179823562
 30
0.0
 10
36.6232817755
 20
-1.7184682989
 30
0.0
 10
36.6262425204
 20
-1.7203160565
 30
0.0
 10
36.6293694204
 20
-1.7218995435
 30
0.0
 10
36.6317696044
 20
-1.7229055925
 30
0.0
  0
SPLINE
  5
40D
100
AcDbEntity
  8
0
100
AcDbSpline
 62
7
  6
CONTINUOUS
 70
0
 71
3
 72
9
 73
5
 74
0
 42
0.0000001
 43
0.0000001
 44
0.0000000001
 40
0.0
 40
0.0
 40
0.0
 40
0.0
 40
0.5047777895
 40
1.0
 40
1.0
 40
1.0
 40
1.0
 10
36.6317696044
 20
-1.7229055925
 30
0.0
 10
36.6348694556
 20
-1.7242049106
 30
0.0
 10
36.6412669946
 20
-1.7262133732
 30
0.0
 10
36.6479422429
 20
-1.7269075779
 30
0.0
 10
36.6512397619
 20
-1.7269075779
 30
0.0
  0
SPLINE
  5
40E
100
AcDbEntity
  8
0
100
AcDbSpline
 62
7
  6
CONTINUOUS
 70
0
 71
3
 72
9
 73
5
 74
0
 42
0.0000001
 43
0.0000001
 44
0.0000000001
 40
0.0
 40
0.0
 40
0.0
 40
0.0
 40
0.4952239908
 40
1.0
 40
1.0
 40
1.0
 40
1.0
 10
36.6519398354
 20
1.9710924221
 30
0.0
 10
36.6486420077
 20
1.9710924221
 30
0.0
 10
36.6419661615
 20
1.9703982233
 30
0.0
 10
36.6355679971
 20
1.9683897622
 30
0.0
 10
36.6324678338
 20
1.9670904367
 30
0.0
  0
SPLINE
  5
40F
100
AcDbEntity
  8
0
100
AcDbSpline
 62
7
  6
CONTINUOUS
 70
0
 71
3
 72
9
 73
5
 74
0
 42
0.0000001
 43
0.0000001
 44
0.0000000001
 40
0.0
 40
0.0
 40
0.0
 40
0.0
 40
0.2462426123
 40
1.0
 40
1.0
 40
1.0
 40
1.0
 10
36.6324678338
 20
1.9670904367
 30
0.0
 10
36.6316752354
 20
1.9667582467
 30
0.0
 10
36.6284886493
 20
1.9653332518
 30
0.0
 10
36.6254378504
 20
1.9636079159
 30
0.0
 10
36.6232367999
 20
1.9621672004
 30
0.0
  0
SPLINE
  5
410
100
AcDbEntity
  8
0
100
AcDbSpline
 62
7
  6
CONTINUOUS
 70
0
 71
3
 72
21
 73
17
 74
0
 42
0.0000001
 43
0.0000001
 44
0.0000000001
 40
0.0
 40
0.0
 40
0.0
 40
0.0
 40
0.1097267548
 40
0.1691379576
 40
0.231397905
 40
0.2961484558
 40
0.362917301
 40
0.4311019233
 40
0.5
 40
0.5688980767
 40
0.637082699
 40
0.7038515442
 40
0.768602095
 40
0.8308620424
 40
0.8902732452
 40
1.0
 40
1.0
 40
1.0
 40
1.0
 10
36.6232367999
 20
1.9621672004
 30
0.0
 10
36.6169687121
 20
1.9580643723
 30
0.0
 10
36.6084218572
 20
1.9499363349
 30
0.0
 10
36.5994345473
 20
1.9369200851
 30
0.0
 10
36.5935756738
 20
1.92557913
 30
0.0
 10
36.5888910872
 20
1.9131783676
 30
0.0
 10
36.5854896367
 20
1.8999478397
 30
0.0
 10
36.5834218554
 20
1.8861612037
 30
0.0
 10
36.5827193418
 20
1.8720924221
 30
0.0
 10
36.5834218554
 20
1.8580236405
 30
0.0
 10
36.5854896367
 20
1.8442370045
 30
0.0
 10
36.5888910872
 20
1.8310064766
 30
0.0
 10
36.5935756738
 20
1.8186057142
 30
0.0
 10
36.5994345473
 20
1.807264759
 30
0.0
 10
36.6084218572
 20
1.7942485093
 30
0.0
 10
36.6169687121
 20
1.7861204719
 30
0.0
 10
36.6232367999
 20
1.7820176438
 30
0.0
  0
SPLINE
  5
411
100
AcDbEntity
  8
0
100
AcDbSpline
 62
7
  6
CONTINUOUS
 70
0
 71
3
 72
9
 73
5
 74
0
 42
0.0000001
 43
0.0000001
 44
0.0000000001
 40
0.0
 40
0.0
 40
0.0
 40
0.0
 40
0.2542403758
 40
1.0
 40
1.0
 40
1.0
 40
1.0
 10
36.6232367999
 20
1.7820176438
 30
0.0
 10
36.6239791995
 20
1.7815317001
 30
0.0
 10
36.6269402424
 20
1.7796839327
 30
0.0
 10
36.6300674339
 20
1.7781004515
 30
0.0
 10
36.6324678338
 20
1.7770944075
 30
0.0
  0
SPLINE
  5
412
100
AcDbEntity
  8
0
100
AcDbSpline
 62
7
  6
CONTINUOUS
 70
0
 71
3
 72
9
 73
5
 74
0
 42
0.0000001
 43
0.0000001
 44
0.0000000001
 40
0.0
 40
0.0
 40
0.0
 40
0.0
 40
0.5047760092
 40
1.0
 40
1.0
 40
1.0
 40
1.0
 10
36.6324678338
 20
1.7770944075
 30
0.0
 10
36.6355679971
 20
1.775795082
 30
0.0
 10
36.6419661615
 20
1.7737866209
 30
0.0
 10
36.6486420077
 20
1.7730924221
 30
0.0
 10
36.6519398354
 20
1.7730924221
 30
0.0
  0
SPLINE
  5
413
100
AcDbEntity
  8
0
100
AcDbSpline
 62
7
  6
CONTINUOUS
 70
0
 71
3
 72
9
 73
5
 74
0
 42
0.0000001
 43
0.0000001
 44
0.0000000001
 40
0.0
 40
0.0
 40
0.0
 40
0.0
 40
0.4952274888
 40
1.0
 40
1.0
 40
1.0
 40
1.0
 10
51.9991694355
 20
-1.7269075779
 30
0.0
 10
52.0024678699
 20
-1.7269075779
 30
0.0
 10
52.0091448913
 20
-1.7262133908
 30
0.0
 10
52.0155442851
 20
-1.7242049326
 30
0.0
 10
52.0186450618
 20
-1.7229055925
 30
0.0
  0
SPLINE
  5
414
100
AcDbEntity
  8
0
100
AcDbSpline
 62
7
  6
CONTINUOUS
 70
0
 71
3
 72
9
 73
5
 74
0
 42
0.0000001
 43
0.0000001
 44
0.0000000001
 40
0.0
 40
0.0
 40
0.0
 40
0.0
 40
0.2462451446
 40
1.0
 40
1.0
 40
1.0
 40
1.0
 10
52.0186450618
 20
-1.7229055925
 30
0.0
 10
52.0194378056
 20
-1.7225734035
 30
0.0
 10
52.0226249539
 20
-1.7211484239
 30
0.0
 10
52.0256763342
 20
-1.7194230876
 30
0.0
 10
52.0278778206
 20
-1.7179823562
 30
0.0
  0
SPLINE
  5
415
100
AcDbEntity
  8
0
100
AcDbSpline
 62
7
  6
CONTINUOUS
 70
0
 71
3
 72
21
 73
17
 74
0
 42
0.0000001
 43
0.0000001
 44
0.0000000001
 40
0.0
 40
0.0
 40
0.0
 40
0.0
 40
0.109733507
 40
0.1691459898
 40
0.2314059551
 40
0.296155466
 40
0.3629224428
 40
0.4311046358
 40
0.5
 40
0.5688953642
 40
0.6370775572
 40
0.703844534
 40
0.7685940449
 40
0.8308540102
 40
0.890266493
 40
1.0
 40
1.0
 40
1.0
 40
1.0
 10
52.0278778206
 20
-1.7179823562
 30
0.0
 10
52.0341468956
 20
-1.7138796495
 30
0.0
 10
52.0426953215
 20
-1.7057517817
 30
0.0
 10
52.0516844734
 20
-1.692735354
 30
0.0
 10
52.0575444754
 20
-1.6813943835
 30
0.0
 10
52.0622299651
 20
-1.6689936001
 30
0.0
 10
52.0656320717
 20
-1.6557630473
 30
0.0
 10
52.0677002518
 20
-1.6419763856
 30
0.0
 10
52.0684029009
 20
-1.6279075779
 30
0.0
 10
52.0677002518
 20
-1.6138387702
 30
0.0
 10
52.0656320717
 20
-1.6000521085
 30
0.0
 10
52.0622299651
 20
-1.5868215557
 30
0.0
 10
52.0575444754
 20
-1.5744207723
 30
0.0
 10
52.0516844734
 20
-1.5630798018
 30
0.0
 10
52.0426953215
 20
-1.5500633741
 30
0.0
 10
52.0341468956
 20
-1.5419355063
 30
0.0
 10
52.0278778206
 20
-1.5378327996
 30
0.0
  0
SPLINE
  5
416
100
AcDbEntity
  8
0
100
AcDbSpline
 62
7
  6
CONTINUOUS
 70
0
 71
3
 72
9
 73
5
 74
0
 42
0.0000001
 43
0.0000001
 44
0.0000000001
 40
0.0
 40
0.0
 40
0.0
 40
0.0
 40
0.2542376702
 40
1.0
 40
1.0
 40
1.0
 40
1.0
 10
52.0278778206
 20
-1.5378327996
 30
0.0
 10
52.0271352794
 20
-1.5373468541
 30
0.0
 10
52.0241736506
 20
-1.5354990674
 30
0.0
 10
52.0210458862
 20
-1.5339155975
 30
0.0
 10
52.0186450618
 20
-1.5329095633
 30
0.0
  0
SPLINE
  5
417
100
AcDbEntity
  8
0
100
AcDbSpline
 62
7
  6
CONTINUOUS
 70
0
 71
3
 72
9
 73
5
 74
0
 42
0.0000001
 43
0.0000001
 44
0.0000000001
 40
0.0
 40
0.0
 40
0.0
 40
0.0
 40
0.5047725112
 40
1.0
 40
1.0
 40
1.0
 40
1.0
 10
52.0186450618
 20
-1.5329095633
 30
0.0
 10
52.0155442851
 20
-1.5316102232
 30
0.0
 10
52.0091448913
 20
-1.529601765
 30
0.0
 10
52.0024678699
 20
-1.5289075779
 30
0.0
 10
51.9991694355
 20
-1.5289075779
 30
0.0
  0
SPLINE
  5
418
100
AcDbEntity
  8
0
100
AcDbSpline
 62
7
  6
CONTINUOUS
 70
0
 71
3
 72
9
 73
5
 74
0
 42
0.0000001
 43
0.0000001
 44
0.0000000001
 40
0.0
 40
0.0
 40
0.0
 40
0.0
 40
0.4952292672
 40
1.0
 40
1.0
 40
1.0
 40
1.0
 10
51.9984691659
 20
1.7730924221
 30
0.0
 10
52.0017679089
 20
1.7730924221
 30
0.0
 10
52.008445528
 20
1.7737866033
 30
0.0
 10
52.0148455471
 20
1.77579506
 30
0.0
 10
52.0179466358
 20
1.7770944075
 30
0.0
  0
SPLINE
  5
419
100
AcDbEntity
  8
0
100
AcDbSpline
 62
7
  6
CONTINUOUS
 70
0
 71
3
 72
9
 73
5
 74
0
 42
0.0000001
 43
0.0000001
 44
0.0000000001
 40
0.0
 40
0.0
 40
0.0
 40
0.0
 40
0.2462464321
 40
1.0
 40
1.0
 40
1.0
 40
1.0
 10
52.0179466358
 20
1.7770944075
 30
0.0
 10
52.0187394536
 20
1.7774265959
 30
0.0
 10
52.0219268877
 20
1.7788515678
 30
0.0
 10
52.0249785637
 20
1.7805769044
 30
0.0
 10
52.0271802719
 20
1.7820176438
 30
0.0
  0
SPLINE
  5
41A
100
AcDbEntity
  8
0
100
AcDbSpline
 62
7
  6
CONTINUOUS
 70
0
 71
3
 72
21
 73
17
 74
0
 42
0.0000001
 43
0.0000001
 44
0.0000000001
 40
0.0
 40
0.0
 40
0.0
 40
0.0
 40
0.1097369412
 40
0.169150075
 40
0.2314100495
 40
0.2961590314
 40
0.362925058
 40
0.4311060154
 40
0.5
 40
0.5688939846
 40
0.637074942
 40
0.7038409686
 40
0.7685899505
 40
0.830849925
 40
0.8902630588
 40
1.0
 40
1.0
 40
1.0
 40
1.0
 10
52.0271802719
 20
1.7820176438
 30
0.0
 10
52.0334498489
 20
1.7861202887
 30
0.0
 10
52.0419990739
 20
1.7942480702
 30
0.0
 10
52.0509891627
 20
1.8072645884
 30
0.0
 10
52.0568497386
 20
1.8186055668
 30
0.0
 10
52.0615356877
 20
1.8310063609
 30
0.0
 10
52.0649381281
 20
1.8442369264
 30
0.0
 10
52.0670065109
 20
1.8580236011
 30
0.0
 10
52.0677092289
 20
1.8720924221
 30
0.0
 10
52.0670065109
 20
1.886161243
 30
0.0
 10
52.0649381281
 20
1.8999479178
 30
0.0
 10
52.0615356877
 20
1.9131784833
 30
0.0
 10
52.0568497386
 20
1.9255792773
 30
0.0
 10
52.0509891627
 20
1.9369202558
 30
0.0
 10
52.0419990739
 20
1.9499367739
 30
0.0
 10
52.0334498489
 20
1.9580645554
 30
0.0
 10
52.0271802719
 20
1.9621672004
 30
0.0
  0
SPLINE
  5
41B
100
AcDbEntity
  8
0
100
AcDbSpline
 62
7
  6
CONTINUOUS
 70
0
 71
3
 72
9
 73
5
 74
0
 42
0.0000001
 43
0.0000001
 44
0.0000000001
 40
0.0
 40
0.0
 40
0.0
 40
0.0
 40
0.2542362945
 40
1.0
 40
1.0
 40
1.0
 40
1.0
 10
52.0271802719
 20
1.9621672004
 30
0.0
 10
52.0264376587
 20
1.9626531468
 30
0.0
 10
52.0234757318
 20
1.9645009433
 30
0.0
 10
52.0203476761
 20
1.9660844075
 30
0.0
 10
52.0179466358
 20
1.9670904367
 30
0.0
  0
SPLINE
  5
41C
100
AcDbEntity
  8
0
100
AcDbSpline
 62
7
  6
CONTINUOUS
 70
0
 71
3
 72
9
 73
5
 74
0
 42
0.0000001
 43
0.0000001
 44
0.0000000001
 40
0.0
 40
0.0
 40
0.0
 40
0.0
 40
0.5047707328
 40
1.0
 40
1.0
 40
1.0
 40
1.0
 10
52.0179466358
 20
1.9670904367
 30
0.0
 10
52.0148455471
 20
1.9683897842
 30
0.0
 10
52.008445528
 20
1.9703982409
 30
0.0
 10
52.0017679089
 20
1.9710924221
 30
0.0
 10
51.9984691659
 20
1.9710924221
 30
0.0
  0
SPLINE
  5
41D
100
AcDbEntity
  8
0
100
AcDbSpline
 62
7
  6
CONTINUOUS
 70
0
 71
3
 72
9
 73
5
 74
0
 42
0.0000001
 43
0.0000001
 44
0.0000000001
 40
0.0
 40
0.0
 40
0.0
 40
0.0
 40
0.4916059524
 40
1.0
 40
1.0
 40
1.0
 40
1.0
 10
52.0050833673
 20
-1.5299132592
 30
0.0
 10
52.00823702
 20
-1.5305604451
 30
0.0
 10
52.0145370713
 20
-1.5325007147
 30
0.0
 10
52.0203765365
 20
-1.5355465801
 30
0.0
 10
52.0231904883
 20
-1.5373259096
 30
0.0
  0
SPLINE
  5
41E
100
AcDbEntity
  8
0
100
AcDbSpline
 62
7
  6
CONTINUOUS
 70
0
 71
3
 72
25
 73
21
 74
0
 42
0.0000001
 43
0.0000001
 44
0.0000000001
 40
0.0
 40
0.0
 40
0.0
 40
0.0
 40
0.0534627672
 40
0.109775216
 40
0.1390685178
 40
0.1691108442
 40
0.231302818
 40
0.2960299046
 40
0.3628134227
 40
0.4310422848
 40
0.5
 40
0.5689577152
 40
0.6371865773
 40
0.7039700954
 40
0.768697182
 40
0.8308891558
 40
0.8609314822
 40
0.890224784
 40
0.9465372328
 40
1.0
 40
1.0
 40
1.0
 40
1.0
 10
52.0231904883
 20
-1.5373259096
 30
0.0
 10
52.0263064931
 20
-1.5392962346
 30
0.0
 10
52.0323428854
 20
-1.5439338214
 30
0.0
 10
52.0389526925
 20
-1.5509314877
 30
0.0
 10
52.0437868823
 20
-1.5572809975
 30
0.0
 10
52.0483934434
 20
-1.5642887592
 30
0.0
 10
52.0534344814
 20
-1.5739011476
 30
0.0
 10
52.0582210864
 20
-1.5864011465
 30
0.0
 10
52.0616982472
 20
-1.5997565245
 30
0.0
 10
52.0638121137
 20
-1.6136864154
 30
0.0
 10
52.0645304771
 20
-1.6279075779
 30
0.0
 10
52.0638121137
 20
-1.6421287404
 30
0.0
 10
52.0616982472
 20
-1.6560586313
 30
0.0
 10
52.0582210864
 20
-1.6694140093
 30
0.0
 10
52.0534344814
 20
-1.6819140082
 30
0.0
 10
52.0483934434
 20
-1.6915263966
 30
0.0
 10
52.0437868823
 20
-1.6985341583
 30
0.0
 10
52.0389526925
 20
-1.7048836681
 30
0.0
 10
52.0323428854
 20
-1.7118813344
 30
0.0
 10
52.0263064931
 20
-1.7165189212
 30
0.0
 10
52.0231904883
 20
-1.7184892462
 30
0.0
  0
SPLINE
  5
41F
100
AcDbEntity
  8
0
100
AcDbSpline
 62
7
  6
CONTINUOUS
 70
0
 71
3
 72
9
 73
5
 74
0
 42
0.0000001
 43
0.0000001
 44
0.0000000001
 40
0.0
 40
0.0
 40
0.0
 40
0.0
 40
0.5083940476
 40
1.0
 40
1.0
 40
1.0
 40
1.0
 10
52.0231904883
 20
-1.7184892462
 30
0.0
 10
52.0203765365
 20
-1.7202685757
 30
0.0
 10
52.0145370713
 20
-1.7233144411
 30
0.0
 10
52.00823702
 20
-1.7252547107
 30
0.0
 10
52.0050833673
 20
-1.7259018966
 30
0.0
  0
SPLINE
  5
420
100
AcDbEntity
  8
0
100
AcDbSpline
 62
7
  6
CONTINUOUS
 70
0
 71
3
 72
9
 73
5
 74
0
 42
0.0000001
 43
0.0000001
 44
0.0000000001
 40
0.0
 40
0.0
 40
0.0
 40
0.0
 40
0.4916111726
 40
1.0
 40
1.0
 40
1.0
 40
1.0
 10
52.0043836566
 20
1.9700867408
 30
0.0
 10
52.0075369705
 20
1.9694396857
 30
0.0
 10
52.0138363213
 20
1.9674999528
 30
0.0
 10
52.0196753445
 20
1.9644550122
 30
0.0
 10
52.0224891183
 20
1.9626762245
 30
0.0
  0
SPLINE
  5
421
100
AcDbEntity
  8
0
100
AcDbSpline
 62
7
  6
CONTINUOUS
 70
0
 71
3
 72
25
 73
21
 74
0
 42
0.0000001
 43
0.0000001
 44
0.0000000001
 40
0.0
 40
0.0
 40
0.0
 40
0.0
 40
0.0534643506
 40
0.1097777302
 40
0.1390712803
 40
0.1691137249
 40
0.2313056142
 40
0.296032282
 40
0.3628151336
 40
0.4310431774
 40
0.5
 40
0.5689568226
 40
0.6371848664
 40
0.703967718
 40
0.7686943858
 40
0.8308862751
 40
0.8609287197
 40
0.8902222698
 40
0.9465356494
 40
1.0
 40
1.0
 40
1.0
 40
1.0
 10
52.0224891183
 20
1.9626762245
 30
0.0
 10
52.0256056147
 20
1.9607060642
 30
0.0
 10
52.0316429937
 20
1.9560687275
 30
0.0
 10
52.0382539813
 20
1.9490711208
 30
0.0
 10
52.0430890434
 20
1.9427215674
 30
0.0
 10
52.0476964258
 20
1.9357137268
 30
0.0
 10
52.0527383796
 20
1.9261011147
 30
0.0
 10
52.0575258742
 20
1.9136006869
 30
0.0
 10
52.0610036906
 20
1.9002447635
 30
0.0
 10
52.0631179554
 20
1.8863142485
 30
0.0
 10
52.063836455
 20
1.8720924221
 30
0.0
 10
52.0631179554
 20
1.8578705957
 30
0.0
 10
52.0610036906
 20
1.8439400807
 30
0.0
 10
52.0575258742
 20
1.8305841573
 30
0.0
 10
52.0527383796
 20
1.8180837295
 30
0.0
 10
52.0476964258
 20
1.8084711174
 30
0.0
 10
52.0430890434
 20
1.8014632768
 30
0.0
 10
52.0382539813
 20
1.7951137234
 30
0.0
 10
52.0316429937
 20
1.7881161166
 30
0.0
 10
52.0256056147
 20
1.78347878
 30
0.0
 10
52.0224891183
 20
1.7815086197
 30
0.0
  0
SPLINE
  5
422
100
AcDbEntity
  8
0
100
AcDbSpline
 62
7
  6
CONTINUOUS
 70
0
 71
3
 72
9
 73
5
 74
0
 42
0.0000001
 43
0.0000001
 44
0.0000000001
 40
0.0
 40
0.0
 40
0.0
 40
0.0
 40
0.5083888274
 40
1.0
 40
1.0
 40
1.0
 40
1.0
 10
52.0224891183
 20
1.7815086197
 30
0.0
 10
52.0196753445
 20
1.779729832
 30
0.0
 10
52.0138363213
 20
1.7766848914
 30
0.0
 10
52.0075369705
 20
1.7747451585
 30
0.0
 10
52.0043836566
 20
1.7740981034
 30
0.0
  0
SPLINE
  5
423
100
AcDbEntity
  8
0
100
AcDbSpline
 62
7
  6
CONTINUOUS
 70
0
 71
3
 72
9
 73
5
 74
0
 42
0.0000001
 43
0.0000001
 44
0.0000000001
 40
0.0
 40
0.0
 40
0.0
 40
0.0
 40
0.247809433
 40
1.0
 40
1.0
 40
1.0
 40
1.0
 10
36.7582145709
 20
1.9701717387
 30
0.0
 10
36.7590126051
 20
1.9700181596
 30
0.0
 10
36.762218143
 20
1.969323216
 30
0.0
 10
36.7653580111
 20
1.9683294979
 30
0.0
 10
36.7676556531
 20
1.9674318399
 30
0.0
  0
SPLINE
  5
424
100
AcDbEntity
  8
0
100
AcDbSpline
 62
7
  6
CONTINUOUS
 70
0
 71
3
 72
9
 73
5
 74
0
 42
0.0000001
 43
0.0000001
 44
0.0000000001
 40
0.0
 40
0.0
 40
0.0
 40
0.0
 40
0.2472034421
 40
1.0
 40
1.0
 40
1.0
 40
1.0
 10
36.7676556531
 20
1.9674318399
 30
0.0
 10
36.7683114346
 20
1.9671756348
 30
0.0
 10
36.770944602
 20
1.9660894981
 30
0.0
 10
36.7734961252
 20
1.9648066522
 30
0.0
 10
36.7753580352
 20
1.9637435891
 30
0.0
  0
SPLINE
  5
425
100
AcDbEntity
  8
0
100
AcDbSpline
 62
7
  6
CONTINUOUS
 70
0
 71
3
 72
23
 73
19
 74
0
 42
0.0000001
 43
0.0000001
 44
0.0000000001
 40
0.0
 40
0.0
 40
0.0
 40
0.0
 40
0.0537491362
 40
0.1102476872
 40
0.1696335509
 40
0.2318293141
 40
0.2964924134
 40
0.3631530746
 40
0.4312218363
 40
0.5
 40
0.5687781637
 40
0.6368469254
 40
0.7035075866
 40
0.7681706859
 40
0.8303664491
 40
0.8897523128
 40
0.9462508638
 40
1.0
 40
1.0
 40
1.0
 40
1.0
 10
36.7753580352
 20
1.9637435891
 30
0.0
 10
36.7786623603
 20
1.9618569747
 30
0.0
 10
36.785086031
 20
1.9573424512
 30
0.0
 10
36.7936874598
 20
1.9488982281
 30
0.0
 10
36.8013021525
 20
1.9387964458
 30
0.0
 10
36.8077528771
 20
1.9272561529
 30
0.0
 10
36.812935102
 20
1.9145394752
 30
0.0
 10
36.8167083594
 20
1.900906131
 30
0.0
 10
36.8190043443
 20
1.8866556229
 30
0.0
 10
36.8197859583
 20
1.8720924221
 30
0.0
 10
36.8190043443
 20
1.8575292213
 30
0.0
 10
36.8167083594
 20
1.8432787132
 30
0.0
 10
36.812935102
 20
1.829645369
 30
0.0
 10
36.8077528771
 20
1.8169286913
 30
0.0
 10
36.8013021525
 20
1.8053883984
 30
0.0
 10
36.7936874598
 20
1.7952866161
 30
0.0
 10
36.785086031
 20
1.786842393
 30
0.0
 10
36.7786623603
 20
1.7823278695
 30
0.0
 10
36.7753580352
 20
1.7804412551
 30
0.0
  0
SPLINE
  5
426
100
AcDbEntity
  8
0
100
AcDbSpline
 62
7
  6
CONTINUOUS
 70
0
 71
3
 72
9
 73
5
 74
0
 42
0.0000001
 43
0.0000001
 44
0.0000000001
 40
0.0
 40
0.0
 40
0.0
 40
0.0
 40
0.2530992797
 40
1.0
 40
1.0
 40
1.0
 40
1.0
 10
36.7753580352
 20
1.7804412551
 30
0.0
 10
36.7747320419
 20
1.7800838423
 30
0.0
 10
36.7722338942
 20
1.7787157541
 30
0.0
 10
36.7696370214
 20
1.7775270984
 30
0.0
 10
36.7676556531
 20
1.7767530043
 30
0.0
  0
SPLINE
  5
427
100
AcDbEntity
  8
0
100
AcDbSpline
 62
7
  6
CONTINUOUS
 70
0
 71
3
 72
9
 73
5
 74
0
 42
0.0000001
 43
0.0000001
 44
0.0000000001
 40
0.0
 40
0.0
 40
0.0
 40
0.0
 40
0.2526772748
 40
1.0
 40
1.0
 40
1.0
 40
1.0
 10
36.7676556531
 20
1.7767530043
 30
0.0
 10
36.7668838324
 20
1.7764514643
 30
0.0
 10
36.7638033813
 20
1.7753256614
 30
0.0
 10
36.7606211915
 20
1.7744762516
 30
0.0
 10
36.7582145709
 20
1.7740131055
 30
0.0
  0
SPLINE
  5
428
100
AcDbEntity
  8
0
100
AcDbSpline
 62
7
  6
CONTINUOUS
 70
0
 71
3
 72
9
 73
5
 74
0
 42
0.0000001
 43
0.0000001
 44
0.0000000001
 40
0.0
 40
0.0
 40
0.0
 40
0.0
 40
0.2478102812
 40
1.0
 40
1.0
 40
1.0
 40
1.0
 10
36.7589281446
 20
-1.5298282613
 30
0.0
 10
36.7597262562
 20
-1.5299818402
 30
0.0
 10
36.762932096
 20
-1.5306767813
 30
0.0
 10
36.7660722726
 20
-1.5316704984
 30
0.0
 10
36.7683701481
 20
-1.5325681601
 30
0.0
  0
SPLINE
  5
429
100
AcDbEntity
  8
0
100
AcDbSpline
 62
7
  6
CONTINUOUS
 70
0
 71
3
 72
9
 73
5
 74
0
 42
0.0000001
 43
0.0000001
 44
0.0000000001
 40
0.0
 40
0.0
 40
0.0
 40
0.0
 40
0.2472053897
 40
1.0
 40
1.0
 40
1.0
 40
1.0
 10
36.7683701481
 20
-1.5325681601
 30
0.0
 10
36.7690257905
 20
-1.5328242859
 30
0.0
 10
36.7716583882
 20
-1.5339100638
 30
0.0
 10
36.7742093996
 20
-1.5351924346
 30
0.0
 10
36.7760709624
 20
-1.5362550878
 30
0.0
  0
SPLINE
  5
42A
100
AcDbEntity
  8
0
100
AcDbSpline
 62
7
  6
CONTINUOUS
 70
0
 71
3
 72
23
 73
19
 74
0
 42
0.0000001
 43
0.0000001
 44
0.0000000001
 40
0.0
 40
0.0
 40
0.0
 40
0.0
 40
0.0537510994
 40
0.1102508855
 40
0.1696372999
 40
0.2318330266
 40
0.2964956187
 40
0.3631554098
 40
0.4312230633
 40
0.5
 40
0.5687769367
 40
0.6368445902
 40
0.7035043813
 40
0.7681669734
 40
0.8303627001
 40
0.8897491145
 40
0.9462489006
 40
1.0
 40
1.0
 40
1.0
 40
1.0
 10
36.7760709624
 20
-1.5362550878
 30
0.0
 10
36.7793757282
 20
-1.5381415781
 30
0.0
 10
36.7858002808
 20
-1.5426559
 30
0.0
 10
36.7944029857
 20
-1.5511000338
 30
0.0
 10
36.8020188365
 20
-1.5612018649
 30
0.0
 10
36.8084705526
 20
-1.5727423374
 30
0.0
 10
36.8136535813
 20
-1.5854592964
 30
0.0
 10
36.8174274309
 20
-1.5990930039
 30
0.0
 10
36.8197237756
 20
-1.6133439306
 30
0.0
 10
36.8205055126
 20
-1.6279075779
 30
0.0
 10
36.8197237756
 20
-1.6424712252
 30
0.0
 10
36.8174274309
 20
-1.656722152
 30
0.0
 10
36.8136535813
 20
-1.6703558594
 30
0.0
 10
36.8084705526
 20
-1.6830728184
 30
0.0
 10
36.8020188365
 20
-1.694613291
 30
0.0
 10
36.7944029857
 20
-1.704715122
 30
0.0
 10
36.7858002808
 20
-1.7131592558
 30
0.0
 10
36.7793757282
 20
-1.7176735777
 30
0.0
 10
36.7760709624
 20
-1.719560068
 30
0.0
  0
SPLINE
  5
42B
100
AcDbEntity
  8
0
100
AcDbSpline
 62
7
  6
CONTINUOUS
 70
0
 71
3
 72
9
 73
5
 74
0
 42
0.0000001
 43
0.0000001
 44
0.0000000001
 40
0.0
 40
0.0
 40
0.0
 40
0.0
 40
0.2530970885
 40
1.0
 40
1.0
 40
1.0
 40
1.0
 10
36.7760709624
 20
-1.719560068
 30
0.0
 10
36.7754450897
 20
-1.7199173407
 30
0.0
 10
36.7729474146
 20
-1.7212849111
 30
0.0
 10
36.7703510865
 20
-1.722473145
 30
0.0
 10
36.7683701481
 20
-1.7232469957
 30
0.0
  0
SPLINE
  5
42C
100
AcDbEntity
  8
0
100
AcDbSpline
 62
7
  6
CONTINUOUS
 70
0
 71
3
 72
9
 73
5
 74
0
 42
0.0000001
 43
0.0000001
 44
0.0000000001
 40
0.0
 40
0.0
 40
0.0
 40
0.0
 40
0.2526762989
 40
1.0
 40
1.0
 40
1.0
 40
1.0
 10
36.7683701481
 20
-1.7232469957
 30
0.0
 10
36.7675982511
 20
-1.7235485361
 30
0.0
 10
36.7645174877
 20
-1.7246743432
 30
0.0
 10
36.7613349931
 20
-1.7255237498
 30
0.0
 10
36.7589281446
 20
-1.7259868945
 30
0.0
  0
SPLINE
  5
42D
100
AcDbEntity
  8
0
100
AcDbSpline
 62
3
  6
CONTINUOUS
 70
0
 71
3
 72
9
 73
5
 74
0
 42
0.0000001
 43
0.0000001
 44
0.0000000001
 40
0.0
 40
0.0
 40
0.0
 40
0.0
 40
0.4954295166
 40
1.0
 40
1.0
 40
1.0
 40
1.0
 10
36.7213255674
 20
-1.5289075779
 30
0.0
 10
36.7245583903
 20
-1.5289075779
 30
0.0
 10
36.7310977909
 20
-1.5295449364
 30
0.0
 10
36.7373990868
 20
-1.5313886394
 30
0.0
 10
36.7404664893
 20
-1.5325850518
 30
0.0
  0
SPLINE
  5
42E
100
AcDbEntity
  8
0
100
AcDbSpline
 62
3
  6
CONTINUOUS
 70
0
 71
3
 72
21
 73
17
 74
0
 42
0.0000001
 43
0.0000001
 44
0.0000000001
 40
0.0
 40
0.0
 40
0.0
 40
0.0
 40
0.1113519485
 40
0.1711622348
 40
0.2335018324
 40
0.2980313653
 40
0.3643264005
 40
0.4318539565
 40
0.5
 40
0.5681460435
 40
0.6356735995
 40
0.7019686347
 40
0.7664981676
 40
0.8288377652
 40
0.8886480515
 40
1.0
 40
1.0
 40
1.0
 40
1.0
 10
36.7525566256
 20
-1.5390056209
 30
0.0
 10
36.7587522831
 20
-1.5432350615
 30
0.0
 10
36.7672081341
 20
-1.5513991303
 30
0.0
 10
36.7761447524
 20
-1.5643689216
 30
0.0
 10
36.7819595096
 20
-1.5755595295
 30
0.0
 10
36.7866099565
 20
-1.5877409446
 30
0.0
 10
36.7899856709
 20
-1.6006969855
 30
0.0
 10
36.7920396166
 20
-1.6141708209
 30
0.0
 10
36.792737707
 20
-1.6279075779
 30
0.0
 10
36.7920396166
 20
-1.6416443349
 30
0.0
 10
36.7899856709
 20
-1.6551181703
 30
0.0
 10
36.7866099565
 20
-1.6680742112
 30
0.0
 10
36.7819595096
 20
-1.6802556263
 30
0.0
 10
36.7761447524
 20
-1.6914462342
 30
0.0
 10
36.7672081341
 20
-1.7044160255
 30
0.0
 10
36.7587522831
 20
-1.7125800943
 30
0.0
 10
36.7525566256
 20
-1.7168095349
 30
0.0
  0
SPLINE
  5
42F
100
AcDbEntity
  8
0
100
AcDbSpline
 62
3
  6
CONTINUOUS
 70
0
 71
3
 72
9
 73
5
 74
0
 42
0.0000001
 43
0.0000001
 44
0.0000000001
 40
0.0
 40
0.0
 40
0.0
 40
0.0
 40
0.5045704834
 40
1.0
 40
1.0
 40
1.0
 40
1.0
 10
36.7404664893
 20
-1.723230104
 30
0.0
 10
36.7373990868
 20
-1.7244265164
 30
0.0
 10
36.7310977909
 20
-1.7262702194
 30
0.0
 10
36.7245583903
 20
-1.7269075779
 30
0.0
 10
36.7213255674
 20
-1.7269075779
 30
0.0
  0
SPLINE
  5
430
100
AcDbEntity
  8
0
100
AcDbSpline
 62
3
  6
CONTINUOUS
 70
0
 71
3
 72
9
 73
5
 74
0
 42
0.0000001
 43
0.0000001
 44
0.0000000001
 40
0.0
 40
0.0
 40
0.0
 40
0.0
 40
0.4954277854
 40
1.0
 40
1.0
 40
1.0
 40
1.0
 10
36.7206100831
 20
1.9710924221
 30
0.0
 10
36.7238425926
 20
1.9710924221
 30
0.0
 10
36.7303813847
 20
1.9704550582
 30
0.0
 10
36.7366820479
 20
1.9686113541
 30
0.0
 10
36.7397491349
 20
1.9674149482
 30
0.0
  0
SPLINE
  5
431
100
AcDbEntity
  8
0
100
AcDbSpline
 62
3
  6
CONTINUOUS
 70
0
 71
3
 72
21
 73
17
 74
0
 42
0.0000001
 43
0.0000001
 44
0.0000000001
 40
0.0
 40
0.0
 40
0.0
 40
0.0
 40
0.111348984
 40
0.1711587494
 40
0.2334983689
 40
0.2980283682
 40
0.3643242134
 40
0.4318528059
 40
0.5
 40
0.5681471941
 40
0.6356757866
 40
0.7019716318
 40
0.7665016311
 40
0.8288412506
 40
0.888651016
 40
1.0
 40
1.0
 40
1.0
 40
1.0
 10
36.7518397336
 20
1.9609932604
 30
0.0
 10
36.7580346592
 20
1.9567636346
 30
0.0
 10
36.7664893734
 20
1.9485994316
 30
0.0
 10
36.7754246893
 20
1.9356298008
 30
0.0
 10
36.7812386268
 20
1.9244393445
 30
0.0
 10
36.7858884125
 20
1.912258148
 30
0.0
 10
36.7892636432
 20
1.8993023797
 30
0.0
 10
36.7913172949
 20
1.8858288525
 30
0.0
 10
36.7920152851
 20
1.8720924221
 30
0.0
 10
36.7913172949
 20
1.8583559917
 30
0.0
 10
36.7892636432
 20
1.8448824645
 30
0.0
 10
36.7858884125
 20
1.8319266962
 30
0.0
 10
36.7812386268
 20
1.8197454997
 30
0.0
 10
36.7754246893
 20
1.8085550434
 30
0.0
 10
36.7664893734
 20
1.7955854126
 30
0.0
 10
36.7580346592
 20
1.7874212096
 30
0.0
 10
36.7518397336
 20
1.7831915838
 30
0.0
  0
SPLINE
  5
432
100
AcDbEntity
  8
0
100
AcDbSpline
 62
3
  6
CONTINUOUS
 70
0
 71
3
 72
9
 73
5
 74
0
 42
0.0000001
 43
0.0000001
 44
0.0000000001
 40
0.0
 40
0.0
 40
0.0
 40
0.0
 40
0.5045722146
 40
1.0
 40
1.0
 40
1.0
 40
1.0
 10
36.7397491349
 20
1.776769896
 30
0.0
 10
36.7366820479
 20
1.7755734901
 30
0.0
 10
36.7303813847
 20
1.773729786
 30
0.0
 10
36.7238425926
 20
1.7730924221
 30
0.0
 10
36.7206100831
 20
1.7730924221
 30
0.0
  0
SPLINE
  5
433
100
AcDbEntity
  8
0
100
AcDbSpline
 62
3
  6
CONTINUOUS
 70
0
 71
3
 72
31
 73
27
 74
0
 42
0.0000001
 43
0.0000001
 44
0.0000000001
 40
0.0
 40
0.0
 40
0.0
 40
0.0
 40
0.0258923554
 40
0.0520433674
 40
0.0786642941
 40
0.1059422587
 40
0.1340385125
 40
0.1630571912
 40
0.2239744517
 40
0.2559660361
 40
0.2888986805
 40
0.3571635118
 40
0.4279288177
 40
0.5
 40
0.5720711823
 40
0.6428364882
 40
0.7111013195
 40
0.7440339639
 40
0.7760255483
 40
0.8369428088
 40
0.8659614875
 40
0.8940577413
 40
0.9213357059
 40
0.9479566326
 40
0.9741076446
 40
1.0
 40
1.0
 40
1.0
 40
1.0
 10
51.8986835346
 20
-1.5289075779
 30
0.0
 10
51.8963649017
 20
-1.5289075779
 30
0.0
 10
51.8916983748
 20
-1.5292336773
 30
0.0
 10
51.8847832461
 20
-1.5306774603
 30
0.0
 10
51.8779996701
 20
-1.533056243
 30
0.0
 10
51.8714162262
 20
-1.5363497344
 30
0.0
 10
51.8651020921
 20
-1.5405348769
 30
0.0
 10
51.8569887725
 20
-1.5473364062
 30
0.0
 10
51.8497829354
 20
-1.5556530486
 30
0.0
 10
51.8436402003
 20
-1.565112371
 30
0.0
 10
51.8380311431
 20
-1.5756536061
 30
0.0
 10
51.8325103683
 20
-1.5901046927
 30
0.0
 10
51.8285086197
 20
-1.608646922
 30
0.0
 10
51.8271384105
 20
-1.6279075779
 30
0.0
 10
51.8285086197
 20
-1.6471682338
 30
0.0
 10
51.8325103683
 20
-1.6657104631
 30
0.0
 10
51.8380311431
 20
-1.6801615497
 30
0.0
 10
51.8436402003
 20
-1.6907027848
 30
0.0
 10
51.8497829354
 20
-1.7001621072
 30
0.0
 10
51.8569887725
 20
-1.7084787497
 30
0.0
 10
51.8651020921
 20
-1.7152802789
 30
0.0
 10
51.8714162262
 20
-1.7194654214
 30
0.0
 10
51.8779996701
 20
-1.7227589128
 30
0.0
 10
51.8847832461
 20
-1.7251376955
 30
0.0
 10
51.8916983748
 20
-1.7265814785
 30
0.0
 10
51.8963649017
 20
-1.7269075779
 30
0.0
 10
51.8986835346
 20
-1.7269075779
 30
0.0
  0
SPLINE
  5
434
100
AcDbEntity
  8
0
100
AcDbSpline
 62
3
  6
CONTINUOUS
 70
0
 71
3
 72
31
 73
27
 74
0
 42
0.0000001
 43
0.0000001
 44
0.0000000001
 40
0.0
 40
0.0
 40
0.0
 40
0.0
 40
0.0258908911
 40
0.0520405155
 40
0.0786601967
 40
0.1059371124
 40
0.1340325546
 40
0.1630506804
 40
0.2239676369
 40
0.2559594571
 40
0.2888925718
 40
0.357158946
 40
0.4279263842
 40
0.5
 40
0.5720736158
 40
0.642841054
 40
0.7111074282
 40
0.7440405429
 40
0.7760323631
 40
0.8369493196
 40
0.8659674454
 40
0.8940628876
 40
0.9213398033
 40
0.9479594845
 40
0.9741091089
 40
1.0
 40
1.0
 40
1.0
 40
1.0
 10
51.8993983186
 20
1.9710924221
 30
0.0
 10
51.8970798962
 20
1.9710924221
 30
0.0
 10
51.8924137837
 20
1.9707663213
 30
0.0
 10
51.8854992753
 20
1.9693225339
 30
0.0
 10
51.8787163093
 20
1.9669437452
 30
0.0
 10
51.8721334597
 20
1.9636502476
 30
0.0
 10
51.8658198982
 20
1.9594651004
 30
0.0
 10
51.8577072768
 20
1.9526635336
 30
0.0
 10
51.8505021101
 20
1.9443468852
 30
0.0
 10
51.8443599583
 20
1.9348876031
 30
0.0
 10
51.838751395
 20
1.9243463408
 30
0.0
 10
51.8332311232
 20
1.9098952396
 30
0.0
 10
51.8292297482
 20
1.8913530435
 30
0.0
 10
51.8278596666
 20
1.8720924221
 30
0.0
 10
51.8292297482
 20
1.8528318007
 30
0.0
 10
51.8332311232
 20
1.8342896046
 30
0.0
 10
51.838751395
 20
1.8198385034
 30
0.0
 10
51.8443599583
 20
1.809297241
 30
0.0
 10
51.8505021101
 20
1.7998379589
 30
0.0
 10
51.8577072768
 20
1.7915213106
 30
0.0
 10
51.8658198982
 20
1.7847197437
 30
0.0
 10
51.8721334597
 20
1.7805345966
 30
0.0
 10
51.8787163093
 20
1.777241099
 30
0.0
 10
51.8854992753
 20
1.7748623103
 30
0.0
 10
51.8924137837
 20
1.7734185228
 30
0.0
 10
51.8970798962
 20
1.7730924221
 30
0.0
 10
51.8993983186
 20
1.7730924221
 30
0.0
  0
SPLINE
  5
435
100
AcDbEntity
  8
0
100
AcDbSpline
 62
3
  6
CONTINUOUS
 70
0
 71
3
 72
31
 73
27
 74
0
 42
0.0000001
 43
0.0000001
 44
0.0000000001
 40
0.0
 40
0.0
 40
0.0
 40
0.0
 40
0.0258880117
 40
0.0520349076
 40
0.0786521396
 40
0.1059269928
 40
0.1340208391
 40
0.1630378777
 40
0.2239542368
 40
0.2559465207
 40
0.2888805602
 40
0.3571499682
 40
0.4279215993
 40
0.5
 40
0.5720784007
 40
0.6428500318
 40
0.7111194398
 40
0.7440534793
 40
0.7760457632
 40
0.8369621223
 40
0.8659791609
 40
0.8940730072
 40
0.9213478604
 40
0.9479650924
 40
0.9741119883
 40
1.0
 40
1.0
 40
1.0
 40
1.0
 10
36.751682416
 20
-1.7269075779
 30
0.0
 10
36.7540004246
 20
-1.7269075779
 30
0.0
 10
36.7586657225
 20
-1.7265814744
 30
0.0
 10
36.7655790113
 20
-1.7251376783
 30
0.0
 10
36.7723607778
 20
-1.722758878
 30
0.0
 10
36.7789424589
 20
-1.719465368
 30
0.0
 10
36.7852548945
 20
-1.7152802117
 30
0.0
 10
36.7933661431
 20
-1.708478571
 30
0.0
 10
36.8005699917
 20
-1.7001619111
 30
0.0
 10
36.8067109966
 20
-1.6907027081
 30
0.0
 10
36.8123185887
 20
-1.6801613921
 30
0.0
 10
36.8178378718
 20
-1.6657102623
 30
0.0
 10
36.821838512
 20
-1.6471681315
 30
0.0
 10
36.8232083428
 20
-1.6279075779
 30
0.0
 10
36.821838512
 20
-1.6086470243
 30
0.0
 10
36.8178378718
 20
-1.5901048935
 30
0.0
 10
36.8123185887
 20
-1.5756537637
 30
0.0
 10
36.8067109966
 20
-1.5651124477
 30
0.0
 10
36.8005699917
 20
-1.5556532448
 30
0.0
 10
36.7933661431
 20
-1.5473365848
 30
0.0
 10
36.7852548945
 20
-1.5405349441
 30
0.0
 10
36.7789424589
 20
-1.5363497878
 30
0.0
 10
36.7723607778
 20
-1.5330562778
 30
0.0
 10
36.7655790113
 20
-1.5306774775
 30
0.0
 10
36.7586657225
 20
-1.5292336814
 30
0.0
 10
36.7540004246
 20
-1.5289075779
 30
0.0
 10
36.751682416
 20
-1.5289075779
 30
0.0
  0
SPLINE
  5
436
100
AcDbEntity
  8
0
100
AcDbSpline
 62
3
  6
CONTINUOUS
 70
0
 71
3
 72
31
 73
27
 74
0
 42
0.0000001
 43
0.0000001
 44
0.0000000001
 40
0.0
 40
0.0
 40
0.0
 40
0.0
 40
0.0258865466
 40
0.0520320542
 40
0.0786480401
 40
0.1059218439
 40
0.1340148782
 40
0.1630313637
 40
0.2239474189
 40
0.2559399389
 40
0.2888744488
 40
0.3571454005
 40
0.4279191648
 40
0.5
 40
0.5720808352
 40
0.6428545995
 40
0.7111255512
 40
0.7440600611
 40
0.7760525811
 40
0.8369686363
 40
0.8659851218
 40
0.8940781561
 40
0.9213519599
 40
0.9479679458
 40
0.9741134534
 40
1.0
 40
1.0
 40
1.0
 40
1.0
 10
36.7509678255
 20
1.7730924221
 30
0.0
 10
36.7532856236
 20
1.7730924221
 30
0.0
 10
36.7579505071
 20
1.7734185269
 30
0.0
 10
36.7648631754
 20
1.7748623275
 30
0.0
 10
36.7716443316
 20
1.7772411338
 30
0.0
 10
36.7782254183
 20
1.78053465
 30
0.0
 10
36.7845372812
 20
1.784719811
 30
0.0
 10
36.7926478313
 20
1.7915214892
 30
0.0
 10
36.7998510093
 20
1.7998381551
 30
0.0
 10
36.8059914307
 20
1.8092973178
 30
0.0
 10
36.8115985288
 20
1.819838661
 30
0.0
 10
36.8171173088
 20
1.8342898054
 30
0.0
 10
36.8211175752
 20
1.852831903
 30
0.0
 10
36.8224872784
 20
1.8720924221
 30
0.0
 10
36.8211175752
 20
1.8913529412
 30
0.0
 10
36.8171173088
 20
1.9098950388
 30
0.0
 10
36.8115985288
 20
1.9243461832
 30
0.0
 10
36.8059914307
 20
1.9348875264
 30
0.0
 10
36.7998510093
 20
1.9443466891
 30
0.0
 10
36.7926478313
 20
1.952663355
 30
0.0
 10
36.7845372812
 20
1.9594650332
 30
0.0
 10
36.7782254183
 20
1.9636501942
 30
0.0
 10
36.7716443316
 20
1.9669437104
 30
0.0
 10
36.7648631754
 20
1.9693225167
 30
0.0
 10
36.7579505071
 20
1.9707663173
 30
0.0
 10
36.7532856236
 20
1.9710924221
 30
0.0
 10
36.7509678255
 20
1.9710924221
 30
0.0
  0
SPLINE
  5
437
100
AcDbEntity
  8
0
100
AcDbSpline
 62
3
  6
CONTINUOUS
 70
0
 71
3
 72
31
 73
27
 74
0
 42
0.0000001
 43
0.0000001
 44
0.0000000001
 40
0.0
 40
0.0
 40
0.0
 40
0.0
 40
0.0256684271
 40
0.0515660745
 40
0.0779241535
 40
0.1049489645
 40
0.1328194882
 40
0.1616557826
 40
0.2223828663
 40
0.2543794997
 40
0.2873849482
 40
0.3559850952
 40
0.4272859315
 40
0.5
 40
0.5727140685
 40
0.6440149048
 40
0.7126150518
 40
0.7456205003
 40
0.7776171337
 40
0.8383442174
 40
0.8671805118
 40
0.8950510355
 40
0.9220758465
 40
0.9484339255
 40
0.9743315729
 40
1.0
 40
1.0
 40
1.0
 40
1.0
 10
52.0276933261
 20
-1.7269075779
 30
0.0
 10
52.0299711914
 20
-1.7269075779
 30
0.0
 10
52.0345535284
 20
-1.7265820785
 30
0.0
 10
52.0413370759
 20
-1.7251379519
 30
0.0
 10
52.0479798029
 20
-1.7227581174
 30
0.0
 10
52.0544149869
 20
-1.7194630931
 30
0.0
 10
52.0605755628
 20
-1.7152762306
 30
0.0
 10
52.068486499
 20
-1.7084651458
 30
0.0
 10
52.0754850758
 20
-1.7001444984
 30
0.0
 10
52.0814354194
 20
-1.6906951068
 30
0.0
 10
52.0868730106
 20
-1.6801443115
 30
0.0
 10
52.0922105019
 20
-1.6656865652
 30
0.0
 10
52.0960711332
 20
-1.6471554423
 30
0.0
 10
52.097391133
 20
-1.6279075779
 30
0.0
 10
52.0960711332
 20
-1.6086597135
 30
0.0
 10
52.0922105019
 20
-1.5901285906
 30
0.0
 10
52.0868730106
 20
-1.5756708443
 30
0.0
 10
52.0814354194
 20
-1.565120049
 30
0.0
 10
52.0754850758
 20
-1.5556706574
 30
0.0
 10
52.068486499
 20
-1.54735001
 30
0.0
 10
52.0605755628
 20
-1.5405389252
 30
0.0
 10
52.0544149869
 20
-1.5363520627
 30
0.0
 10
52.0479798029
 20
-1.5330570384
 30
0.0
 10
52.0413370759
 20
-1.5306772039
 30
0.0
 10
52.0345535284
 20
-1.5292330773
 30
0.0
 10
52.0299711914
 20
-1.5289075779
 30
0.0
 10
52.0276933261
 20
-1.5289075779
 30
0.0
  0
SPLINE
  5
438
100
AcDbEntity
  8
0
100
AcDbSpline
 62
3
  6
CONTINUOUS
 70
0
 71
3
 72
31
 73
27
 74
0
 42
0.0000001
 43
0.0000001
 44
0.0000000001
 40
0.0
 40
0.0
 40
0.0
 40
0.0
 40
0.025669941
 40
0.0515690271
 40
0.0779283994
 40
0.1049543001
 40
0.1328256667
 40
0.161662534
 40
0.2223899283
 40
0.2543863144
 40
0.287391273
 40
0.3559898186
 40
0.4272884476
 40
0.5
 40
0.5727115524
 40
0.6440101814
 40
0.712608727
 40
0.7456136856
 40
0.7776100717
 40
0.838337466
 40
0.8671743333
 40
0.8950456999
 40
0.9220716006
 40
0.9484309729
 40
0.974330059
 40
1.0
 40
1.0
 40
1.0
 40
1.0
 10
52.0269904533
 20
1.7730924221
 30
0.0
 10
52.0292685328
 20
1.7730924221
 30
0.0
 10
52.0338512917
 20
1.7734179202
 30
0.0
 10
52.0406354714
 20
1.7748620421
 30
0.0
 10
52.0472788215
 20
1.7772418703
 30
0.0
 10
52.0537146138
 20
1.7805368879
 30
0.0
 10
52.0598757768
 20
1.7847237455
 30
0.0
 10
52.067787431
 20
1.7915347909
 30
0.0
 10
52.0747866982
 20
1.799855433
 30
0.0
 10
52.0807376417
 20
1.8093048665
 30
0.0
 10
52.0861757438
 20
1.8198556342
 30
0.0
 10
52.0915137548
 20
1.8343133665
 30
0.0
 10
52.0953747715
 20
1.8528445232
 30
0.0
 10
52.096694903
 20
1.8720924221
 30
0.0
 10
52.0953747715
 20
1.891340321
 30
0.0
 10
52.0915137548
 20
1.9098714777
 30
0.0
 10
52.0861757438
 20
1.92432921
 30
0.0
 10
52.0807376417
 20
1.9348799777
 30
0.0
 10
52.0747866982
 20
1.9443294112
 30
0.0
 10
52.067787431
 20
1.9526500533
 30
0.0
 10
52.0598757768
 20
1.9594610987
 30
0.0
 10
52.0537146138
 20
1.9636479563
 30
0.0
 10
52.0472788215
 20
1.9669429739
 30
0.0
 10
52.0406354714
 20
1.9693228021
 30
0.0
 10
52.0338512917
 20
1.970766924
 30
0.0
 10
52.0292685328
 20
1.9710924221
 30
0.0
 10
52.0269904533
 20
1.9710924221
 30
0.0
  0
SPLINE
  5
439
100
AcDbEntity
  8
0
100
AcDbSpline
 62
3
  6
CONTINUOUS
 70
0
 71
3
 72
31
 73
27
 74
0
 42
0.0000001
 43
0.0000001
 44
0.0000000001
 40
0.0
 40
0.0
 40
0.0
 40
0.0
 40
0.0256639356
 40
0.0515573146
 40
0.0779115563
 40
0.1049331343
 40
0.1328011577
 40
0.1616357523
 40
0.222361915
 40
0.2543592823
 40
0.2873661845
 40
0.3559710823
 40
0.4272784672
 40
0.5
 40
0.5727215328
 40
0.6440289177
 40
0.7126338155
 40
0.7456407177
 40
0.777638085
 40
0.8383642477
 40
0.8671988423
 40
0.8950668657
 40
0.9220884437
 40
0.9484426854
 40
0.9743360644
 40
1.0
 40
1.0
 40
1.0
 40
1.0
 10
36.6227081519
 20
-1.5289075779
 30
0.0
 10
36.6204309219
 20
-1.5289075779
 30
0.0
 10
36.6158498364
 20
-1.5292330812
 30
0.0
 10
36.6090681646
 20
-1.5306772217
 30
0.0
 10
36.6024272859
 20
-1.5330570749
 30
0.0
 10
36.595993906
 20
-1.536352119
 30
0.0
 10
36.5898350719
 20
-1.5405389962
 30
0.0
 10
36.5819262658
 20
-1.5473501979
 30
0.0
 10
36.5749297366
 20
-1.5556708609
 30
0.0
 10
36.5689811728
 20
-1.565120128
 30
0.0
 10
36.5635450968
 20
-1.5756710054
 30
0.0
 10
36.5582091474
 20
-1.5901287933
 30
0.0
 10
36.5543496593
 20
-1.608659816
 30
0.0
 10
36.5530300503
 20
-1.6279075779
 30
0.0
 10
36.5543496593
 20
-1.6471553398
 30
0.0
 10
36.5582091474
 20
-1.6656863626
 30
0.0
 10
36.5635450968
 20
-1.6801441504
 30
0.0
 10
36.5689811728
 20
-1.6906950278
 30
0.0
 10
36.5749297366
 20
-1.7001442949
 30
0.0
 10
36.5819262658
 20
-1.708464958
 30
0.0
 10
36.5898350719
 20
-1.7152761596
 30
0.0
 10
36.595993906
 20
-1.7194630368
 30
0.0
 10
36.6024272859
 20
-1.7227580809
 30
0.0
 10
36.6090681646
 20
-1.7251379341
 30
0.0
 10
36.6158498364
 20
-1.7265820746
 30
0.0
 10
36.6204309219
 20
-1.7269075779
 30
0.0
 10
36.6227081519
 20
-1.7269075779
 30
0.0
  0
SPLINE
  5
43A
100
AcDbEntity
  8
0
100
AcDbSpline
 62
3
  6
CONTINUOUS
 70
0
 71
3
 72
31
 73
27
 74
0
 42
0.0000001
 43
0.0000001
 44
0.0000000001
 40
0.0
 40
0.0
 40
0.0
 40
0.0
 40
0.0256654502
 40
0.0515602687
 40
0.0779158044
 40
0.1049384726
 40
0.1328073392
 40
0.1616425069
 40
0.2223689801
 40
0.2543661
 40
0.2873725119
 40
0.3559758076
 40
0.4272809842
 40
0.5
 40
0.5727190158
 40
0.6440241924
 40
0.7126274881
 40
0.7456339
 40
0.7776310199
 40
0.8383574931
 40
0.8671926608
 40
0.8950615274
 40
0.9220841956
 40
0.9484397313
 40
0.9743345498
 40
1.0
 40
1.0
 40
1.0
 40
1.0
 10
36.6234108278
 20
1.9710924221
 30
0.0
 10
36.6211333836
 20
1.9710924221
 30
0.0
 10
36.6165518761
 20
1.9707669201
 30
0.0
 10
36.6097695718
 20
1.9693227843
 30
0.0
 10
36.6031280699
 20
1.9669429374
 30
0.0
 10
36.5966940817
 20
1.9636479
 30
0.0
 10
36.5905346602
 20
1.9594610277
 30
0.0
 10
36.5826251358
 20
1.9526498655
 30
0.0
 10
36.5756279162
 20
1.9443292077
 30
0.0
 10
36.5696787523
 20
1.9348798987
 30
0.0
 10
36.5642421653
 20
1.924329049
 30
0.0
 10
36.5589056961
 20
1.9098712751
 30
0.0
 10
36.5550458224
 20
1.8913402186
 30
0.0
 10
36.5537260817
 20
1.8720924221
 30
0.0
 10
36.5550458224
 20
1.8528446256
 30
0.0
 10
36.5589056961
 20
1.8343135691
 30
0.0
 10
36.5642421653
 20
1.8198557952
 30
0.0
 10
36.5696787523
 20
1.8093049455
 30
0.0
 10
36.5756279162
 20
1.7998556365
 30
0.0
 10
36.5826251358
 20
1.7915349787
 30
0.0
 10
36.5905346602
 20
1.7847238164
 30
0.0
 10
36.5966940817
 20
1.7805369442
 30
0.0
 10
36.6031280699
 20
1.7772419068
 30
0.0
 10
36.6097695718
 20
1.7748620599
 30
0.0
 10
36.6165518761
 20
1.7734179241
 30
0.0
 10
36.6211333836
 20
1.7730924221
 30
0.0
 10
36.6234108278
 20
1.7730924221
 30
0.0
  0
LINE
  5
43B
100
AcDbEntity
  8
0
100
AcDbLine
 62
7
  6
CONTINUOUS
 10
7.2251444676
 20
-26.7959096676
 11
7.2125004967
 21
-26.8178096676
  0
LINE
  5
43C
100
AcDbEntity
  8
0
100
AcDbLine
 62
7
  6
CONTINUOUS
 10
7.1168912922
 20
-26.6084096676
 11
7.0916033504
 21
-26.6084096676
  0
LINE
  5
43D
100
AcDbEntity
  8
0
100
AcDbLine
 62
7
  6
CONTINUOUS
 10
7.4416508186
 20
-26.7959096676
 11
7.4542947895
 21
-26.8178096676
  0
LINE
  5
43E
100
AcDbEntity
  8
0
100
AcDbLine
 62
7
  6
CONTINUOUS
 10
7.549903994
 20
-26.6084096676
 11
7.5751919358
 21
-26.6084096676
  0
LINE
  5
43F
100
AcDbEntity
  8
0
100
AcDbLine
 62
7
  6
CONTINUOUS
 10
7.4416508186
 20
-26.4209096676
 11
7.4542947895
 21
-26.3990096676
  0
LINE
  5
440
100
AcDbEntity
  8
0
100
AcDbLine
 62
7
  6
CONTINUOUS
 10
7.2251444676
 20
-26.4209096676
 11
7.2125004967
 21
-26.3990096676
  0
LINE
  5
441
100
AcDbEntity
  8
0
100
AcDbLine
 62
7
  6
CONTINUOUS
 10
-4.4421174219
 20
-26.7959096676
 11
-4.4547613928
 21
-26.8178096676
  0
LINE
  5
442
100
AcDbEntity
  8
0
100
AcDbLine
 62
7
  6
CONTINUOUS
 10
-4.5503705974
 20
-26.6084096676
 11
-4.5756585392
 21
-26.6084096676
  0
LINE
  5
443
100
AcDbEntity
  8
0
100
AcDbLine
 62
7
  6
CONTINUOUS
 10
-4.225611071
 20
-26.7959096676
 11
-4.2129671001
 21
-26.8178096676
  0
LINE
  5
444
100
AcDbEntity
  8
0
100
AcDbLine
 62
7
  6
CONTINUOUS
 10
-4.1173578955
 20
-26.6084096676
 11
-4.0920699537
 21
-26.6084096676
  0
LINE
  5
445
100
AcDbEntity
  8
0
100
AcDbLine
 62
7
  6
CONTINUOUS
 10
-4.225611071
 20
-26.4209096676
 11
-4.2129671001
 21
-26.3990096676
  0
LINE
  5
446
100
AcDbEntity
  8
0
100
AcDbLine
 62
7
  6
CONTINUOUS
 10
-4.4421174219
 20
-26.4209096676
 11
-4.4547613928
 21
-26.3990096676
  0
LINE
  5
447
100
AcDbEntity
  8
0
100
AcDbLine
 62
7
  6
CONTINUOUS
 10
-4.4421174219
 20
-38.4631715572
 11
-4.4547613928
 21
-38.4850715572
  0
LINE
  5
448
100
AcDbEntity
  8
0
100
AcDbLine
 62
7
  6
CONTINUOUS
 10
-4.5503705974
 20
-38.2756715572
 11
-4.5756585392
 21
-38.2756715572
  0
LINE
  5
449
100
AcDbEntity
  8
0
100
AcDbLine
 62
7
  6
CONTINUOUS
 10
-4.225611071
 20
-38.4631715572
 11
-4.2129671001
 21
-38.4850715572
  0
LINE
  5
44A
100
AcDbEntity
  8
0
100
AcDbLine
 62
7
  6
CONTINUOUS
 10
-4.1173578955
 20
-38.2756715572
 11
-4.0920699537
 21
-38.2756715572
  0
LINE
  5
44B
100
AcDbEntity
  8
0
100
AcDbLine
 62
7
  6
CONTINUOUS
 10
-4.225611071
 20
-38.0881715572
 11
-4.2129671001
 21
-38.0662715572
  0
LINE
  5
44C
100
AcDbEntity
  8
0
100
AcDbLine
 62
7
  6
CONTINUOUS
 10
-4.4421174219
 20
-38.0881715572
 11
-4.4547613928
 21
-38.0662715572
  0
LINE
  5
44D
100
AcDbEntity
  8
0
100
AcDbLine
 62
7
  6
CONTINUOUS
 10
7.2251444676
 20
-38.4631715572
 11
7.2125004967
 21
-38.4850715572
  0
LINE
  5
44E
100
AcDbEntity
  8
0
100
AcDbLine
 62
7
  6
CONTINUOUS
 10
7.1168912922
 20
-38.2756715572
 11
7.0916033504
 21
-38.2756715572
  0
LINE
  5
44F
100
AcDbEntity
  8
0
100
AcDbLine
 62
7
  6
CONTINUOUS
 10
7.4416508186
 20
-38.4631715572
 11
7.4542947895
 21
-38.4850715572
  0
LINE
  5
450
100
AcDbEntity
  8
0
100
AcDbLine
 62
7
  6
CONTINUOUS
 10
7.549903994
 20
-38.2756715572
 11
7.5751919358
 21
-38.2756715572
  0
LINE
  5
451
100
AcDbEntity
  8
0
100
AcDbLine
 62
7
  6
CONTINUOUS
 10
7.4416508186
 20
-38.0881715572
 11
7.4542947895
 21
-38.0662715572
  0
LINE
  5
452
100
AcDbEntity
  8
0
100
AcDbLine
 62
7
  6
CONTINUOUS
 10
7.2251444676
 20
-38.0881715572
 11
7.2125004967
 21
-38.0662715572
  0
LINE
  5
453
100
AcDbEntity
  8
0
100
AcDbLine
 62
7
  6
CONTINUOUS
 10
8.2858046394
 20
-25.7352494958
 11
8.2731606685
 21
-25.7571494958
  0
LINE
  5
454
100
AcDbEntity
  8
0
100
AcDbLine
 62
7
  6
CONTINUOUS
 10
8.1775514639
 20
-25.5477494958
 11
8.1522635221
 21
-25.5477494958
  0
LINE
  5
455
100
AcDbEntity
  8
0
100
AcDbLine
 62
7
  6
CONTINUOUS
 10
8.5023109904
 20
-25.7352494958
 11
8.5149549613
 21
-25.7571494958
  0
LINE
  5
456
100
AcDbEntity
  8
0
100
AcDbLine
 62
7
  6
CONTINUOUS
 10
8.6105641658
 20
-25.5477494958
 11
8.6358521076
 21
-25.5477494958
  0
LINE
  5
457
100
AcDbEntity
  8
0
100
AcDbLine
 62
7
  6
CONTINUOUS
 10
8.5023109904
 20
-25.3602494958
 11
8.5149549613
 21
-25.3383494958
  0
LINE
  5
458
100
AcDbEntity
  8
0
100
AcDbLine
 62
7
  6
CONTINUOUS
 10
8.2858046394
 20
-25.3602494958
 11
8.2731606685
 21
-25.3383494958
  0
LINE
  5
459
100
AcDbEntity
  8
0
100
AcDbLine
 62
7
  6
CONTINUOUS
 10
-5.5027775937
 20
-25.7352494958
 11
-5.5154215646
 21
-25.7571494958
  0
LINE
  5
45A
100
AcDbEntity
  8
0
100
AcDbLine
 62
7
  6
CONTINUOUS
 10
-5.6110307692
 20
-25.5477494958
 11
-5.636318711
 21
-25.5477494958
  0
LINE
  5
45B
100
AcDbEntity
  8
0
100
AcDbLine
 62
7
  6
CONTINUOUS
 10
-5.2862712428
 20
-25.7352494958
 11
-5.2736272719
 21
-25.7571494958
  0
LINE
  5
45C
100
AcDbEntity
  8
0
100
AcDbLine
 62
7
  6
CONTINUOUS
 10
-5.1780180673
 20
-25.5477494958
 11
-5.1527301255
 21
-25.5477494958
  0
LINE
  5
45D
100
AcDbEntity
  8
0
100
AcDbLine
 62
7
  6
CONTINUOUS
 10
-5.2862712428
 20
-25.3602494958
 11
-5.2736272719
 21
-25.3383494958
  0
LINE
  5
45E
100
AcDbEntity
  8
0
100
AcDbLine
 62
7
  6
CONTINUOUS
 10
-5.5027775937
 20
-25.3602494958
 11
-5.5154215646
 21
-25.3383494958
  0
LINE
  5
45F
100
AcDbEntity
  8
0
100
AcDbLine
 62
7
  6
CONTINUOUS
 10
-5.5027775937
 20
-39.5238317289
 11
-5.5154215646
 21
-39.5457317289
  0
LINE
  5
460
100
AcDbEntity
  8
0
100
AcDbLine
 62
7
  6
CONTINUOUS
 10
-5.6110307692
 20
-39.3363317289
 11
-5.636318711
 21
-39.3363317289
  0
LINE
  5
461
100
AcDbEntity
  8
0
100
AcDbLine
 62
7
  6
CONTINUOUS
 10
-5.2862712428
 20
-39.5238317289
 11
-5.2736272719
 21
-39.5457317289
  0
LINE
  5
462
100
AcDbEntity
  8
0
100
AcDbLine
 62
7
  6
CONTINUOUS
 10
-5.1780180673
 20
-39.3363317289
 11
-5.1527301255
 21
-39.3363317289
  0
LINE
  5
463
100
AcDbEntity
  8
0
100
AcDbLine
 62
7
  6
CONTINUOUS
 10
-5.2862712428
 20
-39.1488317289
 11
-5.2736272719
 21
-39.1269317289
  0
LINE
  5
464
100
AcDbEntity
  8
0
100
AcDbLine
 62
7
  6
CONTINUOUS
 10
-5.5027775937
 20
-39.1488317289
 11
-5.5154215646
 21
-39.1269317289
  0
LINE
  5
465
100
AcDbEntity
  8
0
100
AcDbLine
 62
7
  6
CONTINUOUS
 10
8.2858046394
 20
-39.5238317289
 11
8.2731606685
 21
-39.5457317289
  0
LINE
  5
466
100
AcDbEntity
  8
0
100
AcDbLine
 62
7
  6
CONTINUOUS
 10
8.1775514639
 20
-39.3363317289
 11
8.1522635221
 21
-39.3363317289
  0
LINE
  5
467
100
AcDbEntity
  8
0
100
AcDbLine
 62
7
  6
CONTINUOUS
 10
8.5023109904
 20
-39.5238317289
 11
8.5149549613
 21
-39.5457317289
  0
LINE
  5
468
100
AcDbEntity
  8
0
100
AcDbLine
 62
7
  6
CONTINUOUS
 10
8.6105641658
 20
-39.3363317289
 11
8.6358521076
 21
-39.3363317289
  0
LINE
  5
469
100
AcDbEntity
  8
0
100
AcDbLine
 62
7
  6
CONTINUOUS
 10
8.5023109904
 20
-39.1488317289
 11
8.5149549613
 21
-39.1269317289
  0
LINE
  5
46A
100
AcDbEntity
  8
0
100
AcDbLine
 62
7
  6
CONTINUOUS
 10
8.2858046394
 20
-39.1488317289
 11
8.2731606685
 21
-39.1269317289
  0
SPLINE
  5
46B
100
AcDbEntity
  8
0
100
AcDbSpline
 62
7
  6
CONTINUOUS
 70
0
 71
3
 72
15
 73
11
 74
0
 42
0.0000001
 43
0.0000001
 44
0.0000000001
 40
0.0
 40
0.0
 40
0.0
 40
0.0
 40
0.1261099833
 40
0.2512738785
 40
0.3757984041
 40
0.5
 40
0.6242015959
 40
0.7487261215
 40
0.8738900167
 40
1.0
 40
1.0
 40
1.0
 40
1.0
 10
2.4816306341
 20
-33.4239045482
 30
0.0
 10
2.4898252901
 20
-33.4194221316
 30
0.0
 10
2.5058505555
 20
-33.4099235192
 30
0.0
 10
2.5287517026
 20
-33.3940644284
 30
0.0
 10
2.5503523838
 20
-33.3766970795
 30
0.0
 10
2.5705939235
 20
-33.3578678376
 30
0.0
 10
2.5894231655
 20
-33.3376262978
 30
0.0
 10
2.6067905143
 20
-33.3160256166
 30
0.0
 10
2.6226496051
 20
-33.2931244696
 30
0.0
 10
2.6321482176
 20
-33.2770992042
 30
0.0
 10
2.6366306341
 20
-33.2689045482
 30
0.0
  0
SPLINE
  5
46C
100
AcDbEntity
  8
0
100
AcDbSpline
 62
7
  6
CONTINUOUS
 70
0
 71
3
 72
15
 73
11
 74
0
 42
0.0000001
 43
0.0000001
 44
0.0000000001
 40
0.0
 40
0.0
 40
0.0
 40
0.0
 40
0.1252146822
 40
0.2499116931
 40
0.3743170529
 40
0.498661262
 40
0.6231754954
 40
0.7480888588
 40
0.8736249174
 40
1.0
 40
1.0
 40
1.0
 40
1.0
 10
2.3563978506
 20
-33.5609043585
 30
0.0
 10
2.3629081104
 20
-33.5565674395
 30
0.0
 10
2.3756468499
 20
-33.5475214273
 30
0.0
 10
2.3938712131
 20
-33.5328463085
 30
0.0
 10
2.4111301495
 20
-33.5171263101
 30
0.0
 10
2.4273903365
 20
-33.5003915072
 30
0.0
 10
2.4426215028
 20
-33.4826732036
 30
0.0
 10
2.4567951874
 20
-33.4640044765
 30
0.0
 10
2.4698844516
 20
-33.4444213093
 30
0.0
 10
2.4778418656
 20
-33.4308310921
 30
0.0
 10
2.4816306341
 20
-33.4239045482
 30
0.0
  0
SPLINE
  5
46D
100
AcDbEntity
  8
0
100
AcDbSpline
 62
7
  6
CONTINUOUS
 70
0
 71
3
 72
15
 73
11
 74
0
 42
0.0000001
 43
0.0000001
 44
0.0000000001
 40
0.0
 40
0.0
 40
0.0
 40
0.0
 40
0.1261099833
 40
0.2512738785
 40
0.3757984041
 40
0.5
 40
0.6242015959
 40
0.7487261215
 40
0.8738900167
 40
1.0
 40
1.0
 40
1.0
 40
1.0
 10
2.4816306341
 20
-31.4601766766
 30
0.0
 10
2.4771482176
 20
-31.4519820205
 30
0.0
 10
2.4676496051
 20
-31.4359567552
 30
0.0
 10
2.4517905143
 20
-31.4130556081
 30
0.0
 10
2.4344231655
 20
-31.3914549269
 30
0.0
 10
2.4155939235
 20
-31.3712133872
 30
0.0
 10
2.3953523838
 20
-31.3523841452
 30
0.0
 10
2.3737517026
 20
-31.3350167964
 30
0.0
 10
2.3508505555
 20
-31.3191577056
 30
0.0
 10
2.3348252901
 20
-31.3096590931
 30
0.0
 10
2.3266306341
 20
-31.3051766766
 30
0.0
  0
SPLINE
  5
46E
100
AcDbEntity
  8
0
100
AcDbSpline
 62
7
  6
CONTINUOUS
 70
0
 71
3
 72
15
 73
11
 74
0
 42
0.0000001
 43
0.0000001
 44
0.0000000001
 40
0.0
 40
0.0
 40
0.0
 40
0.0
 40
0.1252146822
 40
0.2499116931
 40
0.3743170529
 40
0.498661262
 40
0.6231754954
 40
0.7480888588
 40
0.8736249174
 40
1.0
 40
1.0
 40
1.0
 40
1.0
 10
2.6186304445
 20
-31.58540946
 30
0.0
 10
2.6142935255
 20
-31.5788992003
 30
0.0
 10
2.6052475133
 20
-31.5661604608
 30
0.0
 10
2.5905723945
 20
-31.5479360976
 30
0.0
 10
2.574852396
 20
-31.5306771612
 30
0.0
 10
2.5581175931
 20
-31.5144169742
 30
0.0
 10
2.5403992895
 20
-31.4991858079
 30
0.0
 10
2.5217305624
 20
-31.4850121232
 30
0.0
 10
2.5021473953
 20
-31.4719228591
 30
0.0
 10
2.488557178
 20
-31.4639654451
 30
0.0
 10
2.4816306341
 20
-31.4601766766
 30
0.0
  0
LINE
  5
46F
100
AcDbEntity
  8
0
100
AcDbLine
 62
7
  6
CONTINUOUS
 10
1.4505129063
 20
-31.6899832083
 11
1.4091317945
 21
-29.9633500377
  0
LINE
  5
470
100
AcDbEntity
  8
0
100
AcDbLine
 62
7
  6
CONTINUOUS
 10
1.5490204903
 20
-31.6899832083
 11
1.5904016021
 21
-29.9633500377
  0
LINE
  5
471
100
AcDbEntity
  8
0
100
AcDbLine
 62
7
  6
CONTINUOUS
 10
0.7477092942
 20
-32.4912944043
 11
-0.9789238764
 21
-32.5326755162
  0
LINE
  5
472
100
AcDbEntity
  8
0
100
AcDbLine
 62
7
  6
CONTINUOUS
 10
0.7477092942
 20
-32.3927868204
 11
-0.9789238764
 21
-32.3514057086
  0
LINE
  5
473
100
AcDbEntity
  8
0
100
AcDbLine
 62
7
  6
CONTINUOUS
 10
1.5490204903
 20
-33.1940980165
 11
1.5904016021
 21
-34.9207311871
  0
LINE
  5
474
100
AcDbEntity
  8
0
100
AcDbLine
 62
7
  6
CONTINUOUS
 10
1.4505129063
 20
-33.1940980165
 11
1.4091317945
 21
-34.9207311871
  0
LINE
  5
475
100
AcDbEntity
  8
0
100
AcDbLine
 62
7
  6
CONTINUOUS
 10
2.2518241024
 20
-32.3927868204
 11
3.978457273
 21
-32.3514057086
  0
LINE
  5
476
100
AcDbEntity
  8
0
100
AcDbLine
 62
7
  6
CONTINUOUS
 10
2.2518241024
 20
-32.4912944043
 11
3.978457273
 21
-32.5326755162
  0
ELLIPSE
  5
477
100
AcDbEntity
  8
0
100
AcDbEllipse
 62
7
  6
CONTINUOUS
 10
2.1796107425
 20
-31.7621965682
 30
0.0
 11
-0.1096015511
 21
0.1096015511
 31
0.0
 40
0.0524077793
 41
0.0
 42
3.1415926536
  0
ELLIPSE
  5
478
100
AcDbEntity
  8
0
100
AcDbEllipse
 62
7
  6
CONTINUOUS
 10
2.1796107425
 20
-33.1218846566
 30
0.0
 11
0.1103086579
 21
0.1103086579
 31
0.0
 40
0.0524077793
 41
-0.0490108235
 42
3.1906034771
  0
ENDSEC
  0
SECTION
  2
OBJECTS
  0
DICTIONARY
  5
C
100
AcDbDictionary
280
0
281
1
  3
ACAD_GROUP
350
D
  3
ACAD_MLINESTYLE
350
17
  3
ACAD_LAYOUT
350
1A
  3
ACAD_PLOTSETTINGS
350
19
  3
ACAD_PLOTSTYLENAME
350
E
  0
DICTIONARY
  5
D
102
{ACAD_REACTORS
330
C
102
}
100
AcDbDictionary
280
0
281
1
  0
ACDBDICTIONARYWDFLT
  5
E
102
{ACAD_REACTORS
330
C
102
}
100
AcDbDictionary
281
1
  3
Normal
350
F
100
AcDbDictionaryWithDefault
340
F
  0
DICTIONARY
  5
17
102
{ACAD_REACTORS
330
C
102
}
100
AcDbDictionary
280
0
281
1
  3
Standard
350
18
  0
DICTIONARY
  5
19
102
{ACAD_REACTORS
330
C
102
}
100
AcDbDictionary
281
1
  0
DICTIONARY
  5
1A
102
{ACAD_REACTORS
330
C
102
}
100
AcDbDictionary
281
1
  3
Model
350
479
  3
Layout1
350
47A
  0
ACDBPLACEHOLDER
  5
F
102
{ACAD_REACTORS
330
E
102
}
  0
MLINESTYLE
  5
18
102
{ACAD_REACTORS
330
17
102
}
100
AcDbMlineStyle
  2
STANDARD
 70
0
  3

 62
256
 51
90.0
 52
90.0
 71
2
 49
0.5
 62
256
  6
BYLAYER
 49
-0.5
 62
256
  6
BYLAYER
  0
LAYOUT
  5
479
102
{ACAD_REACTORS
330
1A
102
}
100
AcDbPlotSettings
  1

  2
none_device
  4

  6

 40
0.0
 41
0.0
 42
0.0
 43
0.0
 44
431.8
 45
279.4
 46
0.0
 47
0.0
 48
0.0
 49
0.0
140
0.0
141
0.0
142
1.0
143
1.0
 70
1024
 72
0
 73
0
 74
0
  7

 75
0
147
1.0
148
0.0
149
0.0
100
AcDbLayout
  1
Model
 70
0
 71
0
 10
0.0
 20
0.0
 11
17.0
 21
11.0
 12
0.0
 22
0.0
 32
0.0
 14
0.0
 24
0.0
 34
0.0
 15
0.0
 25
0.0
 35
0.0
146
0.0
 13
0.0
 23
0.0
 33
0.0
 16
1.0
 26
0.0
 36
0.0
 17
0.0
 27
1.0
 37
0.0
 76
0
330
237
345
0
346
0
  0
LAYOUT
  5
47A
102
{ACAD_REACTORS
330
1A
102
}
100
AcDbPlotSettings
  1

  2
none_device
  4

  6

 40
0.0
 41
0.0
 42
0.0
 43
0.0
 44
431.8
 45
279.4
 46
0.0
 47
0.0
 48
0.0
 49
0.0
140
0.0
141
0.0
142
1.0
143
1.0
 70
0
 72
0
 73
0
 74
0
  7

 75
0
147
1.0
148
0.0
149
0.0
100
AcDbLayout
  1
Layout1
 70
0
 71
1
 10
0.0
 20
0.0
 11
17.0
 21
11.0
 12
0.0
 22
0.0
 32
0.0
 14
0.0
 24
0.0
 34
0.0
 15
0.0
 25
0.0
 35
0.0
146
0.0
 13
0.0
 23
0.0
 33
0.0
 16
1.0
 26
0.0
 36
0.0
 17
0.0
 27
1.0
 37
0.0
 76
0
330
238
345
0
346
0
  0
ENDSEC
  0
EOF
