999
DXF file: N:\Master\master\M3_ProE_files\Lenexa\MADAM DXF\47399.dxf
999
Pro/ENGINEER 2010280 by Parametric Technology Corporation
  0
SECTION
  2
HEADER
  9
$ACADVER
  1
AC1021
  9
$DWGCODEPAGE
  3
ANSI_1252
  9
$EXTMAX
 10
17.0
 20
11.0
 30
0.0
  9
$EXTMIN
 10
0.0
 20
-0.0
 30
0.0
  9
$LIMMIN
 10
0.0
 20
-0.0
  9
$LIMMAX
 10
17.0
 20
11.0
  9
$VIEWCTR
 10
8.5
 20
5.5
  9
$VIEWSIZE
 40
11.0
  9
$CLAYER
  8
0
  9
$LTSCALE
 40
0.935
  9
$CELTYPE
  6
BYLAYER
  9
$DIMSCALE
 40
1.0
  9
$DIMASZ
 40
0.125
  9
$DIMEXO
 40
0.10625
  9
$DIMDLI
 40
0.646
  9
$DIMEXE
 40
0.306
  9
$DIMCEN
 40
0.153
  9
$DIMLFAC
 40
1.0
  9
$DIMBLK
  1
_FILLED
  9
$DIMTXT
 40
0.15625
  9
$DIMTOL
 70
1
  9
$DIMLIM
 70
0
  9
$DIMTFAC
 40
1.0
  9
$DIMTP
 40
0.7
  9
$DIMTM
 40
0.7
  9
$PDMODE
 70
3
  9
$PDSIZE
 40
0.3125
  9
$HANDSEED
  5
418
  9
$TILEMODE
 70
1
  9
$MEASUREMENT
 70
0
  9
$INSUNITS
 70
1
  0
ENDSEC
  0
SECTION
  2
CLASSES
  0
CLASS
  1
ACDBDICTIONARYWDFLT
  2
AcDbDictionaryWithDefault
  3
AutoCAD 2000
 90
0
 91
1
280
0
281
0
  0
CLASS
  1
ACDBPLACEHOLDER
  2
AcDbPlaceHolder
  3
AutoCAD 2000
 90
0
 91
1
280
0
281
0
  0
CLASS
  1
LAYOUT
  2
AcDbLayout
  3
AutoCAD 2000
 90
0
 91
0
280
0
281
0
  0
ENDSEC
  0
SECTION
  2
TABLES
  0
TABLE
  2
VPORT
  5
8
100
AcDbSymbolTable
 70
2
  0
VPORT
  5
1F4
100
AcDbSymbolTableRecord
100
AcDbViewportTableRecord
  2
*ACTIVE
 70
0
 10
0.0
 20
0.0
 11
1.0
 21
1.0
 12
8.5
 22
5.5
 13
0.0
 23
0.0
 14
1.0
 24
1.0
 15
0.0
 25
0.0
 16
0.0
 26
0.0
 36
1.0
 17
0.0
 27
0.0
 37
0.0
 40
11.0
 41
1.5454545455
 42
50.0
 43
0.0
 44
0.0
 50
0.0
 51
0.0
 71
0
 72
100
 73
1
 74
1
 75
0
 76
0
 77
0
 78
0
  0
ENDTAB
  0
TABLE
  2
LTYPE
  5
5
100
AcDbSymbolTable
 70
6
  0
LTYPE
  5
14
100
AcDbSymbolTableRecord
100
AcDbLinetypeTableRecord
  2
BYBLOCK
 70
0
  3

 72
65
 73
0
 40
0.0
  0
LTYPE
  5
15
100
AcDbSymbolTableRecord
100
AcDbLinetypeTableRecord
  2
BYLAYER
 70
0
  3

 72
65
 73
0
 40
0.0
  0
LTYPE
  5
16
100
AcDbSymbolTableRecord
100
AcDbLinetypeTableRecord
  2
CONTINUOUS
 70
64
  3
Solid line
 72
65
 73
0
 40
0.0
  0
LTYPE
  5
1F5
100
AcDbSymbolTableRecord
100
AcDbLinetypeTableRecord
  2
CENTER
 70
64
  3
____ _ ____ _ ____ _ ____ _ ____ _ ____ _ ____
 72
65
 73
4
 40
0.6
 49
0.375
 74
0
 49
-0.075
 74
0
 49
0.075
 74
0
 49
-0.075
 74
0
  0
LTYPE
  5
1F6
100
AcDbSymbolTableRecord
100
AcDbLinetypeTableRecord
  2
HIDDEN
 70
64
  3
- - - - - - - - - - - - - - - - - - - -
 72
65
 73
2
 40
0.2
 49
0.1
 74
0
 49
-0.1
 74
0
  0
LTYPE
  5
1F7
100
AcDbSymbolTableRecord
100
AcDbLinetypeTableRecord
  2
PHANTOM
 70
64
  3
_____ _ _ _____ _ _ _____ _ _ _____
 72
65
 73
6
 40
0.8
 49
0.45
 74
0
 49
-0.05
 74
0
 49
0.1
 74
0
 49
-0.05
 74
0
 49
0.1
 74
0
 49
-0.05
 74
0
  0
LTYPE
  5
1F8
100
AcDbSymbolTableRecord
100
AcDbLinetypeTableRecord
  2
DOT
 70
64
  3
. . . . . . . . . . . . . . . . . . . .
 72
65
 73
2
 40
0.2
 49
0.1
 74
0
 49
-0.1
 74
0
  0
LTYPE
  5
1F9
100
AcDbSymbolTableRecord
100
AcDbLinetypeTableRecord
  2
DASHED
 70
64
  3
- - - - - - - - - - - - - - - - - - - -
 72
65
 73
2
 40
0.2
 49
0.1
 74
0
 49
-0.1
 74
0
  0
ENDTAB
  0
TABLE
  2
LAYER
  5
2
100
AcDbSymbolTable
 70
36
  0
LAYER
  5
10
100
AcDbSymbolTableRecord
100
AcDbLayerTableRecord
  2
0
 70
0
 62
7
  6
CONTINUOUS
370
-3
390
F
  0
LAYER
  5
1FA
100
AcDbSymbolTableRecord
100
AcDbLayerTableRecord
  2
DEFAULT_1
 70
0
 62
7
  6
CENTER
370
-3
390
F
  0
LAYER
  5
1FB
100
AcDbSymbolTableRecord
100
AcDbLayerTableRecord
  2
DEFAULT_2
 70
0
 62
8
  6
HIDDEN
370
-3
390
F
  0
LAYER
  5
1FC
100
AcDbSymbolTableRecord
100
AcDbLayerTableRecord
  2
DEFAULT_3
 70
0
 62
7
  6
PHANTOM
370
-3
390
F
  0
LAYER
  5
1FD
100
AcDbSymbolTableRecord
100
AcDbLayerTableRecord
  2
01_ALL_DTM_PLN
 70
0
 62
7
  6
CONTINUOUS
370
-3
390
F
  0
LAYER
  5
1FE
100
AcDbSymbolTableRecord
100
AcDbLayerTableRecord
  2
01__ASM_ALL_DTM_PLN
 70
0
 62
7
  6
CONTINUOUS
370
-3
390
F
  0
LAYER
  5
1FF
100
AcDbSymbolTableRecord
100
AcDbLayerTableRecord
  2
01__ASM_DEF_DTM_PLN
 70
0
 62
7
  6
CONTINUOUS
370
-3
390
F
  0
LAYER
  5
200
100
AcDbSymbolTableRecord
100
AcDbLayerTableRecord
  2
01___PRT_ALL_DTM_PLN
 70
0
 62
7
  6
CONTINUOUS
370
-3
390
F
  0
LAYER
  5
201
100
AcDbSymbolTableRecord
100
AcDbLayerTableRecord
  2
01___PRT_DEF_DTM_PLN
 70
0
 62
7
  6
CONTINUOUS
370
-3
390
F
  0
LAYER
  5
202
100
AcDbSymbolTableRecord
100
AcDbLayerTableRecord
  2
02_ALL_AXES
 70
0
 62
7
  6
CONTINUOUS
370
-3
390
F
  0
LAYER
  5
203
100
AcDbSymbolTableRecord
100
AcDbLayerTableRecord
  2
02__ASM_ALL_AXES
 70
0
 62
7
  6
CONTINUOUS
370
-3
390
F
  0
LAYER
  5
204
100
AcDbSymbolTableRecord
100
AcDbLayerTableRecord
  2
02___PRT_ALL_AXES
 70
0
 62
7
  6
CONTINUOUS
370
-3
390
F
  0
LAYER
  5
205
100
AcDbSymbolTableRecord
100
AcDbLayerTableRecord
  2
03_ALL_CURVES
 70
0
 62
7
  6
CONTINUOUS
370
-3
390
F
  0
LAYER
  5
206
100
AcDbSymbolTableRecord
100
AcDbLayerTableRecord
  2
03__ASM_ALL_CURVES
 70
0
 62
7
  6
CONTINUOUS
370
-3
390
F
  0
LAYER
  5
207
100
AcDbSymbolTableRecord
100
AcDbLayerTableRecord
  2
03___PRT_ALL_CURVES
 70
0
 62
7
  6
CONTINUOUS
370
-3
390
F
  0
LAYER
  5
208
100
AcDbSymbolTableRecord
100
AcDbLayerTableRecord
  2
04_ALL_DTM_PNT
 70
0
 62
7
  6
CONTINUOUS
370
-3
390
F
  0
LAYER
  5
209
100
AcDbSymbolTableRecord
100
AcDbLayerTableRecord
  2
04__ASM_ALL_DTM_PNT
 70
0
 62
7
  6
CONTINUOUS
370
-3
390
F
  0
LAYER
  5
20A
100
AcDbSymbolTableRecord
100
AcDbLayerTableRecord
  2
04___PRT_ALL_DTM_PNT
 70
0
 62
7
  6
CONTINUOUS
370
-3
390
F
  0
LAYER
  5
20B
100
AcDbSymbolTableRecord
100
AcDbLayerTableRecord
  2
05_ALL_DTM_CSYS
 70
0
 62
7
  6
CONTINUOUS
370
-3
390
F
  0
LAYER
  5
20C
100
AcDbSymbolTableRecord
100
AcDbLayerTableRecord
  2
05__ASM_ALL_DTM_CSYS
 70
0
 62
7
  6
CONTINUOUS
370
-3
390
F
  0
LAYER
  5
20D
100
AcDbSymbolTableRecord
100
AcDbLayerTableRecord
  2
05__ASM_DEF_DTM_CSYS
 70
0
 62
7
  6
CONTINUOUS
370
-3
390
F
  0
LAYER
  5
20E
100
AcDbSymbolTableRecord
100
AcDbLayerTableRecord
  2
05___PRT_ALL_DTM_CSYS
 70
0
 62
7
  6
CONTINUOUS
370
-3
390
F
  0
LAYER
  5
20F
100
AcDbSymbolTableRecord
100
AcDbLayerTableRecord
  2
05___PRT_DEF_DTM_CSYS
 70
0
 62
7
  6
CONTINUOUS
370
-3
390
F
  0
LAYER
  5
210
100
AcDbSymbolTableRecord
100
AcDbLayerTableRecord
  2
06_ALL_SURFS
 70
0
 62
7
  6
CONTINUOUS
370
-3
390
F
  0
LAYER
  5
211
100
AcDbSymbolTableRecord
100
AcDbLayerTableRecord
  2
06__ASM_ALL_SURFS
 70
0
 62
7
  6
CONTINUOUS
370
-3
390
F
  0
LAYER
  5
212
100
AcDbSymbolTableRecord
100
AcDbLayerTableRecord
  2
06___PRT_ALL_SURFS
 70
0
 62
7
  6
CONTINUOUS
370
-3
390
F
  0
LAYER
  5
213
100
AcDbSymbolTableRecord
100
AcDbLayerTableRecord
  2
07__ASM_ALL_SKELETONS
 70
0
 62
7
  6
CONTINUOUS
370
-3
390
F
  0
LAYER
  5
214
100
AcDbSymbolTableRecord
100
AcDbLayerTableRecord
  2
904PLANES
 70
0
 62
7
  6
CONTINUOUS
370
-3
390
F
  0
LAYER
  5
215
100
AcDbSymbolTableRecord
100
AcDbLayerTableRecord
  2
90517DTMS
 70
0
 62
7
  6
CONTINUOUS
370
-3
390
F
  0
LAYER
  5
216
100
AcDbSymbolTableRecord
100
AcDbLayerTableRecord
  2
AXIS
 70
0
 62
7
  6
CONTINUOUS
370
-3
390
F
  0
LAYER
  5
217
100
AcDbSymbolTableRecord
100
AcDbLayerTableRecord
  2
BAFFLE_DTMS
 70
0
 62
7
  6
CONTINUOUS
370
-3
390
F
  0
LAYER
  5
218
100
AcDbSymbolTableRecord
100
AcDbLayerTableRecord
  2
BD_ANGLE
 70
0
 62
7
  6
CONTINUOUS
370
-3
390
F
  0
LAYER
  5
219
100
AcDbSymbolTableRecord
100
AcDbLayerTableRecord
  2
CONDUIT_DTMS
 70
0
 62
7
  6
CONTINUOUS
370
-3
390
F
  0
LAYER
  5
21A
100
AcDbSymbolTableRecord
100
AcDbLayerTableRecord
  2
CS
 70
0
 62
7
  6
CONTINUOUS
370
-3
390
F
  0
LAYER
  5
21B
100
AcDbSymbolTableRecord
100
AcDbLayerTableRecord
  2
CSYS
 70
0
 62
7
  6
CONTINUOUS
370
-3
390
F
  0
LAYER
  5
21C
100
AcDbSymbolTableRecord
100
AcDbLayerTableRecord
  2
CURVE
 70
0
 62
7
  6
CONTINUOUS
370
-3
390
F
  0
LAYER
  5
21D
100
AcDbSymbolTableRecord
100
AcDbLayerTableRecord
  2
CURVES
 70
0
 62
7
  6
CONTINUOUS
370
-3
390
F
  0
LAYER
  5
21E
100
AcDbSymbolTableRecord
100
AcDbLayerTableRecord
  2
DATUM_PLANES
 70
0
 62
7
  6
CONTINUOUS
370
-3
390
F
  0
LAYER
  5
21F
100
AcDbSymbolTableRecord
100
AcDbLayerTableRecord
  2
DEF_DTMS
 70
0
 62
7
  6
CONTINUOUS
370
-3
390
F
  0
LAYER
  5
220
100
AcDbSymbolTableRecord
100
AcDbLayerTableRecord
  2
GENPLANES
 70
0
 62
7
  6
CONTINUOUS
370
-3
390
F
  0
LAYER
  5
221
100
AcDbSymbolTableRecord
100
AcDbLayerTableRecord
  2
HEAD
 70
0
 62
7
  6
CONTINUOUS
370
-3
390
F
  0
LAYER
  5
222
100
AcDbSymbolTableRecord
100
AcDbLayerTableRecord
  2
HUB_DTMS
 70
0
 62
7
  6
CONTINUOUS
370
-3
390
F
  0
LAYER
  5
223
100
AcDbSymbolTableRecord
100
AcDbLayerTableRecord
  2
IGES_ITEMS
 70
0
 62
7
  6
CONTINUOUS
370
-3
390
F
  0
LAYER
  5
224
100
AcDbSymbolTableRecord
100
AcDbLayerTableRecord
  2
IGS_ITEMS
 70
0
 62
7
  6
CONTINUOUS
370
-3
390
F
  0
LAYER
  5
225
100
AcDbSymbolTableRecord
100
AcDbLayerTableRecord
  2
INTF_1
 70
0
 62
7
  6
CONTINUOUS
370
-3
390
F
  0
LAYER
  5
226
100
AcDbSymbolTableRecord
100
AcDbLayerTableRecord
  2
J_BOX_ANGLE
 70
0
 62
7
  6
CONTINUOUS
370
-3
390
F
  0
LAYER
  5
227
100
AcDbSymbolTableRecord
100
AcDbLayerTableRecord
  2
LAY0001
 70
0
 62
7
  6
CONTINUOUS
370
-3
390
F
  0
LAYER
  5
228
100
AcDbSymbolTableRecord
100
AcDbLayerTableRecord
  2
MTR_HOLE_ANG_DTM
 70
0
 62
7
  6
CONTINUOUS
370
-3
390
F
  0
LAYER
  5
229
100
AcDbSymbolTableRecord
100
AcDbLayerTableRecord
  2
NEW
 70
0
 62
7
  6
CONTINUOUS
370
-3
390
F
  0
LAYER
  5
22A
100
AcDbSymbolTableRecord
100
AcDbLayerTableRecord
  2
PARTDTMS
 70
0
 62
7
  6
CONTINUOUS
370
-3
390
F
  0
LAYER
  5
22B
100
AcDbSymbolTableRecord
100
AcDbLayerTableRecord
  2
PLANE
 70
0
 62
7
  6
CONTINUOUS
370
-3
390
F
  0
LAYER
  5
22C
100
AcDbSymbolTableRecord
100
AcDbLayerTableRecord
  2
PLANES
 70
0
 62
7
  6
CONTINUOUS
370
-3
390
F
  0
LAYER
  5
22D
100
AcDbSymbolTableRecord
100
AcDbLayerTableRecord
  2
POINT
 70
0
 62
7
  6
CONTINUOUS
370
-3
390
F
  0
LAYER
  5
22E
100
AcDbSymbolTableRecord
100
AcDbLayerTableRecord
  2
ROUND
 70
0
 62
7
  6
CONTINUOUS
370
-3
390
F
  0
LAYER
  5
22F
100
AcDbSymbolTableRecord
100
AcDbLayerTableRecord
  2
STANDOFF_DTMS
 70
0
 62
7
  6
CONTINUOUS
370
-3
390
F
  0
LAYER
  5
230
100
AcDbSymbolTableRecord
100
AcDbLayerTableRecord
  2
STIFF_ANGLE
 70
0
 62
7
  6
CONTINUOUS
370
-3
390
F
  0
LAYER
  5
231
100
AcDbSymbolTableRecord
100
AcDbLayerTableRecord
  2
SURFACE
 70
0
 62
7
  6
CONTINUOUS
370
-3
390
F
  0
LAYER
  5
232
100
AcDbSymbolTableRecord
100
AcDbLayerTableRecord
  2
TOP_SURFACE
 70
0
 62
7
  6
CONTINUOUS
370
-3
390
F
  0
LAYER
  5
233
100
AcDbSymbolTableRecord
100
AcDbLayerTableRecord
  2
WITNESS
 70
0
 62
7
  6
CONTINUOUS
370
-3
390
F
  0
ENDTAB
  0
TABLE
  2
STYLE
  5
3
100
AcDbSymbolTable
 70
1
  0
STYLE
  5
11
100
AcDbSymbolTableRecord
100
AcDbTextStyleTableRecord
  2
STANDARD
 70
0
 40
0.0
 41
0.8
 50
0.0
 71
0
 42
0.2
  3
txt
  4

  0
STYLE
  5
234
100
AcDbSymbolTableRecord
100
AcDbTextStyleTableRecord
  2
TEXTSTYLE_1
 70
0
 40
0.0
 41
0.8
 50
0.0
 71
0
 42
0.2
  3
gdt
  4

  0
ENDTAB
  0
TABLE
  2
VIEW
  5
6
100
AcDbSymbolTable
 70
0
  0
ENDTAB
  0
TABLE
  2
UCS
  5
7
100
AcDbSymbolTable
 70
0
  0
ENDTAB
  0
TABLE
  2
APPID
  5
9
100
AcDbSymbolTable
 70
1
  0
APPID
  5
235
100
AcDbSymbolTableRecord
100
AcDbRegAppTableRecord
  2
ACAD
 70
0
  0
ENDTAB
  0
TABLE
  2
BLOCK_RECORD
  5
1
100
AcDbSymbolTable
 70
0
  0
BLOCK_RECORD
  5
236
100
AcDbSymbolTableRecord
100
AcDbBlockTableRecord
  2
*Model_Space
  0
BLOCK_RECORD
  5
237
100
AcDbSymbolTableRecord
100
AcDbBlockTableRecord
  2
*Paper_Space
  0
ENDTAB
  0
TABLE
  2
DIMSTYLE
  5
A
100
AcDbSymbolTable
 70
1
100
AcDbDimStyleTable
 71
0
  0
DIMSTYLE
105
238
100
AcDbSymbolTableRecord
100
AcDbDimStyleTableRecord
  2
STANDARD
 70
0
  3

  4

 40
1.0
 41
0.125
 42
0.0625
 43
0.38
 44
0.18
 45
0.0
 46
0.0
 47
0.7
 48
0.7
140
0.15625
141
0.09
142
0.0
143
25.4
144
1.0
145
0.0
146
1.0
147
0.09
 71
1.0
 72
0.0
 73
1
 74
1
 75
0
 76
0
 77
0
 78
4
170
0
171
2
172
0
173
0
174
0
175
0
176
0
177
0
178
0
270
2
271
2
272
2
273
2
274
2
275
0
280
0
281
0
282
0
283
1
284
4
285
0
286
0
287
3
288
0
340
11
  0
ENDTAB
  0
ENDSEC
  0
SECTION
  2
BLOCKS
  0
BLOCK
  5
20
100
AcDbEntity
  8
0
100
AcDbBlockBegin
  2
*Model_Space
 70
0
 10
0.0
 20
0.0
 30
0.0
  3
*Model_Space
  1

  0
ENDBLK
  5
21
100
AcDbEntity
  8
0
100
AcDbBlockEnd
  0
BLOCK
  5
1C
100
AcDbEntity
  8
0
100
AcDbBlockBegin
  2
*Paper_Space
 70
0
 10
0.0
 20
0.0
 30
0.0
  3
*Paper_Space
  1

  0
ENDBLK
  5
1D
100
AcDbEntity
  8
0
100
AcDbBlockEnd
  0
ENDSEC
  0
SECTION
  2
ENTITIES
  0
MTEXT
  5
239
100
AcDbEntity
  8
0
100
AcDbMText
 62
2
  6
CONTINUOUS
  7
STANDARD
 71
1
 72
1
 10
30.2986899479
 20
-24.2628569914
 30
0.0
 11
1.0
 21
0.0
 31
0.0
 44
0.9
  1
47399
 40
4.0
 41
16.0
  0
LINE
  5
23A
100
AcDbEntity
  8
0
100
AcDbLine
 62
3
  6
CONTINUOUS
 10
-14.2420920631
 20
-0.3469904391
 11
-14.2420920631
 21
-1.7269904391
  0
LINE
  5
23B
100
AcDbEntity
  8
0
100
AcDbLine
 62
7
  6
CONTINUOUS
 10
-14.1820920631
 20
-0.3469904391
 11
-14.1820920631
 21
-1.7269904391
  0
LINE
  5
23C
100
AcDbEntity
  8
0
100
AcDbLine
 62
3
  6
CONTINUOUS
 10
-14.1220920631
 20
-0.2269904391
 11
-14.1220920631
 21
-1.7269904391
  0
LINE
  5
23D
100
AcDbEntity
  8
0
100
AcDbLine
 62
7
  6
CONTINUOUS
 10
-12.2726986648
 20
-0.2269904391
 11
-12.2726986648
 21
-0.1594904391
  0
LINE
  5
23E
100
AcDbEntity
  8
0
100
AcDbLine
 62
3
  6
CONTINUOUS
 10
-14.514312126
 20
4.5840095609
 11
-12.5273912856
 21
10.0430297042
  0
LINE
  5
23F
100
AcDbEntity
  8
0
100
AcDbLine
 62
3
  6
CONTINUOUS
 10
-11.1826986648
 20
-0.1594904391
 11
-11.1826986648
 21
4.0780095609
  0
LINE
  5
240
100
AcDbEntity
  8
0
100
AcDbLine
 62
3
  6
CONTINUOUS
 10
-10.1178523544
 20
11.0299994892
 11
-8.2459424422
 21
16.1730297042
  0
LINE
  5
241
100
AcDbEntity
  8
0
100
AcDbLine
 62
7
  6
CONTINUOUS
 10
-9.7726986648
 20
-0.1594904391
 11
-9.7726986648
 21
-0.2219904391
  0
LINE
  5
242
100
AcDbEntity
  8
0
100
AcDbLine
 62
7
  6
CONTINUOUS
 10
-9.6726986648
 20
-0.2219904391
 11
-9.6726986648
 21
-0.2169904391
  0
LINE
  5
243
100
AcDbEntity
  8
0
100
AcDbLine
 62
7
  6
CONTINUOUS
 10
-9.5504420613
 20
10.7660095609
 11
-9.5504420613
 21
10.7010095609
  0
LINE
  5
244
100
AcDbEntity
  8
0
100
AcDbLine
 62
7
  6
CONTINUOUS
 10
-14.2420920631
 20
-1.7269904391
 11
-14.1820920631
 21
-1.7269904391
  0
LINE
  5
245
100
AcDbEntity
  8
0
100
AcDbLine
 62
7
  6
CONTINUOUS
 10
11.9766947335
 20
-1.7269904391
 11
11.9166947335
 21
-1.7269904391
  0
LINE
  5
246
100
AcDbEntity
  8
0
100
AcDbLine
 62
3
  6
CONTINUOUS
 10
11.8566947335
 20
-1.7269904391
 11
-14.1220920631
 21
-1.7269904391
  0
LINE
  5
247
100
AcDbEntity
  8
0
100
AcDbLine
 62
7
  6
CONTINUOUS
 10
-9.5226986648
 20
-0.2269904391
 11
-9.5226986648
 21
-0.2219904391
  0
LINE
  5
248
100
AcDbEntity
  8
0
100
AcDbLine
 62
7
  6
CONTINUOUS
 10
-9.5226986648
 20
-0.2169904391
 11
-9.5226986648
 21
-0.1769904391
  0
LINE
  5
249
100
AcDbEntity
  8
0
100
AcDbLine
 62
7
  6
CONTINUOUS
 10
-9.4219420613
 20
10.7660095609
 11
-9.4219420613
 21
10.9460095609
  0
LINE
  5
24A
100
AcDbEntity
  8
0
100
AcDbLine
 62
7
  6
CONTINUOUS
 10
-9.2054420613
 20
10.7660095609
 11
-9.2054420613
 21
10.9460095609
  0
LINE
  5
24B
100
AcDbEntity
  8
0
100
AcDbLine
 62
7
  6
CONTINUOUS
 10
-8.9889420613
 20
10.7660095609
 11
-8.9889420613
 21
10.9460095609
  0
LINE
  5
24C
100
AcDbEntity
  8
0
100
AcDbLine
 62
7
  6
CONTINUOUS
 10
-8.8604420613
 20
10.7660095609
 11
-8.8604420613
 21
10.7010095609
  0
LINE
  5
24D
100
AcDbEntity
  8
0
100
AcDbLine
 62
7
  6
CONTINUOUS
 10
-8.4226986648
 20
-0.2219904391
 11
-8.4226986648
 21
-0.2169904391
  0
LINE
  5
24E
100
AcDbEntity
  8
0
100
AcDbLine
 62
3
  6
CONTINUOUS
 10
-14.1220920631
 20
-0.2269904391
 11
11.8566947335
 21
-0.2269904391
  0
LINE
  5
24F
100
AcDbEntity
  8
0
100
AcDbLine
 62
7
  6
CONTINUOUS
 10
-9.6726986648
 20
-0.2169904391
 11
-8.4226986648
 21
-0.2169904391
  0
LINE
  5
250
100
AcDbEntity
  8
0
100
AcDbLine
 62
7
  6
CONTINUOUS
 10
-9.7726986648
 20
-0.1769904391
 11
-9.5226986648
 21
-0.1769904391
  0
LINE
  5
251
100
AcDbEntity
  8
0
100
AcDbLine
 62
7
  6
CONTINUOUS
 10
-9.7726986648
 20
-0.1594904391
 11
-12.2726986648
 21
-0.1594904391
  0
LINE
  5
252
100
AcDbEntity
  8
0
100
AcDbLine
 62
7
  6
CONTINUOUS
 10
-14.7955739535
 20
4.0780095609
 11
12.5301766239
 21
4.0780095609
  0
LINE
  5
253
100
AcDbEntity
  8
0
100
AcDbLine
 62
7
  6
CONTINUOUS
 10
-14.7955739535
 20
4.5840095609
 11
12.5301766239
 21
4.5840095609
  0
LINE
  5
254
100
AcDbEntity
  8
0
100
AcDbLine
 62
3
  6
CONTINUOUS
 10
-11.5876477763
 20
10.7010095609
 11
9.3222504468
 21
10.7010095609
  0
LINE
  5
255
100
AcDbEntity
  8
0
100
AcDbLine
 62
7
  6
CONTINUOUS
 10
4.8648971155
 20
10.7660095609
 11
4.1748971155
 21
10.7660095609
  0
LINE
  5
256
100
AcDbEntity
  8
0
100
AcDbLine
 62
7
  6
CONTINUOUS
 10
-8.8604420613
 20
10.7660095609
 11
-9.5504420613
 21
10.7660095609
  0
LINE
  5
257
100
AcDbEntity
  8
0
100
AcDbLine
 62
7
  6
CONTINUOUS
 10
-9.4219420613
 20
10.9460095609
 11
-8.9889420613
 21
10.9460095609
  0
LINE
  5
258
100
AcDbEntity
  8
0
100
AcDbLine
 62
7
  6
CONTINUOUS
 10
4.2699044489
 20
10.9460095609
 11
4.769889782
 21
10.9460095609
  0
LINE
  5
259
100
AcDbEntity
  8
0
100
AcDbLine
 62
7
  6
CONTINUOUS
 10
4.1748971155
 20
10.7660095609
 11
4.1748971155
 21
10.7010095609
  0
LINE
  5
25A
100
AcDbEntity
  8
0
100
AcDbLine
 62
7
  6
CONTINUOUS
 10
4.2699044489
 20
10.7660095609
 11
4.2699044489
 21
10.9460095609
  0
LINE
  5
25B
100
AcDbEntity
  8
0
100
AcDbLine
 62
7
  6
CONTINUOUS
 10
4.3949007822
 20
10.7660095609
 11
4.3949007822
 21
10.9460095609
  0
LINE
  5
25C
100
AcDbEntity
  8
0
100
AcDbLine
 62
7
  6
CONTINUOUS
 10
4.6448934487
 20
10.7660095609
 11
4.6448934487
 21
10.9460095609
  0
LINE
  5
25D
100
AcDbEntity
  8
0
100
AcDbLine
 62
7
  6
CONTINUOUS
 10
4.769889782
 20
10.7660095609
 11
4.769889782
 21
10.9460095609
  0
LINE
  5
25E
100
AcDbEntity
  8
0
100
AcDbLine
 62
7
  6
CONTINUOUS
 10
4.8648971155
 20
10.7660095609
 11
4.8648971155
 21
10.7010095609
  0
LINE
  5
25F
100
AcDbEntity
  8
0
100
AcDbLine
 62
3
  6
CONTINUOUS
 10
8.9173013352
 20
-0.2269904391
 11
8.9173013352
 21
4.0780095609
  0
LINE
  5
260
100
AcDbEntity
  8
0
100
AcDbLine
 62
3
  6
CONTINUOUS
 10
-7.3062211204
 20
16.8310095609
 11
5.0408237909
 21
16.8310095609
  0
LINE
  5
261
100
AcDbEntity
  8
0
100
AcDbLine
 62
3
  6
CONTINUOUS
 10
7.8524550248
 20
11.0299994892
 11
5.9805451126
 21
16.1730297042
  0
LINE
  5
262
100
AcDbEntity
  8
0
100
AcDbLine
 62
3
  6
CONTINUOUS
 10
12.2489147964
 20
4.5840095609
 11
10.261993956
 21
10.0430297042
  0
LINE
  5
263
100
AcDbEntity
  8
0
100
AcDbLine
 62
3
  6
CONTINUOUS
 10
11.8566947335
 20
-0.2269904391
 11
11.8566947335
 21
-1.7269904391
  0
LINE
  5
264
100
AcDbEntity
  8
0
100
AcDbLine
 62
7
  6
CONTINUOUS
 10
11.9166947335
 20
-0.3469904391
 11
11.9166947335
 21
-1.7269904391
  0
LINE
  5
265
100
AcDbEntity
  8
0
100
AcDbLine
 62
3
  6
CONTINUOUS
 10
11.9766947335
 20
-0.3469904391
 11
11.9766947335
 21
-1.7269904391
  0
LINE
  5
266
100
AcDbEntity
  8
0
100
AcDbLine
 62
3
  6
CONTINUOUS
 10
24.3946617395
 20
-0.3469904391
 11
24.3946617395
 21
-1.7269904391
  0
LINE
  5
267
100
AcDbEntity
  8
0
100
AcDbLine
 62
7
  6
CONTINUOUS
 10
24.4546617395
 20
-0.3469904391
 11
24.4546617395
 21
-1.7269904391
  0
LINE
  5
268
100
AcDbEntity
  8
0
100
AcDbLine
 62
3
  6
CONTINUOUS
 10
24.5146617395
 20
-0.2269904391
 11
24.5146617395
 21
-1.7269904391
  0
LINE
  5
269
100
AcDbEntity
  8
0
100
AcDbLine
 62
3
  6
CONTINUOUS
 10
24.1224416766
 20
4.5840095609
 11
26.109362517
 21
10.0430297042
  0
LINE
  5
26A
100
AcDbEntity
  8
0
100
AcDbLine
 62
7
  6
CONTINUOUS
 10
26.7640551378
 20
-0.2219904391
 11
26.7640551378
 21
-0.1594904391
  0
LINE
  5
26B
100
AcDbEntity
  8
0
100
AcDbLine
 62
3
  6
CONTINUOUS
 10
27.4540551378
 20
-0.2269904391
 11
27.4540551378
 21
4.0780095609
  0
LINE
  5
26C
100
AcDbEntity
  8
0
100
AcDbLine
 62
7
  6
CONTINUOUS
 10
50.6134485361
 20
-1.7269904391
 11
50.5534485361
 21
-1.7269904391
  0
LINE
  5
26D
100
AcDbEntity
  8
0
100
AcDbLine
 62
3
  6
CONTINUOUS
 10
50.4934485361
 20
-1.7269904391
 11
24.5146617395
 21
-1.7269904391
  0
LINE
  5
26E
100
AcDbEntity
  8
0
100
AcDbLine
 62
7
  6
CONTINUOUS
 10
24.3946617395
 20
-1.7269904391
 11
24.4546617395
 21
-1.7269904391
  0
LINE
  5
26F
100
AcDbEntity
  8
0
100
AcDbLine
 62
3
  6
CONTINUOUS
 10
28.5189014482
 20
11.0299994892
 11
30.3908113604
 21
16.1730297042
  0
LINE
  5
270
100
AcDbEntity
  8
0
100
AcDbLine
 62
3
  6
CONTINUOUS
 10
50.4934485361
 20
-0.2269904391
 11
24.5146617395
 21
-0.2269904391
  0
LINE
  5
271
100
AcDbEntity
  8
0
100
AcDbLine
 62
7
  6
CONTINUOUS
 10
26.7640551378
 20
-0.2169904391
 11
27.4540551378
 21
-0.2169904391
  0
LINE
  5
272
100
AcDbEntity
  8
0
100
AcDbLine
 62
7
  6
CONTINUOUS
 10
27.4540551378
 20
-0.1594904391
 11
26.7640551378
 21
-0.1594904391
  0
LINE
  5
273
100
AcDbEntity
  8
0
100
AcDbLine
 62
7
  6
CONTINUOUS
 10
29.0863117413
 20
10.7660095609
 11
29.0863117413
 21
10.7010095609
  0
LINE
  5
274
100
AcDbEntity
  8
0
100
AcDbLine
 62
7
  6
CONTINUOUS
 10
29.2148117413
 20
10.7660095609
 11
29.2148117413
 21
10.9460095609
  0
LINE
  5
275
100
AcDbEntity
  8
0
100
AcDbLine
 62
7
  6
CONTINUOUS
 10
29.4313117413
 20
10.7660095609
 11
29.4313117413
 21
10.9460095609
  0
LINE
  5
276
100
AcDbEntity
  8
0
100
AcDbLine
 62
7
  6
CONTINUOUS
 10
29.6478117413
 20
10.7660095609
 11
29.6478117413
 21
10.9460095609
  0
LINE
  5
277
100
AcDbEntity
  8
0
100
AcDbLine
 62
7
  6
CONTINUOUS
 10
29.7763117413
 20
10.7660095609
 11
29.7763117413
 21
10.7010095609
  0
LINE
  5
278
100
AcDbEntity
  8
0
100
AcDbLine
 62
7
  6
CONTINUOUS
 10
23.8344630071
 20
4.0780095609
 11
51.1736472685
 21
4.0780095609
  0
LINE
  5
279
100
AcDbEntity
  8
0
100
AcDbLine
 62
7
  6
CONTINUOUS
 10
23.8344630071
 20
4.5840095609
 11
51.1736472685
 21
4.5840095609
  0
LINE
  5
27A
100
AcDbEntity
  8
0
100
AcDbLine
 62
3
  6
CONTINUOUS
 10
27.0491060263
 20
10.7010095609
 11
47.9590042493
 21
10.7010095609
  0
LINE
  5
27B
100
AcDbEntity
  8
0
100
AcDbLine
 62
7
  6
CONTINUOUS
 10
43.501650918
 20
10.7660095609
 11
42.811650918
 21
10.7660095609
  0
LINE
  5
27C
100
AcDbEntity
  8
0
100
AcDbLine
 62
7
  6
CONTINUOUS
 10
29.7763117413
 20
10.7660095609
 11
29.0863117413
 21
10.7660095609
  0
LINE
  5
27D
100
AcDbEntity
  8
0
100
AcDbLine
 62
7
  6
CONTINUOUS
 10
29.2148117413
 20
10.9460095609
 11
29.6478117413
 21
10.9460095609
  0
LINE
  5
27E
100
AcDbEntity
  8
0
100
AcDbLine
 62
7
  6
CONTINUOUS
 10
42.9066582515
 20
10.9460095609
 11
43.4066435846
 21
10.9460095609
  0
LINE
  5
27F
100
AcDbEntity
  8
0
100
AcDbLine
 62
7
  6
CONTINUOUS
 10
42.811650918
 20
10.7660095609
 11
42.811650918
 21
10.7010095609
  0
LINE
  5
280
100
AcDbEntity
  8
0
100
AcDbLine
 62
7
  6
CONTINUOUS
 10
42.9066582515
 20
10.7660095609
 11
42.9066582515
 21
10.9460095609
  0
LINE
  5
281
100
AcDbEntity
  8
0
100
AcDbLine
 62
7
  6
CONTINUOUS
 10
43.0316545847
 20
10.7660095609
 11
43.0316545847
 21
10.9460095609
  0
LINE
  5
282
100
AcDbEntity
  8
0
100
AcDbLine
 62
7
  6
CONTINUOUS
 10
43.2816472513
 20
10.7660095609
 11
43.2816472513
 21
10.9460095609
  0
LINE
  5
283
100
AcDbEntity
  8
0
100
AcDbLine
 62
7
  6
CONTINUOUS
 10
43.4066435846
 20
10.7660095609
 11
43.4066435846
 21
10.9460095609
  0
LINE
  5
284
100
AcDbEntity
  8
0
100
AcDbLine
 62
7
  6
CONTINUOUS
 10
43.501650918
 20
10.7660095609
 11
43.501650918
 21
10.7010095609
  0
LINE
  5
285
100
AcDbEntity
  8
0
100
AcDbLine
 62
3
  6
CONTINUOUS
 10
31.3305326821
 20
16.8310095609
 11
43.6775775935
 21
16.8310095609
  0
LINE
  5
286
100
AcDbEntity
  8
0
100
AcDbLine
 62
3
  6
CONTINUOUS
 10
47.5540551378
 20
-0.2269904391
 11
47.5540551378
 21
4.0780095609
  0
LINE
  5
287
100
AcDbEntity
  8
0
100
AcDbLine
 62
3
  6
CONTINUOUS
 10
46.4892088274
 20
11.0299994892
 11
44.6172989152
 21
16.1730297042
  0
LINE
  5
288
100
AcDbEntity
  8
0
100
AcDbLine
 62
3
  6
CONTINUOUS
 10
50.885668599
 20
4.5840095609
 11
48.8987477586
 21
10.0430297042
  0
LINE
  5
289
100
AcDbEntity
  8
0
100
AcDbLine
 62
3
  6
CONTINUOUS
 10
50.4934485361
 20
-0.2269904391
 11
50.4934485361
 21
-1.7269904391
  0
LINE
  5
28A
100
AcDbEntity
  8
0
100
AcDbLine
 62
7
  6
CONTINUOUS
 10
50.5534485361
 20
-0.3469904391
 11
50.5534485361
 21
-1.7269904391
  0
LINE
  5
28B
100
AcDbEntity
  8
0
100
AcDbLine
 62
3
  6
CONTINUOUS
 10
50.6134485361
 20
-0.3469904391
 11
50.6134485361
 21
-1.7269904391
  0
LINE
  5
28C
100
AcDbEntity
  8
0
100
AcDbLine
 62
3
  6
CONTINUOUS
 10
-14.1220920631
 20
-39.6892972835
 11
11.8566947335
 21
-39.6892972835
  0
LINE
  5
28D
100
AcDbEntity
  8
0
100
AcDbLine
 62
7
  6
CONTINUOUS
 10
-14.1220920631
 20
-39.6292972835
 11
11.8566947335
 21
-39.6292972835
  0
LINE
  5
28E
100
AcDbEntity
  8
0
100
AcDbLine
 62
7
  6
CONTINUOUS
 10
11.8566947335
 20
-39.5692972835
 11
11.9766947335
 21
-39.5692972835
  0
LINE
  5
28F
100
AcDbEntity
  8
0
100
AcDbLine
 62
7
  6
CONTINUOUS
 10
-14.1220920631
 20
-39.5692972835
 11
-14.2420920631
 21
-39.5692972835
  0
LINE
  5
290
100
AcDbEntity
  8
0
100
AcDbLine
 62
3
  6
CONTINUOUS
 10
-14.2420920631
 20
-13.5905104869
 11
-14.2420920631
 21
-39.5692972835
  0
LINE
  5
291
100
AcDbEntity
  8
0
100
AcDbLine
 62
7
  6
CONTINUOUS
 10
-14.1820920631
 20
-13.5905104869
 11
-14.1820920631
 21
-39.5692972835
  0
LINE
  5
292
100
AcDbEntity
  8
0
100
AcDbLine
 62
7
  6
CONTINUOUS
 10
-14.1220920631
 20
-13.4705104869
 11
-14.1220920631
 21
-13.5905104869
  0
LINE
  5
293
100
AcDbEntity
  8
0
100
AcDbLine
 62
7
  6
CONTINUOUS
 10
-14.1220920631
 20
-39.5692972835
 11
-14.1220920631
 21
-39.6892972835
  0
LINE
  5
294
100
AcDbEntity
  8
0
100
AcDbLine
 62
7
  6
CONTINUOUS
 10
-7.6049128709
 20
-33.1313649159
 11
-7.7131660464
 21
-32.9438649159
  0
LINE
  5
295
100
AcDbEntity
  8
0
100
AcDbLine
 62
7
  6
CONTINUOUS
 10
-7.38840652
 20
-32.7563649159
 11
-7.2801533445
 21
-32.9438649159
  0
LINE
  5
296
100
AcDbEntity
  8
0
100
AcDbLine
 62
7
  6
CONTINUOUS
 10
-7.7131660464
 20
-20.2159428545
 11
-7.6049128709
 21
-20.0284428545
  0
LINE
  5
297
100
AcDbEntity
  8
0
100
AcDbLine
 62
7
  6
CONTINUOUS
 10
-6.5442526992
 20
-32.0707047441
 11
-6.6525058746
 21
-31.8832047441
  0
LINE
  5
298
100
AcDbEntity
  8
0
100
AcDbLine
 62
7
  6
CONTINUOUS
 10
-6.3277463482
 20
-31.6957047441
 11
-6.2194931727
 21
-31.8832047441
  0
LINE
  5
299
100
AcDbEntity
  8
0
100
AcDbLine
 62
7
  6
CONTINUOUS
 10
-7.2801533445
 20
-20.2159428545
 11
-7.38840652
 21
-20.4034428545
  0
LINE
  5
29A
100
AcDbEntity
  8
0
100
AcDbLine
 62
7
  6
CONTINUOUS
 10
-6.6525058746
 20
-21.2766030263
 11
-6.5442526992
 21
-21.0891030263
  0
LINE
  5
29B
100
AcDbEntity
  8
0
100
AcDbLine
 62
7
  6
CONTINUOUS
 10
5.3395155414
 20
-33.1313649159
 11
5.1230091904
 21
-33.1313649159
  0
LINE
  5
29C
100
AcDbEntity
  8
0
100
AcDbLine
 62
7
  6
CONTINUOUS
 10
-7.38840652
 20
-33.1313649159
 11
-7.6049128709
 21
-33.1313649159
  0
LINE
  5
29D
100
AcDbEntity
  8
0
100
AcDbLine
 62
7
  6
CONTINUOUS
 10
-7.6049128709
 20
-32.7563649159
 11
-7.38840652
 21
-32.7563649159
  0
LINE
  5
29E
100
AcDbEntity
  8
0
100
AcDbLine
 62
7
  6
CONTINUOUS
 10
5.1230091904
 20
-32.7563649159
 11
5.3395155414
 21
-32.7563649159
  0
LINE
  5
29F
100
AcDbEntity
  8
0
100
AcDbLine
 62
7
  6
CONTINUOUS
 10
4.2788553696
 20
-32.0707047441
 11
4.0623490186
 21
-32.0707047441
  0
LINE
  5
2A0
100
AcDbEntity
  8
0
100
AcDbLine
 62
7
  6
CONTINUOUS
 10
-6.3277463482
 20
-32.0707047441
 11
-6.5442526992
 21
-32.0707047441
  0
LINE
  5
2A1
100
AcDbEntity
  8
0
100
AcDbLine
 62
7
  6
CONTINUOUS
 10
-6.2194931727
 20
-21.2766030263
 11
-6.3277463482
 21
-21.4641030263
  0
LINE
  5
2A2
100
AcDbEntity
  8
0
100
AcDbLine
 62
7
  6
CONTINUOUS
 10
-6.5442526992
 20
-31.6957047441
 11
-6.3277463482
 21
-31.6957047441
  0
LINE
  5
2A3
100
AcDbEntity
  8
0
100
AcDbLine
 62
7
  6
CONTINUOUS
 10
4.0623490186
 20
-31.6957047441
 11
4.2788553696
 21
-31.6957047441
  0
LINE
  5
2A4
100
AcDbEntity
  8
0
100
AcDbLine
 62
7
  6
CONTINUOUS
 10
-2.5469122272
 20
-28.2106237985
 11
-2.7344122272
 21
-28.102370623
  0
LINE
  5
2A5
100
AcDbEntity
  8
0
100
AcDbLine
 62
7
  6
CONTINUOUS
 10
-2.5469122272
 20
-27.7776110966
 11
-2.3594122272
 21
-27.8858642721
  0
LINE
  5
2A6
100
AcDbEntity
  8
0
100
AcDbLine
 62
7
  6
CONTINUOUS
 10
-7.6049128709
 20
-20.4034428545
 11
-7.7131660464
 21
-20.2159428545
  0
LINE
  5
2A7
100
AcDbEntity
  8
0
100
AcDbLine
 62
7
  6
CONTINUOUS
 10
-7.38840652
 20
-20.0284428545
 11
-7.2801533445
 21
-20.2159428545
  0
LINE
  5
2A8
100
AcDbEntity
  8
0
100
AcDbLine
 62
7
  6
CONTINUOUS
 10
-6.5442526992
 20
-21.4641030263
 11
-6.6525058746
 21
-21.2766030263
  0
LINE
  5
2A9
100
AcDbEntity
  8
0
100
AcDbLine
 62
7
  6
CONTINUOUS
 10
-6.3277463482
 20
-21.0891030263
 11
-6.2194931727
 21
-21.2766030263
  0
LINE
  5
2AA
100
AcDbEntity
  8
0
100
AcDbLine
 62
7
  6
CONTINUOUS
 10
-2.7344122272
 20
-28.102370623
 11
-2.7344122272
 21
-27.8858642721
  0
LINE
  5
2AB
100
AcDbEntity
  8
0
100
AcDbLine
 62
7
  6
CONTINUOUS
 10
-2.7344122272
 20
-25.2739434983
 11
-2.7344122272
 21
-25.0574371474
  0
LINE
  5
2AC
100
AcDbEntity
  8
0
100
AcDbLine
 62
7
  6
CONTINUOUS
 10
-2.3594122272
 20
-25.0574371474
 11
-2.3594122272
 21
-25.2739434983
  0
LINE
  5
2AD
100
AcDbEntity
  8
0
100
AcDbLine
 62
7
  6
CONTINUOUS
 10
-2.3594122272
 20
-27.8858642721
 11
-2.3594122272
 21
-28.102370623
  0
LINE
  5
2AE
100
AcDbEntity
  8
0
100
AcDbLine
 62
7
  6
CONTINUOUS
 10
-7.7131660464
 20
-32.9438649159
 11
-7.6049128709
 21
-32.7563649159
  0
LINE
  5
2AF
100
AcDbEntity
  8
0
100
AcDbLine
 62
7
  6
CONTINUOUS
 10
-7.2801533445
 20
-32.9438649159
 11
-7.38840652
 21
-33.1313649159
  0
LINE
  5
2B0
100
AcDbEntity
  8
0
100
AcDbLine
 62
7
  6
CONTINUOUS
 10
-6.6525058746
 20
-31.8832047441
 11
-6.5442526992
 21
-31.6957047441
  0
LINE
  5
2B1
100
AcDbEntity
  8
0
100
AcDbLine
 62
7
  6
CONTINUOUS
 10
-6.2194931727
 20
-31.8832047441
 11
-6.3277463482
 21
-32.0707047441
  0
LINE
  5
2B2
100
AcDbEntity
  8
0
100
AcDbLine
 62
7
  6
CONTINUOUS
 10
-0.3311040169
 20
-27.1031629033
 11
-0.2384592766
 21
-27.1031629033
  0
LINE
  5
2B3
100
AcDbEntity
  8
0
100
AcDbLine
 62
7
  6
CONTINUOUS
 10
-3.2555740733
 20
-26.6749038852
 11
-1.9495154626
 21
-26.6749038852
  0
LINE
  5
2B4
100
AcDbEntity
  8
0
100
AcDbLine
 62
7
  6
CONTINUOUS
 10
0.9901767437
 20
-26.6749038852
 11
-0.315881867
 21
-26.6749038852
  0
LINE
  5
2B5
100
AcDbEntity
  8
0
100
AcDbLine
 62
7
  6
CONTINUOUS
 10
-3.6113892395
 20
-26.670538789
 11
-3.2557649177
 21
-26.670538789
  0
LINE
  5
2B6
100
AcDbEntity
  8
0
100
AcDbLine
 62
7
  6
CONTINUOUS
 10
1.3459919099
 20
-26.670538789
 11
0.9903675881
 21
-26.670538789
  0
LINE
  5
2B7
100
AcDbEntity
  8
0
100
AcDbLine
 62
7
  6
CONTINUOUS
 10
-3.6113892395
 20
-26.4892689814
 11
-3.2557649177
 21
-26.4892689814
  0
LINE
  5
2B8
100
AcDbEntity
  8
0
100
AcDbLine
 62
7
  6
CONTINUOUS
 10
1.3459919099
 20
-26.4892689814
 11
0.9903675881
 21
-26.4892689814
  0
LINE
  5
2B9
100
AcDbEntity
  8
0
100
AcDbLine
 62
7
  6
CONTINUOUS
 10
-3.2555740733
 20
-26.4849038852
 11
-1.9495154626
 21
-26.4849038852
  0
LINE
  5
2BA
100
AcDbEntity
  8
0
100
AcDbLine
 62
7
  6
CONTINUOUS
 10
0.9901767437
 20
-26.4849038852
 11
-0.315881867
 21
-26.4849038852
  0
LINE
  5
2BB
100
AcDbEntity
  8
0
100
AcDbLine
 62
7
  6
CONTINUOUS
 10
0.2815148976
 20
-28.2106237985
 11
0.0940148976
 21
-28.102370623
  0
LINE
  5
2BC
100
AcDbEntity
  8
0
100
AcDbLine
 62
7
  6
CONTINUOUS
 10
0.2815148976
 20
-27.7776110966
 11
0.4690148976
 21
-27.8858642721
  0
LINE
  5
2BD
100
AcDbEntity
  8
0
100
AcDbLine
 62
7
  6
CONTINUOUS
 10
-2.5469122272
 20
-25.3821966738
 11
-2.7344122272
 21
-25.2739434983
  0
LINE
  5
2BE
100
AcDbEntity
  8
0
100
AcDbLine
 62
7
  6
CONTINUOUS
 10
-0.6094396467
 20
-27.4741432734
 11
-0.7670983565
 21
-27.3164845636
  0
LINE
  5
2BF
100
AcDbEntity
  8
0
100
AcDbLine
 62
7
  6
CONTINUOUS
 10
-0.453312663
 20
-27.569289887
 11
-0.305834729
 21
-27.716767821
  0
LINE
  5
2C0
100
AcDbEntity
  8
0
100
AcDbLine
 62
7
  6
CONTINUOUS
 10
-0.6094396467
 20
-27.3814985331
 11
-0.7551312609
 21
-27.2358069189
  0
LINE
  5
2C1
100
AcDbEntity
  8
0
100
AcDbLine
 62
7
  6
CONTINUOUS
 10
-0.4079142141
 20
-27.5238914381
 11
-0.5627379183
 21
-27.3690677339
  0
LINE
  5
2C2
100
AcDbEntity
  8
0
100
AcDbLine
 62
7
  6
CONTINUOUS
 10
-0.298312663
 20
-27.414289887
 11
-0.150834729
 21
-27.561767821
  0
LINE
  5
2C3
100
AcDbEntity
  8
0
100
AcDbLine
 62
7
  6
CONTINUOUS
 10
-0.1887111119
 20
-27.3046883359
 11
-0.3435348161
 21
-27.1498646317
  0
LINE
  5
2C4
100
AcDbEntity
  8
0
100
AcDbLine
 62
7
  6
CONTINUOUS
 10
-0.3311040169
 20
-27.1031629033
 11
-0.4767956311
 21
-26.9574712891
  0
LINE
  5
2C5
100
AcDbEntity
  8
0
100
AcDbLine
 62
7
  6
CONTINUOUS
 10
-0.143312663
 20
-27.259289887
 11
0.004165271
 21
-27.406767821
  0
LINE
  5
2C6
100
AcDbEntity
  8
0
100
AcDbLine
 62
7
  6
CONTINUOUS
 10
-0.2384592766
 20
-27.1031629033
 11
-0.3961179864
 21
-26.9455041935
  0
LINE
  5
2C7
100
AcDbEntity
  8
0
100
AcDbLine
 62
7
  6
CONTINUOUS
 10
-0.854098593
 20
-26.4342398883
 11
-0.9870346679
 21
-26.3013038134
  0
LINE
  5
2C8
100
AcDbEntity
  8
0
100
AcDbLine
 62
7
  6
CONTINUOUS
 10
-1.2276986648
 20
-28.7027792937
 11
-1.2276986648
 21
-27.396720683
  0
LINE
  5
2C9
100
AcDbEntity
  8
0
100
AcDbLine
 62
7
  6
CONTINUOUS
 10
-1.2276986648
 20
-24.4570284767
 11
-1.2276986648
 21
-25.7630870874
  0
LINE
  5
2CA
100
AcDbEntity
  8
0
100
AcDbLine
 62
7
  6
CONTINUOUS
 10
-1.2233335686
 20
-29.0585944599
 11
-1.2233335686
 21
-28.7029701381
  0
LINE
  5
2CB
100
AcDbEntity
  8
0
100
AcDbLine
 62
7
  6
CONTINUOUS
 10
-1.2233335686
 20
-24.1012133105
 11
-1.2233335686
 21
-24.4568376323
  0
LINE
  5
2CC
100
AcDbEntity
  8
0
100
AcDbLine
 62
7
  6
CONTINUOUS
 10
-1.042063761
 20
-29.0585944599
 11
-1.042063761
 21
-28.7029701381
  0
LINE
  5
2CD
100
AcDbEntity
  8
0
100
AcDbLine
 62
7
  6
CONTINUOUS
 10
-1.042063761
 20
-24.1012133105
 11
-1.042063761
 21
-24.4568376323
  0
LINE
  5
2CE
100
AcDbEntity
  8
0
100
AcDbLine
 62
7
  6
CONTINUOUS
 10
-1.0376986648
 20
-28.7027792937
 11
-1.0376986648
 21
-27.396720683
  0
LINE
  5
2CF
100
AcDbEntity
  8
0
100
AcDbLine
 62
7
  6
CONTINUOUS
 10
-1.0376986648
 20
-24.4570284767
 11
-1.0376986648
 21
-25.7630870874
  0
LINE
  5
2D0
100
AcDbEntity
  8
0
100
AcDbLine
 62
7
  6
CONTINUOUS
 10
-0.6094396467
 20
-27.4741432734
 11
-0.6094396467
 21
-27.3814985331
  0
LINE
  5
2D1
100
AcDbEntity
  8
0
100
AcDbLine
 62
7
  6
CONTINUOUS
 10
-0.6076718798
 20
-25.7800770042
 11
-0.6076718798
 21
-25.6874322639
  0
LINE
  5
2D2
100
AcDbEntity
  8
0
100
AcDbLine
 62
7
  6
CONTINUOUS
 10
-2.7344122272
 20
-25.0574371474
 11
-2.5469122272
 21
-24.9491839719
  0
LINE
  5
2D3
100
AcDbEntity
  8
0
100
AcDbLine
 62
7
  6
CONTINUOUS
 10
-2.3594122272
 20
-25.2739434983
 11
-2.5469122272
 21
-25.3821966738
  0
LINE
  5
2D4
100
AcDbEntity
  8
0
100
AcDbLine
 62
7
  6
CONTINUOUS
 10
-0.2402270435
 20
-26.0548771002
 11
-0.3328717838
 21
-26.0548771002
  0
LINE
  5
2D5
100
AcDbEntity
  8
0
100
AcDbLine
 62
7
  6
CONTINUOUS
 10
-2.5469122272
 20
-24.9491839719
 11
-2.3594122272
 21
-25.0574371474
  0
LINE
  5
2D6
100
AcDbEntity
  8
0
100
AcDbLine
 62
7
  6
CONTINUOUS
 10
0.2815148976
 20
-25.3821966738
 11
0.0940148976
 21
-25.2739434983
  0
LINE
  5
2D7
100
AcDbEntity
  8
0
100
AcDbLine
 62
7
  6
CONTINUOUS
 10
-0.7858627886
 20
-26.3660040839
 11
-0.9187988635
 21
-26.233068009
  0
LINE
  5
2D8
100
AcDbEntity
  8
0
100
AcDbLine
 62
7
  6
CONTINUOUS
 10
-0.3328717838
 20
-26.0548771002
 11
-0.6076718798
 21
-25.7800770042
  0
LINE
  5
2D9
100
AcDbEntity
  8
0
100
AcDbLine
 62
7
  6
CONTINUOUS
 10
-0.6076718798
 20
-25.6874322639
 11
-0.5335510127
 21
-25.761553131
  0
LINE
  5
2DA
100
AcDbEntity
  8
0
100
AcDbLine
 62
7
  6
CONTINUOUS
 10
-0.3143479106
 20
-25.9807562331
 11
-0.2402270435
 21
-26.0548771002
  0
LINE
  5
2DB
100
AcDbEntity
  8
0
100
AcDbLine
 62
7
  6
CONTINUOUS
 10
-0.453312663
 20
-25.5905178834
 11
-0.143312663
 21
-25.9005178834
  0
LINE
  5
2DC
100
AcDbEntity
  8
0
100
AcDbLine
 62
7
  6
CONTINUOUS
 10
0.0940148976
 20
-28.102370623
 11
0.0940148976
 21
-27.8858642721
  0
LINE
  5
2DD
100
AcDbEntity
  8
0
100
AcDbLine
 62
7
  6
CONTINUOUS
 10
0.0940148976
 20
-25.2739434983
 11
0.0940148976
 21
-25.0574371474
  0
LINE
  5
2DE
100
AcDbEntity
  8
0
100
AcDbLine
 62
7
  6
CONTINUOUS
 10
0.4690148976
 20
-25.0574371474
 11
0.4690148976
 21
-25.2739434983
  0
LINE
  5
2DF
100
AcDbEntity
  8
0
100
AcDbLine
 62
7
  6
CONTINUOUS
 10
0.4690148976
 20
-27.8858642721
 11
0.4690148976
 21
-28.102370623
  0
LINE
  5
2E0
100
AcDbEntity
  8
0
100
AcDbLine
 62
7
  6
CONTINUOUS
 10
-0.6076718798
 20
-25.6874322639
 11
-0.7647387344
 21
-25.8444991186
  0
LINE
  5
2E1
100
AcDbEntity
  8
0
100
AcDbLine
 62
7
  6
CONTINUOUS
 10
-0.453312663
 20
-25.5905178834
 11
-0.305834729
 21
-25.4430399494
  0
LINE
  5
2E2
100
AcDbEntity
  8
0
100
AcDbLine
 62
7
  6
CONTINUOUS
 10
-0.6076718798
 20
-25.7800770042
 11
-0.7528906368
 21
-25.9252957612
  0
LINE
  5
2E3
100
AcDbEntity
  8
0
100
AcDbLine
 62
7
  6
CONTINUOUS
 10
-0.5624561717
 20
-25.7904582899
 11
-0.4079142141
 21
-25.6359163323
  0
LINE
  5
2E4
100
AcDbEntity
  8
0
100
AcDbLine
 62
7
  6
CONTINUOUS
 10
-0.9187988635
 20
-26.233068009
 11
-0.988429603
 21
-26.3026987485
  0
LINE
  5
2E5
100
AcDbEntity
  8
WITNESS
100
AcDbLine
 62
4
  6
CONTINUOUS
 10
0.9882681254
 20
-24.4582299882
 11
1.1650448207
 21
-24.281453293
  0
LINE
  5
2E6
100
AcDbEntity
  8
0
100
AcDbLine
 62
7
  6
CONTINUOUS
 10
-0.298312663
 20
-25.7455178834
 11
-0.150834729
 21
-25.5980399494
  0
LINE
  5
2E7
100
AcDbEntity
  8
WITNESS
100
AcDbLine
 62
4
  6
CONTINUOUS
 10
0.9889752322
 20
-24.458937095
 11
1.1657519275
 21
-24.2821603997
  0
LINE
  5
2E8
100
AcDbEntity
  8
0
100
AcDbLine
 62
7
  6
CONTINUOUS
 10
-0.8554935281
 20
-26.4356348234
 11
-0.7858627886
 21
-26.3660040839
  0
LINE
  5
2E9
100
AcDbEntity
  8
0
100
AcDbLine
 62
7
  6
CONTINUOUS
 10
-0.3432530695
 20
-26.0096613921
 11
-0.1887111119
 21
-25.8551194345
  0
LINE
  5
2EA
100
AcDbEntity
  8
0
100
AcDbLine
 62
7
  6
CONTINUOUS
 10
-0.3328717838
 20
-26.0548771002
 11
-0.4780905408
 21
-26.2000958572
  0
LINE
  5
2EB
100
AcDbEntity
  8
0
100
AcDbLine
 62
7
  6
CONTINUOUS
 10
-0.143312663
 20
-25.9005178834
 11
0.004165271
 21
-25.7530399494
  0
LINE
  5
2EC
100
AcDbEntity
  8
0
100
AcDbLine
 62
7
  6
CONTINUOUS
 10
-0.2402270435
 20
-26.0548771002
 11
-0.3972938982
 21
-26.2119439548
  0
LINE
  5
2ED
100
AcDbEntity
  8
0
100
AcDbLine
 62
7
  6
CONTINUOUS
 10
-0.9785636972
 20
-26.8500329863
 11
-0.863856232
 21
-26.7353255211
  0
LINE
  5
2EE
100
AcDbEntity
  8
0
100
AcDbLine
 62
7
  6
CONTINUOUS
 10
-0.6094396467
 20
-27.3814985331
 11
-0.3311040169
 21
-27.1031629033
  0
LINE
  5
2EF
100
AcDbEntity
  8
0
100
AcDbLine
 62
7
  6
CONTINUOUS
 10
0.0940148976
 20
-25.0574371474
 11
0.2815148976
 21
-24.9491839719
  0
LINE
  5
2F0
100
AcDbEntity
  8
0
100
AcDbLine
 62
7
  6
CONTINUOUS
 10
0.4690148976
 20
-25.2739434983
 11
0.2815148976
 21
-25.3821966738
  0
LINE
  5
2F1
100
AcDbEntity
  8
0
100
AcDbLine
 62
7
  6
CONTINUOUS
 10
-2.7344122272
 20
-27.8858642721
 11
-2.5469122272
 21
-27.7776110966
  0
LINE
  5
2F2
100
AcDbEntity
  8
0
100
AcDbLine
 62
7
  6
CONTINUOUS
 10
0.2815148976
 20
-24.9491839719
 11
0.4690148976
 21
-25.0574371474
  0
LINE
  5
2F3
100
AcDbEntity
  8
WITNESS
100
AcDbLine
 62
4
  6
CONTINUOUS
 10
0.9889752322
 20
-24.458937095
 11
0.9882681254
 21
-24.4582299882
  0
LINE
  5
2F4
100
AcDbEntity
  8
0
100
AcDbLine
 62
7
  6
CONTINUOUS
 10
4.0623490186
 20
-32.0707047441
 11
3.9540958432
 21
-31.8832047441
  0
LINE
  5
2F5
100
AcDbEntity
  8
0
100
AcDbLine
 62
7
  6
CONTINUOUS
 10
4.2788553696
 20
-31.6957047441
 11
4.3871085451
 21
-31.8832047441
  0
LINE
  5
2F6
100
AcDbEntity
  8
0
100
AcDbLine
 62
7
  6
CONTINUOUS
 10
5.1230091904
 20
-33.1313649159
 11
5.0147560149
 21
-32.9438649159
  0
LINE
  5
2F7
100
AcDbEntity
  8
0
100
AcDbLine
 62
7
  6
CONTINUOUS
 10
5.3395155414
 20
-32.7563649159
 11
5.4477687168
 21
-32.9438649159
  0
LINE
  5
2F8
100
AcDbEntity
  8
0
100
AcDbLine
 62
7
  6
CONTINUOUS
 10
3.9540958432
 20
-21.2766030263
 11
4.0623490186
 21
-21.0891030263
  0
LINE
  5
2F9
100
AcDbEntity
  8
0
100
AcDbLine
 62
7
  6
CONTINUOUS
 10
4.3871085451
 20
-21.2766030263
 11
4.2788553696
 21
-21.4641030263
  0
LINE
  5
2FA
100
AcDbEntity
  8
0
100
AcDbLine
 62
7
  6
CONTINUOUS
 10
5.0147560149
 20
-20.2159428545
 11
5.1230091904
 21
-20.0284428545
  0
LINE
  5
2FB
100
AcDbEntity
  8
0
100
AcDbLine
 62
7
  6
CONTINUOUS
 10
5.4477687168
 20
-20.2159428545
 11
5.3395155414
 21
-20.4034428545
  0
LINE
  5
2FC
100
AcDbEntity
  8
0
100
AcDbLine
 62
7
  6
CONTINUOUS
 10
-0.2384592766
 20
-27.1031629033
 11
-0.3143479106
 21
-27.1790515373
  0
LINE
  5
2FD
100
AcDbEntity
  8
0
100
AcDbLine
 62
7
  6
CONTINUOUS
 10
-0.5335510127
 20
-27.3982546394
 11
-0.6094396467
 21
-27.4741432734
  0
LINE
  5
2FE
100
AcDbEntity
  8
0
100
AcDbLine
 62
7
  6
CONTINUOUS
 10
-0.143312663
 20
-27.259289887
 11
-0.453312663
 21
-27.569289887
  0
LINE
  5
2FF
100
AcDbEntity
  8
0
100
AcDbLine
 62
7
  6
CONTINUOUS
 10
-2.3594122272
 20
-28.102370623
 11
-2.5469122272
 21
-28.2106237985
  0
LINE
  5
300
100
AcDbEntity
  8
0
100
AcDbLine
 62
7
  6
CONTINUOUS
 10
0.0940148976
 20
-27.8858642721
 11
0.2815148976
 21
-27.7776110966
  0
LINE
  5
301
100
AcDbEntity
  8
WITNESS
100
AcDbLine
 62
4
  6
CONTINUOUS
 10
1.1650448207
 20
-24.281453293
 11
1.1657519275
 21
-24.2821603997
  0
LINE
  5
302
100
AcDbEntity
  8
0
100
AcDbLine
 62
7
  6
CONTINUOUS
 10
0.4690148976
 20
-28.102370623
 11
0.2815148976
 21
-28.2106237985
  0
LINE
  5
303
100
AcDbEntity
  8
0
100
AcDbLine
 62
7
  6
CONTINUOUS
 10
4.2788553696
 20
-21.4641030263
 11
4.0623490186
 21
-21.4641030263
  0
LINE
  5
304
100
AcDbEntity
  8
0
100
AcDbLine
 62
7
  6
CONTINUOUS
 10
-6.3277463482
 20
-21.4641030263
 11
-6.5442526992
 21
-21.4641030263
  0
LINE
  5
305
100
AcDbEntity
  8
0
100
AcDbLine
 62
7
  6
CONTINUOUS
 10
-6.5442526992
 20
-21.0891030263
 11
-6.3277463482
 21
-21.0891030263
  0
LINE
  5
306
100
AcDbEntity
  8
0
100
AcDbLine
 62
7
  6
CONTINUOUS
 10
4.0623490186
 20
-21.0891030263
 11
4.2788553696
 21
-21.0891030263
  0
LINE
  5
307
100
AcDbEntity
  8
0
100
AcDbLine
 62
7
  6
CONTINUOUS
 10
5.3395155414
 20
-20.4034428545
 11
5.1230091904
 21
-20.4034428545
  0
LINE
  5
308
100
AcDbEntity
  8
0
100
AcDbLine
 62
7
  6
CONTINUOUS
 10
-7.38840652
 20
-20.4034428545
 11
-7.6049128709
 21
-20.4034428545
  0
LINE
  5
309
100
AcDbEntity
  8
0
100
AcDbLine
 62
7
  6
CONTINUOUS
 10
-7.6049128709
 20
-20.0284428545
 11
-7.38840652
 21
-20.0284428545
  0
LINE
  5
30A
100
AcDbEntity
  8
0
100
AcDbLine
 62
7
  6
CONTINUOUS
 10
5.1230091904
 20
-20.0284428545
 11
5.3395155414
 21
-20.0284428545
  0
LINE
  5
30B
100
AcDbEntity
  8
0
100
AcDbLine
 62
7
  6
CONTINUOUS
 10
4.0623490186
 20
-21.4641030263
 11
3.9540958432
 21
-21.2766030263
  0
LINE
  5
30C
100
AcDbEntity
  8
0
100
AcDbLine
 62
7
  6
CONTINUOUS
 10
3.9540958432
 20
-31.8832047441
 11
4.0623490186
 21
-31.6957047441
  0
LINE
  5
30D
100
AcDbEntity
  8
0
100
AcDbLine
 62
7
  6
CONTINUOUS
 10
4.2788553696
 20
-21.0891030263
 11
4.3871085451
 21
-21.2766030263
  0
LINE
  5
30E
100
AcDbEntity
  8
0
100
AcDbLine
 62
7
  6
CONTINUOUS
 10
5.1230091904
 20
-20.4034428545
 11
5.0147560149
 21
-20.2159428545
  0
LINE
  5
30F
100
AcDbEntity
  8
0
100
AcDbLine
 62
7
  6
CONTINUOUS
 10
4.3871085451
 20
-31.8832047441
 11
4.2788553696
 21
-32.0707047441
  0
LINE
  5
310
100
AcDbEntity
  8
0
100
AcDbLine
 62
7
  6
CONTINUOUS
 10
5.3395155414
 20
-20.0284428545
 11
5.4477687168
 21
-20.2159428545
  0
LINE
  5
311
100
AcDbEntity
  8
0
100
AcDbLine
 62
7
  6
CONTINUOUS
 10
5.0147560149
 20
-32.9438649159
 11
5.1230091904
 21
-32.7563649159
  0
LINE
  5
312
100
AcDbEntity
  8
0
100
AcDbLine
 62
7
  6
CONTINUOUS
 10
5.4477687168
 20
-32.9438649159
 11
5.3395155414
 21
-33.1313649159
  0
LINE
  5
313
100
AcDbEntity
  8
0
100
AcDbLine
 62
7
  6
CONTINUOUS
 10
11.8566947335
 20
-13.5905104869
 11
11.9766947335
 21
-13.5905104869
  0
LINE
  5
314
100
AcDbEntity
  8
0
100
AcDbLine
 62
7
  6
CONTINUOUS
 10
-14.1220920631
 20
-13.5905104869
 11
-14.2420920631
 21
-13.5905104869
  0
LINE
  5
315
100
AcDbEntity
  8
0
100
AcDbLine
 62
7
  6
CONTINUOUS
 10
11.8566947335
 20
-13.5305104869
 11
-14.1220920631
 21
-13.5305104869
  0
LINE
  5
316
100
AcDbEntity
  8
0
100
AcDbLine
 62
3
  6
CONTINUOUS
 10
11.8566947335
 20
-13.4705104869
 11
-14.1220920631
 21
-13.4705104869
  0
LINE
  5
317
100
AcDbEntity
  8
0
100
AcDbLine
 62
7
  6
CONTINUOUS
 10
11.8566947335
 20
-13.4705104869
 11
11.8566947335
 21
-13.5905104869
  0
LINE
  5
318
100
AcDbEntity
  8
0
100
AcDbLine
 62
7
  6
CONTINUOUS
 10
11.8566947335
 20
-39.5692972835
 11
11.8566947335
 21
-39.6892972835
  0
LINE
  5
319
100
AcDbEntity
  8
0
100
AcDbLine
 62
7
  6
CONTINUOUS
 10
11.9166947335
 20
-39.5692972835
 11
11.9166947335
 21
-13.5905104869
  0
LINE
  5
31A
100
AcDbEntity
  8
0
100
AcDbLine
 62
3
  6
CONTINUOUS
 10
11.9766947335
 20
-39.5692972835
 11
11.9766947335
 21
-13.5905104869
  0
ARC
  5
31B
100
AcDbEntity
  8
0
100
AcDbCircle
 62
7
  6
CONTINUOUS
 10
-14.808590372
 20
4.3310095609
 40
0.253
100
AcDbArc
 50
90.0
 51
270.0
  0
CIRCLE
  5
31C
100
AcDbEntity
  8
0
100
AcDbCircle
 62
3
  6
CONTINUOUS
 10
-7.6326986648
 20
-0.9769904391
 40
0.155
  0
ARC
  5
31D
100
AcDbEntity
  8
0
100
AcDbCircle
 62
3
  6
CONTINUOUS
 10
-14.1220920631
 20
-0.3469904391
 40
0.12
100
AcDbArc
 50
90.0
 51
180.0
  0
ARC
  5
31E
100
AcDbEntity
  8
0
100
AcDbCircle
 62
7
  6
CONTINUOUS
 10
-14.1220920631
 20
-0.3469904391
 40
0.06
100
AcDbArc
 50
90.0
 51
180.0
  0
ARC
  5
31F
100
AcDbEntity
  8
0
100
AcDbCircle
 62
3
  6
CONTINUOUS
 10
-7.3062498214
 20
15.8310095609
 40
1.0
100
AcDbArc
 50
90.0
 51
160.0
  0
ARC
  5
320
100
AcDbEntity
  8
0
100
AcDbCircle
 62
3
  6
CONTINUOUS
 10
-11.5876986648
 20
9.7010095609
 40
1.0
100
AcDbArc
 50
90.0
 51
160.0
  0
ARC
  5
321
100
AcDbEntity
  8
0
100
AcDbCircle
 62
3
  6
CONTINUOUS
 10
-10.5876986648
 20
11.2010095609
 40
0.5
100
AcDbArc
 50
270.0
 51
340.0
  0
ARC
  5
322
100
AcDbEntity
  8
AXIS
100
AcDbCircle
 62
7
  6
CONTINUOUS
 10
-9.2054420613
 20
10.9460095609
 40
0.2
100
AcDbArc
 50
0.0
 51
180.0
  0
ARC
  5
323
100
AcDbEntity
  8
0
100
AcDbCircle
 62
7
  6
CONTINUOUS
 10
12.5431930425
 20
4.3310095609
 40
0.253
100
AcDbArc
 50
270.0
 51
90.0
  0
ARC
  5
324
100
AcDbEntity
  8
0
100
AcDbCircle
 62
7
  6
CONTINUOUS
 10
6.114325813
 20
3.7415106595
 40
0.2424053455
100
AcDbArc
 50
196.0718727492
 51
199.1854287384
  0
ARC
  5
325
100
AcDbEntity
  8
0
100
AcDbCircle
 62
7
  6
CONTINUOUS
 10
6.1141600508
 20
0.5414608832
 40
0.2422322819
100
AcDbArc
 50
196.0714137266
 51
199.3067763843
  0
ARC
  5
326
100
AcDbEntity
  8
0
100
AcDbCircle
 62
7
  6
CONTINUOUS
 10
6.1099106317
 20
3.7558602135
 40
0.2377885203
100
AcDbArc
 50
157.5300812924
 51
163.9465857437
  0
ARC
  5
327
100
AcDbEntity
  8
0
100
AcDbCircle
 62
7
  6
CONTINUOUS
 10
6.109742871
 20
0.5559126016
 40
0.2376128146
100
AcDbArc
 50
157.4064790355
 51
163.9475391195
  0
ARC
  5
328
100
AcDbEntity
  8
0
100
AcDbCircle
 62
7
  6
CONTINUOUS
 10
6.1057291436
 20
3.7385816729
 40
0.2333236002
100
AcDbArc
 50
199.1998635917
 51
201.3747000803
  0
ARC
  5
329
100
AcDbEntity
  8
0
100
AcDbCircle
 62
7
  6
CONTINUOUS
 10
6.1055878097
 20
0.5385276415
 40
0.233172331
100
AcDbArc
 50
199.3229754871
 51
201.3118656937
  0
ARC
  5
32A
100
AcDbEntity
  8
0
100
AcDbCircle
 62
7
  6
CONTINUOUS
 10
6.0958164442
 20
3.761373068
 40
0.2226575474
100
AcDbArc
 50
156.2533413403
 51
157.4548248603
  0
ARC
  5
32B
100
AcDbEntity
  8
0
100
AcDbCircle
 62
7
  6
CONTINUOUS
 10
6.0956523637
 20
0.5614443517
 40
0.2224786646
100
AcDbArc
 50
156.3182504205
 51
157.3276127639
  0
ARC
  5
32C
100
AcDbEntity
  8
0
100
AcDbCircle
 62
7
  6
CONTINUOUS
 10
6.09302016
 20
0.5625899109
 40
0.2196079966
100
AcDbArc
 50
155.9556563619
 51
156.3161245351
  0
ARC
  5
32D
100
AcDbEntity
  8
0
100
AcDbCircle
 62
7
  6
CONTINUOUS
 10
6.0928825121
 20
3.7626509196
 40
0.2194574347
100
AcDbArc
 50
155.9555600816
 51
156.2502573152
  0
ARC
  5
32E
100
AcDbEntity
  8
0
100
AcDbCircle
 62
7
  6
CONTINUOUS
 10
6.091673797
 20
3.7631898735
 40
0.2181340061
100
AcDbArc
 50
155.5617714909
 51
155.9554822601
  0
ARC
  5
32F
100
AcDbEntity
  8
0
100
AcDbCircle
 62
7
  6
CONTINUOUS
 10
6.0916737968
 20
0.5631898736
 40
0.2181340059
100
AcDbArc
 50
155.5617714907
 51
155.9554822603
  0
CIRCLE
  5
330
100
AcDbEntity
  8
0
100
AcDbCircle
 62
3
  6
CONTINUOUS
 10
5.3673013352
 20
-0.9769904391
 40
0.155
  0
ARC
  5
331
100
AcDbEntity
  8
0
100
AcDbCircle
 62
3
  6
CONTINUOUS
 10
11.8566947335
 20
-0.3469904391
 40
0.12
100
AcDbArc
 50
0.0
 51
90.0
  0
ARC
  5
332
100
AcDbEntity
  8
0
100
AcDbCircle
 62
7
  6
CONTINUOUS
 10
11.8566947335
 20
-0.3469904391
 40
0.06
100
AcDbArc
 50
0.0
 51
90.0
  0
ARC
  5
333
100
AcDbEntity
  8
0
100
AcDbCircle
 62
3
  6
CONTINUOUS
 10
9.3223013352
 20
9.7010095609
 40
1.0
100
AcDbArc
 50
20.0
 51
90.0
  0
ARC
  5
334
100
AcDbEntity
  8
0
100
AcDbCircle
 62
3
  6
CONTINUOUS
 10
5.0408524918
 20
15.8310095609
 40
1.0
100
AcDbArc
 50
20.0
 51
90.0
  0
ARC
  5
335
100
AcDbEntity
  8
0
100
AcDbCircle
 62
3
  6
CONTINUOUS
 10
8.3223013352
 20
11.2010095609
 40
0.5
100
AcDbArc
 50
200.0
 51
270.0
  0
ARC
  5
336
100
AcDbEntity
  8
AXIS
100
AcDbCircle
 62
7
  6
CONTINUOUS
 10
4.5198971155
 20
10.9460095609
 40
0.2
100
AcDbArc
 50
0.0
 51
180.0
  0
ARC
  5
337
100
AcDbEntity
  8
0
100
AcDbCircle
 62
3
  6
CONTINUOUS
 10
31.3305039812
 20
15.8310095609
 40
1.0
100
AcDbArc
 50
90.0
 51
160.0
  0
ARC
  5
338
100
AcDbEntity
  8
0
100
AcDbCircle
 62
3
  6
CONTINUOUS
 10
47.9590551378
 20
9.7010095609
 40
1.0
100
AcDbArc
 50
20.0
 51
90.0
  0
ARC
  5
339
100
AcDbEntity
  8
0
100
AcDbCircle
 62
3
  6
CONTINUOUS
 10
27.0490551378
 20
9.7010095609
 40
1.0
100
AcDbArc
 50
90.0
 51
160.0
  0
ARC
  5
33A
100
AcDbEntity
  8
0
100
AcDbCircle
 62
3
  6
CONTINUOUS
 10
43.6776062944
 20
15.8310095609
 40
1.0
100
AcDbArc
 50
20.0
 51
90.0
  0
ARC
  5
33B
100
AcDbEntity
  8
0
100
AcDbCircle
 62
3
  6
CONTINUOUS
 10
28.0490551378
 20
11.2010095609
 40
0.5
100
AcDbArc
 50
270.0
 51
340.0
  0
ARC
  5
33C
100
AcDbEntity
  8
0
100
AcDbCircle
 62
3
  6
CONTINUOUS
 10
46.9590551378
 20
11.2010095609
 40
0.5
100
AcDbArc
 50
200.0
 51
270.0
  0
ARC
  5
33D
100
AcDbEntity
  8
0
100
AcDbCircle
 62
7
  6
CONTINUOUS
 10
51.179946845
 20
4.3310095609
 40
0.253
100
AcDbArc
 50
270.0
 51
90.0
  0
ARC
  5
33E
100
AcDbEntity
  8
0
100
AcDbCircle
 62
7
  6
CONTINUOUS
 10
23.8281634305
 20
4.3310095609
 40
0.253
100
AcDbArc
 50
90.0
 51
270.0
  0
ARC
  5
33F
100
AcDbEntity
  8
0
100
AcDbCircle
 62
7
  6
CONTINUOUS
 10
30.2607946051
 20
3.7403139679
 40
0.2384572423
100
AcDbArc
 50
339.6703409337
 51
343.9540525105
  0
ARC
  5
340
100
AcDbEntity
  8
0
100
AcDbCircle
 62
7
  6
CONTINUOUS
 10
30.2609126317
 20
0.5402758551
 40
0.2383332794
100
AcDbArc
 50
339.6052067069
 51
343.9550151678
  0
ARC
  5
341
100
AcDbEntity
  8
0
100
AcDbCircle
 62
7
  6
CONTINUOUS
 10
30.2670951802
 20
0.5380240566
 40
0.2317535741
100
AcDbArc
 50
339.3141343031
 51
339.5943545538
  0
ARC
  5
342
100
AcDbEntity
  8
0
100
AcDbCircle
 62
7
  6
CONTINUOUS
 10
30.267128043
 20
3.7380119831
 40
0.2317185648
100
AcDbArc
 50
339.2502648554
 51
339.6600108061
  0
ARC
  5
343
100
AcDbEntity
  8
0
100
AcDbCircle
 62
7
  6
CONTINUOUS
 10
30.2687042241
 20
0.5374133678
 40
0.2300325412
100
AcDbArc
 50
338.6777465809
 51
339.3148649099
  0
ARC
  5
344
100
AcDbEntity
  8
0
100
AcDbCircle
 62
7
  6
CONTINUOUS
 10
30.2687926993
 20
3.7373790486
 40
0.2299376432
100
AcDbArc
 50
338.677696556
 51
339.2507918011
  0
ARC
  5
345
100
AcDbEntity
  8
0
100
AcDbCircle
 62
7
  6
CONTINUOUS
 10
30.278125009
 20
3.7624957243
 40
0.2198393415
100
AcDbArc
 50
23.3970882353
 51
24.0443227001
  0
ARC
  5
346
100
AcDbEntity
  8
0
100
AcDbCircle
 62
7
  6
CONTINUOUS
 10
30.2782257049
 20
0.5625403918
 40
0.2197291836
100
AcDbArc
 50
23.4647944044
 51
24.0443842708
  0
ARC
  5
347
100
AcDbEntity
  8
AXIS
100
AcDbCircle
 62
7
  6
CONTINUOUS
 10
29.4313117413
 20
10.9460095609
 40
0.2
100
AcDbArc
 50
0.0
 51
180.0
  0
ARC
  5
348
100
AcDbEntity
  8
AXIS
100
AcDbCircle
 62
7
  6
CONTINUOUS
 10
43.156650918
 20
10.9460095609
 40
0.2
100
AcDbArc
 50
0.0
 51
180.0
  0
CIRCLE
  5
349
100
AcDbEntity
  8
0
100
AcDbCircle
 62
3
  6
CONTINUOUS
 10
31.0040551378
 20
-0.9769904391
 40
0.155
  0
CIRCLE
  5
34A
100
AcDbEntity
  8
0
100
AcDbCircle
 62
3
  6
CONTINUOUS
 10
44.0040551378
 20
-0.9769904391
 40
0.155
  0
ARC
  5
34B
100
AcDbEntity
  8
0
100
AcDbCircle
 62
3
  6
CONTINUOUS
 10
44.6085417056
 20
0.5530124807
 40
0.1412736912
100
AcDbArc
 50
357.9413812997
 51
359.9988158498
  0
ARC
  5
34C
100
AcDbEntity
  8
0
100
AcDbCircle
 62
3
  6
CONTINUOUS
 10
44.6078644876
 20
3.7530124489
 40
0.1412563063
100
AcDbArc
 50
357.9552248631
 51
359.9988285746
  0
ARC
  5
34D
100
AcDbEntity
  8
0
100
AcDbCircle
 62
3
  6
CONTINUOUS
 10
44.6081828284
 20
3.7529736741
 40
0.1409367874
100
AcDbArc
 50
352.1716981551
 51
357.9663605202
  0
ARC
  5
34E
100
AcDbEntity
  8
0
100
AcDbCircle
 62
3
  6
CONTINUOUS
 10
44.610267403
 20
0.5528467065
 40
0.1395431912
100
AcDbArc
 50
349.2735165222
 51
357.9839505
  0
ARC
  5
34F
100
AcDbEntity
  8
0
100
AcDbCircle
 62
3
  6
CONTINUOUS
 10
24.5146617395
 20
-0.3469904391
 40
0.12
100
AcDbArc
 50
90.0
 51
180.0
  0
ARC
  5
350
100
AcDbEntity
  8
0
100
AcDbCircle
 62
3
  6
CONTINUOUS
 10
50.4934485361
 20
-0.3469904391
 40
0.12
100
AcDbArc
 50
0.0
 51
90.0
  0
ARC
  5
351
100
AcDbEntity
  8
0
100
AcDbCircle
 62
7
  6
CONTINUOUS
 10
24.5146617395
 20
-0.3469904391
 40
0.06
100
AcDbArc
 50
90.0
 51
180.0
  0
ARC
  5
352
100
AcDbEntity
  8
0
100
AcDbCircle
 62
7
  6
CONTINUOUS
 10
50.4934485361
 20
-0.3469904391
 40
0.06
100
AcDbArc
 50
0.0
 51
90.0
  0
ARC
  5
353
100
AcDbEntity
  8
0
100
AcDbCircle
 62
7
  6
CONTINUOUS
 10
-3.5318040566
 20
-31.1587274147
 40
5.5178645302
100
AcDbArc
 50
54.3508632523
 51
55.1741660841
  0
ARC
  5
354
100
AcDbEntity
  8
0
100
AcDbCircle
 62
7
  6
CONTINUOUS
 10
-5.5741902479
 20
-28.8819976246
 40
5.3497282194
100
AcDbArc
 50
34.8128959132
 51
35.6620747504
  0
CIRCLE
  5
355
100
AcDbEntity
  8
0
100
AcDbCircle
 62
7
  6
CONTINUOUS
 10
-7.4966596955
 20
-32.9438649159
 40
0.625
  0
CIRCLE
  5
356
100
AcDbEntity
  8
0
100
AcDbCircle
 62
7
  6
CONTINUOUS
 10
-6.4359995237
 20
-31.8832047441
 40
0.625
  0
ARC
  5
357
100
AcDbEntity
  8
0
100
AcDbCircle
 62
7
  6
CONTINUOUS
 10
-2.5469122272
 20
-27.9941174476
 40
0.5
100
AcDbArc
 50
323.9892993452
 51
126.0107006548
  0
CIRCLE
  5
358
100
AcDbEntity
  8
0
100
AcDbCircle
 62
7
  6
CONTINUOUS
 10
-2.5469122272
 20
-27.9941174476
 40
0.2655
  0
CIRCLE
  5
359
100
AcDbEntity
  8
0
100
AcDbCircle
 62
7
  6
CONTINUOUS
 10
-7.4966596955
 20
-32.9438649159
 40
0.26
  0
CIRCLE
  5
35A
100
AcDbEntity
  8
0
100
AcDbCircle
 62
7
  6
CONTINUOUS
 10
-6.4359995237
 20
-31.8832047441
 40
0.26
  0
CIRCLE
  5
35B
100
AcDbEntity
  8
0
100
AcDbCircle
 62
7
  6
CONTINUOUS
 10
-2.5469122272
 20
-27.9941174476
 40
0.187
  0
CIRCLE
  5
35C
100
AcDbEntity
  8
0
100
AcDbCircle
 62
7
  6
CONTINUOUS
 10
-7.4966596955
 20
-32.9438649159
 40
0.187
  0
CIRCLE
  5
35D
100
AcDbEntity
  8
0
100
AcDbCircle
 62
7
  6
CONTINUOUS
 10
-6.4359995237
 20
-31.8832047441
 40
0.187
  0
ARC
  5
35E
100
AcDbEntity
  8
0
100
AcDbCircle
 62
7
  6
CONTINUOUS
 10
-2.0413452243
 20
-28.3615776572
 40
0.125
100
AcDbArc
 50
143.9892993452
 51
242.9785986903
  0
ARC
  5
35F
100
AcDbEntity
  8
0
100
AcDbCircle
 62
7
  6
CONTINUOUS
 10
-5.7115221942
 20
-24.1807984935
 40
5.51786453
100
AcDbArc
 50
324.3508632522
 51
325.1741660841
  0
ARC
  5
360
100
AcDbEntity
  8
0
100
AcDbCircle
 62
7
  6
CONTINUOUS
 10
-3.4347924043
 20
-22.138412302
 40
5.3497282195
100
AcDbArc
 50
304.8128959132
 51
305.6620747504
  0
ARC
  5
361
100
AcDbEntity
  8
0
100
AcDbCircle
 62
7
  6
CONTINUOUS
 10
-3.4090424025
 20
-26.8833727146
 40
2.6772101553
100
AcDbArc
 50
350.6899274564
 51
352.4354929354
  0
ARC
  5
362
100
AcDbEntity
  8
0
100
AcDbCircle
 62
7
  6
CONTINUOUS
 10
-3.347216492
 20
-26.2644631772
 40
2.6164023351
100
AcDbArc
 50
7.4482822205
 51
9.2366177025
  0
CIRCLE
  5
363
100
AcDbEntity
  8
0
100
AcDbCircle
 62
7
  6
CONTINUOUS
 10
-7.4966596955
 20
-20.2159428545
 40
0.625
  0
CIRCLE
  5
364
100
AcDbEntity
  8
0
100
AcDbCircle
 62
7
  6
CONTINUOUS
 10
-6.4359995237
 20
-21.2766030263
 40
0.625
  0
ARC
  5
365
100
AcDbEntity
  8
0
100
AcDbCircle
 62
7
  6
CONTINUOUS
 10
-2.5469122272
 20
-25.1656903228
 40
0.5
100
AcDbArc
 50
233.9892993452
 51
36.0107006548
  0
CIRCLE
  5
366
100
AcDbEntity
  8
0
100
AcDbCircle
 62
7
  6
CONTINUOUS
 10
-2.5469122272
 20
-25.1656903228
 40
0.2655
  0
CIRCLE
  5
367
100
AcDbEntity
  8
0
100
AcDbCircle
 62
7
  6
CONTINUOUS
 10
-7.4966596955
 20
-20.2159428545
 40
0.26
  0
CIRCLE
  5
368
100
AcDbEntity
  8
0
100
AcDbCircle
 62
7
  6
CONTINUOUS
 10
-6.4359995237
 20
-21.2766030263
 40
0.26
  0
CIRCLE
  5
369
100
AcDbEntity
  8
0
100
AcDbCircle
 62
7
  6
CONTINUOUS
 10
-2.5469122272
 20
-25.1656903228
 40
0.187
  0
CIRCLE
  5
36A
100
AcDbEntity
  8
0
100
AcDbCircle
 62
7
  6
CONTINUOUS
 10
-7.4966596955
 20
-20.2159428545
 40
0.187
  0
CIRCLE
  5
36B
100
AcDbEntity
  8
0
100
AcDbCircle
 62
7
  6
CONTINUOUS
 10
-6.4359995237
 20
-21.2766030263
 40
0.187
  0
ARC
  5
36C
100
AcDbEntity
  8
0
100
AcDbCircle
 62
7
  6
CONTINUOUS
 10
-2.9143724368
 20
-27.4885504447
 40
0.125
100
AcDbArc
 50
207.0214013097
 51
306.0107006548
  0
ARC
  5
36D
100
AcDbEntity
  8
0
100
AcDbCircle
 62
7
  6
CONTINUOUS
 10
-2.0413452243
 20
-24.7982301132
 40
0.125
100
AcDbArc
 50
117.0214013097
 51
216.0107006548
  0
ARC
  5
36E
100
AcDbEntity
  8
0
100
AcDbCircle
 62
7
  6
CONTINUOUS
 10
-2.9143724368
 20
-25.6712573256
 40
0.125
100
AcDbArc
 50
53.9892993452
 51
152.9785986903
  0
CIRCLE
  5
36F
100
AcDbEntity
  8
0
100
AcDbCircle
 62
7
  6
CONTINUOUS
 10
-0.8186031945
 20
-35.5744213284
 40
0.345
  0
ARC
  5
370
100
AcDbEntity
  8
0
100
AcDbCircle
 62
7
  6
CONTINUOUS
 10
1.1693950748
 20
-31.0213954685
 40
5.3497282196
100
AcDbArc
 50
124.8128959132
 51
125.6620747504
  0
ARC
  5
371
100
AcDbEntity
  8
0
100
AcDbCircle
 62
7
  6
CONTINUOUS
 10
-0.8252167749
 20
-28.8486958926
 40
2.6712504132
100
AcDbArc
 50
80.7817434522
 51
82.5333566247
  0
ARC
  5
372
100
AcDbEntity
  8
0
100
AcDbCircle
 62
7
  6
CONTINUOUS
 10
0.2815148976
 20
-27.9941174476
 40
0.5
100
AcDbArc
 50
53.9892993452
 51
216.0107006548
  0
CIRCLE
  5
373
100
AcDbEntity
  8
0
100
AcDbCircle
 62
7
  6
CONTINUOUS
 10
0.2815148976
 20
-27.9941174476
 40
0.2655
  0
CIRCLE
  5
374
100
AcDbEntity
  8
0
100
AcDbCircle
 62
7
  6
CONTINUOUS
 10
0.2815148976
 20
-27.9941174476
 40
0.187
  0
ARC
  5
375
100
AcDbEntity
  8
0
100
AcDbCircle
 62
7
  6
CONTINUOUS
 10
-0.2240521052
 20
-28.3615776572
 40
0.125
100
AcDbArc
 50
297.0214013097
 51
36.0107006548
  0
CIRCLE
  5
376
100
AcDbEntity
  8
0
100
AcDbCircle
 62
7
  6
CONTINUOUS
 10
5.2312623659
 20
-32.9438649159
 40
0.625
  0
CIRCLE
  5
377
100
AcDbEntity
  8
0
100
AcDbCircle
 62
7
  6
CONTINUOUS
 10
4.1706021941
 20
-31.8832047441
 40
0.625
  0
CIRCLE
  5
378
100
AcDbEntity
  8
0
100
AcDbCircle
 62
7
  6
CONTINUOUS
 10
4.1706021941
 20
-31.8832047441
 40
0.26
  0
CIRCLE
  5
379
100
AcDbEntity
  8
0
100
AcDbCircle
 62
7
  6
CONTINUOUS
 10
5.2312623659
 20
-32.9438649159
 40
0.26
  0
CIRCLE
  5
37A
100
AcDbEntity
  8
0
100
AcDbCircle
 62
7
  6
CONTINUOUS
 10
4.1706021941
 20
-31.8832047441
 40
0.187
  0
CIRCLE
  5
37B
100
AcDbEntity
  8
0
100
AcDbCircle
 62
7
  6
CONTINUOUS
 10
5.2312623659
 20
-32.9438649159
 40
0.187
  0
ARC
  5
37C
100
AcDbEntity
  8
0
100
AcDbCircle
 62
7
  6
CONTINUOUS
 10
3.4461248646
 20
-28.9790092769
 40
5.51786453
100
AcDbArc
 50
144.3508632523
 51
145.1741660841
  0
ARC
  5
37D
100
AcDbEntity
  8
0
100
AcDbCircle
 62
7
  6
CONTINUOUS
 10
-1.1326986648
 20
-26.5799038852
 40
13.9288917073
100
AcDbArc
 50
250.5380457719
 51
289.4379136289
  0
ARC
  5
37E
100
AcDbEntity
  8
0
100
AcDbCircle
 62
7
  6
CONTINUOUS
 10
-1.1326986648
 20
-26.5799038852
 40
13.9288917073
100
AcDbArc
 50
160.5185044214
 51
199.5018804717
  0
ARC
  5
37F
100
AcDbEntity
  8
0
100
AcDbCircle
 62
7
  6
CONTINUOUS
 10
-1.1326986648
 20
-26.5799038852
 40
13.9288917073
100
AcDbArc
 50
70.5380457719
 51
109.4379136289
  0
ARC
  5
380
100
AcDbEntity
  8
0
100
AcDbCircle
 62
7
  6
CONTINUOUS
 10
-1.1326986648
 20
-26.5799038852
 40
13.9288917073
100
AcDbArc
 50
340.5185044214
 51
19.5018804717
  0
CIRCLE
  5
381
100
AcDbEntity
  8
0
100
AcDbCircle
 62
7
  6
CONTINUOUS
 10
-1.1326986648
 20
-26.5799038852
 40
6.8038819586
  0
CIRCLE
  5
382
100
AcDbEntity
  8
0
100
AcDbCircle
 62
7
  6
CONTINUOUS
 10
-1.1326986648
 20
-26.5799038852
 40
6.4528500961
  0
CIRCLE
  5
383
100
AcDbEntity
  8
0
100
AcDbCircle
 62
7
  6
CONTINUOUS
 10
-1.1326986648
 20
-26.5799038852
 40
4.9401651492
  0
CIRCLE
  5
384
100
AcDbEntity
  8
0
100
AcDbCircle
 62
7
  6
CONTINUOUS
 10
-1.1326986648
 20
-26.5799038852
 40
2.5
  0
CIRCLE
  5
385
100
AcDbEntity
  8
0
100
AcDbCircle
 62
7
  6
CONTINUOUS
 10
-1.1326986648
 20
-26.5799038852
 40
2.4803470828
  0
ARC
  5
386
100
AcDbEntity
  8
0
100
AcDbCircle
 62
7
  6
CONTINUOUS
 10
-1.1326986648
 20
-26.5799038852
 40
2.125
100
AcDbArc
 50
2.4445050567
 51
27.0214013097
  0
ARC
  5
387
100
AcDbEntity
  8
0
100
AcDbCircle
 62
7
  6
CONTINUOUS
 10
-1.1326986648
 20
-26.5799038852
 40
2.125
100
AcDbArc
 50
152.9785986903
 51
177.5554949433
  0
ARC
  5
388
100
AcDbEntity
  8
0
100
AcDbCircle
 62
7
  6
CONTINUOUS
 10
-1.1326986648
 20
-26.5799038852
 40
2.125
100
AcDbArc
 50
62.9785986903
 51
87.5554949433
  0
ARC
  5
389
100
AcDbEntity
  8
0
100
AcDbCircle
 62
7
  6
CONTINUOUS
 10
-1.1326986648
 20
-26.5799038852
 40
2.125
100
AcDbArc
 50
92.4445050567
 51
117.0214013097
  0
ARC
  5
38A
100
AcDbEntity
  8
0
100
AcDbCircle
 62
7
  6
CONTINUOUS
 10
-1.1326986648
 20
-26.5799038852
 40
2.125
100
AcDbArc
 50
272.4445050567
 51
297.0214013097
  0
ARC
  5
38B
100
AcDbEntity
  8
0
100
AcDbCircle
 62
7
  6
CONTINUOUS
 10
-1.1326986648
 20
-26.5799038852
 40
2.125
100
AcDbArc
 50
242.9785986903
 51
267.5554949433
  0
ARC
  5
38C
100
AcDbEntity
  8
0
100
AcDbCircle
 62
7
  6
CONTINUOUS
 10
-1.1326986648
 20
-26.5799038852
 40
2.125
100
AcDbArc
 50
182.4445050567
 51
207.0214013097
  0
ARC
  5
38D
100
AcDbEntity
  8
0
100
AcDbCircle
 62
7
  6
CONTINUOUS
 10
-1.1326986648
 20
-26.5799038852
 40
2.125
100
AcDbArc
 50
332.9785986903
 51
357.5554949433
  0
ARC
  5
38E
100
AcDbEntity
  8
0
100
AcDbCircle
 62
7
  6
CONTINUOUS
 10
-1.1326986648
 20
-26.5799038852
 40
0.8223227354
100
AcDbArc
 50
6.6339889503
 51
26.5811014335
  0
ARC
  5
38F
100
AcDbEntity
  8
0
100
AcDbCircle
 62
7
  6
CONTINUOUS
 10
-1.1326986648
 20
-26.5799038852
 40
0.8223227354
100
AcDbArc
 50
63.4188985665
 51
83.3660110497
  0
ARC
  5
390
100
AcDbEntity
  8
0
100
AcDbCircle
 62
7
  6
CONTINUOUS
 10
-1.1326986648
 20
-26.5799038852
 40
0.8223227354
100
AcDbArc
 50
276.6339889503
 51
296.3974090266
  0
ARC
  5
391
100
AcDbEntity
  8
0
100
AcDbCircle
 62
7
  6
CONTINUOUS
 10
-1.1326986648
 20
-26.5799038852
 40
0.8223227354
100
AcDbArc
 50
333.6025909734
 51
353.3660110497
  0
ARC
  5
392
100
AcDbEntity
  8
0
100
AcDbCircle
 62
7
  6
CONTINUOUS
 10
-1.1326986648
 20
-26.5799038852
 40
0.8223227354
100
AcDbArc
 50
186.6339889503
 51
263.3660110497
  0
ARC
  5
393
100
AcDbEntity
  8
0
100
AcDbCircle
 62
7
  6
CONTINUOUS
 10
-1.1326986648
 20
-26.5799038852
 40
0.8223227354
100
AcDbArc
 50
96.6339889503
 51
173.3660110497
  0
ARC
  5
394
100
AcDbEntity
  8
0
100
AcDbCircle
 62
7
  6
CONTINUOUS
 10
-1.1326986648
 20
-26.5799038852
 40
0.7568130113
100
AcDbArc
 50
30.1225948166
 51
59.8774051834
  0
ARC
  5
395
100
AcDbEntity
  8
0
100
AcDbCircle
 62
7
  6
CONTINUOUS
 10
-1.1326986648
 20
-26.5799038852
 40
0.7568130113
100
AcDbArc
 50
299.9266740395
 51
330.0733259605
  0
ARC
  5
396
100
AcDbEntity
  8
0
100
AcDbCircle
 62
7
  6
CONTINUOUS
 10
-1.1326986648
 20
-26.5799038852
 40
0.7536685445
100
AcDbArc
 50
86.2529323231
 51
93.7470676769
  0
ARC
  5
397
100
AcDbEntity
  8
0
100
AcDbCircle
 62
7
  6
CONTINUOUS
 10
-1.1326986648
 20
-26.5799038852
 40
0.7536685445
100
AcDbArc
 50
176.2529323231
 51
183.7470676769
  0
ARC
  5
398
100
AcDbEntity
  8
0
100
AcDbCircle
 62
7
  6
CONTINUOUS
 10
-1.1326986648
 20
-26.5799038852
 40
0.7536685445
100
AcDbArc
 50
266.2529323231
 51
273.7470676769
  0
ARC
  5
399
100
AcDbEntity
  8
0
100
AcDbCircle
 62
7
  6
CONTINUOUS
 10
-1.1326986648
 20
-26.5799038852
 40
0.7536685445
100
AcDbArc
 50
356.2529323231
 51
3.7470676769
  0
CIRCLE
  5
39A
100
AcDbEntity
  8
0
100
AcDbCircle
 62
7
  6
CONTINUOUS
 10
-1.1326986648
 20
-26.5799038852
 40
0.75
  0
ARC
  5
39B
100
AcDbEntity
  8
0
100
AcDbCircle
 62
7
  6
CONTINUOUS
 10
-1.1326986648
 20
-26.5799038852
 40
0.3125
100
AcDbArc
 50
62.5056593048
 51
27.4943406952
  0
CIRCLE
  5
39C
100
AcDbEntity
  8
0
100
AcDbCircle
 62
7
  6
CONTINUOUS
 10
-1.1326986648
 20
-26.5799038852
 40
0.25
  0
ARC
  5
39D
100
AcDbEntity
  8
0
100
AcDbCircle
 62
7
  6
CONTINUOUS
 10
-0.6801503248
 20
-27.0324522252
 40
0.78
100
AcDbArc
 50
298.6783348578
 51
331.3216651422
  0
ARC
  5
39E
100
AcDbEntity
  8
0
100
AcDbCircle
 62
7
  6
CONTINUOUS
 10
-0.4973869625
 20
-27.3663813009
 40
0.3993281503
100
AcDbArc
 50
298.6649142478
 51
303.6576625914
  0
ARC
  5
39F
100
AcDbEntity
  8
0
100
AcDbCircle
 62
7
  6
CONTINUOUS
 10
-0.6801503248
 20
-26.1273555452
 40
0.78
100
AcDbArc
 50
28.6783348578
 51
61.3216651422
  0
ARC
  5
3A0
100
AcDbEntity
  8
0
100
AcDbCircle
 62
7
  6
CONTINUOUS
 10
-0.3462212491
 20
-25.9445921829
 40
0.3993281503
100
AcDbArc
 50
28.6649142479
 51
33.6576625913
  0
ARC
  5
3A1
100
AcDbEntity
  8
0
100
AcDbCircle
 62
7
  6
CONTINUOUS
 10
-0.8211632327
 20
-24.3579421399
 40
2.6222396615
100
AcDbArc
 50
277.5462092989
 51
279.3283703093
  0
ARC
  5
3A2
100
AcDbEntity
  8
0
100
AcDbCircle
 62
7
  6
CONTINUOUS
 10
0.6489751072
 20
-27.4885504447
 40
0.125
100
AcDbArc
 50
233.9892993452
 51
332.9785986903
  0
ARC
  5
3A3
100
AcDbEntity
  8
0
100
AcDbCircle
 62
7
  6
CONTINUOUS
 10
0.2815148976
 20
-25.1656903228
 40
0.5
100
AcDbArc
 50
143.9892993452
 51
306.0107006548
  0
CIRCLE
  5
3A4
100
AcDbEntity
  8
0
100
AcDbCircle
 62
7
  6
CONTINUOUS
 10
0.2815148976
 20
-25.1656903228
 40
0.2655
  0
CIRCLE
  5
3A5
100
AcDbEntity
  8
0
100
AcDbCircle
 62
7
  6
CONTINUOUS
 10
0.2815148976
 20
-25.1656903228
 40
0.187
  0
ARC
  5
3A6
100
AcDbEntity
  8
0
100
AcDbCircle
 62
7
  6
CONTINUOUS
 10
0.6489751072
 20
-25.6712573256
 40
0.125
100
AcDbArc
 50
27.0214013097
 51
126.0107006548
  0
ARC
  5
3A7
100
AcDbEntity
  8
0
100
AcDbCircle
 62
7
  6
CONTINUOUS
 10
-0.2240521052
 20
-24.7982301132
 40
0.125
100
AcDbArc
 50
323.9892993452
 51
62.9785986903
  0
ARC
  5
3A8
100
AcDbEntity
  8
0
100
AcDbCircle
 62
7
  6
CONTINUOUS
 10
1.2664067271
 20
-22.0010803555
 40
5.5178645304
100
AcDbArc
 50
234.3508632523
 51
235.1741660841
  0
ARC
  5
3A9
100
AcDbEntity
  8
0
100
AcDbCircle
 62
7
  6
CONTINUOUS
 10
3.3087929183
 20
-24.2778101457
 40
5.3497282194
100
AcDbArc
 50
214.8128959132
 51
215.6620747504
  0
CIRCLE
  5
3AA
100
AcDbEntity
  8
0
100
AcDbCircle
 62
7
  6
CONTINUOUS
 10
5.2312623659
 20
-20.2159428545
 40
0.625
  0
CIRCLE
  5
3AB
100
AcDbEntity
  8
0
100
AcDbCircle
 62
7
  6
CONTINUOUS
 10
4.1706021941
 20
-21.2766030263
 40
0.625
  0
CIRCLE
  5
3AC
100
AcDbEntity
  8
0
100
AcDbCircle
 62
7
  6
CONTINUOUS
 10
5.2312623659
 20
-20.2159428545
 40
0.26
  0
CIRCLE
  5
3AD
100
AcDbEntity
  8
0
100
AcDbCircle
 62
7
  6
CONTINUOUS
 10
4.1706021941
 20
-21.2766030263
 40
0.26
  0
CIRCLE
  5
3AE
100
AcDbEntity
  8
0
100
AcDbCircle
 62
7
  6
CONTINUOUS
 10
5.2312623659
 20
-20.2159428545
 40
0.187
  0
CIRCLE
  5
3AF
100
AcDbEntity
  8
0
100
AcDbCircle
 62
7
  6
CONTINUOUS
 10
4.1706021941
 20
-21.2766030263
 40
0.187
  0
SPLINE
  5
3B0
100
AcDbEntity
  8
0
100
AcDbSpline
 62
7
  6
CONTINUOUS
 70
0
 71
3
 72
57
 73
53
 74
0
 42
0.0000001
 43
0.0000001
 44
0.0000000001
 40
0.0
 40
0.0
 40
0.0
 40
0.0
 40
0.0363098926
 40
0.0544205402
 40
0.0724626328
 40
0.1082566866
 40
0.1259773204
 40
0.1435530364
 40
0.1781895021
 40
0.212039955
 40
0.2286389936
 40
0.2450029835
 40
0.276981213
 40
0.3079312759
 40
0.3230193066
 40
0.3378483059
 40
0.366738631
 40
0.3808286483
 40
0.3946944494
 40
0.4083521197
 40
0.4218203668
 40
0.4351203062
 40
0.4482759229
 40
0.4613131819
 40
0.474259842
 40
0.487145359
 40
0.5
 40
0.512854641
 40
0.525740158
 40
0.5386868181
 40
0.5517240771
 40
0.5648796938
 40
0.5781796332
 40
0.5916478803
 40
0.6053055506
 40
0.6191713517
 40
0.633261369
 40
0.6621516941
 40
0.6769806934
 40
0.6920687241
 40
0.723018787
 40
0.7549970165
 40
0.7713610064
 40
0.787960045
 40
0.8218104979
 40
0.8564469636
 40
0.8740226796
 40
0.8917433134
 40
0.9275373672
 40
0.9455794598
 40
0.9636901074
 40
1.0
 40
1.0
 40
1.0
 40
1.0
 10
-8.377007638
 20
0.5480095609
 30
0.0
 10
-8.377007638
 20
0.5543836784
 30
0.0
 10
-8.3766759172
 20
0.5639414259
 30
0.0
 10
-8.3755719543
 20
0.576616009
 30
0.0
 10
-8.3740342993
 20
0.5891542745
 30
0.0
 10
-8.3718466956
 20
0.6015368739
 30
0.0
 10
-8.3690086628
 20
0.6136919879
 30
0.0
 10
-8.3657796834
 20
0.625538798
 30
0.0
 10
-8.3609942768
 20
0.6398851493
 30
0.0
 10
-8.3551729758
 20
0.6536593423
 30
0.0
 10
-8.3499457545
 20
0.664162544
 30
0.0
 10
-8.3444397371
 20
0.6741483293
 30
0.0
 10
-8.3369349216
 20
0.6858944529
 30
0.0
 10
-8.3285143648
 20
0.6967241076
 30
0.0
 10
-8.3213401154
 20
0.7046483457
 30
0.0
 10
-8.3140270984
 20
0.7119395844
 30
0.0
 10
-8.3062790683
 20
0.7185314533
 30
0.0
 10
-8.2981485852
 20
0.7243253694
 30
0.0
 10
-8.2919569508
 20
0.7282106379
 30
0.0
 10
-8.2856373361
 20
0.7316616144
 30
0.0
 10
-8.2792048835
 20
0.7346705296
 30
0.0
 10
-8.2726746823
 20
0.7372288414
 30
0.0
 10
-8.2660628477
 20
0.7393308891
 30
0.0
 10
-8.2593854257
 20
0.7409717688
 30
0.0
 10
-8.252658399
 20
0.742146222
 30
0.0
 10
-8.2458983932
 20
0.7428522283
 30
0.0
 10
-8.2391218157
 20
0.7430881328
 30
0.0
 10
-8.2323452383
 20
0.7428522283
 30
0.0
 10
-8.2255852325
 20
0.742146222
 30
0.0
 10
-8.2188582057
 20
0.7409717688
 30
0.0
 10
-8.2121807837
 20
0.7393308891
 30
0.0
 10
-8.2055689491
 20
0.7372288414
 30
0.0
 10
-8.1990387479
 20
0.7346705296
 30
0.0
 10
-8.1926062954
 20
0.7316616144
 30
0.0
 10
-8.1862866806
 20
0.7282106379
 30
0.0
 10
-8.1800950462
 20
0.7243253694
 30
0.0
 10
-8.1719645632
 20
0.7185314533
 30
0.0
 10
-8.164216533
 20
0.7119395844
 30
0.0
 10
-8.156903516
 20
0.7046483457
 30
0.0
 10
-8.1497292666
 20
0.6967241076
 30
0.0
 10
-8.1413087098
 20
0.6858944529
 30
0.0
 10
-8.1338038943
 20
0.6741483293
 30
0.0
 10
-8.1282978769
 20
0.664162544
 30
0.0
 10
-8.1230706556
 20
0.6536593423
 30
0.0
 10
-8.1172493546
 20
0.6398851493
 30
0.0
 10
-8.112463948
 20
0.625538798
 30
0.0
 10
-8.1092349686
 20
0.6136919879
 30
0.0
 10
-8.1063969358
 20
0.6015368739
 30
0.0
 10
-8.1042093322
 20
0.5891542745
 30
0.0
 10
-8.1026716771
 20
0.576616009
 30
0.0
 10
-8.1015677142
 20
0.5639414259
 30
0.0
 10
-8.1012359934
 20
0.5543836784
 30
0.0
 10
-8.1012359934
 20
0.5480095609
 30
0.0
  0
SPLINE
  5
3B1
100
AcDbEntity
  8
0
100
AcDbSpline
 62
7
  6
CONTINUOUS
 70
0
 71
3
 72
57
 73
53
 74
0
 42
0.0000001
 43
0.0000001
 44
0.0000000001
 40
0.0
 40
0.0
 40
0.0
 40
0.0
 40
0.0363098926
 40
0.0544205402
 40
0.0724626328
 40
0.1082566866
 40
0.1259773204
 40
0.1435530364
 40
0.1781895021
 40
0.212039955
 40
0.2286389936
 40
0.2450029835
 40
0.276981213
 40
0.3079312759
 40
0.3230193066
 40
0.3378483059
 40
0.366738631
 40
0.3808286483
 40
0.3946944494
 40
0.4083521197
 40
0.4218203668
 40
0.4351203062
 40
0.4482759229
 40
0.4613131819
 40
0.474259842
 40
0.487145359
 40
0.5
 40
0.512854641
 40
0.525740158
 40
0.5386868181
 40
0.5517240771
 40
0.5648796938
 40
0.5781796332
 40
0.5916478803
 40
0.6053055506
 40
0.6191713517
 40
0.633261369
 40
0.6621516941
 40
0.6769806934
 40
0.6920687241
 40
0.723018787
 40
0.7549970165
 40
0.7713610064
 40
0.787960045
 40
0.8218104979
 40
0.8564469636
 40
0.8740226796
 40
0.8917433134
 40
0.9275373672
 40
0.9455794598
 40
0.9636901074
 40
1.0
 40
1.0
 40
1.0
 40
1.0
 10
-8.377007638
 20
0.5480095609
 30
0.0
 10
-8.377007638
 20
0.5416354435
 30
0.0
 10
-8.3766759172
 20
0.5320776959
 30
0.0
 10
-8.3755719543
 20
0.5194031129
 30
0.0
 10
-8.3740342993
 20
0.5068648473
 30
0.0
 10
-8.3718466956
 20
0.4944822479
 30
0.0
 10
-8.3690086628
 20
0.482327134
 30
0.0
 10
-8.3657796834
 20
0.4704803238
 30
0.0
 10
-8.3609942768
 20
0.4561339726
 30
0.0
 10
-8.3551729758
 20
0.4423597795
 30
0.0
 10
-8.3499457545
 20
0.4318565779
 30
0.0
 10
-8.3444397371
 20
0.4218707925
 30
0.0
 10
-8.3369349216
 20
0.4101246689
 30
0.0
 10
-8.3285143648
 20
0.3992950142
 30
0.0
 10
-8.3213401154
 20
0.3913707761
 30
0.0
 10
-8.3140270984
 20
0.3840795375
 30
0.0
 10
-8.3062790683
 20
0.3774876685
 30
0.0
 10
-8.2981485852
 20
0.3716937524
 30
0.0
 10
-8.2919569508
 20
0.3678084839
 30
0.0
 10
-8.2856373361
 20
0.3643575075
 30
0.0
 10
-8.2792048835
 20
0.3613485922
 30
0.0
 10
-8.2726746823
 20
0.3587902804
 30
0.0
 10
-8.2660628477
 20
0.3566882327
 30
0.0
 10
-8.2593854257
 20
0.355047353
 30
0.0
 10
-8.252658399
 20
0.3538728998
 30
0.0
 10
-8.2458983932
 20
0.3531668935
 30
0.0
 10
-8.2391218157
 20
0.352930989
 30
0.0
 10
-8.2323452383
 20
0.3531668935
 30
0.0
 10
-8.2255852325
 20
0.3538728998
 30
0.0
 10
-8.2188582057
 20
0.355047353
 30
0.0
 10
-8.2121807837
 20
0.3566882327
 30
0.0
 10
-8.2055689491
 20
0.3587902804
 30
0.0
 10
-8.1990387479
 20
0.3613485922
 30
0.0
 10
-8.1926062954
 20
0.3643575075
 30
0.0
 10
-8.1862866806
 20
0.3678084839
 30
0.0
 10
-8.1800950462
 20
0.3716937524
 30
0.0
 10
-8.1719645632
 20
0.3774876685
 30
0.0
 10
-8.164216533
 20
0.3840795375
 30
0.0
 10
-8.156903516
 20
0.3913707761
 30
0.0
 10
-8.1497292666
 20
0.3992950142
 30
0.0
 10
-8.1413087098
 20
0.4101246689
 30
0.0
 10
-8.1338038943
 20
0.4218707925
 30
0.0
 10
-8.1282978769
 20
0.4318565779
 30
0.0
 10
-8.1230706556
 20
0.4423597795
 30
0.0
 10
-8.1172493546
 20
0.4561339726
 30
0.0
 10
-8.112463948
 20
0.4704803238
 30
0.0
 10
-8.1092349686
 20
0.482327134
 30
0.0
 10
-8.1063969358
 20
0.4944822479
 30
0.0
 10
-8.1042093322
 20
0.5068648473
 30
0.0
 10
-8.1026716771
 20
0.5194031129
 30
0.0
 10
-8.1015677142
 20
0.5320776959
 30
0.0
 10
-8.1012359934
 20
0.5416354435
 30
0.0
 10
-8.1012359934
 20
0.5480095609
 30
0.0
  0
SPLINE
  5
3B2
100
AcDbEntity
  8
0
100
AcDbSpline
 62
7
  6
CONTINUOUS
 70
0
 71
3
 72
57
 73
53
 74
0
 42
0.0000001
 43
0.0000001
 44
0.0000000001
 40
0.0
 40
0.0
 40
0.0
 40
0.0
 40
0.0363098926
 40
0.0544205402
 40
0.0724626328
 40
0.1082566866
 40
0.1259773204
 40
0.1435530364
 40
0.1781895021
 40
0.212039955
 40
0.2286389936
 40
0.2450029835
 40
0.276981213
 40
0.3079312759
 40
0.3230193066
 40
0.3378483059
 40
0.366738631
 40
0.3808286483
 40
0.3946944494
 40
0.4083521197
 40
0.4218203668
 40
0.4351203062
 40
0.4482759229
 40
0.4613131819
 40
0.474259842
 40
0.487145359
 40
0.5
 40
0.512854641
 40
0.525740158
 40
0.5386868181
 40
0.5517240771
 40
0.5648796938
 40
0.5781796332
 40
0.5916478803
 40
0.6053055506
 40
0.6191713517
 40
0.633261369
 40
0.6621516941
 40
0.6769806934
 40
0.6920687241
 40
0.723018787
 40
0.7549970165
 40
0.7713610064
 40
0.787960045
 40
0.8218104979
 40
0.8564469636
 40
0.8740226796
 40
0.8917433134
 40
0.9275373672
 40
0.9455794598
 40
0.9636901074
 40
1.0
 40
1.0
 40
1.0
 40
1.0
 10
-8.377007638
 20
3.7480095609
 30
0.0
 10
-8.377007638
 20
3.7543836784
 30
0.0
 10
-8.3766759172
 20
3.7639414259
 30
0.0
 10
-8.3755719543
 20
3.776616009
 30
0.0
 10
-8.3740342993
 20
3.7891542745
 30
0.0
 10
-8.3718466956
 20
3.8015368739
 30
0.0
 10
-8.3690086628
 20
3.8136919879
 30
0.0
 10
-8.3657796834
 20
3.825538798
 30
0.0
 10
-8.3609942768
 20
3.8398851493
 30
0.0
 10
-8.3551729758
 20
3.8536593423
 30
0.0
 10
-8.3499457545
 20
3.864162544
 30
0.0
 10
-8.3444397371
 20
3.8741483293
 30
0.0
 10
-8.3369349216
 20
3.8858944529
 30
0.0
 10
-8.3285143648
 20
3.8967241076
 30
0.0
 10
-8.3213401154
 20
3.9046483457
 30
0.0
 10
-8.3140270984
 20
3.9119395844
 30
0.0
 10
-8.3062790683
 20
3.9185314533
 30
0.0
 10
-8.2981485852
 20
3.9243253694
 30
0.0
 10
-8.2919569508
 20
3.9282106379
 30
0.0
 10
-8.2856373361
 20
3.9316616144
 30
0.0
 10
-8.2792048835
 20
3.9346705296
 30
0.0
 10
-8.2726746823
 20
3.9372288414
 30
0.0
 10
-8.2660628477
 20
3.9393308891
 30
0.0
 10
-8.2593854257
 20
3.9409717688
 30
0.0
 10
-8.252658399
 20
3.942146222
 30
0.0
 10
-8.2458983932
 20
3.9428522283
 30
0.0
 10
-8.2391218157
 20
3.9430881328
 30
0.0
 10
-8.2323452383
 20
3.9428522283
 30
0.0
 10
-8.2255852325
 20
3.942146222
 30
0.0
 10
-8.2188582057
 20
3.9409717688
 30
0.0
 10
-8.2121807837
 20
3.9393308891
 30
0.0
 10
-8.2055689491
 20
3.9372288414
 30
0.0
 10
-8.1990387479
 20
3.9346705296
 30
0.0
 10
-8.1926062954
 20
3.9316616144
 30
0.0
 10
-8.1862866806
 20
3.9282106379
 30
0.0
 10
-8.1800950462
 20
3.9243253694
 30
0.0
 10
-8.1719645632
 20
3.9185314533
 30
0.0
 10
-8.164216533
 20
3.9119395844
 30
0.0
 10
-8.156903516
 20
3.9046483457
 30
0.0
 10
-8.1497292666
 20
3.8967241076
 30
0.0
 10
-8.1413087098
 20
3.8858944529
 30
0.0
 10
-8.1338038943
 20
3.8741483293
 30
0.0
 10
-8.1282978769
 20
3.864162544
 30
0.0
 10
-8.1230706556
 20
3.8536593423
 30
0.0
 10
-8.1172493546
 20
3.8398851493
 30
0.0
 10
-8.112463948
 20
3.825538798
 30
0.0
 10
-8.1092349686
 20
3.8136919879
 30
0.0
 10
-8.1063969358
 20
3.8015368739
 30
0.0
 10
-8.1042093322
 20
3.7891542745
 30
0.0
 10
-8.1026716771
 20
3.776616009
 30
0.0
 10
-8.1015677142
 20
3.7639414259
 30
0.0
 10
-8.1012359934
 20
3.7543836784
 30
0.0
 10
-8.1012359934
 20
3.7480095609
 30
0.0
  0
SPLINE
  5
3B3
100
AcDbEntity
  8
0
100
AcDbSpline
 62
7
  6
CONTINUOUS
 70
0
 71
3
 72
57
 73
53
 74
0
 42
0.0000001
 43
0.0000001
 44
0.0000000001
 40
0.0
 40
0.0
 40
0.0
 40
0.0
 40
0.0363098926
 40
0.0544205402
 40
0.0724626328
 40
0.1082566866
 40
0.1259773204
 40
0.1435530364
 40
0.1781895021
 40
0.212039955
 40
0.2286389936
 40
0.2450029835
 40
0.276981213
 40
0.3079312759
 40
0.3230193066
 40
0.3378483059
 40
0.366738631
 40
0.3808286483
 40
0.3946944494
 40
0.4083521197
 40
0.4218203668
 40
0.4351203062
 40
0.4482759229
 40
0.4613131819
 40
0.474259842
 40
0.487145359
 40
0.5
 40
0.512854641
 40
0.525740158
 40
0.5386868181
 40
0.5517240771
 40
0.5648796938
 40
0.5781796332
 40
0.5916478803
 40
0.6053055506
 40
0.6191713517
 40
0.633261369
 40
0.6621516941
 40
0.6769806934
 40
0.6920687241
 40
0.723018787
 40
0.7549970165
 40
0.7713610064
 40
0.787960045
 40
0.8218104979
 40
0.8564469636
 40
0.8740226796
 40
0.8917433134
 40
0.9275373672
 40
0.9455794598
 40
0.9636901074
 40
1.0
 40
1.0
 40
1.0
 40
1.0
 10
-8.377007638
 20
3.7480095609
 30
0.0
 10
-8.377007638
 20
3.7416354435
 30
0.0
 10
-8.3766759172
 20
3.7320776959
 30
0.0
 10
-8.3755719543
 20
3.7194031129
 30
0.0
 10
-8.3740342993
 20
3.7068648473
 30
0.0
 10
-8.3718466956
 20
3.6944822479
 30
0.0
 10
-8.3690086628
 20
3.682327134
 30
0.0
 10
-8.3657796834
 20
3.6704803238
 30
0.0
 10
-8.3609942768
 20
3.6561339726
 30
0.0
 10
-8.3551729758
 20
3.6423597795
 30
0.0
 10
-8.3499457545
 20
3.6318565779
 30
0.0
 10
-8.3444397371
 20
3.6218707925
 30
0.0
 10
-8.3369349216
 20
3.6101246689
 30
0.0
 10
-8.3285143648
 20
3.5992950142
 30
0.0
 10
-8.3213401154
 20
3.5913707761
 30
0.0
 10
-8.3140270984
 20
3.5840795375
 30
0.0
 10
-8.3062790683
 20
3.5774876685
 30
0.0
 10
-8.2981485852
 20
3.5716937524
 30
0.0
 10
-8.2919569508
 20
3.5678084839
 30
0.0
 10
-8.2856373361
 20
3.5643575075
 30
0.0
 10
-8.2792048835
 20
3.5613485922
 30
0.0
 10
-8.2726746823
 20
3.5587902804
 30
0.0
 10
-8.2660628477
 20
3.5566882327
 30
0.0
 10
-8.2593854257
 20
3.555047353
 30
0.0
 10
-8.252658399
 20
3.5538728998
 30
0.0
 10
-8.2458983932
 20
3.5531668935
 30
0.0
 10
-8.2391218157
 20
3.552930989
 30
0.0
 10
-8.2323452383
 20
3.5531668935
 30
0.0
 10
-8.2255852325
 20
3.5538728998
 30
0.0
 10
-8.2188582057
 20
3.555047353
 30
0.0
 10
-8.2121807837
 20
3.5566882327
 30
0.0
 10
-8.2055689491
 20
3.5587902804
 30
0.0
 10
-8.1990387479
 20
3.5613485922
 30
0.0
 10
-8.1926062954
 20
3.5643575075
 30
0.0
 10
-8.1862866806
 20
3.5678084839
 30
0.0
 10
-8.1800950462
 20
3.5716937524
 30
0.0
 10
-8.1719645632
 20
3.5774876685
 30
0.0
 10
-8.164216533
 20
3.5840795375
 30
0.0
 10
-8.156903516
 20
3.5913707761
 30
0.0
 10
-8.1497292666
 20
3.5992950142
 30
0.0
 10
-8.1413087098
 20
3.6101246689
 30
0.0
 10
-8.1338038943
 20
3.6218707925
 30
0.0
 10
-8.1282978769
 20
3.6318565779
 30
0.0
 10
-8.1230706556
 20
3.6423597795
 30
0.0
 10
-8.1172493546
 20
3.6561339726
 30
0.0
 10
-8.112463948
 20
3.6704803238
 30
0.0
 10
-8.1092349686
 20
3.682327134
 30
0.0
 10
-8.1063969358
 20
3.6944822479
 30
0.0
 10
-8.1042093322
 20
3.7068648473
 30
0.0
 10
-8.1026716771
 20
3.7194031129
 30
0.0
 10
-8.1015677142
 20
3.7320776959
 30
0.0
 10
-8.1012359934
 20
3.7416354435
 30
0.0
 10
-8.1012359934
 20
3.7480095609
 30
0.0
  0
SPLINE
  5
3B4
100
AcDbEntity
  8
0
100
AcDbSpline
 62
7
  6
CONTINUOUS
 70
0
 71
3
 72
12
 73
8
 74
0
 42
0.0000001
 43
0.0000001
 44
0.0000000001
 40
0.0
 40
0.0
 40
0.0
 40
0.0
 40
0.2528619572
 40
0.3789959119
 40
0.5046660494
 40
0.7540392263
 40
1.0
 40
1.0
 40
1.0
 40
1.0
 10
5.8711940029
 20
0.5480095609
 30
0.0
 10
5.8711940029
 20
0.5542923923
 30
0.0
 10
5.8715163299
 20
0.5637134472
 30
0.0
 10
5.8725888948
 20
0.5762086443
 30
0.0
 10
5.8740831559
 20
0.58857368
 30
0.0
 10
5.8767310971
 20
0.6037880021
 30
0.0
 10
5.8797023533
 20
0.6157443511
 30
0.0
 10
5.8813948378
 20
0.6216166759
 30
0.0
  0
SPLINE
  5
3B5
100
AcDbEntity
  8
0
100
AcDbSpline
 62
7
  6
CONTINUOUS
 70
0
 71
3
 72
48
 73
44
 74
0
 42
0.0000001
 43
0.0000001
 44
0.0000000001
 40
0.0
 40
0.0
 40
0.0
 40
0.0
 40
0.0342229155
 40
0.0676441111
 40
0.1002175976
 40
0.131917107
 40
0.1474398717
 40
0.1627442357
 40
0.1927031344
 40
0.2073759414
 40
0.2218516453
 40
0.2502415927
 40
0.2779753547
 40
0.3051707553
 40
0.3186146696
 40
0.3319777934
 40
0.3452802203
 40
0.358542625
 40
0.371786044
 40
0.3850318454
 40
0.3983013388
 40
0.4116154799
 40
0.4249948552
 40
0.4384593419
 40
0.4657079864
 40
0.493509289
 40
0.5219784331
 40
0.5512069712
 40
0.5812599668
 40
0.5966126713
 40
0.612184221
 40
0.6279759504
 40
0.6439877355
 40
0.6766570207
 40
0.710169943
 40
0.7444783706
 40
0.7795187098
 40
0.8152126814
 40
0.8514693938
 40
0.8881854395
 40
0.9252571939
 40
0.9625772945
 40
1.0
 40
1.0
 40
1.0
 40
1.0
 10
5.89308289
 20
0.6534345203
 30
0.0
 10
5.8950565032
 20
0.6577775504
 30
0.0
 10
5.8992413696
 20
0.6662366015
 30
0.0
 10
5.9062955291
 20
0.6783075749
 30
0.0
 10
5.9140135783
 20
0.6895423177
 30
0.0
 10
5.9210062834
 20
0.6982086844
 30
0.0
 10
5.9268879154
 20
0.7046438773
 30
0.0
 10
5.9328621913
 20
0.7106550007
 30
0.0
 10
5.9391299266
 20
0.7161988801
 30
0.0
 10
5.9456644353
 20
0.7212213761
 30
0.0
 10
5.9522473981
 20
0.7258074662
 30
0.0
 10
5.9607203115
 20
0.7308471508
 30
0.0
 10
5.9712689568
 20
0.7357537845
 30
0.0
 10
5.980306672
 20
0.7388429993
 30
0.0
 10
5.9876089068
 20
0.740684093
 30
0.0
 10
5.9931007143
 20
0.7417485259
 30
0.0
 10
5.9986183785
 20
0.7424998762
 30
0.0
 10
6.0041530732
 20
0.742937434
 30
0.0
 10
6.0096958007
 20
0.7430601778
 30
0.0
 10
6.0152375185
 20
0.742867364
 30
0.0
 10
6.0207692087
 20
0.7423599914
 30
0.0
 10
6.0262818827
 20
0.7415390304
 30
0.0
 10
6.0317666687
 20
0.7404051551
 30
0.0
 10
6.0390579809
 20
0.7384717068
 30
0.0
 10
6.0480764734
 20
0.7352680494
 30
0.0
 10
6.0585933495
 20
0.7302283576
 30
0.0
 10
6.0687855037
 20
0.7240137636
 30
0.0
 10
6.0785855652
 20
0.7166651966
 30
0.0
 10
6.0863207524
 20
0.7096865066
 30
0.0
 10
6.0922569191
 20
0.7036002966
 30
0.0
 10
6.0966072393
 20
0.6987521604
 30
0.0
 10
6.1008160964
 20
0.6936611119
 30
0.0
 10
6.1062661221
 20
0.6865127398
 30
0.0
 10
6.112681834
 20
0.6770060861
 30
0.0
 10
6.1196592825
 20
0.6648467846
 30
0.0
 10
6.1259252002
 20
0.6519379505
 30
0.0
 10
6.1314379715
 20
0.6383621058
 30
0.0
 10
6.1361638438
 20
0.6242066576
 30
0.0
 10
6.1400718423
 20
0.6095625038
 30
0.0
 10
6.1431379149
 20
0.5945235738
 30
0.0
 10
6.1453423328
 20
0.5791847218
 30
0.0
 10
6.1466694649
 20
0.5636470604
 30
0.0
 10
6.1469656475
 20
0.5532260253
 30
0.0
 10
6.1469656475
 20
0.5480095609
 30
0.0
  0
SPLINE
  5
3B6
100
AcDbEntity
  8
0
100
AcDbSpline
 62
7
  6
CONTINUOUS
 70
0
 71
3
 72
12
 73
8
 74
0
 42
0.0000001
 43
0.0000001
 44
0.0000000001
 40
0.0
 40
0.0
 40
0.0
 40
0.0
 40
0.2528619572
 40
0.3789959119
 40
0.5046660494
 40
0.7540392263
 40
1.0
 40
1.0
 40
1.0
 40
1.0
 10
5.8711940029
 20
0.5480095609
 30
0.0
 10
5.8711940029
 20
0.5417267295
 30
0.0
 10
5.8715163299
 20
0.5323056747
 30
0.0
 10
5.8725888948
 20
0.5198104775
 30
0.0
 10
5.8740831559
 20
0.5074454418
 30
0.0
 10
5.8767310971
 20
0.4922311197
 30
0.0
 10
5.8797023533
 20
0.4802747707
 30
0.0
 10
5.8813948378
 20
0.4744024459
 30
0.0
  0
SPLINE
  5
3B7
100
AcDbEntity
  8
0
100
AcDbSpline
 62
7
  6
CONTINUOUS
 70
0
 71
3
 72
51
 73
47
 74
0
 42
0.0000001
 43
0.0000001
 44
0.0000000001
 40
0.0
 40
0.0
 40
0.0
 40
0.0
 40
0.0686519832
 40
0.101781148
 40
0.1180222948
 40
0.1340410035
 40
0.1498349298
 40
0.1654034861
 40
0.1807478354
 40
0.1958703543
 40
0.2254599173
 40
0.2542337098
 40
0.2683435028
 40
0.2822823313
 40
0.2960644886
 40
0.3097058718
 40
0.3232241454
 40
0.3366380846
 40
0.3499675271
 40
0.3632334818
 40
0.3764576269
 40
0.3896620322
 40
0.4028691231
 40
0.4161012576
 40
0.4293804121
 40
0.4427281571
 40
0.4561652401
 40
0.4697112321
 40
0.4833846671
 40
0.4972028471
 40
0.5253245408
 40
0.5541920202
 40
0.5838830885
 40
0.6144487562
 40
0.645912137
 40
0.6619841988
 40
0.6782779735
 40
0.7115091847
 40
0.7455659165
 40
0.7803843454
 40
0.8158846975
 40
0.8519736748
 40
0.8885437792
 40
0.9254859443
 40
0.9626883492
 40
1.0
 40
1.0
 40
1.0
 40
1.0
 10
5.88836074
 20
0.4537825168
 30
0.0
 10
5.8919409715
 20
0.4446088291
 30
0.0
 10
5.8981372021
 20
0.4313216932
 30
0.0
 10
5.9069273724
 20
0.4168383078
 30
0.0
 10
5.9122465901
 20
0.4091100754
 30
0.0
 10
5.9163740476
 20
0.4035872924
 30
0.0
 10
5.92065918
 20
0.398309503
 30
0.0
 10
5.9250947587
 20
0.3932857941
 30
0.0
 10
5.9296730407
 20
0.3885241924
 30
0.0
 10
5.9359112617
 20
0.3825798598
 30
0.0
 10
5.94402532
 20
0.3758265908
 30
0.0
 10
5.9526276345
 20
0.3699574249
 30
0.0
 10
5.9596931841
 20
0.3658877638
 30
0.0
 10
5.9650427068
 20
0.3631638216
 30
0.0
 10
5.9704673426
 20
0.3607537755
 30
0.0
 10
5.9759581999
 20
0.3586622831
 30
0.0
 10
5.9815056409
 20
0.3568923791
 30
0.0
 10
5.9871002193
 20
0.3554469734
 30
0.0
 10
5.992732534
 20
0.3543292323
 30
0.0
 10
5.9983928764
 20
0.35354099
 30
0.0
 10
6.0040714971
 20
0.3530830783
 30
0.0
 10
6.0097587291
 20
0.3529565886
 30
0.0
 10
6.0154447888
 20
0.3531623168
 30
0.0
 10
6.0211199229
 20
0.3536991684
 30
0.0
 10
6.0267744711
 20
0.3545661218
 30
0.0
 10
6.0323986398
 20
0.355762345
 30
0.0
 10
6.0379828279
 20
0.3572854845
 30
0.0
 10
6.0435176023
 20
0.3591323945
 30
0.0
 10
6.0489936116
 20
0.3613003086
 30
0.0
 10
6.0562448527
 20
0.3646331032
 30
0.0
 10
6.065125621
 20
0.3696022257
 30
0.0
 10
6.075329279
 20
0.3767404467
 30
0.0
 10
6.0850785831
 20
0.3850382586
 30
0.0
 10
6.0943062087
 20
0.3944388721
 30
0.0
 10
6.1014613726
 20
0.4030767481
 30
0.0
 10
6.1068742284
 20
0.4104635109
 30
0.0
 10
6.1121390993
 20
0.4182645761
 30
0.0
 10
6.1182748784
 20
0.4285784304
 30
0.0
 10
6.1248489765
 20
0.4416794042
 30
0.0
 10
6.1306378321
 20
0.4554990342
 30
0.0
 10
6.1356038616
 20
0.4699430155
 30
0.0
 10
6.1397125271
 20
0.4849141026
 30
0.0
 10
6.1429376877
 20
0.5003109414
 30
0.0
 10
6.1452571452
 20
0.5160313675
 30
0.0
 10
6.1466539414
 20
0.5319664689
 30
0.0
 10
6.1469656475
 20
0.5426575082
 30
0.0
 10
6.1469656475
 20
0.5480095609
 30
0.0
  0
SPLINE
  5
3B8
100
AcDbEntity
  8
0
100
AcDbSpline
 62
7
  6
CONTINUOUS
 70
0
 71
3
 72
12
 73
8
 74
0
 42
0.0000001
 43
0.0000001
 44
0.0000000001
 40
0.0
 40
0.0
 40
0.0
 40
0.0
 40
0.2528619572
 40
0.3789959119
 40
0.5046660494
 40
0.7540392263
 40
1.0
 40
1.0
 40
1.0
 40
1.0
 10
5.8711940029
 20
3.7480095609
 30
0.0
 10
5.8711940029
 20
3.7542923923
 30
0.0
 10
5.8715163299
 20
3.7637134472
 30
0.0
 10
5.8725888948
 20
3.7762086443
 30
0.0
 10
5.8740831559
 20
3.78857368
 30
0.0
 10
5.8767310971
 20
3.8037880021
 30
0.0
 10
5.8797023533
 20
3.8157443511
 30
0.0
 10
5.8813948378
 20
3.8216166759
 30
0.0
  0
SPLINE
  5
3B9
100
AcDbEntity
  8
0
100
AcDbSpline
 62
7
  6
CONTINUOUS
 70
0
 71
3
 72
48
 73
44
 74
0
 42
0.0000001
 43
0.0000001
 44
0.0000000001
 40
0.0
 40
0.0
 40
0.0
 40
0.0
 40
0.0342229155
 40
0.0676441111
 40
0.1002175976
 40
0.131917107
 40
0.1474398717
 40
0.1627442357
 40
0.1927031344
 40
0.2073759414
 40
0.2218516453
 40
0.2502415927
 40
0.2779753547
 40
0.3051707553
 40
0.3186146696
 40
0.3319777934
 40
0.3452802203
 40
0.358542625
 40
0.371786044
 40
0.3850318454
 40
0.3983013388
 40
0.4116154799
 40
0.4249948552
 40
0.4384593419
 40
0.4657079864
 40
0.493509289
 40
0.5219784331
 40
0.5512069712
 40
0.5812599668
 40
0.5966126713
 40
0.612184221
 40
0.6279759504
 40
0.6439877355
 40
0.6766570207
 40
0.710169943
 40
0.7444783706
 40
0.7795187098
 40
0.8152126814
 40
0.8514693938
 40
0.8881854395
 40
0.9252571939
 40
0.9625772945
 40
1.0
 40
1.0
 40
1.0
 40
1.0
 10
5.89308289
 20
3.8534345203
 30
0.0
 10
5.8950565032
 20
3.8577775504
 30
0.0
 10
5.8992413696
 20
3.8662366015
 30
0.0
 10
5.9062955291
 20
3.8783075749
 30
0.0
 10
5.9140135783
 20
3.8895423177
 30
0.0
 10
5.9210062834
 20
3.8982086844
 30
0.0
 10
5.9268879154
 20
3.9046438773
 30
0.0
 10
5.9328621913
 20
3.9106550007
 30
0.0
 10
5.9391299266
 20
3.9161988801
 30
0.0
 10
5.9456644353
 20
3.9212213761
 30
0.0
 10
5.9522473981
 20
3.9258074662
 30
0.0
 10
5.9607203115
 20
3.9308471508
 30
0.0
 10
5.9712689568
 20
3.9357537845
 30
0.0
 10
5.980306672
 20
3.9388429993
 30
0.0
 10
5.9876089068
 20
3.940684093
 30
0.0
 10
5.9931007143
 20
3.9417485259
 30
0.0
 10
5.9986183785
 20
3.9424998762
 30
0.0
 10
6.0041530732
 20
3.942937434
 30
0.0
 10
6.0096958007
 20
3.9430601778
 30
0.0
 10
6.0152375185
 20
3.942867364
 30
0.0
 10
6.0207692087
 20
3.9423599914
 30
0.0
 10
6.0262818827
 20
3.9415390304
 30
0.0
 10
6.0317666687
 20
3.9404051551
 30
0.0
 10
6.0390579809
 20
3.9384717068
 30
0.0
 10
6.0480764734
 20
3.9352680494
 30
0.0
 10
6.0585933495
 20
3.9302283576
 30
0.0
 10
6.0687855037
 20
3.9240137636
 30
0.0
 10
6.0785855652
 20
3.9166651966
 30
0.0
 10
6.0863207524
 20
3.9096865066
 30
0.0
 10
6.0922569191
 20
3.9036002966
 30
0.0
 10
6.0966072393
 20
3.8987521604
 30
0.0
 10
6.1008160964
 20
3.8936611119
 30
0.0
 10
6.1062661221
 20
3.8865127398
 30
0.0
 10
6.112681834
 20
3.8770060861
 30
0.0
 10
6.1196592825
 20
3.8648467846
 30
0.0
 10
6.1259252002
 20
3.8519379505
 30
0.0
 10
6.1314379715
 20
3.8383621058
 30
0.0
 10
6.1361638438
 20
3.8242066576
 30
0.0
 10
6.1400718423
 20
3.8095625038
 30
0.0
 10
6.1431379149
 20
3.7945235738
 30
0.0
 10
6.1453423328
 20
3.7791847218
 30
0.0
 10
6.1466694649
 20
3.7636470604
 30
0.0
 10
6.1469656475
 20
3.7532260253
 30
0.0
 10
6.1469656475
 20
3.7480095609
 30
0.0
  0
SPLINE
  5
3BA
100
AcDbEntity
  8
0
100
AcDbSpline
 62
7
  6
CONTINUOUS
 70
0
 71
3
 72
12
 73
8
 74
0
 42
0.0000001
 43
0.0000001
 44
0.0000000001
 40
0.0
 40
0.0
 40
0.0
 40
0.0
 40
0.2528619572
 40
0.3789959119
 40
0.5046660494
 40
0.7540392263
 40
1.0
 40
1.0
 40
1.0
 40
1.0
 10
5.8711940029
 20
3.7480095609
 30
0.0
 10
5.8711940029
 20
3.7417267295
 30
0.0
 10
5.8715163299
 20
3.7323056747
 30
0.0
 10
5.8725888948
 20
3.7198104775
 30
0.0
 10
5.8740831559
 20
3.7074454418
 30
0.0
 10
5.8767310971
 20
3.6922311197
 30
0.0
 10
5.8797023533
 20
3.6802747707
 30
0.0
 10
5.8813948378
 20
3.6744024459
 30
0.0
  0
SPLINE
  5
3BB
100
AcDbEntity
  8
0
100
AcDbSpline
 62
7
  6
CONTINUOUS
 70
0
 71
3
 72
51
 73
47
 74
0
 42
0.0000001
 43
0.0000001
 44
0.0000000001
 40
0.0
 40
0.0
 40
0.0
 40
0.0
 40
0.0686311331
 40
0.1017490073
 40
0.117984458
 40
0.1339974866
 40
0.1497857892
 40
0.1653488413
 40
0.1806878419
 40
0.1958052015
 40
0.2253852182
 40
0.2541507362
 40
0.2682569663
 40
0.2821926518
 40
0.2959721064
 40
0.3096112567
 40
0.3231277824
 40
0.3365404633
 40
0.3498691432
 40
0.3631348324
 40
0.3763591966
 40
0.3895642918
 40
0.4027725256
 40
0.4160062271
 40
0.4292873434
 40
0.4426374141
 40
0.4560771448
 40
0.4696260673
 40
0.4833026799
 40
0.4971242398
 40
0.5252531487
 40
0.5541281861
 40
0.5838268708
 40
0.6143999815
 40
0.6458704529
 40
0.6619458763
 40
0.6782428772
 40
0.7114801132
 40
0.7455422461
 40
0.7803654552
 40
0.8158699939
 40
0.8519626148
 40
0.888535903
 40
0.9254809069
 40
0.9626859007
 40
1.0
 40
1.0
 40
1.0
 40
1.0
 10
5.8884542773
 20
3.6535432411
 30
0.0
 10
5.8920415668
 20
3.6443818309
 30
0.0
 10
5.8982471493
 20
3.6311137934
 30
0.0
 10
5.9070460663
 20
3.6166538956
 30
0.0
 10
5.9123693478
 20
3.6089392086
 30
0.0
 10
5.9164994388
 20
3.6034265776
 30
0.0
 10
5.9207868426
 20
3.598158967
 30
0.0
 10
5.9252243018
 20
3.5931454104
 30
0.0
 10
5.9298040912
 20
3.5883939162
 30
0.0
 10
5.9360438787
 20
3.5824628572
 30
0.0
 10
5.9441590488
 20
3.5757259289
 30
0.0
 10
5.952761206
 20
3.5698730107
 30
0.0
 10
5.9598259142
 20
3.5658159545
 30
0.0
 10
5.9651745547
 20
3.563101158
 30
0.0
 10
5.9705980119
 20
3.5607000485
 30
0.0
 10
5.976087395
 20
3.5586172443
 30
0.0
 10
5.9816330775
 20
3.5568557516
 30
0.0
 10
5.9872256323
 20
3.5554184804
 30
0.0
 10
5.9928556712
 20
3.5543085917
 30
0.0
 10
5.9985134933
 20
3.5535278684
 30
0.0
 10
6.0041893689
 20
3.5530771449
 30
0.0
 10
6.0098736455
 20
3.5529575175
 30
0.0
 10
6.0155565528
 20
3.5531697463
 30
0.0
 10
6.0212283561
 20
3.5537127231
 30
0.0
 10
6.0268794104
 20
3.5545854324
 30
0.0
 10
6.032499935
 20
3.5557870393
 30
0.0
 10
6.0380803524
 20
3.5573151556
 30
0.0
 10
6.043611244
 20
3.5591666462
 30
0.0
 10
6.049083269
 20
3.5613387533
 30
0.0
 10
6.0563290965
 20
3.5646766324
 30
0.0
 10
6.0652028797
 20
3.5696510625
 30
0.0
 10
6.0753980677
 20
3.5767939692
 30
0.0
 10
6.085138933
 20
3.5850948634
 30
0.0
 10
6.0943582855
 20
3.5944969958
 30
0.0
 10
6.1015068587
 20
3.6031349442
 30
0.0
 10
6.1069146379
 20
3.6105210791
 30
0.0
 10
6.1121744475
 20
3.618320962
 30
0.0
 10
6.1183042159
 20
3.6286324841
 30
0.0
 10
6.124871791
 20
3.6417295275
 30
0.0
 10
6.1306547996
 20
3.6555441315
 30
0.0
 10
6.1356157406
 20
3.6699821232
 30
0.0
 10
6.1397201508
 20
3.6849463975
 30
0.0
 10
6.1429419369
 20
3.700335758
 30
0.0
 10
6.1452589533
 20
3.7160481974
 30
0.0
 10
6.1466542709
 20
3.7319749715
 30
0.0
 10
6.1469656475
 20
3.7426603508
 30
0.0
 10
6.1469656475
 20
3.7480095609
 30
0.0
  0
SPLINE
  5
3BC
100
AcDbEntity
  8
0
100
AcDbSpline
 62
7
  6
CONTINUOUS
 70
0
 71
3
 72
11
 73
7
 74
0
 42
0.0000001
 43
0.0000001
 44
0.0000000001
 40
0.0
 40
0.0
 40
0.0
 40
0.0
 40
0.2601843884
 40
0.5165090217
 40
0.7640976828
 40
1.0
 40
1.0
 40
1.0
 40
1.0
 10
5.8605874011
 20
3.7480095609
 30
0.0
 10
5.8605874011
 20
3.7412426991
 30
0.0
 10
5.8614708523
 20
3.7277934139
 30
0.0
 10
5.8653701031
 20
3.7082469462
 30
0.0
 10
5.8717495803
 20
3.6900266932
 30
0.0
 10
5.8776766714
 20
3.678863904
 30
0.0
 10
5.881012771
 20
3.6737148482
 30
0.0
  0
SPLINE
  5
3BD
100
AcDbEntity
  8
0
100
AcDbSpline
 62
7
  6
CONTINUOUS
 70
0
 71
3
 72
11
 73
7
 74
0
 42
0.0000001
 43
0.0000001
 44
0.0000000001
 40
0.0
 40
0.0
 40
0.0
 40
0.0
 40
0.2601843884
 40
0.5165090217
 40
0.7640976828
 40
1.0
 40
1.0
 40
1.0
 40
1.0
 10
5.8605874011
 20
0.5480095609
 30
0.0
 10
5.8605874011
 20
0.5412426991
 30
0.0
 10
5.8614708523
 20
0.5277934139
 30
0.0
 10
5.8653701031
 20
0.5082469462
 30
0.0
 10
5.8717495803
 20
0.4900266932
 30
0.0
 10
5.8776766714
 20
0.478863904
 30
0.0
 10
5.881012771
 20
0.4737148482
 30
0.0
  0
SPLINE
  5
3BE
100
AcDbEntity
  8
0
100
AcDbSpline
 62
7
  6
CONTINUOUS
 70
0
 71
3
 72
11
 73
7
 74
0
 42
0.0000001
 43
0.0000001
 44
0.0000000001
 40
0.0
 40
0.0
 40
0.0
 40
0.0
 40
0.2359023172
 40
0.4834909783
 40
0.7398156116
 40
1.0
 40
1.0
 40
1.0
 40
1.0
 10
5.881012771
 20
3.8223042736
 30
0.0
 10
5.8776766714
 20
3.8171552178
 30
0.0
 10
5.8717495803
 20
3.8059924286
 30
0.0
 10
5.8653701031
 20
3.7877721756
 30
0.0
 10
5.8614708523
 20
3.7682257079
 30
0.0
 10
5.8605874011
 20
3.7547764227
 30
0.0
 10
5.8605874011
 20
3.7480095609
 30
0.0
  0
SPLINE
  5
3BF
100
AcDbEntity
  8
0
100
AcDbSpline
 62
7
  6
CONTINUOUS
 70
0
 71
3
 72
11
 73
7
 74
0
 42
0.0000001
 43
0.0000001
 44
0.0000000001
 40
0.0
 40
0.0
 40
0.0
 40
0.0
 40
0.2359023172
 40
0.4834909783
 40
0.7398156116
 40
1.0
 40
1.0
 40
1.0
 40
1.0
 10
5.881012771
 20
0.6223042736
 30
0.0
 10
5.8776766714
 20
0.6171552178
 30
0.0
 10
5.8717495803
 20
0.6059924286
 30
0.0
 10
5.8653701031
 20
0.5877721756
 30
0.0
 10
5.8614708523
 20
0.5682257079
 30
0.0
 10
5.8605874011
 20
0.5547764227
 30
0.0
 10
5.8605874011
 20
0.5480095609
 30
0.0
  0
SPLINE
  5
3C0
100
AcDbEntity
  8
0
100
AcDbSpline
 62
3
  6
CONTINUOUS
 70
0
 71
3
 72
26
 73
22
 74
0
 42
0.0000001
 43
0.0000001
 44
0.0000000001
 40
0.0
 40
0.0
 40
0.0
 40
0.0
 40
0.0261723103
 40
0.0529524175
 40
0.0804043697
 40
0.1085676107
 40
0.1670629203
 40
0.2285124348
 40
0.2926523118
 40
0.3590207639
 40
0.4270415373
 40
0.4959958423
 40
0.56512824
 40
0.6336887522
 40
0.7009278462
 40
0.7661947239
 40
0.8289778177
 40
0.8593283357
 40
0.888935232
 40
0.9458829584
 40
1.0
 40
1.0
 40
1.0
 40
1.0
 10
5.8905656762
 20
0.6471596284
 30
0.0
 10
5.8888322023
 20
0.6463751189
 30
0.0
 10
5.8854010083
 20
0.644614111
 30
0.0
 10
5.8804689806
 20
0.6414622539
 30
0.0
 10
5.8757217292
 20
0.6377963542
 30
0.0
 10
5.8695985751
 20
0.6321873089
 30
0.0
 10
5.8625636085
 20
0.6239739105
 30
0.0
 10
5.8554129642
 20
0.6126126056
 30
0.0
 10
5.8495708613
 20
0.599897976
 30
0.0
 10
5.8451813568
 20
0.5861124286
 30
0.0
 10
5.8423574931
 20
0.5715695785
 30
0.0
 10
5.8411322777
 20
0.5566053581
 30
0.0
 10
5.8415695923
 20
0.5415577338
 30
0.0
 10
5.8436370637
 20
0.5267728239
 30
0.0
 10
5.8472848553
 20
0.5125831612
 30
0.0
 10
5.8524538625
 20
0.4993231055
 30
0.0
 10
5.8579682985
 20
0.4891715208
 30
0.0
 10
5.8630321469
 20
0.4818155524
 30
0.0
 10
5.8683578033
 20
0.4751835896
 30
0.0
 10
5.8756480705
 20
0.4679500004
 30
0.0
 10
5.8822929027
 20
0.4632742072
 30
0.0
 10
5.8857138892
 20
0.4613310883
 30
0.0
  0
SPLINE
  5
3C1
100
AcDbEntity
  8
0
100
AcDbSpline
 62
3
  6
CONTINUOUS
 70
0
 71
3
 72
24
 73
20
 74
0
 42
0.0000001
 43
0.0000001
 44
0.0000000001
 40
0.0
 40
0.0
 40
0.0
 40
0.0
 40
0.0262290056
 40
0.0530711556
 40
0.108756464
 40
0.1673432933
 40
0.2288422592
 40
0.359063461
 40
0.4270043147
 40
0.4958589705
 40
0.5648895167
 40
0.6333635821
 40
0.7005483395
 40
0.7658037116
 40
0.8286262514
 40
0.859015607
 40
0.888671706
 40
0.9457432169
 40
1.0
 40
1.0
 40
1.0
 40
1.0
 10
5.8903731896
 20
3.846738558
 30
0.0
 10
5.888666268
 20
3.8459303441
 30
0.0
 10
5.8852896923
 20
3.844126337
 30
0.0
 10
5.8787462837
 20
3.8398082277
 30
0.0
 10
5.8710376119
 20
3.8331104638
 30
0.0
 10
5.8628642606
 20
3.8233855791
 30
0.0
 10
5.8533423395
 20
3.8080262259
 30
0.0
 10
5.8466967829
 20
3.7903139559
 30
0.0
 10
5.8430635682
 20
3.7714092533
 30
0.0
 10
5.8418598982
 20
3.7566053712
 30
0.0
 10
5.8422834145
 20
3.7417238238
 30
0.0
 10
5.8443018459
 20
3.7270945789
 30
0.0
 10
5.8478664776
 20
3.7130407301
 30
0.0
 10
5.852922761
 20
3.6998860976
 30
0.0
 10
5.8583208395
 20
3.6897933082
 30
0.0
 10
5.8632801386
 20
3.6824587156
 30
0.0
 10
5.868501116
 20
3.6758283048
 30
0.0
 10
5.8756544908
 20
3.6685672949
 30
0.0
 10
5.8821809197
 20
3.6638303503
 30
0.0
 10
5.8855451424
 20
3.6618443037
 30
0.0
  0
SPLINE
  5
3C2
100
AcDbEntity
  8
0
100
AcDbSpline
 62
7
  6
CONTINUOUS
 70
0
 71
3
 72
57
 73
53
 74
0
 42
0.0000001
 43
0.0000001
 44
0.0000000001
 40
0.0
 40
0.0
 40
0.0
 40
0.0
 40
0.0363098926
 40
0.0544205402
 40
0.0724626328
 40
0.1082566866
 40
0.1259773204
 40
0.1435530364
 40
0.1781895021
 40
0.212039955
 40
0.2286389936
 40
0.2450029835
 40
0.276981213
 40
0.3079312759
 40
0.3230193066
 40
0.3378483059
 40
0.366738631
 40
0.3808286483
 40
0.3946944494
 40
0.4083521197
 40
0.4218203668
 40
0.4351203062
 40
0.4482759229
 40
0.4613131819
 40
0.474259842
 40
0.487145359
 40
0.5
 40
0.512854641
 40
0.525740158
 40
0.5386868181
 40
0.5517240771
 40
0.5648796938
 40
0.5781796332
 40
0.5916478803
 40
0.6053055506
 40
0.6191713517
 40
0.633261369
 40
0.6621516941
 40
0.6769806934
 40
0.6920687241
 40
0.723018787
 40
0.7549970165
 40
0.7713610064
 40
0.787960045
 40
0.8218104979
 40
0.8564469636
 40
0.8740226796
 40
0.8917433134
 40
0.9275373672
 40
0.9455794598
 40
0.9636901074
 40
1.0
 40
1.0
 40
1.0
 40
1.0
 10
44.4725924664
 20
3.7480095609
 30
0.0
 10
44.4725924664
 20
3.7543836784
 30
0.0
 10
44.4729241872
 20
3.7639414259
 30
0.0
 10
44.4740281502
 20
3.776616009
 30
0.0
 10
44.4755658052
 20
3.7891542745
 30
0.0
 10
44.4777534088
 20
3.8015368739
 30
0.0
 10
44.4805914416
 20
3.8136919879
 30
0.0
 10
44.483820421
 20
3.825538798
 30
0.0
 10
44.4886058276
 20
3.8398851493
 30
0.0
 10
44.4944271286
 20
3.8536593423
 30
0.0
 10
44.4996543499
 20
3.864162544
 30
0.0
 10
44.5051603673
 20
3.8741483293
 30
0.0
 10
44.5126651828
 20
3.8858944529
 30
0.0
 10
44.5210857396
 20
3.8967241076
 30
0.0
 10
44.528259989
 20
3.9046483457
 30
0.0
 10
44.535573006
 20
3.9119395844
 30
0.0
 10
44.5433210362
 20
3.9185314533
 30
0.0
 10
44.5514515192
 20
3.9243253694
 30
0.0
 10
44.5576431536
 20
3.9282106379
 30
0.0
 10
44.5639627684
 20
3.9316616144
 30
0.0
 10
44.5703952209
 20
3.9346705296
 30
0.0
 10
44.5769254222
 20
3.9372288414
 30
0.0
 10
44.5835372568
 20
3.9393308891
 30
0.0
 10
44.5902146787
 20
3.9409717688
 30
0.0
 10
44.5969417055
 20
3.942146222
 30
0.0
 10
44.6037017113
 20
3.9428522283
 30
0.0
 10
44.6104782887
 20
3.9430881328
 30
0.0
 10
44.6172548662
 20
3.9428522283
 30
0.0
 10
44.624014872
 20
3.942146222
 30
0.0
 10
44.6307418987
 20
3.9409717688
 30
0.0
 10
44.6374193207
 20
3.9393308891
 30
0.0
 10
44.6440311553
 20
3.9372288414
 30
0.0
 10
44.6505613565
 20
3.9346705296
 30
0.0
 10
44.6569938091
 20
3.9316616144
 30
0.0
 10
44.6633134238
 20
3.9282106379
 30
0.0
 10
44.6695050582
 20
3.9243253694
 30
0.0
 10
44.6776355413
 20
3.9185314533
 30
0.0
 10
44.6853835714
 20
3.9119395844
 30
0.0
 10
44.6926965884
 20
3.9046483457
 30
0.0
 10
44.6998708378
 20
3.8967241076
 30
0.0
 10
44.7082913946
 20
3.8858944529
 30
0.0
 10
44.7157962101
 20
3.8741483293
 30
0.0
 10
44.7213022275
 20
3.864162544
 30
0.0
 10
44.7265294488
 20
3.8536593423
 30
0.0
 10
44.7323507498
 20
3.8398851493
 30
0.0
 10
44.7371361564
 20
3.825538798
 30
0.0
 10
44.7403651358
 20
3.8136919879
 30
0.0
 10
44.7432031686
 20
3.8015368739
 30
0.0
 10
44.7453907723
 20
3.7891542745
 30
0.0
 10
44.7469284273
 20
3.776616009
 30
0.0
 10
44.7480323902
 20
3.7639414259
 30
0.0
 10
44.748364111
 20
3.7543836784
 30
0.0
 10
44.748364111
 20
3.7480095609
 30
0.0
  0
SPLINE
  5
3C3
100
AcDbEntity
  8
0
100
AcDbSpline
 62
7
  6
CONTINUOUS
 70
0
 71
3
 72
57
 73
53
 74
0
 42
0.0000001
 43
0.0000001
 44
0.0000000001
 40
0.0
 40
0.0
 40
0.0
 40
0.0
 40
0.0363098926
 40
0.0544205402
 40
0.0724626328
 40
0.1082566866
 40
0.1259773204
 40
0.1435530364
 40
0.1781895021
 40
0.212039955
 40
0.2286389936
 40
0.2450029835
 40
0.276981213
 40
0.3079312759
 40
0.3230193066
 40
0.3378483059
 40
0.366738631
 40
0.3808286483
 40
0.3946944494
 40
0.4083521197
 40
0.4218203668
 40
0.4351203062
 40
0.4482759229
 40
0.4613131819
 40
0.474259842
 40
0.487145359
 40
0.5
 40
0.512854641
 40
0.525740158
 40
0.5386868181
 40
0.5517240771
 40
0.5648796938
 40
0.5781796332
 40
0.5916478803
 40
0.6053055506
 40
0.6191713517
 40
0.633261369
 40
0.6621516941
 40
0.6769806934
 40
0.6920687241
 40
0.723018787
 40
0.7549970165
 40
0.7713610064
 40
0.787960045
 40
0.8218104979
 40
0.8564469636
 40
0.8740226796
 40
0.8917433134
 40
0.9275373672
 40
0.9455794598
 40
0.9636901074
 40
1.0
 40
1.0
 40
1.0
 40
1.0
 10
44.4725924664
 20
3.7480095609
 30
0.0
 10
44.4725924664
 20
3.7416354435
 30
0.0
 10
44.4729241872
 20
3.7320776959
 30
0.0
 10
44.4740281502
 20
3.7194031129
 30
0.0
 10
44.4755658052
 20
3.7068648473
 30
0.0
 10
44.4777534088
 20
3.6944822479
 30
0.0
 10
44.4805914416
 20
3.682327134
 30
0.0
 10
44.483820421
 20
3.6704803238
 30
0.0
 10
44.4886058276
 20
3.6561339726
 30
0.0
 10
44.4944271286
 20
3.6423597795
 30
0.0
 10
44.4996543499
 20
3.6318565779
 30
0.0
 10
44.5051603673
 20
3.6218707925
 30
0.0
 10
44.5126651828
 20
3.6101246689
 30
0.0
 10
44.5210857396
 20
3.5992950142
 30
0.0
 10
44.528259989
 20
3.5913707761
 30
0.0
 10
44.535573006
 20
3.5840795375
 30
0.0
 10
44.5433210362
 20
3.5774876685
 30
0.0
 10
44.5514515192
 20
3.5716937524
 30
0.0
 10
44.5576431536
 20
3.5678084839
 30
0.0
 10
44.5639627684
 20
3.5643575075
 30
0.0
 10
44.5703952209
 20
3.5613485922
 30
0.0
 10
44.5769254222
 20
3.5587902804
 30
0.0
 10
44.5835372568
 20
3.5566882327
 30
0.0
 10
44.5902146787
 20
3.555047353
 30
0.0
 10
44.5969417055
 20
3.5538728998
 30
0.0
 10
44.6037017113
 20
3.5531668935
 30
0.0
 10
44.6104782887
 20
3.552930989
 30
0.0
 10
44.6172548662
 20
3.5531668935
 30
0.0
 10
44.624014872
 20
3.5538728998
 30
0.0
 10
44.6307418987
 20
3.555047353
 30
0.0
 10
44.6374193207
 20
3.5566882327
 30
0.0
 10
44.6440311553
 20
3.5587902804
 30
0.0
 10
44.6505613565
 20
3.5613485922
 30
0.0
 10
44.6569938091
 20
3.5643575075
 30
0.0
 10
44.6633134238
 20
3.5678084839
 30
0.0
 10
44.6695050582
 20
3.5716937524
 30
0.0
 10
44.6776355413
 20
3.5774876685
 30
0.0
 10
44.6853835714
 20
3.5840795375
 30
0.0
 10
44.6926965884
 20
3.5913707761
 30
0.0
 10
44.6998708378
 20
3.5992950142
 30
0.0
 10
44.7082913946
 20
3.6101246689
 30
0.0
 10
44.7157962101
 20
3.6218707925
 30
0.0
 10
44.7213022275
 20
3.6318565779
 30
0.0
 10
44.7265294488
 20
3.6423597795
 30
0.0
 10
44.7323507498
 20
3.6561339726
 30
0.0
 10
44.7371361564
 20
3.6704803238
 30
0.0
 10
44.7403651358
 20
3.682327134
 30
0.0
 10
44.7432031686
 20
3.6944822479
 30
0.0
 10
44.7453907723
 20
3.7068648473
 30
0.0
 10
44.7469284273
 20
3.7194031129
 30
0.0
 10
44.7480323902
 20
3.7320776959
 30
0.0
 10
44.748364111
 20
3.7416354435
 30
0.0
 10
44.748364111
 20
3.7480095609
 30
0.0
  0
SPLINE
  5
3C4
100
AcDbEntity
  8
0
100
AcDbSpline
 62
7
  6
CONTINUOUS
 70
0
 71
3
 72
57
 73
53
 74
0
 42
0.0000001
 43
0.0000001
 44
0.0000000001
 40
0.0
 40
0.0
 40
0.0
 40
0.0
 40
0.0363098926
 40
0.0544205402
 40
0.0724626328
 40
0.1082566866
 40
0.1259773204
 40
0.1435530364
 40
0.1781895021
 40
0.212039955
 40
0.2286389936
 40
0.2450029835
 40
0.276981213
 40
0.3079312759
 40
0.3230193066
 40
0.3378483059
 40
0.366738631
 40
0.3808286483
 40
0.3946944494
 40
0.4083521197
 40
0.4218203668
 40
0.4351203062
 40
0.4482759229
 40
0.4613131819
 40
0.474259842
 40
0.487145359
 40
0.5
 40
0.512854641
 40
0.525740158
 40
0.5386868181
 40
0.5517240771
 40
0.5648796938
 40
0.5781796332
 40
0.5916478803
 40
0.6053055506
 40
0.6191713517
 40
0.633261369
 40
0.6621516941
 40
0.6769806934
 40
0.6920687241
 40
0.723018787
 40
0.7549970165
 40
0.7713610064
 40
0.787960045
 40
0.8218104979
 40
0.8564469636
 40
0.8740226796
 40
0.8917433134
 40
0.9275373672
 40
0.9455794598
 40
0.9636901074
 40
1.0
 40
1.0
 40
1.0
 40
1.0
 10
44.4725924664
 20
0.5480095609
 30
0.0
 10
44.4725924664
 20
0.5543836784
 30
0.0
 10
44.4729241872
 20
0.5639414259
 30
0.0
 10
44.4740281502
 20
0.576616009
 30
0.0
 10
44.4755658052
 20
0.5891542745
 30
0.0
 10
44.4777534088
 20
0.6015368739
 30
0.0
 10
44.4805914416
 20
0.6136919879
 30
0.0
 10
44.483820421
 20
0.625538798
 30
0.0
 10
44.4886058276
 20
0.6398851493
 30
0.0
 10
44.4944271286
 20
0.6536593423
 30
0.0
 10
44.4996543499
 20
0.664162544
 30
0.0
 10
44.5051603673
 20
0.6741483293
 30
0.0
 10
44.5126651828
 20
0.6858944529
 30
0.0
 10
44.5210857396
 20
0.6967241076
 30
0.0
 10
44.528259989
 20
0.7046483457
 30
0.0
 10
44.535573006
 20
0.7119395844
 30
0.0
 10
44.5433210362
 20
0.7185314533
 30
0.0
 10
44.5514515192
 20
0.7243253694
 30
0.0
 10
44.5576431536
 20
0.7282106379
 30
0.0
 10
44.5639627684
 20
0.7316616144
 30
0.0
 10
44.5703952209
 20
0.7346705296
 30
0.0
 10
44.5769254222
 20
0.7372288414
 30
0.0
 10
44.5835372568
 20
0.7393308891
 30
0.0
 10
44.5902146787
 20
0.7409717688
 30
0.0
 10
44.5969417055
 20
0.742146222
 30
0.0
 10
44.6037017113
 20
0.7428522283
 30
0.0
 10
44.6104782887
 20
0.7430881328
 30
0.0
 10
44.6172548662
 20
0.7428522283
 30
0.0
 10
44.624014872
 20
0.742146222
 30
0.0
 10
44.6307418987
 20
0.7409717688
 30
0.0
 10
44.6374193207
 20
0.7393308891
 30
0.0
 10
44.6440311553
 20
0.7372288414
 30
0.0
 10
44.6505613565
 20
0.7346705296
 30
0.0
 10
44.6569938091
 20
0.7316616144
 30
0.0
 10
44.6633134238
 20
0.7282106379
 30
0.0
 10
44.6695050582
 20
0.7243253694
 30
0.0
 10
44.6776355413
 20
0.7185314533
 30
0.0
 10
44.6853835714
 20
0.7119395844
 30
0.0
 10
44.6926965884
 20
0.7046483457
 30
0.0
 10
44.6998708378
 20
0.6967241076
 30
0.0
 10
44.7082913946
 20
0.6858944529
 30
0.0
 10
44.7157962101
 20
0.6741483293
 30
0.0
 10
44.7213022275
 20
0.664162544
 30
0.0
 10
44.7265294488
 20
0.6536593423
 30
0.0
 10
44.7323507498
 20
0.6398851493
 30
0.0
 10
44.7371361564
 20
0.625538798
 30
0.0
 10
44.7403651358
 20
0.6136919879
 30
0.0
 10
44.7432031686
 20
0.6015368739
 30
0.0
 10
44.7453907723
 20
0.5891542745
 30
0.0
 10
44.7469284273
 20
0.576616009
 30
0.0
 10
44.7480323902
 20
0.5639414259
 30
0.0
 10
44.748364111
 20
0.5543836784
 30
0.0
 10
44.748364111
 20
0.5480095609
 30
0.0
  0
SPLINE
  5
3C5
100
AcDbEntity
  8
0
100
AcDbSpline
 62
7
  6
CONTINUOUS
 70
0
 71
3
 72
57
 73
53
 74
0
 42
0.0000001
 43
0.0000001
 44
0.0000000001
 40
0.0
 40
0.0
 40
0.0
 40
0.0
 40
0.0363098926
 40
0.0544205402
 40
0.0724626328
 40
0.1082566866
 40
0.1259773204
 40
0.1435530364
 40
0.1781895021
 40
0.212039955
 40
0.2286389936
 40
0.2450029835
 40
0.276981213
 40
0.3079312759
 40
0.3230193066
 40
0.3378483059
 40
0.366738631
 40
0.3808286483
 40
0.3946944494
 40
0.4083521197
 40
0.4218203668
 40
0.4351203062
 40
0.4482759229
 40
0.4613131819
 40
0.474259842
 40
0.487145359
 40
0.5
 40
0.512854641
 40
0.525740158
 40
0.5386868181
 40
0.5517240771
 40
0.5648796938
 40
0.5781796332
 40
0.5916478803
 40
0.6053055506
 40
0.6191713517
 40
0.633261369
 40
0.6621516941
 40
0.6769806934
 40
0.6920687241
 40
0.723018787
 40
0.7549970165
 40
0.7713610064
 40
0.787960045
 40
0.8218104979
 40
0.8564469636
 40
0.8740226796
 40
0.8917433134
 40
0.9275373672
 40
0.9455794598
 40
0.9636901074
 40
1.0
 40
1.0
 40
1.0
 40
1.0
 10
44.4725924664
 20
0.5480095609
 30
0.0
 10
44.4725924664
 20
0.5416354435
 30
0.0
 10
44.4729241872
 20
0.5320776959
 30
0.0
 10
44.4740281502
 20
0.5194031129
 30
0.0
 10
44.4755658052
 20
0.5068648473
 30
0.0
 10
44.4777534088
 20
0.4944822479
 30
0.0
 10
44.4805914416
 20
0.482327134
 30
0.0
 10
44.483820421
 20
0.4704803238
 30
0.0
 10
44.4886058276
 20
0.4561339726
 30
0.0
 10
44.4944271286
 20
0.4423597795
 30
0.0
 10
44.4996543499
 20
0.4318565779
 30
0.0
 10
44.5051603673
 20
0.4218707925
 30
0.0
 10
44.5126651828
 20
0.4101246689
 30
0.0
 10
44.5210857396
 20
0.3992950142
 30
0.0
 10
44.528259989
 20
0.3913707761
 30
0.0
 10
44.535573006
 20
0.3840795375
 30
0.0
 10
44.5433210362
 20
0.3774876685
 30
0.0
 10
44.5514515192
 20
0.3716937524
 30
0.0
 10
44.5576431536
 20
0.3678084839
 30
0.0
 10
44.5639627684
 20
0.3643575075
 30
0.0
 10
44.5703952209
 20
0.3613485922
 30
0.0
 10
44.5769254222
 20
0.3587902804
 30
0.0
 10
44.5835372568
 20
0.3566882327
 30
0.0
 10
44.5902146787
 20
0.355047353
 30
0.0
 10
44.5969417055
 20
0.3538728998
 30
0.0
 10
44.6037017113
 20
0.3531668935
 30
0.0
 10
44.6104782887
 20
0.352930989
 30
0.0
 10
44.6172548662
 20
0.3531668935
 30
0.0
 10
44.624014872
 20
0.3538728998
 30
0.0
 10
44.6307418987
 20
0.355047353
 30
0.0
 10
44.6374193207
 20
0.3566882327
 30
0.0
 10
44.6440311553
 20
0.3587902804
 30
0.0
 10
44.6505613565
 20
0.3613485922
 30
0.0
 10
44.6569938091
 20
0.3643575075
 30
0.0
 10
44.6633134238
 20
0.3678084839
 30
0.0
 10
44.6695050582
 20
0.3716937524
 30
0.0
 10
44.6776355413
 20
0.3774876685
 30
0.0
 10
44.6853835714
 20
0.3840795375
 30
0.0
 10
44.6926965884
 20
0.3913707761
 30
0.0
 10
44.6998708378
 20
0.3992950142
 30
0.0
 10
44.7082913946
 20
0.4101246689
 30
0.0
 10
44.7157962101
 20
0.4218707925
 30
0.0
 10
44.7213022275
 20
0.4318565779
 30
0.0
 10
44.7265294488
 20
0.4423597795
 30
0.0
 10
44.7323507498
 20
0.4561339726
 30
0.0
 10
44.7371361564
 20
0.4704803238
 30
0.0
 10
44.7403651358
 20
0.482327134
 30
0.0
 10
44.7432031686
 20
0.4944822479
 30
0.0
 10
44.7453907723
 20
0.5068648473
 30
0.0
 10
44.7469284273
 20
0.5194031129
 30
0.0
 10
44.7480323902
 20
0.5320776959
 30
0.0
 10
44.748364111
 20
0.5416354435
 30
0.0
 10
44.748364111
 20
0.5480095609
 30
0.0
  0
SPLINE
  5
3C6
100
AcDbEntity
  8
0
100
AcDbSpline
 62
7
  6
CONTINUOUS
 70
0
 71
3
 72
47
 73
43
 74
0
 42
0.0000001
 43
0.0000001
 44
0.0000000001
 40
0.0
 40
0.0
 40
0.0
 40
0.0
 40
0.0374098071
 40
0.0747161896
 40
0.1117727498
 40
0.1484715787
 40
0.1847083784
 40
0.2203792201
 40
0.2553929118
 40
0.2896709683
 40
0.3231497581
 40
0.3557813863
 40
0.3717731595
 40
0.3875441681
 40
0.4030944194
 40
0.4184253362
 40
0.44843374
 40
0.4776175775
 40
0.5060434028
 40
0.533804531
 40
0.5610180501
 40
0.5744674918
 40
0.5878337757
 40
0.6011370164
 40
0.6143979753
 40
0.6276377808
 40
0.6408779081
 40
0.6541398246
 40
0.6674446478
 40
0.6808131269
 40
0.6942653471
 40
0.7214860563
 40
0.749256302
 40
0.7776928147
 40
0.792195154
 40
0.8068965229
 40
0.8369176119
 40
0.8678051124
 40
0.8995748334
 40
0.9322193487
 40
0.9657104646
 40
1.0
 40
1.0
 40
1.0
 40
1.0
 10
30.2243908255
 20
0.5480095609
 30
0.0
 10
30.2243908255
 20
0.5532428735
 30
0.0
 10
30.2246889157
 20
0.563697463
 30
0.0
 10
30.2260246081
 20
0.5792845362
 30
0.0
 10
30.2282431655
 20
0.5946708716
 30
0.0
 10
30.2313287984
 20
0.6097544087
 30
0.0
 10
30.2352614746
 20
0.6244394034
 30
0.0
 10
30.2400169067
 20
0.6386310251
 30
0.0
 10
30.2455636568
 20
0.6522375849
 30
0.0
 10
30.2518675895
 20
0.6651709011
 30
0.0
 10
30.2588865792
 20
0.6773477582
 30
0.0
 10
30.265339842
 20
0.6868631383
 30
0.0
 10
30.2708211372
 20
0.6940142841
 30
0.0
 10
30.2750536978
 20
0.6991051112
 30
0.0
 10
30.2794281093
 20
0.703950915
 30
0.0
 10
30.2853964847
 20
0.710031008
 30
0.0
 10
30.2931727623
 20
0.7169966746
 30
0.0
 10
30.3030229769
 20
0.7243205589
 30
0.0
 10
30.313265029
 20
0.7305009866
 30
0.0
 10
30.3238306772
 20
0.7354970846
 30
0.0
 10
30.332887939
 20
0.7386561451
 30
0.0
 10
30.3402085368
 20
0.7405494114
 30
0.0
 10
30.34571478
 20
0.7416509965
 30
0.0
 10
30.3512480238
 20
0.7424375429
 30
0.0
 10
30.3567993314
 20
0.7429083575
 30
0.0
 10
30.3623596232
 20
0.743062434
 30
0.0
 10
30.367919778
 20
0.7428988881
 30
0.0
 10
30.3734706784
 20
0.7424186388
 30
0.0
 10
30.3790032451
 20
0.7416226856
 30
0.0
 10
30.3845085383
 20
0.7405117152
 30
0.0
 10
30.3918276442
 20
0.7386059755
 30
0.0
 10
30.4008823844
 20
0.7354314031
 30
0.0
 10
30.4114433622
 20
0.7304175324
 30
0.0
 10
30.4199198697
 20
0.7252854752
 30
0.0
 10
30.4265021033
 20
0.7206237471
 30
0.0
 10
30.4330341708
 20
0.7155228998
 30
0.0
 10
30.4409145995
 20
0.7084449426
 30
0.0
 10
30.4497897859
 20
0.698973918
 30
0.0
 10
30.4580945191
 20
0.6885267514
 30
0.0
 10
30.4657763354
 20
0.6771721714
 30
0.0
 10
30.4727849844
 20
0.6649835989
 30
0.0
 10
30.4769345572
 20
0.656448359
 30
0.0
 10
30.4788890101
 20
0.6520677733
 30
0.0
  0
SPLINE
  5
3C7
100
AcDbEntity
  8
0
100
AcDbSpline
 62
7
  6
CONTINUOUS
 70
0
 71
3
 72
9
 73
5
 74
0
 42
0.0000001
 43
0.0000001
 44
0.0000000001
 40
0.0
 40
0.0
 40
0.0
 40
0.0
 40
0.2465457061
 40
1.0
 40
1.0
 40
1.0
 40
1.0
 10
30.4797843647
 20
0.6500333672
 30
0.0
 10
30.4807725185
 20
0.6477570258
 30
0.0
 10
30.4846249213
 20
0.6384570975
 30
0.0
 10
30.4878613777
 20
0.6289038293
 30
0.0
 10
30.4899616352
 20
0.6216166759
 30
0.0
  0
SPLINE
  5
3C8
100
AcDbEntity
  8
0
100
AcDbSpline
 62
7
  6
CONTINUOUS
 70
0
 71
3
 72
12
 73
8
 74
0
 42
0.0000001
 43
0.0000001
 44
0.0000000001
 40
0.0
 40
0.0
 40
0.0
 40
0.0
 40
0.2459607737
 40
0.4953339506
 40
0.6210040881
 40
0.7471380428
 40
1.0
 40
1.0
 40
1.0
 40
1.0
 10
30.4899616352
 20
0.6216166759
 30
0.0
 10
30.4916541197
 20
0.6157443511
 30
0.0
 10
30.4946253759
 20
0.6037880021
 30
0.0
 10
30.4972733171
 20
0.58857368
 30
0.0
 10
30.4987675783
 20
0.5762086443
 30
0.0
 10
30.4998401431
 20
0.5637134472
 30
0.0
 10
30.5001624701
 20
0.5542923923
 30
0.0
 10
30.5001624701
 20
0.5480095609
 30
0.0
  0
SPLINE
  5
3C9
100
AcDbEntity
  8
0
100
AcDbSpline
 62
7
  6
CONTINUOUS
 70
0
 71
3
 72
51
 73
47
 74
0
 42
0.0000001
 43
0.0000001
 44
0.0000000001
 40
0.0
 40
0.0
 40
0.0
 40
0.0
 40
0.0373117736
 40
0.0745143082
 40
0.1114566155
 40
0.1480268795
 40
0.1841160394
 40
0.2196166012
 40
0.2544352697
 40
0.2884922721
 40
0.3217237851
 40
0.3380177214
 40
0.3540899516
 40
0.3855536875
 40
0.416119728
 40
0.4458111778
 40
0.4746790357
 40
0.5028010906
 40
0.5166194398
 40
0.5302930338
 40
0.5438391724
 40
0.557276388
 40
0.5706242493
 40
0.5839035019
 40
0.5971357147
 40
0.6103428627
 40
0.6235473023
 40
0.6367714583
 40
0.6500373994
 40
0.6633668035
 40
0.6767806795
 40
0.6902988654
 40
0.7039401366
 40
0.7177221584
 40
0.7316608293
 40
0.7457704438
 40
0.7745438217
 40
0.8041329065
 40
0.819255167
 40
0.8345992485
 40
0.8501675291
 40
0.8659611739
 40
0.8819795983
 40
0.89822046
 40
0.9313490598
 40
1.0
 40
1.0
 40
1.0
 40
1.0
 10
30.2243908255
 20
0.5480095609
 30
0.0
 10
30.2243908255
 20
0.5426576505
 30
0.0
 10
30.2247025151
 20
0.5319668947
 30
0.0
 10
30.2260992373
 20
0.5160322103
 30
0.0
 10
30.2284185725
 20
0.5003121842
 30
0.0
 10
30.231643564
 20
0.4849157198
 30
0.0
 10
30.2357520163
 20
0.4699449739
 30
0.0
 10
30.240717791
 20
0.4555012924
 30
0.0
 10
30.2465063537
 20
0.4416819141
 30
0.0
 10
30.2530801251
 20
0.428581137
 30
0.0
 10
30.2592156031
 20
0.4182673994
 30
0.0
 10
30.2644802205
 20
0.4104663932
 30
0.0
 10
30.2698928221
 20
0.4030796618
 30
0.0
 10
30.2770476559
 20
0.3944417821
 30
0.0
 10
30.2862748671
 20
0.3850410922
 30
0.0
 10
30.2960237486
 20
0.3767431257
 30
0.0
 10
30.3062269825
 20
0.3696046698
 30
0.0
 10
30.315107401
 20
0.3646352813
 30
0.0
 10
30.3223583711
 20
0.3613022318
 30
0.0
 10
30.3278341809
 20
0.3591341076
 30
0.0
 10
30.3333687608
 20
0.357286968
 30
0.0
 10
30.3389527602
 20
0.3557635791
 30
0.0
 10
30.3445767464
 20
0.3545670862
 30
0.0
 10
30.3502311197
 20
0.3536998443
 30
0.0
 10
30.3559060871
 20
0.3531626858
 30
0.0
 10
30.361591989
 20
0.3529566319
 30
0.0
 10
30.3672790732
 20
0.3530827778
 30
0.0
 10
30.3729575565
 20
0.3535403294
 30
0.0
 10
30.3786177728
 20
0.3543281949
 30
0.0
 10
30.3842499736
 20
0.3554455426
 30
0.0
 10
30.3898444509
 20
0.3568905408
 30
0.0
 10
30.3953918039
 20
0.3586600234
 30
0.0
 10
30.4008825876
 20
0.3607510806
 30
0.0
 10
30.4063071646
 20
0.363160679
 30
0.0
 10
30.4116566432
 20
0.3658841631
 30
0.0
 10
30.418722151
 20
0.3699531928
 30
0.0
 10
30.4273244579
 20
0.3758215449
 30
0.0
 10
30.4354385723
 20
0.3825739954
 30
0.0
 10
30.441676872
 20
0.3885176633
 30
0.0
 10
30.4462552298
 20
0.3932787587
 30
0.0
 10
30.4506909029
 20
0.3983019592
 30
0.0
 10
30.4549761493
 20
0.4035792389
 30
0.0
 10
30.459103739
 20
0.4091015135
 30
0.0
 10
30.4644231605
 20
0.4168290676
 30
0.0
 10
30.4732137695
 20
0.431311277
 30
0.0
 10
30.4794104691
 20
0.4445974567
 30
0.0
 10
30.4829910544
 20
0.4537705298
 30
0.0
  0
SPLINE
  5
3CA
100
AcDbEntity
  8
0
100
AcDbSpline
 62
7
  6
CONTINUOUS
 70
0
 71
3
 72
12
 73
8
 74
0
 42
0.0000001
 43
0.0000001
 44
0.0000000001
 40
0.0
 40
0.0
 40
0.0
 40
0.0
 40
0.2459607737
 40
0.4953339506
 40
0.6210040881
 40
0.7471380428
 40
1.0
 40
1.0
 40
1.0
 40
1.0
 10
30.4899616352
 20
0.4744024459
 30
0.0
 10
30.4916541197
 20
0.4802747707
 30
0.0
 10
30.4946253759
 20
0.4922311197
 30
0.0
 10
30.4972733171
 20
0.5074454418
 30
0.0
 10
30.4987675783
 20
0.5198104775
 30
0.0
 10
30.4998401431
 20
0.5323056747
 30
0.0
 10
30.5001624701
 20
0.5417267295
 30
0.0
 10
30.5001624701
 20
0.5480095609
 30
0.0
  0
SPLINE
  5
3CB
100
AcDbEntity
  8
0
100
AcDbSpline
 62
7
  6
CONTINUOUS
 70
0
 71
3
 72
47
 73
43
 74
0
 42
0.0000001
 43
0.0000001
 44
0.0000000001
 40
0.0
 40
0.0
 40
0.0
 40
0.0
 40
0.0374098071
 40
0.0747161896
 40
0.1117727498
 40
0.1484715787
 40
0.1847083784
 40
0.2203792201
 40
0.2553929118
 40
0.2896709683
 40
0.3231497581
 40
0.3557813863
 40
0.3717731595
 40
0.3875441681
 40
0.4030944194
 40
0.4184253362
 40
0.44843374
 40
0.4776175775
 40
0.5060434028
 40
0.533804531
 40
0.5610180501
 40
0.5744674918
 40
0.5878337757
 40
0.6011370164
 40
0.6143979753
 40
0.6276377808
 40
0.6408779081
 40
0.6541398246
 40
0.6674446478
 40
0.6808131269
 40
0.6942653471
 40
0.7214860563
 40
0.749256302
 40
0.7776928147
 40
0.792195154
 40
0.8068965229
 40
0.8369176119
 40
0.8678051124
 40
0.8995748334
 40
0.9322193487
 40
0.9657104646
 40
1.0
 40
1.0
 40
1.0
 40
1.0
 10
30.2243908255
 20
3.7480095609
 30
0.0
 10
30.2243908255
 20
3.7532428735
 30
0.0
 10
30.2246889157
 20
3.763697463
 30
0.0
 10
30.2260246081
 20
3.7792845362
 30
0.0
 10
30.2282431655
 20
3.7946708716
 30
0.0
 10
30.2313287984
 20
3.8097544087
 30
0.0
 10
30.2352614746
 20
3.8244394034
 30
0.0
 10
30.2400169067
 20
3.8386310251
 30
0.0
 10
30.2455636568
 20
3.8522375849
 30
0.0
 10
30.2518675895
 20
3.8651709011
 30
0.0
 10
30.2588865792
 20
3.8773477582
 30
0.0
 10
30.265339842
 20
3.8868631383
 30
0.0
 10
30.2708211372
 20
3.8940142841
 30
0.0
 10
30.2750536978
 20
3.8991051112
 30
0.0
 10
30.2794281093
 20
3.903950915
 30
0.0
 10
30.2853964847
 20
3.910031008
 30
0.0
 10
30.2931727623
 20
3.9169966746
 30
0.0
 10
30.3030229769
 20
3.9243205589
 30
0.0
 10
30.313265029
 20
3.9305009866
 30
0.0
 10
30.3238306772
 20
3.9354970846
 30
0.0
 10
30.332887939
 20
3.9386561451
 30
0.0
 10
30.3402085368
 20
3.9405494114
 30
0.0
 10
30.34571478
 20
3.9416509965
 30
0.0
 10
30.3512480238
 20
3.9424375429
 30
0.0
 10
30.3567993314
 20
3.9429083575
 30
0.0
 10
30.3623596232
 20
3.943062434
 30
0.0
 10
30.367919778
 20
3.9428988881
 30
0.0
 10
30.3734706784
 20
3.9424186388
 30
0.0
 10
30.3790032451
 20
3.9416226856
 30
0.0
 10
30.3845085383
 20
3.9405117152
 30
0.0
 10
30.3918276442
 20
3.9386059755
 30
0.0
 10
30.4008823844
 20
3.9354314031
 30
0.0
 10
30.4114433622
 20
3.9304175324
 30
0.0
 10
30.4199198697
 20
3.9252854752
 30
0.0
 10
30.4265021033
 20
3.9206237471
 30
0.0
 10
30.4330341708
 20
3.9155228998
 30
0.0
 10
30.4409145995
 20
3.9084449426
 30
0.0
 10
30.4497897859
 20
3.898973918
 30
0.0
 10
30.4580945191
 20
3.8885267514
 30
0.0
 10
30.4657763354
 20
3.8771721714
 30
0.0
 10
30.4727849844
 20
3.8649835989
 30
0.0
 10
30.4769345572
 20
3.856448359
 30
0.0
 10
30.4788890101
 20
3.8520677733
 30
0.0
  0
SPLINE
  5
3CC
100
AcDbEntity
  8
0
100
AcDbSpline
 62
7
  6
CONTINUOUS
 70
0
 71
3
 72
9
 73
5
 74
0
 42
0.0000001
 43
0.0000001
 44
0.0000000001
 40
0.0
 40
0.0
 40
0.0
 40
0.0
 40
0.24658071
 40
1.0
 40
1.0
 40
1.0
 40
1.0
 10
30.4798880184
 20
3.8497942016
 30
0.0
 10
30.4808651285
 20
3.8475360186
 30
0.0
 10
30.48467493
 20
3.8383124386
 30
0.0
 10
30.4878795878
 20
3.8288406466
 30
0.0
 10
30.4899616352
 20
3.8216166759
 30
0.0
  0
SPLINE
  5
3CD
100
AcDbEntity
  8
0
100
AcDbSpline
 62
7
  6
CONTINUOUS
 70
0
 71
3
 72
12
 73
8
 74
0
 42
0.0000001
 43
0.0000001
 44
0.0000000001
 40
0.0
 40
0.0
 40
0.0
 40
0.0
 40
0.2459607737
 40
0.4953339506
 40
0.6210040881
 40
0.7471380428
 40
1.0
 40
1.0
 40
1.0
 40
1.0
 10
30.4899616352
 20
3.8216166759
 30
0.0
 10
30.4916541197
 20
3.8157443511
 30
0.0
 10
30.4946253759
 20
3.8037880021
 30
0.0
 10
30.4972733171
 20
3.78857368
 30
0.0
 10
30.4987675783
 20
3.7762086443
 30
0.0
 10
30.4998401431
 20
3.7637134472
 30
0.0
 10
30.5001624701
 20
3.7542923923
 30
0.0
 10
30.5001624701
 20
3.7480095609
 30
0.0
  0
SPLINE
  5
3CE
100
AcDbEntity
  8
0
100
AcDbSpline
 62
7
  6
CONTINUOUS
 70
0
 71
3
 72
51
 73
47
 74
0
 42
0.0000001
 43
0.0000001
 44
0.0000000001
 40
0.0
 40
0.0
 40
0.0
 40
0.0
 40
0.0373117736
 40
0.0745143082
 40
0.1114566155
 40
0.1480268795
 40
0.1841160394
 40
0.2196166012
 40
0.2544352697
 40
0.2884922721
 40
0.3217237851
 40
0.3380177214
 40
0.3540899516
 40
0.3855536875
 40
0.416119728
 40
0.4458111778
 40
0.4746790357
 40
0.5028010906
 40
0.5166194398
 40
0.5302930338
 40
0.5438391724
 40
0.557276388
 40
0.5706242493
 40
0.5839035019
 40
0.5971357147
 40
0.6103428627
 40
0.6235473023
 40
0.6367714583
 40
0.6500373994
 40
0.6633668035
 40
0.6767806795
 40
0.6902988654
 40
0.7039401366
 40
0.7177221584
 40
0.7316608293
 40
0.7457704438
 40
0.7745438217
 40
0.8041329065
 40
0.819255167
 40
0.8345992485
 40
0.8501675291
 40
0.8659611739
 40
0.8819795983
 40
0.89822046
 40
0.9313490598
 40
1.0
 40
1.0
 40
1.0
 40
1.0
 10
30.2243908255
 20
3.7480095609
 30
0.0
 10
30.2243908255
 20
3.7426576505
 30
0.0
 10
30.2247025151
 20
3.7319668947
 30
0.0
 10
30.2260992373
 20
3.7160322103
 30
0.0
 10
30.2284185725
 20
3.7003121842
 30
0.0
 10
30.231643564
 20
3.6849157198
 30
0.0
 10
30.2357520163
 20
3.6699449739
 30
0.0
 10
30.240717791
 20
3.6555012924
 30
0.0
 10
30.2465063537
 20
3.6416819141
 30
0.0
 10
30.2530801251
 20
3.628581137
 30
0.0
 10
30.2592156031
 20
3.6182673994
 30
0.0
 10
30.2644802205
 20
3.6104663932
 30
0.0
 10
30.2698928221
 20
3.6030796618
 30
0.0
 10
30.2770476559
 20
3.5944417821
 30
0.0
 10
30.2862748671
 20
3.5850410922
 30
0.0
 10
30.2960237486
 20
3.5767431257
 30
0.0
 10
30.3062269825
 20
3.5696046698
 30
0.0
 10
30.315107401
 20
3.5646352813
 30
0.0
 10
30.3223583711
 20
3.5613022318
 30
0.0
 10
30.3278341809
 20
3.5591341076
 30
0.0
 10
30.3333687608
 20
3.557286968
 30
0.0
 10
30.3389527602
 20
3.5557635791
 30
0.0
 10
30.3445767464
 20
3.5545670862
 30
0.0
 10
30.3502311197
 20
3.5536998443
 30
0.0
 10
30.3559060871
 20
3.5531626858
 30
0.0
 10
30.361591989
 20
3.5529566319
 30
0.0
 10
30.3672790732
 20
3.5530827778
 30
0.0
 10
30.3729575565
 20
3.5535403294
 30
0.0
 10
30.3786177728
 20
3.5543281949
 30
0.0
 10
30.3842499736
 20
3.5554455426
 30
0.0
 10
30.3898444509
 20
3.5568905408
 30
0.0
 10
30.3953918039
 20
3.5586600234
 30
0.0
 10
30.4008825876
 20
3.5607510806
 30
0.0
 10
30.4063071646
 20
3.563160679
 30
0.0
 10
30.4116566432
 20
3.5658841631
 30
0.0
 10
30.418722151
 20
3.5699531928
 30
0.0
 10
30.4273244579
 20
3.5758215449
 30
0.0
 10
30.4354385723
 20
3.5825739954
 30
0.0
 10
30.441676872
 20
3.5885176633
 30
0.0
 10
30.4462552298
 20
3.5932787587
 30
0.0
 10
30.4506909029
 20
3.5983019592
 30
0.0
 10
30.4549761493
 20
3.6035792389
 30
0.0
 10
30.459103739
 20
3.6091015135
 30
0.0
 10
30.4644231605
 20
3.6168290676
 30
0.0
 10
30.4732137695
 20
3.631311277
 30
0.0
 10
30.4794104691
 20
3.6445974567
 30
0.0
 10
30.4829910544
 20
3.6537705298
 30
0.0
  0
SPLINE
  5
3CF
100
AcDbEntity
  8
0
100
AcDbSpline
 62
7
  6
CONTINUOUS
 70
0
 71
3
 72
12
 73
8
 74
0
 42
0.0000001
 43
0.0000001
 44
0.0000000001
 40
0.0
 40
0.0
 40
0.0
 40
0.0
 40
0.2459607737
 40
0.4953339506
 40
0.6210040881
 40
0.7471380428
 40
1.0
 40
1.0
 40
1.0
 40
1.0
 10
30.4899616352
 20
3.6744024459
 30
0.0
 10
30.4916541197
 20
3.6802747707
 30
0.0
 10
30.4946253759
 20
3.6922311197
 30
0.0
 10
30.4972733171
 20
3.7074454418
 30
0.0
 10
30.4987675783
 20
3.7198104775
 30
0.0
 10
30.4998401431
 20
3.7323056747
 30
0.0
 10
30.5001624701
 20
3.7417267295
 30
0.0
 10
30.5001624701
 20
3.7480095609
 30
0.0
  0
SPLINE
  5
3D0
100
AcDbEntity
  8
0
100
AcDbSpline
 62
7
  6
CONTINUOUS
 70
0
 71
3
 72
11
 73
7
 74
0
 42
0.0000001
 43
0.0000001
 44
0.0000000001
 40
0.0
 40
0.0
 40
0.0
 40
0.0
 40
0.2601843884
 40
0.5165090217
 40
0.7640976828
 40
1.0
 40
1.0
 40
1.0
 40
1.0
 10
30.5107690719
 20
3.7480095609
 30
0.0
 10
30.5107690719
 20
3.7547764227
 30
0.0
 10
30.5098856207
 20
3.7682257079
 30
0.0
 10
30.5059863699
 20
3.7877721756
 30
0.0
 10
30.4996068927
 20
3.8059924287
 30
0.0
 10
30.4936798016
 20
3.8171552178
 30
0.0
 10
30.490343702
 20
3.8223042736
 30
0.0
  0
SPLINE
  5
3D1
100
AcDbEntity
  8
0
100
AcDbSpline
 62
7
  6
CONTINUOUS
 70
0
 71
3
 72
11
 73
7
 74
0
 42
0.0000001
 43
0.0000001
 44
0.0000000001
 40
0.0
 40
0.0
 40
0.0
 40
0.0
 40
0.2601843884
 40
0.5165090217
 40
0.7640976828
 40
1.0
 40
1.0
 40
1.0
 40
1.0
 10
30.5107690719
 20
0.5480095609
 30
0.0
 10
30.5107690719
 20
0.5547764227
 30
0.0
 10
30.5098856207
 20
0.5682257079
 30
0.0
 10
30.5059863699
 20
0.5877721756
 30
0.0
 10
30.4996068927
 20
0.6059924286
 30
0.0
 10
30.4936798016
 20
0.6171552178
 30
0.0
 10
30.490343702
 20
0.6223042736
 30
0.0
  0
SPLINE
  5
3D2
100
AcDbEntity
  8
0
100
AcDbSpline
 62
7
  6
CONTINUOUS
 70
0
 71
3
 72
11
 73
7
 74
0
 42
0.0000001
 43
0.0000001
 44
0.0000000001
 40
0.0
 40
0.0
 40
0.0
 40
0.0
 40
0.2359023172
 40
0.4834909783
 40
0.7398156116
 40
1.0
 40
1.0
 40
1.0
 40
1.0
 10
30.490343702
 20
3.6737148482
 30
0.0
 10
30.4936798016
 20
3.678863904
 30
0.0
 10
30.4996068927
 20
3.6900266932
 30
0.0
 10
30.5059863699
 20
3.7082469462
 30
0.0
 10
30.5098856207
 20
3.7277934139
 30
0.0
 10
30.5107690719
 20
3.7412426991
 30
0.0
 10
30.5107690719
 20
3.7480095609
 30
0.0
  0
SPLINE
  5
3D3
100
AcDbEntity
  8
0
100
AcDbSpline
 62
7
  6
CONTINUOUS
 70
0
 71
3
 72
11
 73
7
 74
0
 42
0.0000001
 43
0.0000001
 44
0.0000000001
 40
0.0
 40
0.0
 40
0.0
 40
0.0
 40
0.2359023172
 40
0.4834909783
 40
0.7398156116
 40
1.0
 40
1.0
 40
1.0
 40
1.0
 10
30.490343702
 20
0.4737148482
 30
0.0
 10
30.4936798016
 20
0.478863904
 30
0.0
 10
30.4996068927
 20
0.4900266932
 30
0.0
 10
30.5059863699
 20
0.5082469462
 30
0.0
 10
30.5098856207
 20
0.5277934139
 30
0.0
 10
30.5107690719
 20
0.5412426991
 30
0.0
 10
30.5107690719
 20
0.5480095609
 30
0.0
  0
SPLINE
  5
3D4
100
AcDbEntity
  8
0
100
AcDbSpline
 62
3
  6
CONTINUOUS
 70
0
 71
3
 72
30
 73
26
 74
0
 42
0.0000001
 43
0.0000001
 44
0.0000000001
 40
0.0
 40
0.0
 40
0.0
 40
0.0
 40
0.0262476067
 40
0.0531102158
 40
0.0806888761
 40
0.1090453602
 40
0.1681602591
 40
0.2305777003
 40
0.2629598728
 40
0.2960219713
 40
0.3296870959
 40
0.3638712433
 40
0.3984726185
 40
0.4333786709
 40
0.5036053203
 40
0.5736589768
 40
0.6426104122
 40
0.7095943666
 40
0.7421520942
 40
0.7739771789
 40
0.8050106369
 40
0.8352162332
 40
0.8930899497
 40
0.9478216786
 40
1.0
 40
1.0
 40
1.0
 40
1.0
 10
30.4840373874
 20
0.4572869872
 30
0.0
 10
30.4859796075
 20
0.4580000144
 30
0.0
 10
30.4898326639
 20
0.4596617234
 30
0.0
 10
30.4953818686
 20
0.4627918457
 30
0.0
 10
30.5007215536
 20
0.4665635707
 30
0.0
 10
30.5076090933
 20
0.4724804316
 30
0.0
 10
30.5154907727
 20
0.4813666399
 30
0.0
 10
30.5219954481
 20
0.4916656927
 30
0.0
 10
30.5264400419
 20
0.5007185133
 30
0.0
 10
30.529391789
 20
0.507958685
 30
0.0
 10
30.5318955137
 20
0.5155147951
 30
0.0
 10
30.5339275956
 20
0.5233363847
 30
0.0
 10
30.5354804626
 20
0.5313666087
 30
0.0
 10
30.5369034489
 20
0.542294481
 30
0.0
 10
30.5374315093
 20
0.5561309497
 30
0.0
 10
30.5360467972
 20
0.5726052989
 30
0.0
 10
30.5327272313
 20
0.5885415514
 30
0.0
 10
30.5283448299
 20
0.6011255642
 30
0.0
 10
30.5239409012
 20
0.6105054411
 30
0.0
 10
30.5202629628
 20
0.6170737827
 30
0.0
 10
30.5162022291
 20
0.6231927484
 30
0.0
 10
30.5103938701
 20
0.6305793537
 30
0.0
 10
30.5023525281
 20
0.6385468132
 30
0.0
 10
30.4915253758
 20
0.6458662707
 30
0.0
 10
30.4836329334
 20
0.6490431098
 30
0.0
 10
30.4796672402
 20
0.6501338363
 30
0.0
  0
SPLINE
  5
3D5
100
AcDbEntity
  8
0
100
AcDbSpline
 62
3
  6
CONTINUOUS
 70
0
 71
3
 72
30
 73
26
 74
0
 42
0.0000001
 43
0.0000001
 44
0.0000000001
 40
0.0
 40
0.0
 40
0.0
 40
0.0
 40
0.0262819441
 40
0.0531878022
 40
0.0808119855
 40
0.1092113612
 40
0.1683946579
 40
0.230843059
 40
0.2632224813
 40
0.2962705816
 40
0.3299115741
 40
0.3640624428
 40
0.3986226136
 40
0.4334814394
 40
0.5036047643
 40
0.5735568987
 40
0.6424258393
 40
0.7093601191
 40
0.7419078261
 40
0.7737342223
 40
0.8047804452
 40
0.8350085242
 40
0.8929506028
 40
0.9477647114
 40
1.0
 40
1.0
 40
1.0
 40
1.0
 10
30.4841233039
 20
3.6575888424
 30
0.0
 10
30.4860429609
 20
3.6583270736
 30
0.0
 10
30.4898491063
 20
3.6600346833
 30
0.0
 10
30.4953248068
 20
3.6632193307
 30
0.0
 10
30.5005906741
 20
3.6670302461
 30
0.0
 10
30.5073783719
 20
3.6729803516
 30
0.0
 10
30.5151378893
 20
3.6818724442
 30
0.0
 10
30.5215378065
 20
3.692140887
 30
0.0
 10
30.5259091392
 20
3.7011494964
 30
0.0
 10
30.5288104884
 20
3.7083455759
 30
0.0
 10
30.5312702924
 20
3.7158496263
 30
0.0
 10
30.5332660538
 20
3.7236122308
 30
0.0
 10
30.5347907384
 20
3.731577915
 30
0.0
 10
30.5361870509
 20
3.7424137529
 30
0.0
 10
30.5367033305
 20
3.7561301572
 30
0.0
 10
30.5353392921
 20
3.7724631181
 30
0.0
 10
30.5320733214
 20
3.7882709159
 30
0.0
 10
30.527762878
 20
3.8007652775
 30
0.0
 10
30.5234299144
 20
3.8100904859
 30
0.0
 10
30.5198098891
 20
3.8166290255
 30
0.0
 10
30.5158123446
 20
3.8227293023
 30
0.0
 10
30.5100914057
 20
3.8301081719
 30
0.0
 10
30.5021658494
 20
3.8380926561
 30
0.0
 10
30.4914880468
 20
3.8454877745
 30
0.0
 10
30.4836902773
 20
3.8487568464
 30
0.0
 10
30.4797663958
 20
3.8499025066
 30
0.0
  0
SPLINE
  5
3D6
100
AcDbEntity
  8
0
100
AcDbSpline
 62
3
  6
CONTINUOUS
 70
0
 71
3
 72
9
 73
5
 74
0
 42
0.0000001
 43
0.0000001
 44
0.0000000001
 40
0.0
 40
0.0
 40
0.0
 40
0.0
 40
0.5044578927
 40
1.0
 40
1.0
 40
1.0
 40
1.0
 10
44.7498153968
 20
0.5530095609
 30
0.0
 10
44.7498153968
 20
0.5591508619
 30
0.0
 10
44.7490226593
 20
0.5713370657
 30
0.0
 10
44.7466552351
 20
0.5833212589
 30
0.0
 10
44.7450701761
 20
0.5891420644
 30
0.0
  0
SPLINE
  5
3D7
100
AcDbEntity
  8
0
100
AcDbSpline
 62
3
  6
CONTINUOUS
 70
0
 71
3
 72
9
 73
5
 74
0
 42
0.0000001
 43
0.0000001
 44
0.0000000001
 40
0.0
 40
0.0
 40
0.0
 40
0.0
 40
0.5029037694
 40
1.0
 40
1.0
 40
1.0
 40
1.0
 10
44.7491207939
 20
3.7530095609
 30
0.0
 10
44.7491207939
 20
3.7579822636
 30
0.0
 10
44.7485984166
 20
3.7678768151
 30
0.0
 10
44.7470417753
 20
3.7776631001
 30
0.0
 10
44.7460029298
 20
3.7824673437
 30
0.0
  0
LINE
  5
3D8
100
AcDbEntity
  8
0
100
AcDbLine
 62
7
  6
CONTINUOUS
 10
-7.6049128709
 20
-20.4034428545
 11
-7.6175568418
 21
-20.4253428545
  0
LINE
  5
3D9
100
AcDbEntity
  8
0
100
AcDbLine
 62
7
  6
CONTINUOUS
 10
-7.7131660464
 20
-20.2159428545
 11
-7.7384539882
 21
-20.2159428545
  0
LINE
  5
3DA
100
AcDbEntity
  8
0
100
AcDbLine
 62
7
  6
CONTINUOUS
 10
-7.38840652
 20
-20.4034428545
 11
-7.3757625491
 21
-20.4253428545
  0
LINE
  5
3DB
100
AcDbEntity
  8
0
100
AcDbLine
 62
7
  6
CONTINUOUS
 10
-7.2801533445
 20
-20.2159428545
 11
-7.2548654027
 21
-20.2159428545
  0
LINE
  5
3DC
100
AcDbEntity
  8
0
100
AcDbLine
 62
7
  6
CONTINUOUS
 10
-7.38840652
 20
-20.0284428545
 11
-7.3757625491
 21
-20.0065428545
  0
LINE
  5
3DD
100
AcDbEntity
  8
0
100
AcDbLine
 62
7
  6
CONTINUOUS
 10
-7.6049128709
 20
-20.0284428545
 11
-7.6175568418
 21
-20.0065428545
  0
LINE
  5
3DE
100
AcDbEntity
  8
0
100
AcDbLine
 62
7
  6
CONTINUOUS
 10
-6.5442526992
 20
-21.4641030263
 11
-6.5568966701
 21
-21.4860030263
  0
LINE
  5
3DF
100
AcDbEntity
  8
0
100
AcDbLine
 62
7
  6
CONTINUOUS
 10
-6.6525058746
 20
-21.2766030263
 11
-6.6777938164
 21
-21.2766030263
  0
LINE
  5
3E0
100
AcDbEntity
  8
0
100
AcDbLine
 62
7
  6
CONTINUOUS
 10
-6.3277463482
 20
-21.4641030263
 11
-6.3151023773
 21
-21.4860030263
  0
LINE
  5
3E1
100
AcDbEntity
  8
0
100
AcDbLine
 62
7
  6
CONTINUOUS
 10
-6.2194931727
 20
-21.2766030263
 11
-6.1942052309
 21
-21.2766030263
  0
LINE
  5
3E2
100
AcDbEntity
  8
0
100
AcDbLine
 62
7
  6
CONTINUOUS
 10
-6.3277463482
 20
-21.0891030263
 11
-6.3151023773
 21
-21.0672030263
  0
LINE
  5
3E3
100
AcDbEntity
  8
0
100
AcDbLine
 62
7
  6
CONTINUOUS
 10
-6.5442526992
 20
-21.0891030263
 11
-6.5568966701
 21
-21.0672030263
  0
LINE
  5
3E4
100
AcDbEntity
  8
0
100
AcDbLine
 62
7
  6
CONTINUOUS
 10
4.0623490186
 20
-32.0707047441
 11
4.0497050477
 21
-32.0926047441
  0
LINE
  5
3E5
100
AcDbEntity
  8
0
100
AcDbLine
 62
7
  6
CONTINUOUS
 10
3.9540958432
 20
-31.8832047441
 11
3.9288079014
 21
-31.8832047441
  0
LINE
  5
3E6
100
AcDbEntity
  8
0
100
AcDbLine
 62
7
  6
CONTINUOUS
 10
4.2788553696
 20
-32.0707047441
 11
4.2914993405
 21
-32.0926047441
  0
LINE
  5
3E7
100
AcDbEntity
  8
0
100
AcDbLine
 62
7
  6
CONTINUOUS
 10
4.3871085451
 20
-31.8832047441
 11
4.4123964869
 21
-31.8832047441
  0
LINE
  5
3E8
100
AcDbEntity
  8
0
100
AcDbLine
 62
7
  6
CONTINUOUS
 10
4.2788553696
 20
-31.6957047441
 11
4.2914993405
 21
-31.6738047441
  0
LINE
  5
3E9
100
AcDbEntity
  8
0
100
AcDbLine
 62
7
  6
CONTINUOUS
 10
4.0623490186
 20
-31.6957047441
 11
4.0497050477
 21
-31.6738047441
  0
LINE
  5
3EA
100
AcDbEntity
  8
0
100
AcDbLine
 62
7
  6
CONTINUOUS
 10
-7.6049128709
 20
-33.1313649159
 11
-7.6175568418
 21
-33.1532649159
  0
LINE
  5
3EB
100
AcDbEntity
  8
0
100
AcDbLine
 62
7
  6
CONTINUOUS
 10
-7.7131660464
 20
-32.9438649159
 11
-7.7384539882
 21
-32.9438649159
  0
LINE
  5
3EC
100
AcDbEntity
  8
0
100
AcDbLine
 62
7
  6
CONTINUOUS
 10
-7.38840652
 20
-33.1313649159
 11
-7.3757625491
 21
-33.1532649159
  0
LINE
  5
3ED
100
AcDbEntity
  8
0
100
AcDbLine
 62
7
  6
CONTINUOUS
 10
-7.2801533445
 20
-32.9438649159
 11
-7.2548654027
 21
-32.9438649159
  0
LINE
  5
3EE
100
AcDbEntity
  8
0
100
AcDbLine
 62
7
  6
CONTINUOUS
 10
-7.38840652
 20
-32.7563649159
 11
-7.3757625491
 21
-32.7344649159
  0
LINE
  5
3EF
100
AcDbEntity
  8
0
100
AcDbLine
 62
7
  6
CONTINUOUS
 10
-7.6049128709
 20
-32.7563649159
 11
-7.6175568418
 21
-32.7344649159
  0
LINE
  5
3F0
100
AcDbEntity
  8
0
100
AcDbLine
 62
7
  6
CONTINUOUS
 10
5.1230091904
 20
-33.1313649159
 11
5.1103652195
 21
-33.1532649159
  0
LINE
  5
3F1
100
AcDbEntity
  8
0
100
AcDbLine
 62
7
  6
CONTINUOUS
 10
5.0147560149
 20
-32.9438649159
 11
4.9894680732
 21
-32.9438649159
  0
LINE
  5
3F2
100
AcDbEntity
  8
0
100
AcDbLine
 62
7
  6
CONTINUOUS
 10
5.3395155414
 20
-33.1313649159
 11
5.3521595123
 21
-33.1532649159
  0
LINE
  5
3F3
100
AcDbEntity
  8
0
100
AcDbLine
 62
7
  6
CONTINUOUS
 10
5.4477687168
 20
-32.9438649159
 11
5.4730566586
 21
-32.9438649159
  0
LINE
  5
3F4
100
AcDbEntity
  8
0
100
AcDbLine
 62
7
  6
CONTINUOUS
 10
5.3395155414
 20
-32.7563649159
 11
5.3521595123
 21
-32.7344649159
  0
LINE
  5
3F5
100
AcDbEntity
  8
0
100
AcDbLine
 62
7
  6
CONTINUOUS
 10
5.1230091904
 20
-32.7563649159
 11
5.1103652195
 21
-32.7344649159
  0
LINE
  5
3F6
100
AcDbEntity
  8
0
100
AcDbLine
 62
7
  6
CONTINUOUS
 10
5.1230091904
 20
-20.4034428545
 11
5.1103652195
 21
-20.4253428545
  0
LINE
  5
3F7
100
AcDbEntity
  8
0
100
AcDbLine
 62
7
  6
CONTINUOUS
 10
5.0147560149
 20
-20.2159428545
 11
4.9894680732
 21
-20.2159428545
  0
LINE
  5
3F8
100
AcDbEntity
  8
0
100
AcDbLine
 62
7
  6
CONTINUOUS
 10
5.3395155414
 20
-20.4034428545
 11
5.3521595123
 21
-20.4253428545
  0
LINE
  5
3F9
100
AcDbEntity
  8
0
100
AcDbLine
 62
7
  6
CONTINUOUS
 10
5.4477687168
 20
-20.2159428545
 11
5.4730566586
 21
-20.2159428545
  0
LINE
  5
3FA
100
AcDbEntity
  8
0
100
AcDbLine
 62
7
  6
CONTINUOUS
 10
5.3395155414
 20
-20.0284428545
 11
5.3521595123
 21
-20.0065428545
  0
LINE
  5
3FB
100
AcDbEntity
  8
0
100
AcDbLine
 62
7
  6
CONTINUOUS
 10
5.1230091904
 20
-20.0284428545
 11
5.1103652195
 21
-20.0065428545
  0
LINE
  5
3FC
100
AcDbEntity
  8
0
100
AcDbLine
 62
7
  6
CONTINUOUS
 10
-6.5442526992
 20
-32.0707047441
 11
-6.5568966701
 21
-32.0926047441
  0
LINE
  5
3FD
100
AcDbEntity
  8
0
100
AcDbLine
 62
7
  6
CONTINUOUS
 10
-6.6525058746
 20
-31.8832047441
 11
-6.6777938164
 21
-31.8832047441
  0
LINE
  5
3FE
100
AcDbEntity
  8
0
100
AcDbLine
 62
7
  6
CONTINUOUS
 10
-6.3277463482
 20
-32.0707047441
 11
-6.3151023773
 21
-32.0926047441
  0
LINE
  5
3FF
100
AcDbEntity
  8
0
100
AcDbLine
 62
7
  6
CONTINUOUS
 10
-6.2194931727
 20
-31.8832047441
 11
-6.1942052309
 21
-31.8832047441
  0
LINE
  5
400
100
AcDbEntity
  8
0
100
AcDbLine
 62
7
  6
CONTINUOUS
 10
-6.3277463482
 20
-31.6957047441
 11
-6.3151023773
 21
-31.6738047441
  0
LINE
  5
401
100
AcDbEntity
  8
0
100
AcDbLine
 62
7
  6
CONTINUOUS
 10
-6.5442526992
 20
-31.6957047441
 11
-6.5568966701
 21
-31.6738047441
  0
LINE
  5
402
100
AcDbEntity
  8
0
100
AcDbLine
 62
7
  6
CONTINUOUS
 10
4.0623490186
 20
-21.4641030263
 11
4.0497050477
 21
-21.4860030263
  0
LINE
  5
403
100
AcDbEntity
  8
0
100
AcDbLine
 62
7
  6
CONTINUOUS
 10
3.9540958432
 20
-21.2766030263
 11
3.9288079014
 21
-21.2766030263
  0
LINE
  5
404
100
AcDbEntity
  8
0
100
AcDbLine
 62
7
  6
CONTINUOUS
 10
4.2788553696
 20
-21.4641030263
 11
4.2914993405
 21
-21.4860030263
  0
LINE
  5
405
100
AcDbEntity
  8
0
100
AcDbLine
 62
7
  6
CONTINUOUS
 10
4.3871085451
 20
-21.2766030263
 11
4.4123964869
 21
-21.2766030263
  0
LINE
  5
406
100
AcDbEntity
  8
0
100
AcDbLine
 62
7
  6
CONTINUOUS
 10
4.2788553696
 20
-21.0891030263
 11
4.2914993405
 21
-21.0672030263
  0
LINE
  5
407
100
AcDbEntity
  8
0
100
AcDbLine
 62
7
  6
CONTINUOUS
 10
4.0623490186
 20
-21.0891030263
 11
4.0497050477
 21
-21.0672030263
  0
SPLINE
  5
408
100
AcDbEntity
  8
0
100
AcDbSpline
 62
7
  6
CONTINUOUS
 70
0
 71
3
 72
15
 73
11
 74
0
 42
0.0000001
 43
0.0000001
 44
0.0000000001
 40
0.0
 40
0.0
 40
0.0
 40
0.0
 40
0.1261099833
 40
0.2512738785
 40
0.3757984041
 40
0.5
 40
0.6242015959
 40
0.7487261215
 40
0.8738900167
 40
1.0
 40
1.0
 40
1.0
 40
1.0
 10
-0.150834729
 20
-25.5980399494
 30
0.0
 10
-0.1553171455
 20
-25.5898452934
 30
0.0
 10
-0.164815758
 20
-25.573820028
 30
0.0
 10
-0.1806748488
 20
-25.5509188809
 30
0.0
 10
-0.1980421976
 20
-25.5293181997
 30
0.0
 10
-0.2168714396
 20
-25.50907666
 30
0.0
 10
-0.2371129793
 20
-25.4902474181
 30
0.0
 10
-0.2587136605
 20
-25.4728800692
 30
0.0
 10
-0.2816148076
 20
-25.4570209784
 30
0.0
 10
-0.297640073
 20
-25.447522366
 30
0.0
 10
-0.305834729
 20
-25.4430399494
 30
0.0
  0
SPLINE
  5
409
100
AcDbEntity
  8
0
100
AcDbSpline
 62
7
  6
CONTINUOUS
 70
0
 71
3
 72
15
 73
11
 74
0
 42
0.0000001
 43
0.0000001
 44
0.0000000001
 40
0.0
 40
0.0
 40
0.0
 40
0.0
 40
0.1252146822
 40
0.2499116931
 40
0.3743170529
 40
0.498661262
 40
0.6231754954
 40
0.7480888588
 40
0.8736249174
 40
1.0
 40
1.0
 40
1.0
 40
1.0
 10
-0.0138349186
 20
-25.7232727329
 30
0.0
 10
-0.0181718376
 20
-25.7167624731
 30
0.0
 10
-0.0272178498
 20
-25.7040237336
 30
0.0
 10
-0.0418929686
 20
-25.6857993704
 30
0.0
 10
-0.0576129671
 20
-25.6685404341
 30
0.0
 10
-0.07434777
 20
-25.652280247
 30
0.0
 10
-0.0920660736
 20
-25.6370490807
 30
0.0
 10
-0.1107348007
 20
-25.6228753961
 30
0.0
 10
-0.1303179678
 20
-25.6097861319
 30
0.0
 10
-0.1439081851
 20
-25.601828718
 30
0.0
 10
-0.150834729
 20
-25.5980399494
 30
0.0
  0
SPLINE
  5
40A
100
AcDbEntity
  8
0
100
AcDbSpline
 62
7
  6
CONTINUOUS
 70
0
 71
3
 72
15
 73
11
 74
0
 42
0.0000001
 43
0.0000001
 44
0.0000000001
 40
0.0
 40
0.0
 40
0.0
 40
0.0
 40
0.1261099833
 40
0.2512738785
 40
0.3757984041
 40
0.5
 40
0.6242015959
 40
0.7487261215
 40
0.8738900167
 40
1.0
 40
1.0
 40
1.0
 40
1.0
 10
-0.150834729
 20
-27.561767821
 30
0.0
 10
-0.142640073
 20
-27.5572854044
 30
0.0
 10
-0.1266148076
 20
-27.547786792
 30
0.0
 10
-0.1037136605
 20
-27.5319277012
 30
0.0
 10
-0.0821129793
 20
-27.5145603523
 30
0.0
 10
-0.0618714396
 20
-27.4957311104
 30
0.0
 10
-0.0430421976
 20
-27.4754895707
 30
0.0
 10
-0.0256748488
 20
-27.4538888895
 30
0.0
 10
-0.009815758
 20
-27.4309877424
 30
0.0
 10
-0.0003171455
 20
-27.414962477
 30
0.0
 10
0.004165271
 20
-27.406767821
 30
0.0
  0
SPLINE
  5
40B
100
AcDbEntity
  8
0
100
AcDbSpline
 62
7
  6
CONTINUOUS
 70
0
 71
3
 72
15
 73
11
 74
0
 42
0.0000001
 43
0.0000001
 44
0.0000000001
 40
0.0
 40
0.0
 40
0.0
 40
0.0
 40
0.1252146822
 40
0.2499116931
 40
0.3743170529
 40
0.498661262
 40
0.6231754954
 40
0.7480888588
 40
0.8736249174
 40
1.0
 40
1.0
 40
1.0
 40
1.0
 10
-0.2760675125
 20
-27.6987676313
 30
0.0
 10
-0.2695572527
 20
-27.6944307124
 30
0.0
 10
-0.2568185132
 20
-27.6853847001
 30
0.0
 10
-0.23859415
 20
-27.6707095814
 30
0.0
 10
-0.2213352136
 20
-27.6549895829
 30
0.0
 10
-0.2050750266
 20
-27.63825478
 30
0.0
 10
-0.1898438603
 20
-27.6205364764
 30
0.0
 10
-0.1756701756
 20
-27.6018677493
 30
0.0
 10
-0.1625809115
 20
-27.5822845821
 30
0.0
 10
-0.1546234975
 20
-27.5686943649
 30
0.0
 10
-0.150834729
 20
-27.561767821
 30
0.0
  0
LINE
  5
40C
100
AcDbEntity
  8
0
100
AcDbLine
 62
7
  6
CONTINUOUS
 10
-1.1819524568
 20
-25.8278464811
 11
-1.2233335686
 21
-24.1012133105
  0
LINE
  5
40D
100
AcDbEntity
  8
0
100
AcDbLine
 62
7
  6
CONTINUOUS
 10
-1.0834448728
 20
-25.8278464811
 11
-1.042063761
 21
-24.1012133105
  0
LINE
  5
40E
100
AcDbEntity
  8
0
100
AcDbLine
 62
7
  6
CONTINUOUS
 10
-1.8847560689
 20
-26.6291576772
 11
-3.6113892395
 21
-26.670538789
  0
LINE
  5
40F
100
AcDbEntity
  8
0
100
AcDbLine
 62
7
  6
CONTINUOUS
 10
-1.8847560689
 20
-26.5306500932
 11
-3.6113892395
 21
-26.4892689814
  0
LINE
  5
410
100
AcDbEntity
  8
0
100
AcDbLine
 62
7
  6
CONTINUOUS
 10
-1.0834448728
 20
-27.3319612893
 11
-1.042063761
 21
-29.0585944599
  0
LINE
  5
411
100
AcDbEntity
  8
0
100
AcDbLine
 62
7
  6
CONTINUOUS
 10
-1.1819524568
 20
-27.3319612893
 11
-1.2233335686
 21
-29.0585944599
  0
LINE
  5
412
100
AcDbEntity
  8
0
100
AcDbLine
 62
7
  6
CONTINUOUS
 10
-0.3806412607
 20
-26.5306500932
 11
1.3459919099
 21
-26.4892689814
  0
LINE
  5
413
100
AcDbEntity
  8
0
100
AcDbLine
 62
7
  6
CONTINUOUS
 10
-0.3806412607
 20
-26.6291576772
 11
1.3459919099
 21
-26.670538789
  0
ELLIPSE
  5
414
100
AcDbEntity
  8
0
100
AcDbEllipse
 62
7
  6
CONTINUOUS
 10
-0.4528546206
 20
-25.900059841
 30
0.0
 11
0.1096015511
 21
-0.1096015511
 31
0.0
 40
0.0524077793
 41
-3.1415926536
 42
-0.0
  0
ELLIPSE
  5
415
100
AcDbEntity
  8
0
100
AcDbEllipse
 62
7
  6
CONTINUOUS
 10
-0.4528546206
 20
-27.2597479294
 30
0.0
 11
0.1103086579
 21
0.1103086579
 31
0.0
 40
0.0524077793
 41
-0.0490108235
 42
3.1906034771
  0
ENDSEC
  0
SECTION
  2
OBJECTS
  0
DICTIONARY
  5
C
100
AcDbDictionary
280
0
281
1
  3
ACAD_GROUP
350
D
  3
ACAD_MLINESTYLE
350
17
  3
ACAD_LAYOUT
350
1A
  3
ACAD_PLOTSETTINGS
350
19
  3
ACAD_PLOTSTYLENAME
350
E
  0
DICTIONARY
  5
D
102
{ACAD_REACTORS
330
C
102
}
100
AcDbDictionary
280
0
281
1
  0
ACDBDICTIONARYWDFLT
  5
E
102
{ACAD_REACTORS
330
C
102
}
100
AcDbDictionary
281
1
  3
Normal
350
F
100
AcDbDictionaryWithDefault
340
F
  0
DICTIONARY
  5
17
102
{ACAD_REACTORS
330
C
102
}
100
AcDbDictionary
280
0
281
1
  3
Standard
350
18
  0
DICTIONARY
  5
19
102
{ACAD_REACTORS
330
C
102
}
100
AcDbDictionary
281
1
  0
DICTIONARY
  5
1A
102
{ACAD_REACTORS
330
C
102
}
100
AcDbDictionary
281
1
  3
Model
350
416
  3
Layout1
350
417
  0
ACDBPLACEHOLDER
  5
F
102
{ACAD_REACTORS
330
E
102
}
  0
MLINESTYLE
  5
18
102
{ACAD_REACTORS
330
17
102
}
100
AcDbMlineStyle
  2
STANDARD
 70
0
  3

 62
256
 51
90.0
 52
90.0
 71
2
 49
0.5
 62
256
  6
BYLAYER
 49
-0.5
 62
256
  6
BYLAYER
  0
LAYOUT
  5
416
102
{ACAD_REACTORS
330
1A
102
}
100
AcDbPlotSettings
  1

  2
none_device
  4

  6

 40
0.0
 41
0.0
 42
0.0
 43
0.0
 44
431.8
 45
279.4
 46
0.0
 47
0.0
 48
0.0
 49
0.0
140
0.0
141
0.0
142
1.0
143
1.0
 70
1024
 72
0
 73
0
 74
0
  7

 75
0
147
1.0
148
0.0
149
0.0
100
AcDbLayout
  1
Model
 70
0
 71
0
 10
0.0
 20
0.0
 11
17.0
 21
11.0
 12
0.0
 22
0.0
 32
0.0
 14
0.0
 24
0.0
 34
0.0
 15
0.0
 25
0.0
 35
0.0
146
0.0
 13
0.0
 23
0.0
 33
0.0
 16
1.0
 26
0.0
 36
0.0
 17
0.0
 27
1.0
 37
0.0
 76
0
330
236
345
0
346
0
  0
LAYOUT
  5
417
102
{ACAD_REACTORS
330
1A
102
}
100
AcDbPlotSettings
  1

  2
none_device
  4

  6

 40
0.0
 41
0.0
 42
0.0
 43
0.0
 44
431.8
 45
279.4
 46
0.0
 47
0.0
 48
0.0
 49
0.0
140
0.0
141
0.0
142
1.0
143
1.0
 70
0
 72
0
 73
0
 74
0
  7

 75
0
147
1.0
148
0.0
149
0.0
100
AcDbLayout
  1
Layout1
 70
0
 71
1
 10
0.0
 20
0.0
 11
17.0
 21
11.0
 12
0.0
 22
0.0
 32
0.0
 14
0.0
 24
0.0
 34
0.0
 15
0.0
 25
0.0
 35
0.0
146
0.0
 13
0.0
 23
0.0
 33
0.0
 16
1.0
 26
0.0
 36
0.0
 17
0.0
 27
1.0
 37
0.0
 76
0
330
237
345
0
346
0
  0
ENDSEC
  0
EOF
