999
DXF file: N:\Master\master\M3_ProE_files\Lenexa\MADAM DXF\47394.dxf
999
Pro/ENGINEER 2010280 by Parametric Technology Corporation
  0
SECTION
  2
HEADER
  9
$ACADVER
  1
AC1021
  9
$DWGCODEPAGE
  3
ANSI_1252
  9
$EXTMAX
 10
17.0
 20
11.0
 30
0.0
  9
$EXTMIN
 10
0.0
 20
-0.0
 30
0.0
  9
$LIMMIN
 10
0.0
 20
-0.0
  9
$LIMMAX
 10
17.0
 20
11.0
  9
$VIEWCTR
 10
8.5
 20
5.5
  9
$VIEWSIZE
 40
11.0
  9
$CLAYER
  8
0
  9
$LTSCALE
 40
0.935
  9
$CELTYPE
  6
BYLAYER
  9
$DIMSCALE
 40
1.0
  9
$DIMASZ
 40
0.125
  9
$DIMEXO
 40
0.10625
  9
$DIMDLI
 40
0.646
  9
$DIMEXE
 40
0.306
  9
$DIMCEN
 40
0.153
  9
$DIMLFAC
 40
1.0
  9
$DIMBLK
  1
_FILLED
  9
$DIMTXT
 40
0.15625
  9
$DIMTOL
 70
1
  9
$DIMLIM
 70
0
  9
$DIMTFAC
 40
1.0
  9
$DIMTP
 40
0.7
  9
$DIMTM
 40
0.7
  9
$PDMODE
 70
3
  9
$PDSIZE
 40
0.3125
  9
$HANDSEED
  5
417
  9
$TILEMODE
 70
1
  9
$MEASUREMENT
 70
0
  9
$INSUNITS
 70
1
  0
ENDSEC
  0
SECTION
  2
CLASSES
  0
CLASS
  1
ACDBDICTIONARYWDFLT
  2
AcDbDictionaryWithDefault
  3
AutoCAD 2000
 90
0
 91
1
280
0
281
0
  0
CLASS
  1
ACDBPLACEHOLDER
  2
AcDbPlaceHolder
  3
AutoCAD 2000
 90
0
 91
1
280
0
281
0
  0
CLASS
  1
LAYOUT
  2
AcDbLayout
  3
AutoCAD 2000
 90
0
 91
0
280
0
281
0
  0
ENDSEC
  0
SECTION
  2
TABLES
  0
TABLE
  2
VPORT
  5
8
100
AcDbSymbolTable
 70
2
  0
VPORT
  5
1F4
100
AcDbSymbolTableRecord
100
AcDbViewportTableRecord
  2
*ACTIVE
 70
0
 10
0.0
 20
0.0
 11
1.0
 21
1.0
 12
8.5
 22
5.5
 13
0.0
 23
0.0
 14
1.0
 24
1.0
 15
0.0
 25
0.0
 16
0.0
 26
0.0
 36
1.0
 17
0.0
 27
0.0
 37
0.0
 40
11.0
 41
1.5454545455
 42
50.0
 43
0.0
 44
0.0
 50
0.0
 51
0.0
 71
0
 72
100
 73
1
 74
1
 75
0
 76
0
 77
0
 78
0
  0
ENDTAB
  0
TABLE
  2
LTYPE
  5
5
100
AcDbSymbolTable
 70
6
  0
LTYPE
  5
14
100
AcDbSymbolTableRecord
100
AcDbLinetypeTableRecord
  2
BYBLOCK
 70
0
  3

 72
65
 73
0
 40
0.0
  0
LTYPE
  5
15
100
AcDbSymbolTableRecord
100
AcDbLinetypeTableRecord
  2
BYLAYER
 70
0
  3

 72
65
 73
0
 40
0.0
  0
LTYPE
  5
16
100
AcDbSymbolTableRecord
100
AcDbLinetypeTableRecord
  2
CONTINUOUS
 70
64
  3
Solid line
 72
65
 73
0
 40
0.0
  0
LTYPE
  5
1F5
100
AcDbSymbolTableRecord
100
AcDbLinetypeTableRecord
  2
CENTER
 70
64
  3
____ _ ____ _ ____ _ ____ _ ____ _ ____ _ ____
 72
65
 73
4
 40
0.6
 49
0.375
 74
0
 49
-0.075
 74
0
 49
0.075
 74
0
 49
-0.075
 74
0
  0
LTYPE
  5
1F6
100
AcDbSymbolTableRecord
100
AcDbLinetypeTableRecord
  2
HIDDEN
 70
64
  3
- - - - - - - - - - - - - - - - - - - -
 72
65
 73
2
 40
0.2
 49
0.1
 74
0
 49
-0.1
 74
0
  0
LTYPE
  5
1F7
100
AcDbSymbolTableRecord
100
AcDbLinetypeTableRecord
  2
PHANTOM
 70
64
  3
_____ _ _ _____ _ _ _____ _ _ _____
 72
65
 73
6
 40
0.8
 49
0.45
 74
0
 49
-0.05
 74
0
 49
0.1
 74
0
 49
-0.05
 74
0
 49
0.1
 74
0
 49
-0.05
 74
0
  0
LTYPE
  5
1F8
100
AcDbSymbolTableRecord
100
AcDbLinetypeTableRecord
  2
DOT
 70
64
  3
. . . . . . . . . . . . . . . . . . . .
 72
65
 73
2
 40
0.2
 49
0.1
 74
0
 49
-0.1
 74
0
  0
LTYPE
  5
1F9
100
AcDbSymbolTableRecord
100
AcDbLinetypeTableRecord
  2
DASHED
 70
64
  3
- - - - - - - - - - - - - - - - - - - -
 72
65
 73
2
 40
0.2
 49
0.1
 74
0
 49
-0.1
 74
0
  0
ENDTAB
  0
TABLE
  2
LAYER
  5
2
100
AcDbSymbolTable
 70
36
  0
LAYER
  5
10
100
AcDbSymbolTableRecord
100
AcDbLayerTableRecord
  2
0
 70
0
 62
7
  6
CONTINUOUS
370
-3
390
F
  0
LAYER
  5
1FA
100
AcDbSymbolTableRecord
100
AcDbLayerTableRecord
  2
DEFAULT_1
 70
0
 62
7
  6
CENTER
370
-3
390
F
  0
LAYER
  5
1FB
100
AcDbSymbolTableRecord
100
AcDbLayerTableRecord
  2
DEFAULT_2
 70
0
 62
8
  6
HIDDEN
370
-3
390
F
  0
LAYER
  5
1FC
100
AcDbSymbolTableRecord
100
AcDbLayerTableRecord
  2
DEFAULT_3
 70
0
 62
7
  6
PHANTOM
370
-3
390
F
  0
LAYER
  5
1FD
100
AcDbSymbolTableRecord
100
AcDbLayerTableRecord
  2
01_ALL_DTM_PLN
 70
0
 62
7
  6
CONTINUOUS
370
-3
390
F
  0
LAYER
  5
1FE
100
AcDbSymbolTableRecord
100
AcDbLayerTableRecord
  2
01__ASM_ALL_DTM_PLN
 70
0
 62
7
  6
CONTINUOUS
370
-3
390
F
  0
LAYER
  5
1FF
100
AcDbSymbolTableRecord
100
AcDbLayerTableRecord
  2
01__ASM_DEF_DTM_PLN
 70
0
 62
7
  6
CONTINUOUS
370
-3
390
F
  0
LAYER
  5
200
100
AcDbSymbolTableRecord
100
AcDbLayerTableRecord
  2
01___PRT_ALL_DTM_PLN
 70
0
 62
7
  6
CONTINUOUS
370
-3
390
F
  0
LAYER
  5
201
100
AcDbSymbolTableRecord
100
AcDbLayerTableRecord
  2
01___PRT_DEF_DTM_PLN
 70
0
 62
7
  6
CONTINUOUS
370
-3
390
F
  0
LAYER
  5
202
100
AcDbSymbolTableRecord
100
AcDbLayerTableRecord
  2
02_ALL_AXES
 70
0
 62
7
  6
CONTINUOUS
370
-3
390
F
  0
LAYER
  5
203
100
AcDbSymbolTableRecord
100
AcDbLayerTableRecord
  2
02__ASM_ALL_AXES
 70
0
 62
7
  6
CONTINUOUS
370
-3
390
F
  0
LAYER
  5
204
100
AcDbSymbolTableRecord
100
AcDbLayerTableRecord
  2
02___PRT_ALL_AXES
 70
0
 62
7
  6
CONTINUOUS
370
-3
390
F
  0
LAYER
  5
205
100
AcDbSymbolTableRecord
100
AcDbLayerTableRecord
  2
03_ALL_CURVES
 70
0
 62
7
  6
CONTINUOUS
370
-3
390
F
  0
LAYER
  5
206
100
AcDbSymbolTableRecord
100
AcDbLayerTableRecord
  2
03__ASM_ALL_CURVES
 70
0
 62
7
  6
CONTINUOUS
370
-3
390
F
  0
LAYER
  5
207
100
AcDbSymbolTableRecord
100
AcDbLayerTableRecord
  2
03___PRT_ALL_CURVES
 70
0
 62
7
  6
CONTINUOUS
370
-3
390
F
  0
LAYER
  5
208
100
AcDbSymbolTableRecord
100
AcDbLayerTableRecord
  2
04_ALL_DTM_PNT
 70
0
 62
7
  6
CONTINUOUS
370
-3
390
F
  0
LAYER
  5
209
100
AcDbSymbolTableRecord
100
AcDbLayerTableRecord
  2
04__ASM_ALL_DTM_PNT
 70
0
 62
7
  6
CONTINUOUS
370
-3
390
F
  0
LAYER
  5
20A
100
AcDbSymbolTableRecord
100
AcDbLayerTableRecord
  2
04___PRT_ALL_DTM_PNT
 70
0
 62
7
  6
CONTINUOUS
370
-3
390
F
  0
LAYER
  5
20B
100
AcDbSymbolTableRecord
100
AcDbLayerTableRecord
  2
05_ALL_DTM_CSYS
 70
0
 62
7
  6
CONTINUOUS
370
-3
390
F
  0
LAYER
  5
20C
100
AcDbSymbolTableRecord
100
AcDbLayerTableRecord
  2
05__ASM_ALL_DTM_CSYS
 70
0
 62
7
  6
CONTINUOUS
370
-3
390
F
  0
LAYER
  5
20D
100
AcDbSymbolTableRecord
100
AcDbLayerTableRecord
  2
05__ASM_DEF_DTM_CSYS
 70
0
 62
7
  6
CONTINUOUS
370
-3
390
F
  0
LAYER
  5
20E
100
AcDbSymbolTableRecord
100
AcDbLayerTableRecord
  2
05___PRT_ALL_DTM_CSYS
 70
0
 62
7
  6
CONTINUOUS
370
-3
390
F
  0
LAYER
  5
20F
100
AcDbSymbolTableRecord
100
AcDbLayerTableRecord
  2
05___PRT_DEF_DTM_CSYS
 70
0
 62
7
  6
CONTINUOUS
370
-3
390
F
  0
LAYER
  5
210
100
AcDbSymbolTableRecord
100
AcDbLayerTableRecord
  2
06_ALL_SURFS
 70
0
 62
7
  6
CONTINUOUS
370
-3
390
F
  0
LAYER
  5
211
100
AcDbSymbolTableRecord
100
AcDbLayerTableRecord
  2
06__ASM_ALL_SURFS
 70
0
 62
7
  6
CONTINUOUS
370
-3
390
F
  0
LAYER
  5
212
100
AcDbSymbolTableRecord
100
AcDbLayerTableRecord
  2
06___PRT_ALL_SURFS
 70
0
 62
7
  6
CONTINUOUS
370
-3
390
F
  0
LAYER
  5
213
100
AcDbSymbolTableRecord
100
AcDbLayerTableRecord
  2
07__ASM_ALL_SKELETONS
 70
0
 62
7
  6
CONTINUOUS
370
-3
390
F
  0
LAYER
  5
214
100
AcDbSymbolTableRecord
100
AcDbLayerTableRecord
  2
904PLANES
 70
0
 62
7
  6
CONTINUOUS
370
-3
390
F
  0
LAYER
  5
215
100
AcDbSymbolTableRecord
100
AcDbLayerTableRecord
  2
90517DTMS
 70
0
 62
7
  6
CONTINUOUS
370
-3
390
F
  0
LAYER
  5
216
100
AcDbSymbolTableRecord
100
AcDbLayerTableRecord
  2
AXIS
 70
0
 62
7
  6
CONTINUOUS
370
-3
390
F
  0
LAYER
  5
217
100
AcDbSymbolTableRecord
100
AcDbLayerTableRecord
  2
BAFFLE_DTMS
 70
0
 62
7
  6
CONTINUOUS
370
-3
390
F
  0
LAYER
  5
218
100
AcDbSymbolTableRecord
100
AcDbLayerTableRecord
  2
BD_ANGLE
 70
0
 62
7
  6
CONTINUOUS
370
-3
390
F
  0
LAYER
  5
219
100
AcDbSymbolTableRecord
100
AcDbLayerTableRecord
  2
CONDUIT_DTMS
 70
0
 62
7
  6
CONTINUOUS
370
-3
390
F
  0
LAYER
  5
21A
100
AcDbSymbolTableRecord
100
AcDbLayerTableRecord
  2
CS
 70
0
 62
7
  6
CONTINUOUS
370
-3
390
F
  0
LAYER
  5
21B
100
AcDbSymbolTableRecord
100
AcDbLayerTableRecord
  2
CSYS
 70
0
 62
7
  6
CONTINUOUS
370
-3
390
F
  0
LAYER
  5
21C
100
AcDbSymbolTableRecord
100
AcDbLayerTableRecord
  2
CURVE
 70
0
 62
7
  6
CONTINUOUS
370
-3
390
F
  0
LAYER
  5
21D
100
AcDbSymbolTableRecord
100
AcDbLayerTableRecord
  2
CURVES
 70
0
 62
7
  6
CONTINUOUS
370
-3
390
F
  0
LAYER
  5
21E
100
AcDbSymbolTableRecord
100
AcDbLayerTableRecord
  2
DATUM_PLANES
 70
0
 62
7
  6
CONTINUOUS
370
-3
390
F
  0
LAYER
  5
21F
100
AcDbSymbolTableRecord
100
AcDbLayerTableRecord
  2
DEF_DTMS
 70
0
 62
7
  6
CONTINUOUS
370
-3
390
F
  0
LAYER
  5
220
100
AcDbSymbolTableRecord
100
AcDbLayerTableRecord
  2
GENPLANES
 70
0
 62
7
  6
CONTINUOUS
370
-3
390
F
  0
LAYER
  5
221
100
AcDbSymbolTableRecord
100
AcDbLayerTableRecord
  2
HEAD
 70
0
 62
7
  6
CONTINUOUS
370
-3
390
F
  0
LAYER
  5
222
100
AcDbSymbolTableRecord
100
AcDbLayerTableRecord
  2
HUB_DTMS
 70
0
 62
7
  6
CONTINUOUS
370
-3
390
F
  0
LAYER
  5
223
100
AcDbSymbolTableRecord
100
AcDbLayerTableRecord
  2
IGES_ITEMS
 70
0
 62
7
  6
CONTINUOUS
370
-3
390
F
  0
LAYER
  5
224
100
AcDbSymbolTableRecord
100
AcDbLayerTableRecord
  2
IGS_ITEMS
 70
0
 62
7
  6
CONTINUOUS
370
-3
390
F
  0
LAYER
  5
225
100
AcDbSymbolTableRecord
100
AcDbLayerTableRecord
  2
INTF_1
 70
0
 62
7
  6
CONTINUOUS
370
-3
390
F
  0
LAYER
  5
226
100
AcDbSymbolTableRecord
100
AcDbLayerTableRecord
  2
J_BOX_ANGLE
 70
0
 62
7
  6
CONTINUOUS
370
-3
390
F
  0
LAYER
  5
227
100
AcDbSymbolTableRecord
100
AcDbLayerTableRecord
  2
LAY0001
 70
0
 62
7
  6
CONTINUOUS
370
-3
390
F
  0
LAYER
  5
228
100
AcDbSymbolTableRecord
100
AcDbLayerTableRecord
  2
MTR_HOLE_ANG_DTM
 70
0
 62
7
  6
CONTINUOUS
370
-3
390
F
  0
LAYER
  5
229
100
AcDbSymbolTableRecord
100
AcDbLayerTableRecord
  2
NEW
 70
0
 62
7
  6
CONTINUOUS
370
-3
390
F
  0
LAYER
  5
22A
100
AcDbSymbolTableRecord
100
AcDbLayerTableRecord
  2
PARTDTMS
 70
0
 62
7
  6
CONTINUOUS
370
-3
390
F
  0
LAYER
  5
22B
100
AcDbSymbolTableRecord
100
AcDbLayerTableRecord
  2
PLANE
 70
0
 62
7
  6
CONTINUOUS
370
-3
390
F
  0
LAYER
  5
22C
100
AcDbSymbolTableRecord
100
AcDbLayerTableRecord
  2
PLANES
 70
0
 62
7
  6
CONTINUOUS
370
-3
390
F
  0
LAYER
  5
22D
100
AcDbSymbolTableRecord
100
AcDbLayerTableRecord
  2
POINT
 70
0
 62
7
  6
CONTINUOUS
370
-3
390
F
  0
LAYER
  5
22E
100
AcDbSymbolTableRecord
100
AcDbLayerTableRecord
  2
ROUND
 70
0
 62
7
  6
CONTINUOUS
370
-3
390
F
  0
LAYER
  5
22F
100
AcDbSymbolTableRecord
100
AcDbLayerTableRecord
  2
STANDOFF_DTMS
 70
0
 62
7
  6
CONTINUOUS
370
-3
390
F
  0
LAYER
  5
230
100
AcDbSymbolTableRecord
100
AcDbLayerTableRecord
  2
STIFF_ANGLE
 70
0
 62
7
  6
CONTINUOUS
370
-3
390
F
  0
LAYER
  5
231
100
AcDbSymbolTableRecord
100
AcDbLayerTableRecord
  2
SURFACE
 70
0
 62
7
  6
CONTINUOUS
370
-3
390
F
  0
LAYER
  5
232
100
AcDbSymbolTableRecord
100
AcDbLayerTableRecord
  2
TOP_SURFACE
 70
0
 62
7
  6
CONTINUOUS
370
-3
390
F
  0
LAYER
  5
233
100
AcDbSymbolTableRecord
100
AcDbLayerTableRecord
  2
WITNESS
 70
0
 62
7
  6
CONTINUOUS
370
-3
390
F
  0
LAYER
  5
234
100
AcDbSymbolTableRecord
100
AcDbLayerTableRecord
  2
XSEC_DATUMS
 70
0
 62
7
  6
CONTINUOUS
370
-3
390
F
  0
ENDTAB
  0
TABLE
  2
STYLE
  5
3
100
AcDbSymbolTable
 70
1
  0
STYLE
  5
11
100
AcDbSymbolTableRecord
100
AcDbTextStyleTableRecord
  2
STANDARD
 70
0
 40
0.0
 41
0.8
 50
0.0
 71
0
 42
0.2
  3
txt
  4

  0
STYLE
  5
235
100
AcDbSymbolTableRecord
100
AcDbTextStyleTableRecord
  2
TEXTSTYLE_1
 70
0
 40
0.0
 41
0.8
 50
0.0
 71
0
 42
0.2
  3
gdt
  4

  0
ENDTAB
  0
TABLE
  2
VIEW
  5
6
100
AcDbSymbolTable
 70
0
  0
ENDTAB
  0
TABLE
  2
UCS
  5
7
100
AcDbSymbolTable
 70
0
  0
ENDTAB
  0
TABLE
  2
APPID
  5
9
100
AcDbSymbolTable
 70
1
  0
APPID
  5
236
100
AcDbSymbolTableRecord
100
AcDbRegAppTableRecord
  2
ACAD
 70
0
  0
ENDTAB
  0
TABLE
  2
BLOCK_RECORD
  5
1
100
AcDbSymbolTable
 70
0
  0
BLOCK_RECORD
  5
237
100
AcDbSymbolTableRecord
100
AcDbBlockTableRecord
  2
*Model_Space
  0
BLOCK_RECORD
  5
238
100
AcDbSymbolTableRecord
100
AcDbBlockTableRecord
  2
*Paper_Space
  0
ENDTAB
  0
TABLE
  2
DIMSTYLE
  5
A
100
AcDbSymbolTable
 70
1
100
AcDbDimStyleTable
 71
0
  0
DIMSTYLE
105
239
100
AcDbSymbolTableRecord
100
AcDbDimStyleTableRecord
  2
STANDARD
 70
0
  3

  4

 40
1.0
 41
0.125
 42
0.0625
 43
0.38
 44
0.18
 45
0.0
 46
0.0
 47
0.7
 48
0.7
140
0.15625
141
0.09
142
0.0
143
25.4
144
1.0
145
0.0
146
1.0
147
0.09
 71
1.0
 72
0.0
 73
1
 74
1
 75
0
 76
0
 77
0
 78
4
170
0
171
2
172
0
173
0
174
0
175
0
176
0
177
0
178
0
270
2
271
2
272
2
273
2
274
2
275
0
280
0
281
0
282
0
283
1
284
4
285
0
286
0
287
3
288
0
340
11
  0
ENDTAB
  0
ENDSEC
  0
SECTION
  2
BLOCKS
  0
BLOCK
  5
20
100
AcDbEntity
  8
0
100
AcDbBlockBegin
  2
*Model_Space
 70
0
 10
0.0
 20
0.0
 30
0.0
  3
*Model_Space
  1

  0
ENDBLK
  5
21
100
AcDbEntity
  8
0
100
AcDbBlockEnd
  0
BLOCK
  5
1C
100
AcDbEntity
  8
0
100
AcDbBlockBegin
  2
*Paper_Space
 70
0
 10
0.0
 20
0.0
 30
0.0
  3
*Paper_Space
  1

  0
ENDBLK
  5
1D
100
AcDbEntity
  8
0
100
AcDbBlockEnd
  0
ENDSEC
  0
SECTION
  2
ENTITIES
  0
MTEXT
  5
23A
100
AcDbEntity
  8
0
100
AcDbMText
 62
2
  6
CONTINUOUS
  7
STANDARD
 71
1
 72
1
 10
-5.1908091386
 20
-23.2332324365
 30
0.0
 11
1.0
 21
0.0
 31
0.0
 44
0.9
  1
47394
 40
4.0
 41
16.0
  0
LINE
  5
23B
100
AcDbEntity
  8
0
100
AcDbLine
 62
7
  6
CONTINUOUS
 10
-44.7827448613
 20
0.1868568671
 11
-44.7827448613
 21
0.2543568671
  0
LINE
  5
23C
100
AcDbEntity
  8
0
100
AcDbLine
 62
3
  6
CONTINUOUS
 10
-44.7521382596
 20
0.0668568671
 11
-44.7521382596
 21
-1.3131431329
  0
LINE
  5
23D
100
AcDbEntity
  8
0
100
AcDbLine
 62
7
  6
CONTINUOUS
 10
-44.6921382596
 20
0.0668568671
 11
-44.6921382596
 21
-1.3131431329
  0
LINE
  5
23E
100
AcDbEntity
  8
0
100
AcDbLine
 62
3
  6
CONTINUOUS
 10
-44.6321382596
 20
0.1868568671
 11
-44.6321382596
 21
-1.3131431329
  0
LINE
  5
23F
100
AcDbEntity
  8
0
100
AcDbLine
 62
3
  6
CONTINUOUS
 10
-45.9103880883
 20
5.0978568671
 11
-44.2874374821
 21
9.5568770105
  0
LINE
  5
240
100
AcDbEntity
  8
0
100
AcDbLine
 62
3
  6
CONTINUOUS
 10
-42.9427448613
 20
0.2543568671
 11
-42.9427448613
 21
4.5918568671
  0
LINE
  5
241
100
AcDbEntity
  8
0
100
AcDbLine
 62
3
  6
CONTINUOUS
 10
-42.3566351105
 20
0.2543568671
 11
-42.3566351105
 21
4.5918568671
  0
LINE
  5
242
100
AcDbEntity
  8
0
100
AcDbLine
 62
7
  6
CONTINUOUS
 10
-42.2827448613
 20
0.2543568671
 11
-42.2827448613
 21
0.1918568671
  0
LINE
  5
243
100
AcDbEntity
  8
0
100
AcDbLine
 62
7
  6
CONTINUOUS
 10
-42.1827448613
 20
0.1918568671
 11
-42.1827448613
 21
0.1968568671
  0
LINE
  5
244
100
AcDbEntity
  8
0
100
AcDbLine
 62
7
  6
CONTINUOUS
 10
-42.0327448613
 20
0.1868568671
 11
-42.0327448613
 21
0.1918568671
  0
LINE
  5
245
100
AcDbEntity
  8
0
100
AcDbLine
 62
7
  6
CONTINUOUS
 10
-42.0327448613
 20
0.1968568671
 11
-42.0327448613
 21
0.2368568671
  0
LINE
  5
246
100
AcDbEntity
  8
0
100
AcDbLine
 62
3
  6
CONTINUOUS
 10
-41.8778985509
 20
10.5438467955
 11
-39.8240035216
 21
16.1868770105
  0
LINE
  5
247
100
AcDbEntity
  8
0
100
AcDbLine
 62
7
  6
CONTINUOUS
 10
-41.4461242246
 20
10.2798568671
 11
-41.4461242246
 21
10.2148568671
  0
LINE
  5
248
100
AcDbEntity
  8
0
100
AcDbLine
 62
7
  6
CONTINUOUS
 10
-41.3511168911
 20
10.2798568671
 11
-41.3511168911
 21
10.4598568671
  0
LINE
  5
249
100
AcDbEntity
  8
0
100
AcDbLine
 62
7
  6
CONTINUOUS
 10
-41.2261205579
 20
10.2798568671
 11
-41.2261205579
 21
10.4598568671
  0
LINE
  5
24A
100
AcDbEntity
  8
0
100
AcDbLine
 62
7
  6
CONTINUOUS
 10
-40.9761278913
 20
10.2798568671
 11
-40.9761278913
 21
10.4598568671
  0
LINE
  5
24B
100
AcDbEntity
  8
0
100
AcDbLine
 62
7
  6
CONTINUOUS
 10
-40.9327448613
 20
0.1918568671
 11
-40.9327448613
 21
0.1968568671
  0
LINE
  5
24C
100
AcDbEntity
  8
0
100
AcDbLine
 62
7
  6
CONTINUOUS
 10
-40.851131558
 20
10.2798568671
 11
-40.851131558
 21
10.4598568671
  0
LINE
  5
24D
100
AcDbEntity
  8
0
100
AcDbLine
 62
7
  6
CONTINUOUS
 10
-40.7561242246
 20
10.2798568671
 11
-40.7561242246
 21
10.2148568671
  0
LINE
  5
24E
100
AcDbEntity
  8
0
100
AcDbLine
 62
3
  6
CONTINUOUS
 10
-39.8927024715
 20
0.1868568671
 11
-39.8927024715
 21
4.5918568671
  0
LINE
  5
24F
100
AcDbEntity
  8
0
100
AcDbLine
 62
7
  6
CONTINUOUS
 10
-39.870065681
 20
0.1868568671
 11
-39.870065681
 21
4.5918568671
  0
LINE
  5
250
100
AcDbEntity
  8
0
100
AcDbLine
 62
7
  6
CONTINUOUS
 10
-44.7521382596
 20
-1.3131431329
 11
-44.6921382596
 21
-1.3131431329
  0
LINE
  5
251
100
AcDbEntity
  8
0
100
AcDbLine
 62
7
  6
CONTINUOUS
 10
-22.5333514631
 20
-1.3131431329
 11
-22.5933514631
 21
-1.3131431329
  0
LINE
  5
252
100
AcDbEntity
  8
0
100
AcDbLine
 62
3
  6
CONTINUOUS
 10
-22.6533514631
 20
-1.3131431329
 11
-44.6321382596
 21
-1.3131431329
  0
LINE
  5
253
100
AcDbEntity
  8
0
100
AcDbLine
 62
7
  6
CONTINUOUS
 10
-44.7827448613
 20
0.1868568671
 11
-44.6321382596
 21
0.1868568671
  0
LINE
  5
254
100
AcDbEntity
  8
0
100
AcDbLine
 62
3
  6
CONTINUOUS
 10
-44.6321382596
 20
0.1868568671
 11
-22.6533514631
 21
0.1868568671
  0
LINE
  5
255
100
AcDbEntity
  8
0
100
AcDbLine
 62
7
  6
CONTINUOUS
 10
-42.1827448613
 20
0.1918568671
 11
-40.9327448613
 21
0.1918568671
  0
LINE
  5
256
100
AcDbEntity
  8
0
100
AcDbLine
 62
7
  6
CONTINUOUS
 10
-42.2827448613
 20
0.1918568671
 11
-44.7827448613
 21
0.1918568671
  0
LINE
  5
257
100
AcDbEntity
  8
0
100
AcDbLine
 62
7
  6
CONTINUOUS
 10
-42.1827448613
 20
0.1968568671
 11
-40.9327448613
 21
0.1968568671
  0
LINE
  5
258
100
AcDbEntity
  8
0
100
AcDbLine
 62
7
  6
CONTINUOUS
 10
-42.2827448613
 20
0.2368568671
 11
-42.0327448613
 21
0.2368568671
  0
LINE
  5
259
100
AcDbEntity
  8
0
100
AcDbLine
 62
7
  6
CONTINUOUS
 10
-42.2827448613
 20
0.2543568671
 11
-44.7827448613
 21
0.2543568671
  0
LINE
  5
25A
100
AcDbEntity
  8
0
100
AcDbLine
 62
3
  6
CONTINUOUS
 10
-27.1293368466
 20
0.8678568671
 11
-27.0003654982
 21
0.8678568671
  0
LINE
  5
25B
100
AcDbEntity
  8
0
100
AcDbLine
 62
3
  6
CONTINUOUS
 10
-40.1922089319
 20
0.8678568671
 11
-40.3212244916
 21
0.8678568671
  0
LINE
  5
25C
100
AcDbEntity
  8
0
100
AcDbLine
 62
3
  6
CONTINUOUS
 10
-40.3212244916
 20
1.0658568671
 11
-40.1922089319
 21
1.0658568671
  0
LINE
  5
25D
100
AcDbEntity
  8
0
100
AcDbLine
 62
3
  6
CONTINUOUS
 10
-27.1293368466
 20
1.0658568671
 11
-27.0003654982
 21
1.0658568671
  0
LINE
  5
25E
100
AcDbEntity
  8
0
100
AcDbLine
 62
3
  6
CONTINUOUS
 10
-27.1286213176
 20
3.7678568671
 11
-27.0010671921
 21
3.7678568671
  0
LINE
  5
25F
100
AcDbEntity
  8
0
100
AcDbLine
 62
3
  6
CONTINUOUS
 10
-40.1929250947
 20
3.7678568671
 11
-40.3205229511
 21
3.7678568671
  0
LINE
  5
260
100
AcDbEntity
  8
0
100
AcDbLine
 62
3
  6
CONTINUOUS
 10
-40.3205229511
 20
3.9658568671
 11
-40.1929250947
 21
3.9658568671
  0
LINE
  5
261
100
AcDbEntity
  8
0
100
AcDbLine
 62
3
  6
CONTINUOUS
 10
-27.1286213176
 20
3.9658568671
 11
-27.0010671921
 21
3.9658568671
  0
LINE
  5
262
100
AcDbEntity
  8
0
100
AcDbLine
 62
7
  6
CONTINUOUS
 10
-46.1927101686
 20
4.5918568671
 11
-21.0927795541
 21
4.5918568671
  0
LINE
  5
263
100
AcDbEntity
  8
0
100
AcDbLine
 62
7
  6
CONTINUOUS
 10
-46.1927101686
 20
5.0978568671
 11
-21.0927795541
 21
5.0978568671
  0
LINE
  5
264
100
AcDbEntity
  8
0
100
AcDbLine
 62
3
  6
CONTINUOUS
 10
-23.9377920993
 20
10.2148568671
 11
-43.3476976234
 21
10.2148568671
  0
LINE
  5
265
100
AcDbEntity
  8
0
100
AcDbLine
 62
7
  6
CONTINUOUS
 10
-28.7653314084
 20
10.2798568671
 11
-28.7653314084
 21
10.2148568671
  0
LINE
  5
266
100
AcDbEntity
  8
0
100
AcDbLine
 62
7
  6
CONTINUOUS
 10
-28.6368314084
 20
10.2798568671
 11
-28.6368314084
 21
10.4598568671
  0
LINE
  5
267
100
AcDbEntity
  8
0
100
AcDbLine
 62
7
  6
CONTINUOUS
 10
-28.4203314084
 20
10.2798568671
 11
-28.4203314084
 21
10.4598568671
  0
LINE
  5
268
100
AcDbEntity
  8
0
100
AcDbLine
 62
7
  6
CONTINUOUS
 10
-28.2038314084
 20
10.2798568671
 11
-28.2038314084
 21
10.4598568671
  0
LINE
  5
269
100
AcDbEntity
  8
0
100
AcDbLine
 62
7
  6
CONTINUOUS
 10
-28.0753314084
 20
10.2798568671
 11
-28.0753314084
 21
10.2148568671
  0
LINE
  5
26A
100
AcDbEntity
  8
0
100
AcDbLine
 62
7
  6
CONTINUOUS
 10
-28.0753314084
 20
10.2798568671
 11
-28.7653314084
 21
10.2798568671
  0
LINE
  5
26B
100
AcDbEntity
  8
0
100
AcDbLine
 62
7
  6
CONTINUOUS
 10
-40.7561242246
 20
10.2798568671
 11
-41.4461242246
 21
10.2798568671
  0
LINE
  5
26C
100
AcDbEntity
  8
0
100
AcDbLine
 62
7
  6
CONTINUOUS
 10
-41.3511168911
 20
10.4598568671
 11
-40.851131558
 21
10.4598568671
  0
LINE
  5
26D
100
AcDbEntity
  8
0
100
AcDbLine
 62
7
  6
CONTINUOUS
 10
-28.6368314084
 20
10.4598568671
 11
-28.2038314084
 21
10.4598568671
  0
LINE
  5
26E
100
AcDbEntity
  8
0
100
AcDbLine
 62
3
  6
CONTINUOUS
 10
-24.3427448613
 20
0.1868568671
 11
-24.3427448613
 21
4.5918568671
  0
LINE
  5
26F
100
AcDbEntity
  8
0
100
AcDbLine
 62
3
  6
CONTINUOUS
 10
-25.4075911717
 20
10.5438467955
 11
-27.4614862011
 21
16.1868770105
  0
LINE
  5
270
100
AcDbEntity
  8
0
100
AcDbLine
 62
3
  6
CONTINUOUS
 10
-22.6533514631
 20
0.1868568671
 11
-22.6533514631
 21
-1.3131431329
  0
LINE
  5
271
100
AcDbEntity
  8
0
100
AcDbLine
 62
7
  6
CONTINUOUS
 10
-22.5933514631
 20
0.0668568671
 11
-22.5933514631
 21
-1.3131431329
  0
LINE
  5
272
100
AcDbEntity
  8
0
100
AcDbLine
 62
3
  6
CONTINUOUS
 10
-22.5333514631
 20
0.0668568671
 11
-22.5333514631
 21
-1.3131431329
  0
LINE
  5
273
100
AcDbEntity
  8
0
100
AcDbLine
 62
3
  6
CONTINUOUS
 10
-28.4011977688
 20
16.8448568671
 11
-38.8842919539
 21
16.8448568671
  0
LINE
  5
274
100
AcDbEntity
  8
0
100
AcDbLine
 62
3
  6
CONTINUOUS
 10
-21.3751016344
 20
5.0978568671
 11
-22.9980522406
 21
9.5568770105
  0
LINE
  5
275
100
AcDbEntity
  8
0
100
AcDbLine
 62
3
  6
CONTINUOUS
 10
-8.4187478601
 20
0.0668568671
 11
-8.4187478601
 21
-1.3131431329
  0
LINE
  5
276
100
AcDbEntity
  8
0
100
AcDbLine
 62
7
  6
CONTINUOUS
 10
-8.3587478601
 20
0.0668568671
 11
-8.3587478601
 21
-1.3131431329
  0
LINE
  5
277
100
AcDbEntity
  8
0
100
AcDbLine
 62
3
  6
CONTINUOUS
 10
-8.2987478601
 20
0.1868568671
 11
-8.2987478601
 21
-1.3131431329
  0
LINE
  5
278
100
AcDbEntity
  8
0
100
AcDbLine
 62
7
  6
CONTINUOUS
 10
-8.0493544618
 20
0.1918568671
 11
-8.0493544618
 21
0.2543568671
  0
LINE
  5
279
100
AcDbEntity
  8
0
100
AcDbLine
 62
3
  6
CONTINUOUS
 10
-9.5769976888
 20
5.0978568671
 11
-7.9540470826
 21
9.5568770105
  0
LINE
  5
27A
100
AcDbEntity
  8
0
100
AcDbLine
 62
3
  6
CONTINUOUS
 10
-6.6093544618
 20
0.1868568671
 11
-6.6093544618
 21
4.5918568671
  0
LINE
  5
27B
100
AcDbEntity
  8
0
100
AcDbLine
 62
7
  6
CONTINUOUS
 10
-5.1127338251
 20
10.2798568671
 11
-5.1127338251
 21
10.2148568671
  0
LINE
  5
27C
100
AcDbEntity
  8
0
100
AcDbLine
 62
7
  6
CONTINUOUS
 10
-5.0177264916
 20
10.2798568671
 11
-5.0177264916
 21
10.4598568671
  0
LINE
  5
27D
100
AcDbEntity
  8
0
100
AcDbLine
 62
7
  6
CONTINUOUS
 10
-4.8927301583
 20
10.2798568671
 11
-4.8927301583
 21
10.4598568671
  0
LINE
  5
27E
100
AcDbEntity
  8
0
100
AcDbLine
 62
3
  6
CONTINUOUS
 10
-5.5445081514
 20
10.5438467955
 11
-3.4906131221
 21
16.1868770105
  0
LINE
  5
27F
100
AcDbEntity
  8
0
100
AcDbLine
 62
7
  6
CONTINUOUS
 10
13.8000389365
 20
-1.3131431329
 11
13.7400389365
 21
-1.3131431329
  0
LINE
  5
280
100
AcDbEntity
  8
0
100
AcDbLine
 62
7
  6
CONTINUOUS
 10
-8.4187478601
 20
-1.3131431329
 11
-8.3587478601
 21
-1.3131431329
  0
LINE
  5
281
100
AcDbEntity
  8
0
100
AcDbLine
 62
3
  6
CONTINUOUS
 10
13.6800389365
 20
-1.3131431329
 11
-8.2987478601
 21
-1.3131431329
  0
LINE
  5
282
100
AcDbEntity
  8
0
100
AcDbLine
 62
7
  6
CONTINUOUS
 10
-4.6427374918
 20
10.2798568671
 11
-4.6427374918
 21
10.4598568671
  0
LINE
  5
283
100
AcDbEntity
  8
0
100
AcDbLine
 62
7
  6
CONTINUOUS
 10
-4.5177411585
 20
10.2798568671
 11
-4.5177411585
 21
10.4598568671
  0
LINE
  5
284
100
AcDbEntity
  8
0
100
AcDbLine
 62
7
  6
CONTINUOUS
 10
-4.4227338251
 20
10.2798568671
 11
-4.4227338251
 21
10.2148568671
  0
LINE
  5
285
100
AcDbEntity
  8
0
100
AcDbLine
 62
3
  6
CONTINUOUS
 10
-8.2987478601
 20
0.1868568671
 11
13.6800389365
 21
0.1868568671
  0
LINE
  5
286
100
AcDbEntity
  8
0
100
AcDbLine
 62
7
  6
CONTINUOUS
 10
-8.0493544618
 20
0.1918568671
 11
-6.6093544618
 21
0.1918568671
  0
LINE
  5
287
100
AcDbEntity
  8
0
100
AcDbLine
 62
7
  6
CONTINUOUS
 10
-8.0493544618
 20
0.1968568671
 11
-6.6093544618
 21
0.1968568671
  0
LINE
  5
288
100
AcDbEntity
  8
0
100
AcDbLine
 62
7
  6
CONTINUOUS
 10
-6.6093544618
 20
0.2543568671
 11
-8.0493544618
 21
0.2543568671
  0
LINE
  5
289
100
AcDbEntity
  8
0
100
AcDbLine
 62
3
  6
CONTINUOUS
 10
9.3355753935
 20
0.8678568671
 11
9.2066546329
 21
0.8678568671
  0
LINE
  5
28A
100
AcDbEntity
  8
0
100
AcDbLine
 62
3
  6
CONTINUOUS
 10
-3.9475406624
 20
0.8678568671
 11
-3.8184862316
 21
0.8678568671
  0
LINE
  5
28B
100
AcDbEntity
  8
0
100
AcDbLine
 62
3
  6
CONTINUOUS
 10
-3.9475406624
 20
1.0658568671
 11
-3.8184862316
 21
1.0658568671
  0
LINE
  5
28C
100
AcDbEntity
  8
0
100
AcDbLine
 62
3
  6
CONTINUOUS
 10
9.2066546329
 20
1.0658568671
 11
9.3355753935
 21
1.0658568671
  0
LINE
  5
28D
100
AcDbEntity
  8
0
100
AcDbLine
 62
3
  6
CONTINUOUS
 10
9.3348739803
 20
3.7678568671
 11
9.2073698866
 21
3.7678568671
  0
LINE
  5
28E
100
AcDbEntity
  8
0
100
AcDbLine
 62
3
  6
CONTINUOUS
 10
-3.9468385075
 20
3.7678568671
 11
-3.8192022126
 21
3.7678568671
  0
LINE
  5
28F
100
AcDbEntity
  8
0
100
AcDbLine
 62
3
  6
CONTINUOUS
 10
-3.9468385075
 20
3.9658568671
 11
-3.8192022126
 21
3.9658568671
  0
LINE
  5
290
100
AcDbEntity
  8
0
100
AcDbLine
 62
3
  6
CONTINUOUS
 10
9.2073698866
 20
3.9658568671
 11
9.3348739803
 21
3.9658568671
  0
LINE
  5
291
100
AcDbEntity
  8
0
100
AcDbLine
 62
7
  6
CONTINUOUS
 10
-9.8654894905
 20
4.5918568671
 11
15.2467805668
 21
4.5918568671
  0
LINE
  5
292
100
AcDbEntity
  8
0
100
AcDbLine
 62
7
  6
CONTINUOUS
 10
-9.8654894905
 20
5.0978568671
 11
15.2467805668
 21
5.0978568671
  0
LINE
  5
293
100
AcDbEntity
  8
0
100
AcDbLine
 62
3
  6
CONTINUOUS
 10
12.3955983003
 20
10.2148568671
 11
-7.0143072239
 21
10.2148568671
  0
LINE
  5
294
100
AcDbEntity
  8
0
100
AcDbLine
 62
7
  6
CONTINUOUS
 10
8.2580589912
 20
10.2798568671
 11
7.5680589912
 21
10.2798568671
  0
LINE
  5
295
100
AcDbEntity
  8
0
100
AcDbLine
 62
7
  6
CONTINUOUS
 10
-4.4227338251
 20
10.2798568671
 11
-5.1127338251
 21
10.2798568671
  0
LINE
  5
296
100
AcDbEntity
  8
0
100
AcDbLine
 62
7
  6
CONTINUOUS
 10
-5.0177264916
 20
10.4598568671
 11
-4.5177411585
 21
10.4598568671
  0
LINE
  5
297
100
AcDbEntity
  8
0
100
AcDbLine
 62
7
  6
CONTINUOUS
 10
7.6965589912
 20
10.4598568671
 11
8.1295589912
 21
10.4598568671
  0
LINE
  5
298
100
AcDbEntity
  8
0
100
AcDbLine
 62
7
  6
CONTINUOUS
 10
7.5680589912
 20
10.2798568671
 11
7.5680589912
 21
10.2148568671
  0
LINE
  5
299
100
AcDbEntity
  8
0
100
AcDbLine
 62
7
  6
CONTINUOUS
 10
7.6965589912
 20
10.2798568671
 11
7.6965589912
 21
10.4598568671
  0
LINE
  5
29A
100
AcDbEntity
  8
0
100
AcDbLine
 62
7
  6
CONTINUOUS
 10
7.9130589912
 20
10.2798568671
 11
7.9130589912
 21
10.4598568671
  0
LINE
  5
29B
100
AcDbEntity
  8
0
100
AcDbLine
 62
7
  6
CONTINUOUS
 10
8.1295589912
 20
10.2798568671
 11
8.1295589912
 21
10.4598568671
  0
LINE
  5
29C
100
AcDbEntity
  8
0
100
AcDbLine
 62
7
  6
CONTINUOUS
 10
8.2580589912
 20
10.2798568671
 11
8.2580589912
 21
10.2148568671
  0
LINE
  5
29D
100
AcDbEntity
  8
0
100
AcDbLine
 62
3
  6
CONTINUOUS
 10
10.9257992278
 20
10.5438467955
 11
8.8719041985
 21
16.1868770105
  0
LINE
  5
29E
100
AcDbEntity
  8
0
100
AcDbLine
 62
3
  6
CONTINUOUS
 10
11.9906455382
 20
0.1868568671
 11
11.9906455382
 21
4.5918568671
  0
LINE
  5
29F
100
AcDbEntity
  8
0
100
AcDbLine
 62
3
  6
CONTINUOUS
 10
13.6800389365
 20
0.1868568671
 11
13.6800389365
 21
-1.3131431329
  0
LINE
  5
2A0
100
AcDbEntity
  8
0
100
AcDbLine
 62
7
  6
CONTINUOUS
 10
13.7400389365
 20
0.0668568671
 11
13.7400389365
 21
-1.3131431329
  0
LINE
  5
2A1
100
AcDbEntity
  8
0
100
AcDbLine
 62
3
  6
CONTINUOUS
 10
13.8000389365
 20
0.0668568671
 11
13.8000389365
 21
-1.3131431329
  0
LINE
  5
2A2
100
AcDbEntity
  8
0
100
AcDbLine
 62
3
  6
CONTINUOUS
 10
-2.5509205013
 20
16.8448568671
 11
7.9322115777
 21
16.8448568671
  0
LINE
  5
2A3
100
AcDbEntity
  8
0
100
AcDbLine
 62
3
  6
CONTINUOUS
 10
14.9582887651
 20
5.0978568671
 11
13.335338159
 21
9.5568770105
  0
LINE
  5
2A4
100
AcDbEntity
  8
0
100
AcDbLine
 62
7
  6
CONTINUOUS
 10
-44.7827448613
 20
-22.2438603528
 11
-44.7827448613
 21
-20.7238603528
  0
LINE
  5
2A5
100
AcDbEntity
  8
0
100
AcDbLine
 62
7
  6
CONTINUOUS
 10
-44.7827448613
 20
-17.0738603528
 11
-44.7827448613
 21
-20.5738603528
  0
LINE
  5
2A6
100
AcDbEntity
  8
0
100
AcDbLine
 62
3
  6
CONTINUOUS
 10
-44.7521382596
 20
-16.8244669545
 11
-44.7521382596
 21
-38.8032537511
  0
LINE
  5
2A7
100
AcDbEntity
  8
0
100
AcDbLine
 62
7
  6
CONTINUOUS
 10
-44.6921382596
 20
-16.8244669545
 11
-44.6921382596
 21
-38.8032537511
  0
LINE
  5
2A8
100
AcDbEntity
  8
0
100
AcDbLine
 62
7
  6
CONTINUOUS
 10
-44.6321382596
 20
-16.7044669545
 11
-44.6321382596
 21
-16.8244669545
  0
LINE
  5
2A9
100
AcDbEntity
  8
0
100
AcDbLine
 62
7
  6
CONTINUOUS
 10
-44.6321382596
 20
-38.8032537511
 11
-44.6321382596
 21
-38.9232537511
  0
LINE
  5
2AA
100
AcDbEntity
  8
0
100
AcDbLine
 62
7
  6
CONTINUOUS
 10
-39.6928821571
 20
-21.980229408
 11
-39.5846289816
 21
-21.792729408
  0
LINE
  5
2AB
100
AcDbEntity
  8
0
100
AcDbLine
 62
7
  6
CONTINUOUS
 10
-39.2598694552
 20
-21.980229408
 11
-39.3681226307
 21
-22.167729408
  0
LINE
  5
2AC
100
AcDbEntity
  8
0
100
AcDbLine
 62
3
  6
CONTINUOUS
 10
-44.6321382596
 20
-38.9232537511
 11
-22.6533514631
 21
-38.9232537511
  0
LINE
  5
2AD
100
AcDbEntity
  8
0
100
AcDbLine
 62
7
  6
CONTINUOUS
 10
-44.6321382596
 20
-38.8632537511
 11
-22.6533514631
 21
-38.8632537511
  0
LINE
  5
2AE
100
AcDbEntity
  8
0
100
AcDbLine
 62
7
  6
CONTINUOUS
 10
-22.5333514631
 20
-38.8032537511
 11
-22.6533514631
 21
-38.8032537511
  0
LINE
  5
2AF
100
AcDbEntity
  8
0
100
AcDbLine
 62
7
  6
CONTINUOUS
 10
-44.6321382596
 20
-38.8032537511
 11
-44.7521382596
 21
-38.8032537511
  0
LINE
  5
2B0
100
AcDbEntity
  8
0
100
AcDbLine
 62
7
  6
CONTINUOUS
 10
-39.5846289816
 20
-33.8349912976
 11
-39.6928821571
 21
-33.6474912976
  0
LINE
  5
2B1
100
AcDbEntity
  8
0
100
AcDbLine
 62
7
  6
CONTINUOUS
 10
-38.6322219853
 20
-23.0408895798
 11
-38.5239688098
 21
-22.8533895798
  0
LINE
  5
2B2
100
AcDbEntity
  8
0
100
AcDbLine
 62
7
  6
CONTINUOUS
 10
-38.1992092834
 20
-23.0408895798
 11
-38.3074624589
 21
-23.2283895798
  0
LINE
  5
2B3
100
AcDbEntity
  8
0
100
AcDbLine
 62
7
  6
CONTINUOUS
 10
-39.3681226307
 20
-33.4599912976
 11
-39.2598694552
 21
-33.6474912976
  0
LINE
  5
2B4
100
AcDbEntity
  8
0
100
AcDbLine
 62
7
  6
CONTINUOUS
 10
-38.5239688098
 20
-32.7743311258
 11
-38.6322219853
 21
-32.5868311258
  0
LINE
  5
2B5
100
AcDbEntity
  8
0
100
AcDbLine
 62
7
  6
CONTINUOUS
 10
-38.3074624589
 20
-32.3993311258
 11
-38.1992092834
 21
-32.5868311258
  0
LINE
  5
2B6
100
AcDbEntity
  8
0
100
AcDbLine
 62
7
  6
CONTINUOUS
 10
-39.6928821571
 20
-33.6474912976
 11
-39.5846289816
 21
-33.4599912976
  0
LINE
  5
2B7
100
AcDbEntity
  8
0
100
AcDbLine
 62
7
  6
CONTINUOUS
 10
-39.2598694552
 20
-33.6474912976
 11
-39.3681226307
 21
-33.8349912976
  0
LINE
  5
2B8
100
AcDbEntity
  8
0
100
AcDbLine
 62
7
  6
CONTINUOUS
 10
-38.6322219853
 20
-32.5868311258
 11
-38.5239688098
 21
-32.3993311258
  0
LINE
  5
2B9
100
AcDbEntity
  8
0
100
AcDbLine
 62
7
  6
CONTINUOUS
 10
-38.1992092834
 20
-32.5868311258
 11
-38.3074624589
 21
-32.7743311258
  0
LINE
  5
2BA
100
AcDbEntity
  8
0
100
AcDbLine
 62
7
  6
CONTINUOUS
 10
-27.7008607411
 20
-33.8349912976
 11
-27.917367092
 21
-33.8349912976
  0
LINE
  5
2BB
100
AcDbEntity
  8
0
100
AcDbLine
 62
7
  6
CONTINUOUS
 10
-39.3681226307
 20
-33.8349912976
 11
-39.5846289816
 21
-33.8349912976
  0
LINE
  5
2BC
100
AcDbEntity
  8
0
100
AcDbLine
 62
7
  6
CONTINUOUS
 10
-39.5846289816
 20
-33.4599912976
 11
-39.3681226307
 21
-33.4599912976
  0
LINE
  5
2BD
100
AcDbEntity
  8
0
100
AcDbLine
 62
7
  6
CONTINUOUS
 10
-27.917367092
 20
-33.4599912976
 11
-27.7008607411
 21
-33.4599912976
  0
LINE
  5
2BE
100
AcDbEntity
  8
0
100
AcDbLine
 62
7
  6
CONTINUOUS
 10
-34.7272702651
 20
-27.4400113866
 11
-34.7272702651
 21
-27.187709319
  0
LINE
  5
2BF
100
AcDbEntity
  8
0
100
AcDbLine
 62
7
  6
CONTINUOUS
 10
-34.2902702651
 20
-27.187709319
 11
-34.2902702651
 21
-27.4400113866
  0
LINE
  5
2C0
100
AcDbEntity
  8
0
100
AcDbLine
 62
7
  6
CONTINUOUS
 10
-34.7272702651
 20
-27.187709319
 11
-34.5087702651
 21
-27.0615582852
  0
LINE
  5
2C1
100
AcDbEntity
  8
0
100
AcDbLine
 62
7
  6
CONTINUOUS
 10
-34.2902702651
 20
-27.4400113866
 11
-34.5087702651
 21
-27.5661624204
  0
LINE
  5
2C2
100
AcDbEntity
  8
0
100
AcDbLine
 62
7
  6
CONTINUOUS
 10
-28.7615209129
 20
-32.7743311258
 11
-28.9780272638
 21
-32.7743311258
  0
LINE
  5
2C3
100
AcDbEntity
  8
0
100
AcDbLine
 62
7
  6
CONTINUOUS
 10
-38.3074624589
 20
-32.7743311258
 11
-38.5239688098
 21
-32.7743311258
  0
LINE
  5
2C4
100
AcDbEntity
  8
0
100
AcDbLine
 62
7
  6
CONTINUOUS
 10
-38.5239688098
 20
-32.3993311258
 11
-38.3074624589
 21
-32.3993311258
  0
LINE
  5
2C5
100
AcDbEntity
  8
0
100
AcDbLine
 62
7
  6
CONTINUOUS
 10
-28.9780272638
 20
-32.3993311258
 11
-28.7615209129
 21
-32.3993311258
  0
LINE
  5
2C6
100
AcDbEntity
  8
03___PRT_ALL_CURVES
100
AcDbLine
 62
4
  6
CONTINUOUS
 10
-44.7671049623
 20
-20.6883803415
 11
-44.7827448613
 21
-20.6738603528
  0
LINE
  5
2C7
100
AcDbEntity
  8
0
100
AcDbLine
 62
7
  6
CONTINUOUS
 10
-39.5846289816
 20
-22.167729408
 11
-39.6928821571
 21
-21.980229408
  0
LINE
  5
2C8
100
AcDbEntity
  8
0
100
AcDbLine
 62
7
  6
CONTINUOUS
 10
-39.3681226307
 20
-21.792729408
 11
-39.2598694552
 21
-21.980229408
  0
LINE
  5
2C9
100
AcDbEntity
  8
0
100
AcDbLine
 62
7
  6
CONTINUOUS
 10
-38.5239688098
 20
-23.2283895798
 11
-38.6322219853
 21
-23.0408895798
  0
LINE
  5
2CA
100
AcDbEntity
  8
0
100
AcDbLine
 62
7
  6
CONTINUOUS
 10
-38.3074624589
 20
-22.8533895798
 11
-38.1992092834
 21
-23.0408895798
  0
LINE
  5
2CB
100
AcDbEntity
  8
0
100
AcDbLine
 62
7
  6
CONTINUOUS
 10
-33.8612448613
 20
-28.9400113866
 11
-33.8612448613
 21
-28.687709319
  0
LINE
  5
2CC
100
AcDbEntity
  8
0
100
AcDbLine
 62
7
  6
CONTINUOUS
 10
-33.4242448613
 20
-28.687709319
 11
-33.4242448613
 21
-28.9400113866
  0
LINE
  5
2CD
100
AcDbEntity
  8
0
100
AcDbLine
 62
7
  6
CONTINUOUS
 10
-32.9952194576
 20
-27.4400113866
 11
-32.9952194576
 21
-27.187709319
  0
LINE
  5
2CE
100
AcDbEntity
  8
0
100
AcDbLine
 62
7
  6
CONTINUOUS
 10
-33.4249834118
 20
-28.0366864584
 11
-33.3408910686
 21
-27.8910342473
  0
LINE
  5
2CF
100
AcDbEntity
  8
0
100
AcDbLine
 62
7
  6
CONTINUOUS
 10
-33.0893114722
 20
-28.3766739354
 11
-32.8786173067
 21
-28.0117409358
  0
LINE
  5
2D0
100
AcDbEntity
  8
0
100
AcDbLine
 62
7
  6
CONTINUOUS
 10
-32.8249245383
 20
-27.9973540019
 11
-32.8724245383
 21
-28.0796264152
  0
LINE
  5
2D1
100
AcDbEntity
  8
0
100
AcDbLine
 62
7
  6
CONTINUOUS
 10
-33.0274245383
 20
-28.3480942904
 11
-33.0749245383
 21
-28.4303667038
  0
LINE
  5
2D2
100
AcDbEntity
  8
0
100
AcDbLine
 62
7
  6
CONTINUOUS
 10
-32.5112333338
 20
-28.2140248977
 11
-32.730436436
 21
-28.5936958079
  0
LINE
  5
2D3
100
AcDbEntity
  8
0
100
AcDbLine
 62
7
  6
CONTINUOUS
 10
-32.9952194576
 20
-27.187709319
 11
-32.7767194576
 21
-27.0615582852
  0
LINE
  5
2D4
100
AcDbEntity
  8
0
100
AcDbLine
 62
7
  6
CONTINUOUS
 10
-32.5582194576
 20
-27.4400113866
 11
-32.7767194576
 21
-27.5661624204
  0
LINE
  5
2D5
100
AcDbEntity
  8
0
100
AcDbLine
 62
7
  6
CONTINUOUS
 10
-33.8612448613
 20
-28.687709319
 11
-33.6427448613
 21
-28.5615582852
  0
LINE
  5
2D6
100
AcDbEntity
  8
0
100
AcDbLine
 62
7
  6
CONTINUOUS
 10
-33.0749245383
 20
-28.4303667038
 11
-33.0893114722
 21
-28.3766739354
  0
LINE
  5
2D7
100
AcDbEntity
  8
0
100
AcDbLine
 62
7
  6
CONTINUOUS
 10
-32.5582194576
 20
-27.187709319
 11
-32.5582194576
 21
-27.4400113866
  0
LINE
  5
2D8
100
AcDbEntity
  8
0
100
AcDbLine
 62
7
  6
CONTINUOUS
 10
-29.0862804393
 20
-23.0408895798
 11
-28.9780272638
 21
-22.8533895798
  0
LINE
  5
2D9
100
AcDbEntity
  8
0
100
AcDbLine
 62
7
  6
CONTINUOUS
 10
-28.6532677374
 20
-23.0408895798
 11
-28.7615209129
 21
-23.2283895798
  0
LINE
  5
2DA
100
AcDbEntity
  8
0
100
AcDbLine
 62
7
  6
CONTINUOUS
 10
-28.0256202675
 20
-21.980229408
 11
-27.917367092
 21
-21.792729408
  0
LINE
  5
2DB
100
AcDbEntity
  8
0
100
AcDbLine
 62
7
  6
CONTINUOUS
 10
-27.5926075656
 20
-21.980229408
 11
-27.7008607411
 21
-22.167729408
  0
LINE
  5
2DC
100
AcDbEntity
  8
0
100
AcDbLine
 62
7
  6
CONTINUOUS
 10
-33.4242448613
 20
-28.9400113866
 11
-33.6427448613
 21
-29.0661624204
  0
LINE
  5
2DD
100
AcDbEntity
  8
0
100
AcDbLine
 62
7
  6
CONTINUOUS
 10
-33.6427448613
 20
-29.0661624204
 11
-33.8612448613
 21
-28.9400113866
  0
LINE
  5
2DE
100
AcDbEntity
  8
0
100
AcDbLine
 62
7
  6
CONTINUOUS
 10
-33.6427448613
 20
-28.5615582852
 11
-33.4242448613
 21
-28.687709319
  0
LINE
  5
2DF
100
AcDbEntity
  8
0
100
AcDbLine
 62
7
  6
CONTINUOUS
 10
-33.0749245383
 20
-28.4303667038
 11
-33.2593204529
 21
-28.3239056728
  0
LINE
  5
2E0
100
AcDbEntity
  8
0
100
AcDbLine
 62
7
  6
CONTINUOUS
 10
-32.730436436
 20
-28.5936958079
 11
-32.5498135926
 21
-28.6979784551
  0
LINE
  5
2E1
100
AcDbEntity
  8
0
100
AcDbLine
 62
7
  6
CONTINUOUS
 10
-34.5087702651
 20
-27.5661624204
 11
-34.7272702651
 21
-27.4400113866
  0
LINE
  5
2E2
100
AcDbEntity
  8
0
100
AcDbLine
 62
7
  6
CONTINUOUS
 10
-33.0893114722
 20
-28.3766739354
 11
-33.2385090495
 21
-28.290534674
  0
LINE
  5
2E3
100
AcDbEntity
  8
0
100
AcDbLine
 62
7
  6
CONTINUOUS
 10
-33.0444444639
 20
-28.3382678318
 11
-32.6983348849
 21
-28.5380942904
  0
LINE
  5
2E4
100
AcDbEntity
  8
0
100
AcDbLine
 62
7
  6
CONTINUOUS
 10
-32.6208348849
 20
-28.4038603528
 11
-32.4402120416
 21
-28.508143
  0
LINE
  5
2E5
100
AcDbEntity
  8
0
100
AcDbLine
 62
7
  6
CONTINUOUS
 10
-32.8894444639
 20
-28.0697999566
 11
-32.5433348849
 21
-28.2696264152
  0
LINE
  5
2E6
100
AcDbEntity
  8
0
100
AcDbLine
 62
7
  6
CONTINUOUS
 10
-32.8786173067
 20
-28.0117409358
 11
-32.8249245383
 21
-27.9973540019
  0
LINE
  5
2E7
100
AcDbEntity
  8
0
100
AcDbLine
 62
7
  6
CONTINUOUS
 10
-32.8786173067
 20
-28.0117409358
 11
-33.027814884
 21
-27.9256016744
  0
LINE
  5
2E8
100
AcDbEntity
  8
0
100
AcDbLine
 62
7
  6
CONTINUOUS
 10
-34.5087702651
 20
-27.0615582852
 11
-34.2902702651
 21
-27.187709319
  0
LINE
  5
2E9
100
AcDbEntity
  8
0
100
AcDbLine
 62
7
  6
CONTINUOUS
 10
-32.5112333338
 20
-28.2140248977
 11
-32.3306104905
 21
-28.318307545
  0
LINE
  5
2EA
100
AcDbEntity
  8
0
100
AcDbLine
 62
7
  6
CONTINUOUS
 10
-32.8249245383
 20
-27.9973540019
 11
-33.0093204529
 21
-27.8908929709
  0
LINE
  5
2EB
100
AcDbEntity
  8
0
100
AcDbLine
 62
7
  6
CONTINUOUS
 10
-32.7767194576
 20
-27.5661624204
 11
-32.9952194576
 21
-27.4400113866
  0
LINE
  5
2EC
100
AcDbEntity
  8
0
100
AcDbLine
 62
7
  6
CONTINUOUS
 10
-32.7767194576
 20
-27.0615582852
 11
-32.5582194576
 21
-27.187709319
  0
LINE
  5
2ED
100
AcDbEntity
  8
0
100
AcDbLine
 62
7
  6
CONTINUOUS
 10
-28.9780272638
 20
-32.7743311258
 11
-29.0862804393
 21
-32.5868311258
  0
LINE
  5
2EE
100
AcDbEntity
  8
0
100
AcDbLine
 62
7
  6
CONTINUOUS
 10
-28.7615209129
 20
-32.3993311258
 11
-28.6532677374
 21
-32.5868311258
  0
LINE
  5
2EF
100
AcDbEntity
  8
0
100
AcDbLine
 62
7
  6
CONTINUOUS
 10
-27.917367092
 20
-33.8349912976
 11
-28.0256202675
 21
-33.6474912976
  0
LINE
  5
2F0
100
AcDbEntity
  8
0
100
AcDbLine
 62
7
  6
CONTINUOUS
 10
-27.7008607411
 20
-33.4599912976
 11
-27.5926075656
 21
-33.6474912976
  0
LINE
  5
2F1
100
AcDbEntity
  8
0
100
AcDbLine
 62
7
  6
CONTINUOUS
 10
-29.0862804393
 20
-32.5868311258
 11
-28.9780272638
 21
-32.3993311258
  0
LINE
  5
2F2
100
AcDbEntity
  8
0
100
AcDbLine
 62
7
  6
CONTINUOUS
 10
-28.6532677374
 20
-32.5868311258
 11
-28.7615209129
 21
-32.7743311258
  0
LINE
  5
2F3
100
AcDbEntity
  8
0
100
AcDbLine
 62
7
  6
CONTINUOUS
 10
-28.0256202675
 20
-33.6474912976
 11
-27.917367092
 21
-33.4599912976
  0
LINE
  5
2F4
100
AcDbEntity
  8
0
100
AcDbLine
 62
7
  6
CONTINUOUS
 10
-28.9780272638
 20
-23.2283895798
 11
-29.0862804393
 21
-23.0408895798
  0
LINE
  5
2F5
100
AcDbEntity
  8
0
100
AcDbLine
 62
7
  6
CONTINUOUS
 10
-28.7615209129
 20
-22.8533895798
 11
-28.6532677374
 21
-23.0408895798
  0
LINE
  5
2F6
100
AcDbEntity
  8
0
100
AcDbLine
 62
7
  6
CONTINUOUS
 10
-27.5926075656
 20
-33.6474912976
 11
-27.7008607411
 21
-33.8349912976
  0
LINE
  5
2F7
100
AcDbEntity
  8
0
100
AcDbLine
 62
7
  6
CONTINUOUS
 10
-28.7615209129
 20
-23.2283895798
 11
-28.9780272638
 21
-23.2283895798
  0
LINE
  5
2F8
100
AcDbEntity
  8
0
100
AcDbLine
 62
7
  6
CONTINUOUS
 10
-38.3074624589
 20
-23.2283895798
 11
-38.5239688098
 21
-23.2283895798
  0
LINE
  5
2F9
100
AcDbEntity
  8
0
100
AcDbLine
 62
7
  6
CONTINUOUS
 10
-38.5239688098
 20
-22.8533895798
 11
-38.3074624589
 21
-22.8533895798
  0
LINE
  5
2FA
100
AcDbEntity
  8
0
100
AcDbLine
 62
7
  6
CONTINUOUS
 10
-28.9780272638
 20
-22.8533895798
 11
-28.7615209129
 21
-22.8533895798
  0
LINE
  5
2FB
100
AcDbEntity
  8
0
100
AcDbLine
 62
7
  6
CONTINUOUS
 10
-27.7008607411
 20
-22.167729408
 11
-27.917367092
 21
-22.167729408
  0
LINE
  5
2FC
100
AcDbEntity
  8
0
100
AcDbLine
 62
7
  6
CONTINUOUS
 10
-39.3681226307
 20
-22.167729408
 11
-39.5846289816
 21
-22.167729408
  0
LINE
  5
2FD
100
AcDbEntity
  8
0
100
AcDbLine
 62
7
  6
CONTINUOUS
 10
-27.917367092
 20
-22.167729408
 11
-28.0256202675
 21
-21.980229408
  0
LINE
  5
2FE
100
AcDbEntity
  8
0
100
AcDbLine
 62
7
  6
CONTINUOUS
 10
-27.7008607411
 20
-21.792729408
 11
-27.5926075656
 21
-21.980229408
  0
LINE
  5
2FF
100
AcDbEntity
  8
0
100
AcDbLine
 62
7
  6
CONTINUOUS
 10
-39.5846289816
 20
-21.792729408
 11
-39.3681226307
 21
-21.792729408
  0
LINE
  5
300
100
AcDbEntity
  8
0
100
AcDbLine
 62
7
  6
CONTINUOUS
 10
-27.917367092
 20
-21.792729408
 11
-27.7008607411
 21
-21.792729408
  0
LINE
  5
301
100
AcDbEntity
  8
0
100
AcDbLine
 62
7
  6
CONTINUOUS
 10
-22.6533514631
 20
-16.7044669545
 11
-22.6533514631
 21
-16.8244669545
  0
LINE
  5
302
100
AcDbEntity
  8
0
100
AcDbLine
 62
7
  6
CONTINUOUS
 10
-22.6533514631
 20
-38.8032537511
 11
-22.6533514631
 21
-38.9232537511
  0
LINE
  5
303
100
AcDbEntity
  8
0
100
AcDbLine
 62
7
  6
CONTINUOUS
 10
-22.5933514631
 20
-38.8032537511
 11
-22.5933514631
 21
-16.8244669545
  0
LINE
  5
304
100
AcDbEntity
  8
0
100
AcDbLine
 62
3
  6
CONTINUOUS
 10
-22.5333514631
 20
-38.8032537511
 11
-22.5333514631
 21
-16.8244669545
  0
LINE
  5
305
100
AcDbEntity
  8
0
100
AcDbLine
 62
7
  6
CONTINUOUS
 10
-44.7827448613
 20
-20.5738603528
 11
-44.7521382596
 21
-20.5738603528
  0
LINE
  5
306
100
AcDbEntity
  8
0
100
AcDbLine
 62
7
  6
CONTINUOUS
 10
-44.7521382596
 20
-17.0738603528
 11
-44.7827448613
 21
-17.0738603528
  0
LINE
  5
307
100
AcDbEntity
  8
0
100
AcDbLine
 62
7
  6
CONTINUOUS
 10
-22.5333514631
 20
-16.8244669545
 11
-22.6533514631
 21
-16.8244669545
  0
LINE
  5
308
100
AcDbEntity
  8
0
100
AcDbLine
 62
7
  6
CONTINUOUS
 10
-44.6321382596
 20
-16.8244669545
 11
-44.7521382596
 21
-16.8244669545
  0
LINE
  5
309
100
AcDbEntity
  8
0
100
AcDbLine
 62
7
  6
CONTINUOUS
 10
-22.6533514631
 20
-16.7644669545
 11
-44.6321382596
 21
-16.7644669545
  0
LINE
  5
30A
100
AcDbEntity
  8
0
100
AcDbLine
 62
3
  6
CONTINUOUS
 10
-22.6533514631
 20
-16.7044669545
 11
-44.6321382596
 21
-16.7044669545
  0
ARC
  5
30B
100
AcDbEntity
  8
0
100
AcDbCircle
 62
3
  6
CONTINUOUS
 10
-38.8843109008
 20
15.8448568671
 40
1.0
100
AcDbArc
 50
90.0
 51
160.0
  0
ARC
  5
30C
100
AcDbEntity
  8
0
100
AcDbCircle
 62
3
  6
CONTINUOUS
 10
-23.9377448613
 20
9.2148568671
 40
1.0
100
AcDbArc
 50
20.0
 51
90.0
  0
ARC
  5
30D
100
AcDbEntity
  8
0
100
AcDbCircle
 62
3
  6
CONTINUOUS
 10
-43.3477448613
 20
9.2148568671
 40
1.0
100
AcDbArc
 50
90.0
 51
160.0
  0
ARC
  5
30E
100
AcDbEntity
  8
0
100
AcDbCircle
 62
3
  6
CONTINUOUS
 10
-28.4011788218
 20
15.8448568671
 40
1.0
100
AcDbArc
 50
20.0
 51
90.0
  0
ARC
  5
30F
100
AcDbEntity
  8
0
100
AcDbCircle
 62
3
  6
CONTINUOUS
 10
-42.3477448613
 20
10.7148568671
 40
0.5
100
AcDbArc
 50
270.0
 51
340.0
  0
ARC
  5
310
100
AcDbEntity
  8
0
100
AcDbCircle
 62
3
  6
CONTINUOUS
 10
-24.9377448613
 20
10.7148568671
 40
0.5
100
AcDbArc
 50
200.0
 51
270.0
  0
ARC
  5
311
100
AcDbEntity
  8
0
100
AcDbCircle
 62
7
  6
CONTINUOUS
 10
-27.0304999634
 20
4.2440167311
 40
0.3308333333
100
AcDbArc
 50
244.7018448678
 51
281.0420123468
  0
ARC
  5
312
100
AcDbEntity
  8
0
100
AcDbCircle
 62
7
  6
CONTINUOUS
 10
-40.2549897593
 20
4.2440167311
 40
0.3308333333
100
AcDbArc
 50
259.2227084611
 51
290.2225693813
  0
ARC
  5
313
100
AcDbEntity
  8
0
100
AcDbCircle
 62
7
  6
CONTINUOUS
 10
-21.0808233883
 20
4.8448568671
 40
0.253
100
AcDbArc
 50
270.0
 51
90.0
  0
ARC
  5
314
100
AcDbEntity
  8
0
100
AcDbCircle
 62
7
  6
CONTINUOUS
 10
-46.2046663343
 20
4.8448568671
 40
0.253
100
AcDbArc
 50
90.0
 51
270.0
  0
ARC
  5
315
100
AcDbEntity
  8
AXIS
100
AcDbCircle
 62
7
  6
CONTINUOUS
 10
-28.4203314084
 20
10.4598568671
 40
0.2
100
AcDbArc
 50
0.0
 51
180.0
  0
ARC
  5
316
100
AcDbEntity
  8
AXIS
100
AcDbCircle
 62
7
  6
CONTINUOUS
 10
-41.1011242246
 20
10.4598568671
 40
0.2
100
AcDbArc
 50
0.0
 51
180.0
  0
CIRCLE
  5
317
100
AcDbEntity
  8
0
100
AcDbCircle
 62
3
  6
CONTINUOUS
 10
-28.1427448613
 20
-0.5631431329
 40
0.155
  0
CIRCLE
  5
318
100
AcDbEntity
  8
0
100
AcDbCircle
 62
3
  6
CONTINUOUS
 10
-39.1427448613
 20
-0.5631431329
 40
0.155
  0
ARC
  5
319
100
AcDbEntity
  8
0
100
AcDbCircle
 62
3
  6
CONTINUOUS
 10
-22.6533514631
 20
0.0668568671
 40
0.12
100
AcDbArc
 50
0.0
 51
90.0
  0
ARC
  5
31A
100
AcDbEntity
  8
0
100
AcDbCircle
 62
3
  6
CONTINUOUS
 10
-44.6321382596
 20
0.0668568671
 40
0.12
100
AcDbArc
 50
90.0
 51
180.0
  0
ARC
  5
31B
100
AcDbEntity
  8
0
100
AcDbCircle
 62
7
  6
CONTINUOUS
 10
-22.6533514631
 20
0.0668568671
 40
0.06
100
AcDbArc
 50
0.0
 51
90.0
  0
ARC
  5
31C
100
AcDbEntity
  8
0
100
AcDbCircle
 62
7
  6
CONTINUOUS
 10
-44.6321382596
 20
0.0668568671
 40
0.06
100
AcDbArc
 50
90.0
 51
180.0
  0
ARC
  5
31D
100
AcDbEntity
  8
0
100
AcDbCircle
 62
3
  6
CONTINUOUS
 10
-2.5509205013
 20
15.8448568671
 40
1.0
100
AcDbArc
 50
90.0
 51
160.0
  0
ARC
  5
31E
100
AcDbEntity
  8
0
100
AcDbCircle
 62
3
  6
CONTINUOUS
 10
12.3956455382
 20
9.2148568671
 40
1.0
100
AcDbArc
 50
20.0
 51
90.0
  0
ARC
  5
31F
100
AcDbEntity
  8
0
100
AcDbCircle
 62
3
  6
CONTINUOUS
 10
-7.0143544618
 20
9.2148568671
 40
1.0
100
AcDbArc
 50
90.0
 51
160.0
  0
ARC
  5
320
100
AcDbEntity
  8
0
100
AcDbCircle
 62
3
  6
CONTINUOUS
 10
7.9322115777
 20
15.8448568671
 40
1.0
100
AcDbArc
 50
20.0
 51
90.0
  0
ARC
  5
321
100
AcDbEntity
  8
0
100
AcDbCircle
 62
3
  6
CONTINUOUS
 10
-6.0143544618
 20
10.7148568671
 40
0.5
100
AcDbArc
 50
270.0
 51
340.0
  0
ARC
  5
322
100
AcDbEntity
  8
0
100
AcDbCircle
 62
3
  6
CONTINUOUS
 10
11.3956455382
 20
10.7148568671
 40
0.5
100
AcDbArc
 50
200.0
 51
270.0
  0
ARC
  5
323
100
AcDbEntity
  8
0
100
AcDbCircle
 62
7
  6
CONTINUOUS
 10
-3.9215993598
 20
4.2440167311
 40
0.3308333333
100
AcDbArc
 50
259.647917946
 51
295.8659626275
  0
ARC
  5
324
100
AcDbEntity
  8
0
100
AcDbCircle
 62
7
  6
CONTINUOUS
 10
9.3028904362
 20
4.2440167311
 40
0.3308333333
100
AcDbArc
 50
245.0676464461
 51
281.4308982417
  0
ARC
  5
325
100
AcDbEntity
  8
0
100
AcDbCircle
 62
7
  6
CONTINUOUS
 10
15.2525670112
 20
4.8448568671
 40
0.253
100
AcDbArc
 50
270.0
 51
90.0
  0
ARC
  5
326
100
AcDbEntity
  8
0
100
AcDbCircle
 62
7
  6
CONTINUOUS
 10
-9.8712759348
 20
4.8448568671
 40
0.253
100
AcDbArc
 50
90.0
 51
270.0
  0
ARC
  5
327
100
AcDbEntity
  8
AXIS
100
AcDbCircle
 62
7
  6
CONTINUOUS
 10
7.9130589912
 20
10.4598568671
 40
0.2
100
AcDbArc
 50
0.0
 51
180.0
  0
ARC
  5
328
100
AcDbEntity
  8
AXIS
100
AcDbCircle
 62
7
  6
CONTINUOUS
 10
-4.7677338251
 20
10.4598568671
 40
0.2
100
AcDbArc
 50
0.0
 51
180.0
  0
CIRCLE
  5
329
100
AcDbEntity
  8
0
100
AcDbCircle
 62
3
  6
CONTINUOUS
 10
-2.8093544618
 20
-0.5631431329
 40
0.155
  0
CIRCLE
  5
32A
100
AcDbEntity
  8
0
100
AcDbCircle
 62
3
  6
CONTINUOUS
 10
8.1906455382
 20
-0.5631431329
 40
0.155
  0
ARC
  5
32B
100
AcDbEntity
  8
0
100
AcDbCircle
 62
3
  6
CONTINUOUS
 10
-8.2987478601
 20
0.0668568671
 40
0.12
100
AcDbArc
 50
90.0
 51
180.0
  0
ARC
  5
32C
100
AcDbEntity
  8
0
100
AcDbCircle
 62
3
  6
CONTINUOUS
 10
13.6800389365
 20
0.0668568671
 40
0.12
100
AcDbArc
 50
0.0
 51
90.0
  0
ARC
  5
32D
100
AcDbEntity
  8
0
100
AcDbCircle
 62
3
  6
CONTINUOUS
 10
-3.8627268718
 20
1.001926326
 40
0.0651452302
100
AcDbArc
 50
55.8453598018
 51
56.9967892765
  0
ARC
  5
32E
100
AcDbEntity
  8
0
100
AcDbCircle
 62
3
  6
CONTINUOUS
 10
-3.8627268718
 20
0.9317874083
 40
0.0651452302
100
AcDbArc
 50
303.0032107235
 51
304.1546401981
  0
ARC
  5
32F
100
AcDbEntity
  8
0
100
AcDbCircle
 62
3
  6
CONTINUOUS
 10
-3.8634462907
 20
3.8317809421
 40
0.0651396708
100
AcDbArc
 50
303.0082343212
 51
304.1596012645
  0
ARC
  5
330
100
AcDbEntity
  8
0
100
AcDbCircle
 62
3
  6
CONTINUOUS
 10
-3.8622406293
 20
0.9310415754
 40
0.0642548954
100
AcDbArc
 50
302.4391759673
 51
303.001839632
  0
ARC
  5
331
100
AcDbEntity
  8
0
100
AcDbCircle
 62
3
  6
CONTINUOUS
 10
-3.8622406293
 20
1.0026721589
 40
0.0642548954
100
AcDbArc
 50
56.9981603678
 51
57.5608240329
  0
ARC
  5
332
100
AcDbEntity
  8
0
100
AcDbCircle
 62
3
  6
CONTINUOUS
 10
-3.8629592972
 20
3.8310340899
 40
0.0642480719
100
AcDbArc
 50
302.4420466192
 51
303.0068662145
  0
ARC
  5
333
100
AcDbEntity
  8
0
100
AcDbCircle
 62
7
  6
CONTINUOUS
 10
-8.2987478601
 20
0.0668568671
 40
0.06
100
AcDbArc
 50
90.0
 51
180.0
  0
ARC
  5
334
100
AcDbEntity
  8
0
100
AcDbCircle
 62
7
  6
CONTINUOUS
 10
13.6800389365
 20
0.0668568671
 40
0.06
100
AcDbArc
 50
0.0
 51
90.0
  0
CIRCLE
  5
335
100
AcDbEntity
  8
0
100
AcDbCircle
 62
7
  6
CONTINUOUS
 10
-38.4157156343
 20
-32.5868311258
 40
0.625
  0
CIRCLE
  5
336
100
AcDbEntity
  8
0
100
AcDbCircle
 62
7
  6
CONTINUOUS
 10
-39.4763758061
 20
-33.6474912976
 40
0.625
  0
CIRCLE
  5
337
100
AcDbEntity
  8
0
100
AcDbCircle
 62
7
  6
CONTINUOUS
 10
-39.4763758061
 20
-33.6474912976
 40
0.26
  0
CIRCLE
  5
338
100
AcDbEntity
  8
0
100
AcDbCircle
 62
7
  6
CONTINUOUS
 10
-38.4157156343
 20
-32.5868311258
 40
0.26
  0
CIRCLE
  5
339
100
AcDbEntity
  8
0
100
AcDbCircle
 62
7
  6
CONTINUOUS
 10
-39.4763758061
 20
-33.6474912976
 40
0.187
  0
CIRCLE
  5
33A
100
AcDbEntity
  8
0
100
AcDbCircle
 62
7
  6
CONTINUOUS
 10
-38.4157156343
 20
-32.5868311258
 40
0.187
  0
CIRCLE
  5
33B
100
AcDbEntity
  8
0
100
AcDbCircle
 62
7
  6
CONTINUOUS
 10
-38.4157156343
 20
-23.0408895798
 40
0.625
  0
CIRCLE
  5
33C
100
AcDbEntity
  8
0
100
AcDbCircle
 62
7
  6
CONTINUOUS
 10
-39.4763758061
 20
-21.980229408
 40
0.625
  0
CIRCLE
  5
33D
100
AcDbEntity
  8
0
100
AcDbCircle
 62
7
  6
CONTINUOUS
 10
-39.4763758061
 20
-21.980229408
 40
0.26
  0
CIRCLE
  5
33E
100
AcDbEntity
  8
0
100
AcDbCircle
 62
7
  6
CONTINUOUS
 10
-38.4157156343
 20
-23.0408895798
 40
0.26
  0
CIRCLE
  5
33F
100
AcDbEntity
  8
0
100
AcDbCircle
 62
7
  6
CONTINUOUS
 10
-39.4763758061
 20
-21.980229408
 40
0.187
  0
CIRCLE
  5
340
100
AcDbEntity
  8
0
100
AcDbCircle
 62
7
  6
CONTINUOUS
 10
-38.4157156343
 20
-23.0408895798
 40
0.187
  0
ARC
  5
341
100
AcDbEntity
  8
0
100
AcDbCircle
 62
7
  6
CONTINUOUS
 10
-44.7327448613
 20
-20.7238603528
 40
0.05
100
AcDbArc
 50
113.0651188641
 51
180.0
  0
ARC
  5
342
100
AcDbEntity
  8
0
100
AcDbCircle
 62
7
  6
CONTINUOUS
 10
-44.7327448613
 20
-22.2438603528
 40
0.05
100
AcDbArc
 50
180.0
 51
246.9348811359
  0
CIRCLE
  5
343
100
AcDbEntity
  8
0
100
AcDbCircle
 62
7
  6
CONTINUOUS
 10
-27.8091139165
 20
-33.6474912976
 40
0.625
  0
CIRCLE
  5
344
100
AcDbEntity
  8
0
100
AcDbCircle
 62
7
  6
CONTINUOUS
 10
-28.8697740883
 20
-32.5868311258
 40
0.625
  0
ARC
  5
345
100
AcDbEntity
  8
0
100
AcDbCircle
 62
7
  6
CONTINUOUS
 10
-32.8255255467
 20
-28.4091084323
 40
0.3993281503
100
AcDbArc
 50
313.6649142478
 51
318.6576625913
  0
CIRCLE
  5
346
100
AcDbEntity
  8
0
100
AcDbCircle
 62
7
  6
CONTINUOUS
 10
-34.0614325113
 20
-35.8028966308
 40
0.345
  0
CIRCLE
  5
347
100
AcDbEntity
  8
0
100
AcDbCircle
 62
7
  6
CONTINUOUS
 10
-33.6427448613
 20
-28.8138603528
 40
0.2655
  0
CIRCLE
  5
348
100
AcDbEntity
  8
0
100
AcDbCircle
 62
7
  6
CONTINUOUS
 10
-27.8091139165
 20
-33.6474912976
 40
0.26
  0
CIRCLE
  5
349
100
AcDbEntity
  8
0
100
AcDbCircle
 62
7
  6
CONTINUOUS
 10
-28.8697740883
 20
-32.5868311258
 40
0.26
  0
CIRCLE
  5
34A
100
AcDbEntity
  8
0
100
AcDbCircle
 62
7
  6
CONTINUOUS
 10
-33.6427448613
 20
-28.8138603528
 40
0.218
  0
CIRCLE
  5
34B
100
AcDbEntity
  8
0
100
AcDbCircle
 62
7
  6
CONTINUOUS
 10
-27.8091139165
 20
-33.6474912976
 40
0.187
  0
CIRCLE
  5
34C
100
AcDbEntity
  8
0
100
AcDbCircle
 62
7
  6
CONTINUOUS
 10
-28.8697740883
 20
-32.5868311258
 40
0.187
  0
CIRCLE
  5
34D
100
AcDbEntity
  8
0
100
AcDbCircle
 62
7
  6
CONTINUOUS
 10
-34.5087702651
 20
-27.3138603528
 40
0.2655
  0
CIRCLE
  5
34E
100
AcDbEntity
  8
0
100
AcDbCircle
 62
7
  6
CONTINUOUS
 10
-34.5087702651
 20
-27.3138603528
 40
0.218
  0
ARC
  5
34F
100
AcDbEntity
  8
0
100
AcDbCircle
 62
7
  6
CONTINUOUS
 10
-33.6427448613
 20
-27.8138603528
 40
12.814921473
100
AcDbArc
 50
240.3316589551
 51
299.8649914851
  0
ARC
  5
350
100
AcDbEntity
  8
0
100
AcDbCircle
 62
7
  6
CONTINUOUS
 10
-33.6427448613
 20
-27.8138603528
 40
12.814921473
100
AcDbArc
 50
150.426359745
 51
209.6647139582
  0
ARC
  5
351
100
AcDbEntity
  8
0
100
AcDbCircle
 62
7
  6
CONTINUOUS
 10
-33.6427448613
 20
-27.8138603528
 40
12.814921473
100
AcDbArc
 50
60.3316589551
 51
119.8649914851
  0
ARC
  5
352
100
AcDbEntity
  8
0
100
AcDbCircle
 62
7
  6
CONTINUOUS
 10
-33.6427448613
 20
-27.8138603528
 40
12.814921473
100
AcDbArc
 50
330.1752036982
 51
29.6647139582
  0
CIRCLE
  5
353
100
AcDbEntity
  8
0
100
AcDbCircle
 62
7
  6
CONTINUOUS
 10
-33.6427448613
 20
-27.8138603528
 40
5.4399630506
  0
CIRCLE
  5
354
100
AcDbEntity
  8
0
100
AcDbCircle
 62
7
  6
CONTINUOUS
 10
-33.6427448613
 20
-27.8138603528
 40
5.1393435356
  0
CIRCLE
  5
355
100
AcDbEntity
  8
0
100
AcDbCircle
 62
7
  6
CONTINUOUS
 10
-33.6427448613
 20
-27.8138603528
 40
4.4276486343
  0
ARC
  5
356
100
AcDbEntity
  8
0
100
AcDbCircle
 62
7
  6
CONTINUOUS
 10
-33.6427448613
 20
-27.8138603528
 40
1.25
100
AcDbArc
 50
274.7539852488
 51
319.8964730224
  0
ARC
  5
357
100
AcDbEntity
  8
0
100
AcDbCircle
 62
7
  6
CONTINUOUS
 10
-33.6427448613
 20
-27.8138603528
 40
1.25
100
AcDbArc
 50
340.1235393399
 51
25.1891239858
  0
ARC
  5
358
100
AcDbEntity
  8
0
100
AcDbCircle
 62
7
  6
CONTINUOUS
 10
-33.6427448613
 20
-27.8138603528
 40
1.25
100
AcDbArc
 50
34.874742549
 51
145.1335038411
  0
ARC
  5
359
100
AcDbEntity
  8
0
100
AcDbCircle
 62
7
  6
CONTINUOUS
 10
-33.6427448613
 20
-27.8138603528
 40
1.25
100
AcDbArc
 50
154.7353544735
 51
265.4991229413
  0
ARC
  5
35A
100
AcDbEntity
  8
0
100
AcDbCircle
 62
7
  6
CONTINUOUS
 10
-33.6427448613
 20
-27.8138603528
 40
1.2368456474
100
AcDbArc
 50
36.3295727514
 51
143.5754607678
  0
ARC
  5
35B
100
AcDbEntity
  8
0
100
AcDbCircle
 62
7
  6
CONTINUOUS
 10
-33.6427448613
 20
-27.8138603528
 40
1.2368456474
100
AcDbArc
 50
340.2322042645
 51
23.7760638916
  0
ARC
  5
35C
100
AcDbEntity
  8
0
100
AcDbCircle
 62
7
  6
CONTINUOUS
 10
-33.6427448613
 20
-27.8138603528
 40
1.2368456474
100
AcDbArc
 50
276.4195550169
 51
319.786641295
  0
ARC
  5
35D
100
AcDbEntity
  8
0
100
AcDbCircle
 62
7
  6
CONTINUOUS
 10
-33.6427448613
 20
-27.8138603528
 40
1.2368456474
100
AcDbArc
 50
156.1405136236
 51
263.6750871004
  0
ARC
  5
35E
100
AcDbEntity
  8
0
100
AcDbCircle
 62
7
  6
CONTINUOUS
 10
-33.0884886029
 20
-28.1338603528
 40
0.78
100
AcDbArc
 50
313.6783348578
 51
346.3216651422
  0
ARC
  5
35F
100
AcDbEntity
  8
0
100
AcDbCircle
 62
7
  6
CONTINUOUS
 10
-33.6427448613
 20
-27.8138603528
 40
0.6380912987
100
AcDbArc
 50
353.0661400609
 51
306.9338599391
  0
ARC
  5
360
100
AcDbEntity
  8
0
100
AcDbCircle
 62
7
  6
CONTINUOUS
 10
-33.6427448613
 20
-27.8138603528
 40
0.625
100
AcDbArc
 50
349.7009376039
 51
310.2990623961
  0
CIRCLE
  5
361
100
AcDbEntity
  8
0
100
AcDbCircle
 62
7
  6
CONTINUOUS
 10
-33.6427448613
 20
-27.8138603528
 40
0.313
  0
CIRCLE
  5
362
100
AcDbEntity
  8
0
100
AcDbCircle
 62
7
  6
CONTINUOUS
 10
-33.6427448613
 20
-27.8138603528
 40
0.25
  0
CIRCLE
  5
363
100
AcDbEntity
  8
0
100
AcDbCircle
 62
7
  6
CONTINUOUS
 10
-32.7767194576
 20
-27.3138603528
 40
0.2655
  0
CIRCLE
  5
364
100
AcDbEntity
  8
0
100
AcDbCircle
 62
7
  6
CONTINUOUS
 10
-32.7767194576
 20
-27.3138603528
 40
0.218
  0
CIRCLE
  5
365
100
AcDbEntity
  8
0
100
AcDbCircle
 62
7
  6
CONTINUOUS
 10
-27.8091139165
 20
-21.980229408
 40
0.625
  0
CIRCLE
  5
366
100
AcDbEntity
  8
0
100
AcDbCircle
 62
7
  6
CONTINUOUS
 10
-28.8697740883
 20
-23.0408895798
 40
0.625
  0
CIRCLE
  5
367
100
AcDbEntity
  8
0
100
AcDbCircle
 62
7
  6
CONTINUOUS
 10
-28.8697740883
 20
-23.0408895798
 40
0.26
  0
CIRCLE
  5
368
100
AcDbEntity
  8
0
100
AcDbCircle
 62
7
  6
CONTINUOUS
 10
-27.8091139165
 20
-21.980229408
 40
0.26
  0
CIRCLE
  5
369
100
AcDbEntity
  8
0
100
AcDbCircle
 62
7
  6
CONTINUOUS
 10
-28.8697740883
 20
-23.0408895798
 40
0.187
  0
CIRCLE
  5
36A
100
AcDbEntity
  8
0
100
AcDbCircle
 62
7
  6
CONTINUOUS
 10
-27.8091139165
 20
-21.980229408
 40
0.187
  0
SPLINE
  5
36B
100
AcDbEntity
  8
0
100
AcDbSpline
 62
7
  6
CONTINUOUS
 70
0
 71
3
 72
9
 73
5
 74
0
 42
0.0000001
 43
0.0000001
 44
0.0000000001
 40
0.0
 40
0.0
 40
0.0
 40
0.0
 40
0.4952594023
 40
1.0
 40
1.0
 40
1.0
 40
1.0
 10
-40.2962332177
 20
3.9658568671
 30
0.0
 10
-40.2995233978
 20
3.9658568671
 30
0.0
 10
-40.3061833664
 20
3.9651634348
 30
0.0
 10
-40.3125653847
 20
3.9631564441
 30
0.0
 10
-40.3156570255
 20
3.9618581814
 30
0.0
  0
SPLINE
  5
36C
100
AcDbEntity
  8
0
100
AcDbSpline
 62
7
  6
CONTINUOUS
 70
0
 71
3
 72
9
 73
5
 74
0
 42
0.0000001
 43
0.0000001
 44
0.0000000001
 40
0.0
 40
0.0
 40
0.0
 40
0.0
 40
0.2462320817
 40
1.0
 40
1.0
 40
1.0
 40
1.0
 10
-40.3156570255
 20
3.9618581814
 30
0.0
 10
-40.3164476329
 20
3.9615261841
 30
0.0
 10
-40.3196262215
 20
3.9601019436
 30
0.0
 10
-40.3226688072
 20
3.9583774959
 30
0.0
 10
-40.3248635815
 20
3.9569376007
 30
0.0
  0
SPLINE
  5
36D
100
AcDbEntity
  8
0
100
AcDbSpline
 62
7
  6
CONTINUOUS
 70
0
 71
3
 72
21
 73
17
 74
0
 42
0.0000001
 43
0.0000001
 44
0.0000000001
 40
0.0
 40
0.0
 40
0.0
 40
0.0
 40
0.1096239208
 40
0.1690103137
 40
0.2312654379
 40
0.2960299483
 40
0.3628287361
 40
0.4310546781
 40
0.5
 40
0.5689453219
 40
0.6371712639
 40
0.7039700517
 40
0.7687345621
 40
0.8309896863
 40
0.8903760792
 40
1.0
 40
1.0
 40
1.0
 40
1.0
 10
-40.3248635815
 20
3.9569376007
 30
0.0
 10
-40.3311179353
 20
3.9528343936
 30
0.0
 10
-40.3396420249
 20
3.9447041779
 30
0.0
 10
-40.3485996201
 20
3.9316895599
 30
0.0
 10
-40.3544388358
 20
3.920347898
 30
0.0
 10
-40.3591068363
 20
3.9079462302
 30
0.0
 10
-40.3624958428
 20
3.8947146772
 30
0.0
 10
-40.3645558543
 20
3.8809268735
 30
0.0
 10
-40.3652556393
 20
3.8668568671
 30
0.0
 10
-40.3645558543
 20
3.8527868608
 30
0.0
 10
-40.3624958428
 20
3.8389990571
 30
0.0
 10
-40.3591068363
 20
3.8257675041
 30
0.0
 10
-40.3544388358
 20
3.8133658362
 30
0.0
 10
-40.3485996201
 20
3.8020241744
 30
0.0
 10
-40.3396420249
 20
3.7890095563
 30
0.0
 10
-40.3311179353
 20
3.7808793407
 30
0.0
 10
-40.3248635815
 20
3.7767761335
 30
0.0
  0
SPLINE
  5
36E
100
AcDbEntity
  8
0
100
AcDbSpline
 62
7
  6
CONTINUOUS
 70
0
 71
3
 72
9
 73
5
 74
0
 42
0.0000001
 43
0.0000001
 44
0.0000000001
 40
0.0
 40
0.0
 40
0.0
 40
0.0
 40
0.2542545152
 40
1.0
 40
1.0
 40
1.0
 40
1.0
 10
-40.3248635815
 20
3.7767761335
 30
0.0
 10
-40.3241232681
 20
3.7762904464
 30
0.0
 10
-40.3211705448
 20
3.7744437252
 30
0.0
 10
-40.3180514525
 20
3.7728610369
 30
0.0
 10
-40.3156570255
 20
3.7718555529
 30
0.0
  0
SPLINE
  5
36F
100
AcDbEntity
  8
0
100
AcDbSpline
 62
7
  6
CONTINUOUS
 70
0
 71
3
 72
9
 73
5
 74
0
 42
0.0000001
 43
0.0000001
 44
0.0000000001
 40
0.0
 40
0.0
 40
0.0
 40
0.0
 40
0.5047405977
 40
1.0
 40
1.0
 40
1.0
 40
1.0
 10
-40.3156570255
 20
3.7718555529
 30
0.0
 10
-40.3125653847
 20
3.7705572901
 30
0.0
 10
-40.3061833664
 20
3.7685502994
 30
0.0
 10
-40.2995233978
 20
3.7678568671
 30
0.0
 10
-40.2962332177
 20
3.7678568671
 30
0.0
  0
SPLINE
  5
370
100
AcDbEntity
  8
0
100
AcDbSpline
 62
7
  6
CONTINUOUS
 70
0
 71
3
 72
9
 73
5
 74
0
 42
0.0000001
 43
0.0000001
 44
0.0000000001
 40
0.0
 40
0.0
 40
0.0
 40
0.0
 40
0.4952572169
 40
1.0
 40
1.0
 40
1.0
 40
1.0
 10
-40.2969320478
 20
1.0658568671
 30
0.0
 10
-40.3002218485
 20
1.0658568671
 30
0.0
 10
-40.3068810822
 20
1.0651634276
 30
0.0
 10
-40.3132623317
 20
1.063156435
 30
0.0
 10
-40.3163535887
 20
1.0618581814
 30
0.0
  0
SPLINE
  5
371
100
AcDbEntity
  8
0
100
AcDbSpline
 62
7
  6
CONTINUOUS
 70
0
 71
3
 72
9
 73
5
 74
0
 42
0.0000001
 43
0.0000001
 44
0.0000000001
 40
0.0
 40
0.0
 40
0.0
 40
0.0
 40
0.2462304921
 40
1.0
 40
1.0
 40
1.0
 40
1.0
 10
-40.3163535887
 20
1.0618581814
 30
0.0
 10
-40.3171441052
 20
1.0615261835
 30
0.0
 10
-40.320322342
 20
1.0601019333
 30
0.0
 10
-40.3233645639
 20
1.0583774859
 30
0.0
 10
-40.3255590653
 20
1.0569376007
 30
0.0
  0
SPLINE
  5
372
100
AcDbEntity
  8
0
100
AcDbSpline
 62
7
  6
CONTINUOUS
 70
0
 71
3
 72
21
 73
17
 74
0
 42
0.0000001
 43
0.0000001
 44
0.0000000001
 40
0.0
 40
0.0
 40
0.0
 40
0.0
 40
0.1096196914
 40
0.1690052834
 40
0.231260397
 40
0.2960255592
 40
0.3628255171
 40
0.4310529801
 40
0.5
 40
0.5689470199
 40
0.6371744829
 40
0.7039744408
 40
0.768739603
 40
0.8309947166
 40
0.8903803086
 40
1.0
 40
1.0
 40
1.0
 40
1.0
 10
-40.3255590653
 20
1.0569376007
 30
0.0
 10
-40.331812801
 20
1.0528343173
 30
0.0
 10
-40.3403359062
 20
1.0447039953
 30
0.0
 10
-40.3492923478
 20
1.0316894891
 30
0.0
 10
-40.3551308565
 20
1.0203478369
 30
0.0
 10
-40.359798291
 20
1.0079461822
 30
0.0
 10
-40.3631868864
 20
0.9947146449
 30
0.0
 10
-40.365246648
 20
0.9809268572
 30
0.0
 10
-40.3659463481
 20
0.9668568671
 30
0.0
 10
-40.365246648
 20
0.9527868771
 30
0.0
 10
-40.3631868864
 20
0.9389990894
 30
0.0
 10
-40.359798291
 20
0.925767552
 30
0.0
 10
-40.3551308565
 20
0.9133658974
 30
0.0
 10
-40.3492923478
 20
0.9020242452
 30
0.0
 10
-40.3403359062
 20
0.889009739
 30
0.0
 10
-40.331812801
 20
0.880879417
 30
0.0
 10
-40.3255590653
 20
0.8767761335
 30
0.0
  0
SPLINE
  5
373
100
AcDbEntity
  8
0
100
AcDbSpline
 62
7
  6
CONTINUOUS
 70
0
 71
3
 72
9
 73
5
 74
0
 42
0.0000001
 43
0.0000001
 44
0.0000000001
 40
0.0
 40
0.0
 40
0.0
 40
0.0
 40
0.254256214
 40
1.0
 40
1.0
 40
1.0
 40
1.0
 10
-40.3255590653
 20
0.8767761335
 30
0.0
 10
-40.3248188406
 20
0.8762904475
 30
0.0
 10
-40.321866484
 20
0.8744437384
 30
0.0
 10
-40.3187477502
 20
0.8728610431
 30
0.0
 10
-40.3163535887
 20
0.8718555529
 30
0.0
  0
SPLINE
  5
374
100
AcDbEntity
  8
0
100
AcDbSpline
 62
7
  6
CONTINUOUS
 70
0
 71
3
 72
9
 73
5
 74
0
 42
0.0000001
 43
0.0000001
 44
0.0000000001
 40
0.0
 40
0.0
 40
0.0
 40
0.0
 40
0.5047427831
 40
1.0
 40
1.0
 40
1.0
 40
1.0
 10
-40.3163535887
 20
0.8718555529
 30
0.0
 10
-40.3132623317
 20
0.8705572993
 30
0.0
 10
-40.3068810822
 20
0.8685503067
 30
0.0
 10
-40.3002218485
 20
0.8678568671
 30
0.0
 10
-40.2969320478
 20
0.8678568671
 30
0.0
  0
SPLINE
  5
375
100
AcDbEntity
  8
0
100
AcDbSpline
 62
7
  6
CONTINUOUS
 70
0
 71
3
 72
9
 73
5
 74
0
 42
0.0000001
 43
0.0000001
 44
0.0000000001
 40
0.0
 40
0.0
 40
0.0
 40
0.0
 40
0.4947889807
 40
1.0
 40
1.0
 40
1.0
 40
1.0
 10
-40.2592052621
 20
1.0658568671
 30
0.0
 10
-40.2626565075
 20
1.0658568671
 30
0.0
 10
-40.2696507311
 20
1.065093323
 30
0.0
 10
-40.2763251011
 20
1.0628898996
 30
0.0
 10
-40.2795493068
 20
1.0614676975
 30
0.0
  0
SPLINE
  5
376
100
AcDbEntity
  8
0
100
AcDbSpline
 62
7
  6
CONTINUOUS
 70
0
 71
3
 72
9
 73
5
 74
0
 42
0.0000001
 43
0.0000001
 44
0.0000000001
 40
0.0
 40
0.0
 40
0.0
 40
0.0
 40
0.4942151084
 40
1.0
 40
1.0
 40
1.0
 40
1.0
 10
-40.2795493068
 20
1.0614676975
 30
0.0
 10
-40.2812092201
 20
1.0607355072
 30
0.0
 10
-40.2844960814
 20
1.0590860959
 30
0.0
 10
-40.287609996
 20
1.057130986
 30
0.0
 10
-40.2891369033
 20
1.056074634
 30
0.0
  0
SPLINE
  5
377
100
AcDbEntity
  8
0
100
AcDbSpline
 62
7
  6
CONTINUOUS
 70
0
 71
3
 72
21
 73
17
 74
0
 42
0.0000001
 43
0.0000001
 44
0.0000000001
 40
0.0
 40
0.0
 40
0.0
 40
0.0
 40
0.1100581247
 40
0.1695667656
 40
0.2318547887
 40
0.2965639076
 40
0.3632324445
 40
0.4312712597
 40
0.5
 40
0.5687287403
 40
0.6367675555
 40
0.7034360924
 40
0.7681452113
 40
0.8304332344
 40
0.8899418753
 40
1.0
 40
1.0
 40
1.0
 40
1.0
 10
-40.2891369033
 20
1.056074634
 30
0.0
 10
-40.2952214456
 20
1.0518651981
 30
0.0
 10
-40.3034891852
 20
1.0436877716
 30
0.0
 10
-40.3121725689
 20
1.0307222684
 30
0.0
 10
-40.317825102
 20
1.0194920154
 30
0.0
 10
-40.3223397586
 20
1.0072544104
 30
0.0
 10
-40.325614408
 20
0.9942292566
 30
0.0
 10
-40.3276050602
 20
0.9806768276
 30
0.0
 10
-40.328280972
 20
0.9668568671
 30
0.0
 10
-40.3276050602
 20
0.9530369067
 30
0.0
 10
-40.325614408
 20
0.9394844777
 30
0.0
 10
-40.3223397586
 20
0.9264593239
 30
0.0
 10
-40.317825102
 20
0.9142217188
 30
0.0
 10
-40.3121725689
 20
0.9029914659
 30
0.0
 10
-40.3034891852
 20
0.8900259627
 30
0.0
 10
-40.2952214456
 20
0.8818485361
 30
0.0
 10
-40.2891369033
 20
0.8776391002
 30
0.0
  0
SPLINE
  5
378
100
AcDbEntity
  8
0
100
AcDbSpline
 62
7
  6
CONTINUOUS
 70
0
 71
3
 72
9
 73
5
 74
0
 42
0.0000001
 43
0.0000001
 44
0.0000000001
 40
0.0
 40
0.0
 40
0.0
 40
0.0
 40
0.5057848916
 40
1.0
 40
1.0
 40
1.0
 40
1.0
 10
-40.2891369033
 20
0.8776391002
 30
0.0
 10
-40.287609996
 20
0.8765827482
 30
0.0
 10
-40.2844960814
 20
0.8746276384
 30
0.0
 10
-40.2812092201
 20
0.8729782271
 30
0.0
 10
-40.2795493068
 20
0.8722460368
 30
0.0
  0
SPLINE
  5
379
100
AcDbEntity
  8
0
100
AcDbSpline
 62
7
  6
CONTINUOUS
 70
0
 71
3
 72
9
 73
5
 74
0
 42
0.0000001
 43
0.0000001
 44
0.0000000001
 40
0.0
 40
0.0
 40
0.0
 40
0.0
 40
0.5052110193
 40
1.0
 40
1.0
 40
1.0
 40
1.0
 10
-40.2795493068
 20
0.8722460368
 30
0.0
 10
-40.2763251011
 20
0.8708238347
 30
0.0
 10
-40.2696507311
 20
0.8686204113
 30
0.0
 10
-40.2626565075
 20
0.8678568671
 30
0.0
 10
-40.2592052621
 20
0.8678568671
 30
0.0
  0
SPLINE
  5
37A
100
AcDbEntity
  8
0
100
AcDbSpline
 62
7
  6
CONTINUOUS
 70
0
 71
3
 72
9
 73
5
 74
0
 42
0.0000001
 43
0.0000001
 44
0.0000000001
 40
0.0
 40
0.0
 40
0.0
 40
0.0
 40
0.4947912394
 40
1.0
 40
1.0
 40
1.0
 40
1.0
 10
-40.2585059537
 20
3.9658568671
 30
0.0
 10
-40.2619575749
 20
3.9658568671
 30
0.0
 10
-40.268952524
 20
3.9650933313
 30
0.0
 10
-40.2756276565
 20
3.9628899098
 30
0.0
 10
-40.2788522421
 20
3.9614676975
 30
0.0
  0
SPLINE
  5
37B
100
AcDbEntity
  8
0
100
AcDbSpline
 62
7
  6
CONTINUOUS
 70
0
 71
3
 72
9
 73
5
 74
0
 42
0.0000001
 43
0.0000001
 44
0.0000000001
 40
0.0
 40
0.0
 40
0.0
 40
0.0
 40
0.4942173221
 40
1.0
 40
1.0
 40
1.0
 40
1.0
 10
-40.2788522421
 20
3.9614676975
 30
0.0
 10
-40.2805123323
 20
3.9607355102
 30
0.0
 10
-40.2837995429
 20
3.9590861079
 30
0.0
 10
-40.2869138171
 20
3.9571309909
 30
0.0
 10
-40.2884409009
 20
3.956074634
 30
0.0
  0
SPLINE
  5
37C
100
AcDbEntity
  8
0
100
AcDbSpline
 62
7
  6
CONTINUOUS
 70
0
 71
3
 72
21
 73
17
 74
0
 42
0.0000001
 43
0.0000001
 44
0.0000000001
 40
0.0
 40
0.0
 40
0.0
 40
0.0
 40
0.110061989
 40
0.169571355
 40
0.2318593835
 40
0.2965679058
 40
0.3632353755
 40
0.4312728054
 40
0.5
 40
0.5687271946
 40
0.6367646245
 40
0.7034320942
 40
0.7681406165
 40
0.830428645
 40
0.889938011
 40
1.0
 40
1.0
 40
1.0
 40
1.0
 10
-40.2884409009
 20
3.956074634
 30
0.0
 10
-40.2945260139
 20
3.9518652704
 30
0.0
 10
-40.3027946578
 20
3.943687938
 30
0.0
 10
-40.3114790948
 20
3.9307223323
 30
0.0
 10
-40.3171322737
 20
3.9194920704
 30
0.0
 10
-40.3216474466
 20
3.9072544535
 30
0.0
 10
-40.3249224709
 20
3.8942292855
 30
0.0
 10
-40.3269133508
 20
3.8806768422
 30
0.0
 10
-40.32758934
 20
3.8668568671
 30
0.0
 10
-40.3269133508
 20
3.8530368921
 30
0.0
 10
-40.3249224709
 20
3.8394844487
 30
0.0
 10
-40.3216474466
 20
3.8264592808
 30
0.0
 10
-40.3171322737
 20
3.8142216639
 30
0.0
 10
-40.3114790948
 20
3.802991402
 30
0.0
 10
-40.3027946578
 20
3.7900257963
 30
0.0
 10
-40.2945260139
 20
3.7818484638
 30
0.0
 10
-40.2884409009
 20
3.7776391002
 30
0.0
  0
SPLINE
  5
37D
100
AcDbEntity
  8
0
100
AcDbSpline
 62
7
  6
CONTINUOUS
 70
0
 71
3
 72
9
 73
5
 74
0
 42
0.0000001
 43
0.0000001
 44
0.0000000001
 40
0.0
 40
0.0
 40
0.0
 40
0.0
 40
0.5057826779
 40
1.0
 40
1.0
 40
1.0
 40
1.0
 10
-40.2884409009
 20
3.7776391002
 30
0.0
 10
-40.2869138171
 20
3.7765827434
 30
0.0
 10
-40.2837995429
 20
3.7746276264
 30
0.0
 10
-40.2805123323
 20
3.7729782241
 30
0.0
 10
-40.2788522421
 20
3.7722460368
 30
0.0
  0
SPLINE
  5
37E
100
AcDbEntity
  8
0
100
AcDbSpline
 62
7
  6
CONTINUOUS
 70
0
 71
3
 72
9
 73
5
 74
0
 42
0.0000001
 43
0.0000001
 44
0.0000000001
 40
0.0
 40
0.0
 40
0.0
 40
0.0
 40
0.5052087606
 40
1.0
 40
1.0
 40
1.0
 40
1.0
 10
-40.2788522421
 20
3.7722460368
 30
0.0
 10
-40.2756276565
 20
3.7708238245
 30
0.0
 10
-40.268952524
 20
3.768620403
 30
0.0
 10
-40.2619575749
 20
3.7678568671
 30
0.0
 10
-40.2585059537
 20
3.7678568671
 30
0.0
  0
SPLINE
  5
37F
100
AcDbEntity
  8
0
100
AcDbSpline
 62
7
  6
CONTINUOUS
 70
0
 71
3
 72
9
 73
5
 74
0
 42
0.0000001
 43
0.0000001
 44
0.0000000001
 40
0.0
 40
0.0
 40
0.0
 40
0.0
 40
0.4947836953
 40
1.0
 40
1.0
 40
1.0
 40
1.0
 10
-27.0246494658
 20
0.8678568671
 30
0.0
 10
-27.021199099
 20
0.8678568671
 30
0.0
 10
-27.0142065723
 20
0.8686204307
 30
0.0
 10
-27.0075339859
 20
0.8708238587
 30
0.0
 10
-27.0043106688
 20
0.8722460368
 30
0.0
  0
SPLINE
  5
380
100
AcDbEntity
  8
0
100
AcDbSpline
 62
7
  6
CONTINUOUS
 70
0
 71
3
 72
9
 73
5
 74
0
 42
0.0000001
 43
0.0000001
 44
0.0000000001
 40
0.0
 40
0.0
 40
0.0
 40
0.0
 40
0.494209929
 40
1.0
 40
1.0
 40
1.0
 40
1.0
 10
-27.0043106688
 20
0.8722460368
 30
0.0
 10
-27.0026511691
 20
0.8729782341
 30
0.0
 10
-26.9993651246
 20
0.8746276665
 30
0.0
 10
-26.9962520514
 20
0.8765827596
 30
0.0
 10
-26.9947255568
 20
0.8776391002
 30
0.0
  0
SPLINE
  5
381
100
AcDbEntity
  8
0
100
AcDbSpline
 62
7
  6
CONTINUOUS
 70
0
 71
3
 72
21
 73
17
 74
0
 42
0.0000001
 43
0.0000001
 44
0.0000000001
 40
0.0
 40
0.0
 40
0.0
 40
0.0
 40
0.1100490865
 40
0.1695560317
 40
0.2318440422
 40
0.2965545567
 40
0.3632255896
 40
0.4312676446
 40
0.5
 40
0.5687323554
 40
0.6367744104
 40
0.7034454433
 40
0.7681559578
 40
0.8304439683
 40
0.8899509135
 40
1.0
 40
1.0
 40
1.0
 40
1.0
 10
-26.9947255568
 20
0.8776391002
 30
0.0
 10
-26.9886423492
 20
0.8818487053
 30
0.0
 10
-26.9803767246
 20
0.8900263518
 30
0.0
 10
-26.9716958045
 20
0.9029916153
 30
0.0
 10
-26.9660447818
 20
0.9142218473
 30
0.0
 10
-26.9615313328
 20
0.9264594245
 30
0.0
 10
-26.95825756
 20
0.9394845454
 30
0.0
 10
-26.9562674405
 20
0.9530369409
 30
0.0
 10
-26.9555917097
 20
0.9668568671
 30
0.0
 10
-26.9562674405
 20
0.9806767934
 30
0.0
 10
-26.95825756
 20
0.9942291888
 30
0.0
 10
-26.9615313328
 20
1.0072543098
 30
0.0
 10
-26.9660447818
 20
1.0194918869
 30
0.0
 10
-26.9716958045
 20
1.030722119
 30
0.0
 10
-26.9803767246
 20
1.0436873824
 30
0.0
 10
-26.9886423492
 20
1.051865029
 30
0.0
 10
-26.9947255568
 20
1.056074634
 30
0.0
  0
SPLINE
  5
382
100
AcDbEntity
  8
0
100
AcDbSpline
 62
7
  6
CONTINUOUS
 70
0
 71
3
 72
9
 73
5
 74
0
 42
0.0000001
 43
0.0000001
 44
0.0000000001
 40
0.0
 40
0.0
 40
0.0
 40
0.0
 40
0.505790071
 40
1.0
 40
1.0
 40
1.0
 40
1.0
 10
-26.9947255568
 20
1.056074634
 30
0.0
 10
-26.9962520514
 20
1.0571309747
 30
0.0
 10
-26.9993651246
 20
1.0590860677
 30
0.0
 10
-27.0026511691
 20
1.0607355002
 30
0.0
 10
-27.0043106688
 20
1.0614676975
 30
0.0
  0
SPLINE
  5
383
100
AcDbEntity
  8
0
100
AcDbSpline
 62
7
  6
CONTINUOUS
 70
0
 71
3
 72
9
 73
5
 74
0
 42
0.0000001
 43
0.0000001
 44
0.0000000001
 40
0.0
 40
0.0
 40
0.0
 40
0.0
 40
0.5052163047
 40
1.0
 40
1.0
 40
1.0
 40
1.0
 10
-27.0043106688
 20
1.0614676975
 30
0.0
 10
-27.0075339859
 20
1.0628898756
 30
0.0
 10
-27.0142065723
 20
1.0650933035
 30
0.0
 10
-27.021199099
 20
1.0658568671
 30
0.0
 10
-27.0246494658
 20
1.0658568671
 30
0.0
  0
SPLINE
  5
384
100
AcDbEntity
  8
0
100
AcDbSpline
 62
7
  6
CONTINUOUS
 70
0
 71
3
 72
9
 73
5
 74
0
 42
0.0000001
 43
0.0000001
 44
0.0000000001
 40
0.0
 40
0.0
 40
0.0
 40
0.0
 40
0.4947859562
 40
1.0
 40
1.0
 40
1.0
 40
1.0
 10
-27.0253485943
 20
3.7678568671
 30
0.0
 10
-27.0218978518
 20
3.7678568671
 30
0.0
 10
-27.0149045994
 20
3.7686204224
 30
0.0
 10
-27.0082312502
 20
3.7708238484
 30
0.0
 10
-27.0050075531
 20
3.7722460368
 30
0.0
  0
SPLINE
  5
385
100
AcDbEntity
  8
0
100
AcDbSpline
 62
7
  6
CONTINUOUS
 70
0
 71
3
 72
9
 73
5
 74
0
 42
0.0000001
 43
0.0000001
 44
0.0000000001
 40
0.0
 40
0.0
 40
0.0
 40
0.0
 40
0.4942121444
 40
1.0
 40
1.0
 40
1.0
 40
1.0
 10
-27.0050075531
 20
3.7722460368
 30
0.0
 10
-27.0033478765
 20
3.7729782311
 30
0.0
 10
-27.0000614827
 20
3.7746276545
 30
0.0
 10
-26.9969480497
 20
3.7765827547
 30
0.0
 10
-26.9954213786
 20
3.7776391002
 30
0.0
  0
SPLINE
  5
386
100
AcDbEntity
  8
0
100
AcDbSpline
 62
7
  6
CONTINUOUS
 70
0
 71
3
 72
21
 73
17
 74
0
 42
0.0000001
 43
0.0000001
 44
0.0000000001
 40
0.0
 40
0.0
 40
0.0
 40
0.0
 40
0.1100529518
 40
0.1695606222
 40
0.2318486381
 40
0.2965585557
 40
0.3632285212
 40
0.4312691906
 40
0.5
 40
0.5687308094
 40
0.6367714788
 40
0.7034414443
 40
0.7681513619
 40
0.8304393778
 40
0.8899470482
 40
1.0
 40
1.0
 40
1.0
 40
1.0
 10
-26.9954213786
 20
3.7776391002
 30
0.0
 10
-26.9893376002
 20
3.7818486329
 30
0.0
 10
-26.981071071
 20
3.7900261854
 30
0.0
 10
-26.9723890974
 20
3.8029915514
 30
0.0
 10
-26.9667374287
 20
3.8142217924
 30
0.0
 10
-26.9622234633
 20
3.8264593815
 30
0.0
 10
-26.9589493156
 20
3.8394845165
 30
0.0
 10
-26.9569589683
 20
3.8530369263
 30
0.0
 10
-26.9562831601
 20
3.8668568671
 30
0.0
 10
-26.9569589683
 20
3.880676808
 30
0.0
 10
-26.9589493156
 20
3.8942292178
 30
0.0
 10
-26.9622234633
 20
3.9072543528
 30
0.0
 10
-26.9667374287
 20
3.9194919419
 30
0.0
 10
-26.9723890974
 20
3.9307221829
 30
0.0
 10
-26.981071071
 20
3.9436875489
 30
0.0
 10
-26.9893376002
 20
3.9518651013
 30
0.0
 10
-26.9954213786
 20
3.956074634
 30
0.0
  0
SPLINE
  5
387
100
AcDbEntity
  8
0
100
AcDbSpline
 62
7
  6
CONTINUOUS
 70
0
 71
3
 72
9
 73
5
 74
0
 42
0.0000001
 43
0.0000001
 44
0.0000000001
 40
0.0
 40
0.0
 40
0.0
 40
0.0
 40
0.5057878556
 40
1.0
 40
1.0
 40
1.0
 40
1.0
 10
-26.9954213786
 20
3.956074634
 30
0.0
 10
-26.9969480497
 20
3.9571309795
 30
0.0
 10
-27.0000614827
 20
3.9590860798
 30
0.0
 10
-27.0033478765
 20
3.9607355032
 30
0.0
 10
-27.0050075531
 20
3.9614676975
 30
0.0
  0
SPLINE
  5
388
100
AcDbEntity
  8
0
100
AcDbSpline
 62
7
  6
CONTINUOUS
 70
0
 71
3
 72
9
 73
5
 74
0
 42
0.0000001
 43
0.0000001
 44
0.0000000001
 40
0.0
 40
0.0
 40
0.0
 40
0.0
 40
0.5052140438
 40
1.0
 40
1.0
 40
1.0
 40
1.0
 10
-27.0050075531
 20
3.9614676975
 30
0.0
 10
-27.0082312502
 20
3.9628898858
 30
0.0
 10
-27.0149045994
 20
3.9650933118
 30
0.0
 10
-27.0218978518
 20
3.9658568671
 30
0.0
 10
-27.0253485943
 20
3.9658568671
 30
0.0
  0
SPLINE
  5
389
100
AcDbEntity
  8
0
100
AcDbSpline
 62
7
  6
CONTINUOUS
 70
0
 71
3
 72
9
 73
5
 74
0
 42
0.0000001
 43
0.0000001
 44
0.0000000001
 40
0.0
 40
0.0
 40
0.0
 40
0.0
 40
0.4925573535
 40
1.0
 40
1.0
 40
1.0
 40
1.0
 10
-27.0210897912
 20
1.0647533349
 30
0.0
 10
-27.0182514836
 20
1.0641419954
 30
0.0
 10
-27.0125880644
 20
1.0623963175
 30
0.0
 10
-27.0072912357
 20
1.0597469999
 30
0.0
 10
-27.0047256768
 20
1.0582091988
 30
0.0
  0
SPLINE
  5
38A
100
AcDbEntity
  8
0
100
AcDbSpline
 62
7
  6
CONTINUOUS
 70
0
 71
3
 72
23
 73
19
 74
0
 42
0.0000001
 43
0.0000001
 44
0.0000000001
 40
0.0
 40
0.0
 40
0.0
 40
0.0
 40
0.0532348576
 40
0.1093539056
 40
0.1685271557
 40
0.2306832386
 40
0.2954675849
 40
0.362387796
 40
0.4308137421
 40
0.5
 40
0.5691862579
 40
0.637612204
 40
0.7045324151
 40
0.7693167614
 40
0.8314728443
 40
0.8906460944
 40
0.9467651424
 40
1.0
 40
1.0
 40
1.0
 40
1.0
 10
-27.0047256768
 20
1.0582091988
 30
0.0
 10
-27.0015340895
 20
1.056296155
 30
0.0
 10
-26.9953410453
 20
1.0517376574
 30
0.0
 10
-26.9870880768
 20
1.0432709918
 30
0.0
 10
-26.9798065606
 20
1.0331781976
 30
0.0
 10
-26.9736542956
 20
1.021677126
 30
0.0
 10
-26.9687227081
 20
1.009023396
 30
0.0
 10
-26.9651380708
 20
0.9954726882
 30
0.0
 10
-26.962958848
 20
0.9813177969
 30
0.0
 10
-26.9622180495
 20
0.9668568671
 30
0.0
 10
-26.962958848
 20
0.9523959374
 30
0.0
 10
-26.9651380708
 20
0.938241046
 30
0.0
 10
-26.9687227081
 20
0.9246903383
 30
0.0
 10
-26.9736542956
 20
0.9120366083
 30
0.0
 10
-26.9798065606
 20
0.9005355367
 30
0.0
 10
-26.9870880768
 20
0.8904427425
 30
0.0
 10
-26.9953410453
 20
0.8819760768
 30
0.0
 10
-27.0015340895
 20
0.8774175793
 30
0.0
 10
-27.0047256768
 20
0.8755045355
 30
0.0
  0
SPLINE
  5
38B
100
AcDbEntity
  8
0
100
AcDbSpline
 62
7
  6
CONTINUOUS
 70
0
 71
3
 72
9
 73
5
 74
0
 42
0.0000001
 43
0.0000001
 44
0.0000000001
 40
0.0
 40
0.0
 40
0.0
 40
0.0
 40
0.5074426465
 40
1.0
 40
1.0
 40
1.0
 40
1.0
 10
-27.0047256768
 20
0.8755045355
 30
0.0
 10
-27.0072912357
 20
0.8739667344
 30
0.0
 10
-27.0125880644
 20
0.8713174168
 30
0.0
 10
-27.0182514836
 20
0.8695717389
 30
0.0
 10
-27.0210897912
 20
0.8689603993
 30
0.0
  0
SPLINE
  5
38C
100
AcDbEntity
  8
0
100
AcDbSpline
 62
7
  6
CONTINUOUS
 70
0
 71
3
 72
21
 73
17
 74
0
 42
0.0000001
 43
0.0000001
 44
0.0000000001
 40
0.0
 40
0.0
 40
0.0
 40
0.0
 40
0.0634667744
 40
0.1284684934
 40
0.1946876012
 40
0.2617451252
 40
0.3292415274
 40
0.3967777958
 40
0.4639562852
 40
0.5303760836
 40
0.5956516943
 40
0.6594502912
 40
0.7215012345
 40
0.7815705886
 40
0.8950491196
 40
1.0
 40
1.0
 40
1.0
 40
1.0
 10
-26.9732769201
 20
3.918600004
 30
0.0
 10
-26.9719694817
 20
3.9155262676
 30
0.0
 10
-26.9695946918
 20
3.9091854469
 30
0.0
 10
-26.9668073386
 20
3.8993143814
 30
0.0
 10
-26.9647747195
 20
3.8890680652
 30
0.0
 10
-26.9635095825
 20
3.8785675119
 30
0.0
 10
-26.9630283096
 20
3.8679324113
 30
0.0
 10
-26.9633487414
 20
3.8572848747
 30
0.0
 10
-26.964457149
 20
3.8467474463
 30
0.0
 10
-26.9663361964
 20
3.8364403684
 30
0.0
 10
-26.9689723994
 20
3.8264833895
 30
0.0
 10
-26.972343731
 20
3.8169939715
 30
0.0
 10
-26.9764014853
 20
3.8080753376
 30
0.0
 10
-26.9825467656
 20
3.7972892298
 30
0.0
 10
-26.9916355191
 20
3.7856542318
 30
0.0
 10
-27.0006878533
 20
3.778341832
 30
0.0
 10
-27.005425827
 20
3.7755026058
 30
0.0
  0
SPLINE
  5
38D
100
AcDbEntity
  8
0
100
AcDbSpline
 62
7
  6
CONTINUOUS
 70
0
 71
3
 72
9
 73
5
 74
0
 42
0.0000001
 43
0.0000001
 44
0.0000000001
 40
0.0
 40
0.0
 40
0.0
 40
0.0
 40
0.5074375137
 40
1.0
 40
1.0
 40
1.0
 40
1.0
 10
-27.005425827
 20
3.7755026058
 30
0.0
 10
-27.0079912328
 20
3.7739652888
 30
0.0
 10
-27.0132876831
 20
3.7713167946
 30
0.0
 10
-27.0189505089
 20
3.7695716094
 30
0.0
 10
-27.0217885279
 20
3.7689603993
 30
0.0
  0
SPLINE
  5
38E
100
AcDbEntity
  8
0
100
AcDbSpline
 62
3
  6
CONTINUOUS
 70
0
 71
3
 72
11
 73
7
 74
0
 42
0.0000001
 43
0.0000001
 44
0.0000000001
 40
0.0
 40
0.0
 40
0.0
 40
0.0
 40
0.2430537023
 40
0.4891681564
 40
0.7407764785
 40
1.0
 40
1.0
 40
1.0
 40
1.0
 10
-40.1922089319
 20
0.8678568671
 30
0.0
 10
-40.1895891086
 20
0.8678568671
 30
0.0
 10
-40.1843078857
 20
0.8682725583
 30
0.0
 10
-40.1765078437
 20
0.8701082853
 30
0.0
 10
-40.1688980196
 20
0.873125896
 30
0.0
 10
-40.1640971651
 20
0.8758627254
 30
0.0
 10
-40.161764688
 20
0.8774011094
 30
0.0
  0
SPLINE
  5
38F
100
AcDbEntity
  8
0
100
AcDbSpline
 62
3
  6
CONTINUOUS
 70
0
 71
3
 72
21
 73
17
 74
0
 42
0.0000001
 43
0.0000001
 44
0.0000000001
 40
0.0
 40
0.0
 40
0.0
 40
0.0
 40
0.1111723338
 40
0.1709317557
 40
0.2332579623
 40
0.2978107589
 40
0.3641595486
 40
0.4317644632
 40
0.5
 40
0.5682355368
 40
0.6358404514
 40
0.7021892411
 40
0.7667420377
 40
0.8290682443
 40
0.8888276662
 40
1.0
 40
1.0
 40
1.0
 40
1.0
 10
-40.161764688
 20
0.8774011094
 30
0.0
 10
-40.1554489387
 20
0.8815666586
 30
0.0
 10
-40.1468105894
 20
0.8897015719
 30
0.0
 10
-40.1376721164
 20
0.9027066174
 30
0.0
 10
-40.1317204624
 20
0.9139686444
 30
0.0
 10
-40.1269568253
 20
0.9262541204
 30
0.0
 10
-40.1234965694
 20
0.9393405466
 30
0.0
 10
-40.1213911047
 20
0.9529627036
 30
0.0
 10
-40.1206752164
 20
0.9668568671
 30
0.0
 10
-40.1213911047
 20
0.9807510306
 30
0.0
 10
-40.1234965694
 20
0.9943731877
 30
0.0
 10
-40.1269568253
 20
1.0074596139
 30
0.0
 10
-40.1317204624
 20
1.0197450899
 30
0.0
 10
-40.1376721164
 20
1.0310071169
 30
0.0
 10
-40.1468105894
 20
1.0440121624
 30
0.0
 10
-40.1554489387
 20
1.0521470757
 30
0.0
 10
-40.161764688
 20
1.0563126248
 30
0.0
  0
SPLINE
  5
390
100
AcDbEntity
  8
0
100
AcDbSpline
 62
3
  6
CONTINUOUS
 70
0
 71
3
 72
11
 73
7
 74
0
 42
0.0000001
 43
0.0000001
 44
0.0000000001
 40
0.0
 40
0.0
 40
0.0
 40
0.0
 40
0.2592235215
 40
0.5108318436
 40
0.7569462977
 40
1.0
 40
1.0
 40
1.0
 40
1.0
 10
-40.161764688
 20
1.0563126248
 30
0.0
 10
-40.1640971651
 20
1.0578510089
 30
0.0
 10
-40.1688980196
 20
1.0605878383
 30
0.0
 10
-40.1765078437
 20
1.063605449
 30
0.0
 10
-40.1843078857
 20
1.065441176
 30
0.0
 10
-40.1895891086
 20
1.0658568671
 30
0.0
 10
-40.1922089319
 20
1.0658568671
 30
0.0
  0
SPLINE
  5
391
100
AcDbEntity
  8
0
100
AcDbSpline
 62
3
  6
CONTINUOUS
 70
0
 71
3
 72
11
 73
7
 74
0
 42
0.0000001
 43
0.0000001
 44
0.0000000001
 40
0.0
 40
0.0
 40
0.0
 40
0.0
 40
0.243049921
 40
0.4891622573
 40
0.7407714782
 40
1.0
 40
1.0
 40
1.0
 40
1.0
 10
-40.1929250947
 20
3.7678568671
 30
0.0
 10
-40.1903053797
 20
3.7678568671
 30
0.0
 10
-40.1850243537
 20
3.7682726194
 30
0.0
 10
-40.177224632
 20
3.77010861
 30
0.0
 10
-40.1696151513
 20
3.773126647
 30
0.0
 10
-40.1648145864
 20
3.7758638343
 30
0.0
 10
-40.1624822587
 20
3.7774024118
 30
0.0
  0
SPLINE
  5
392
100
AcDbEntity
  8
0
100
AcDbSpline
 62
3
  6
CONTINUOUS
 70
0
 71
3
 72
21
 73
17
 74
0
 42
0.0000001
 43
0.0000001
 44
0.0000000001
 40
0.0
 40
0.0
 40
0.0
 40
0.0
 40
0.1111688944
 40
0.17092771
 40
0.2332539417
 40
0.2978072791
 40
0.3641570091
 40
0.4317631273
 40
0.5
 40
0.5682368727
 40
0.6358429909
 40
0.7021927209
 40
0.7667460583
 40
0.82907229
 40
0.8888311056
 40
1.0
 40
1.0
 40
1.0
 40
1.0
 10
-40.1624822587
 20
3.7774024118
 30
0.0
 10
-40.1561673647
 20
3.7815681874
 30
0.0
 10
-40.1475303485
 20
3.7897032693
 30
0.0
 10
-40.1383934075
 20
3.8027081343
 30
0.0
 10
-40.1324427188
 20
3.8139699848
 30
0.0
 10
-40.127679861
 20
3.8262552025
 30
0.0
 10
-40.1242201759
 20
3.8393413046
 30
0.0
 10
-40.122115058
 20
3.8529630938
 30
0.0
 10
-40.1213992881
 20
3.8668568671
 30
0.0
 10
-40.122115058
 20
3.8807506405
 30
0.0
 10
-40.1242201759
 20
3.8943724296
 30
0.0
 10
-40.127679861
 20
3.9074585317
 30
0.0
 10
-40.1324427188
 20
3.9197437494
 30
0.0
 10
-40.1383934075
 20
3.9310056
 30
0.0
 10
-40.1475303485
 20
3.944010465
 30
0.0
 10
-40.1561673647
 20
3.9521455469
 30
0.0
 10
-40.1624822587
 20
3.9563113225
 30
0.0
  0
SPLINE
  5
393
100
AcDbEntity
  8
0
100
AcDbSpline
 62
3
  6
CONTINUOUS
 70
0
 71
3
 72
11
 73
7
 74
0
 42
0.0000001
 43
0.0000001
 44
0.0000000001
 40
0.0
 40
0.0
 40
0.0
 40
0.0
 40
0.2592285218
 40
0.5108377427
 40
0.756950079
 40
1.0
 40
1.0
 40
1.0
 40
1.0
 10
-40.1624822587
 20
3.9563113225
 30
0.0
 10
-40.1648145864
 20
3.9578499
 30
0.0
 10
-40.1696151513
 20
3.9605870873
 30
0.0
 10
-40.177224632
 20
3.9636051243
 30
0.0
 10
-40.1850243537
 20
3.9654411148
 30
0.0
 10
-40.1903053797
 20
3.9658568671
 30
0.0
 10
-40.1929250947
 20
3.9658568671
 30
0.0
  0
SPLINE
  5
394
100
AcDbEntity
  8
0
100
AcDbSpline
 62
3
  6
CONTINUOUS
 70
0
 71
3
 72
31
 73
27
 74
0
 42
0.0000001
 43
0.0000001
 44
0.0000000001
 40
0.0
 40
0.0
 40
0.0
 40
0.0
 40
0.025905401
 40
0.0520720055
 40
0.0787097171
 40
0.1060043313
 40
0.1341158392
 40
0.1631471934
 40
0.2240786182
 40
0.2560706115
 40
0.2889990467
 40
0.3572423236
 40
0.4279720227
 40
0.5
 40
0.5720279773
 40
0.6427576764
 40
0.7110009533
 40
0.7439293885
 40
0.7759213818
 40
0.8368528066
 40
0.8658841608
 40
0.8939956687
 40
0.9212902829
 40
0.9479279945
 40
0.974094599
 40
1.0
 40
1.0
 40
1.0
 40
1.0
 10
-27.1293368466
 20
1.0658568671
 30
0.0
 10
-27.1316580681
 20
1.0658568671
 30
0.0
 10
-27.1363300033
 20
1.0655307169
 30
0.0
 10
-27.1432536652
 20
1.0640869466
 30
0.0
 10
-27.1500465343
 20
1.0617082266
 30
0.0
 10
-27.1566398987
 20
1.0584148344
 30
0.0
 10
-27.1629644301
 20
1.0542298115
 30
0.0
 10
-27.1710916082
 20
1.0474289115
 30
0.0
 10
-27.1783117623
 20
1.0391125758
 30
0.0
 10
-27.1844679174
 20
1.0296526006
 30
0.0
 10
-27.1900889809
 20
1.0191120426
 30
0.0
 10
-27.1956226711
 20
1.0046614535
 30
0.0
 10
-27.1996344193
 20
0.9861184434
 30
0.0
 10
-27.201008201
 20
0.9668568671
 30
0.0
 10
-27.1996344193
 20
0.9475952908
 30
0.0
 10
-27.1956226711
 20
0.9290522808
 30
0.0
 10
-27.1900889809
 20
0.9146016917
 30
0.0
 10
-27.1844679174
 20
0.9040611336
 30
0.0
 10
-27.1783117623
 20
0.8946011585
 30
0.0
 10
-27.1710916082
 20
0.8862848228
 30
0.0
 10
-27.1629644301
 20
0.8794839227
 30
0.0
 10
-27.1566398987
 20
0.8752988998
 30
0.0
 10
-27.1500465343
 20
0.8720055077
 30
0.0
 10
-27.1432536652
 20
0.8696267876
 30
0.0
 10
-27.1363300033
 20
0.8681830173
 30
0.0
 10
-27.1316580681
 20
0.8678568671
 30
0.0
 10
-27.1293368466
 20
0.8678568671
 30
0.0
  0
SPLINE
  5
395
100
AcDbEntity
  8
0
100
AcDbSpline
 62
3
  6
CONTINUOUS
 70
0
 71
3
 72
31
 73
27
 74
0
 42
0.0000001
 43
0.0000001
 44
0.0000000001
 40
0.0
 40
0.0
 40
0.0
 40
0.0
 40
0.0259037043
 40
0.0520687013
 40
0.0787049702
 40
0.1059983697
 40
0.1341089377
 40
0.1631396515
 40
0.2240707241
 40
0.2560629905
 40
0.2889919704
 40
0.3572370343
 40
0.4279692035
 40
0.5
 40
0.5720307965
 40
0.6427629657
 40
0.7110080296
 40
0.7439370095
 40
0.7759292759
 40
0.8368603485
 40
0.8658910623
 40
0.8940016303
 40
0.9212950298
 40
0.9479312987
 40
0.9740962957
 40
1.0
 40
1.0
 40
1.0
 40
1.0
 10
-27.1286213176
 20
3.9658568671
 30
0.0
 10
-27.130942295
 20
3.9658568671
 30
0.0
 10
-27.1356137497
 20
3.9655307153
 30
0.0
 10
-27.1425366922
 20
3.9640869399
 30
0.0
 10
-27.149328854
 20
3.961708213
 30
0.0
 10
-27.1559215294
 20
3.9584148136
 30
0.0
 10
-27.1622453971
 20
3.9542297853
 30
0.0
 10
-27.1703717661
 20
3.9474288418
 30
0.0
 10
-27.1775911434
 20
3.9391124992
 30
0.0
 10
-27.1837466225
 20
3.9296525707
 30
0.0
 10
-27.1893671139
 20
3.919111981
 30
0.0
 10
-27.1949002216
 20
3.9046613749
 30
0.0
 10
-27.1989115369
 20
3.8861184034
 30
0.0
 10
-27.2002851708
 20
3.8668568671
 30
0.0
 10
-27.1989115369
 20
3.8475953309
 30
0.0
 10
-27.1949002216
 20
3.8290523593
 30
0.0
 10
-27.1893671139
 20
3.8146017533
 30
0.0
 10
-27.1837466225
 20
3.8040611636
 30
0.0
 10
-27.1775911434
 20
3.794601235
 30
0.0
 10
-27.1703717661
 20
3.7862848925
 30
0.0
 10
-27.1622453971
 20
3.7794839489
 30
0.0
 10
-27.1559215294
 20
3.7752989207
 30
0.0
 10
-27.149328854
 20
3.7720055213
 30
0.0
 10
-27.1425366922
 20
3.7696267944
 30
0.0
 10
-27.1356137497
 20
3.768183019
 30
0.0
 10
-27.130942295
 20
3.7678568671
 30
0.0
 10
-27.1286213176
 20
3.7678568671
 30
0.0
  0
SPLINE
  5
396
100
AcDbEntity
  8
0
100
AcDbSpline
 62
3
  6
CONTINUOUS
 70
0
 71
3
 72
31
 73
27
 74
0
 42
0.0000001
 43
0.0000001
 44
0.0000000001
 40
0.0
 40
0.0
 40
0.0
 40
0.0
 40
0.0256432005
 40
0.0515121301
 40
0.0778403048
 40
0.1048362453
 40
0.1326809866
 40
0.1614964336
 40
0.2222017654
 40
0.254198955
 40
0.2872126872
 40
0.3558510123
 40
0.4272127943
 40
0.5
 40
0.5727872057
 40
0.6441489877
 40
0.7127873128
 40
0.745801045
 40
0.7777982346
 40
0.8385035664
 40
0.8673190134
 40
0.8951637547
 40
0.9221596952
 40
0.9484878699
 40
0.9743567995
 40
1.0
 40
1.0
 40
1.0
 40
1.0
 10
-40.3212244916
 20
1.0658568671
 30
0.0
 10
-40.3234977878
 20
1.0658568671
 30
0.0
 10
-40.3280706753
 20
1.0655314395
 30
0.0
 10
-40.3348394309
 20
1.0640872748
 30
0.0
 10
-40.3414662777
 20
1.0617073189
 30
0.0
 10
-40.347884701
 20
1.0584121168
 30
0.0
 10
-40.3540278741
 20
1.0542250548
 30
0.0
 10
-40.3619158094
 20
1.0474128705
 30
0.0
 10
-40.3688907831
 20
1.0390917754
 30
0.0
 10
-40.3748192069
 20
1.0296435216
 30
0.0
 10
-40.3802371949
 20
1.0190916436
 30
0.0
 10
-40.3855537229
 20
1.0046331583
 30
0.0
 10
-40.3893982256
 20
0.9861032938
 30
0.0
 10
-40.3907124804
 20
0.9668568671
 30
0.0
 10
-40.3893982256
 20
0.9476104404
 30
0.0
 10
-40.3855537229
 20
0.929080576
 30
0.0
 10
-40.3802371949
 20
0.9146220907
 30
0.0
 10
-40.3748192069
 20
0.9040702127
 30
0.0
 10
-40.3688907831
 20
0.8946219589
 30
0.0
 10
-40.3619158094
 20
0.8863008638
 30
0.0
 10
-40.3540278741
 20
0.8794886795
 30
0.0
 10
-40.347884701
 20
0.8753016174
 30
0.0
 10
-40.3414662777
 20
0.8720064154
 30
0.0
 10
-40.3348394309
 20
0.8696264595
 30
0.0
 10
-40.3280706753
 20
0.8681822948
 30
0.0
 10
-40.3234977878
 20
0.8678568671
 30
0.0
 10
-40.3212244916
 20
0.8678568671
 30
0.0
  0
SPLINE
  5
397
100
AcDbEntity
  8
0
100
AcDbSpline
 62
3
  6
CONTINUOUS
 70
0
 71
3
 72
31
 73
27
 74
0
 42
0.0000001
 43
0.0000001
 44
0.0000000001
 40
0.0
 40
0.0
 40
0.0
 40
0.0
 40
0.025645187
 40
0.0515173917
 40
0.0778497057
 40
0.1048502083
 40
0.1326994879
 40
0.1615189905
 40
0.222229576
 40
0.2542274828
 40
0.2872405365
 40
0.3558733989
 40
0.4272252199
 40
0.5
 40
0.5727747801
 40
0.6441266011
 40
0.7127594635
 40
0.7457725172
 40
0.777770424
 40
0.8384810095
 40
0.8673005121
 40
0.8951497917
 40
0.9221502943
 40
0.9484826083
 40
0.974354813
 40
1.0
 40
1.0
 40
1.0
 40
1.0
 10
-27.0003654982
 20
0.8678568671
 30
0.0
 10
-26.9980916286
 20
0.8678568671
 30
0.0
 10
-26.99351748
 20
0.8681823205
 30
0.0
 10
-26.9867466505
 20
0.8696264907
 30
0.0
 10
-26.9801173789
 20
0.8720064336
 30
0.0
 10
-26.9736962204
 20
0.8753016074
 30
0.0
 10
-26.9675500495
 20
0.8794886286
 30
0.0
 10
-26.9596579457
 20
0.8863006316
 30
0.0
 10
-26.9526785283
 20
0.8946216146
 30
0.0
 10
-26.9467458315
 20
0.9040700518
 30
0.0
 10
-26.9413239301
 20
0.9146217118
 30
0.0
 10
-26.9360031229
 20
0.9290800311
 30
0.0
 10
-26.9321552765
 20
0.9476101432
 30
0.0
 10
-26.9308398108
 20
0.9668568671
 30
0.0
 10
-26.9321552765
 20
0.9861035911
 30
0.0
 10
-26.9360031229
 20
1.0046337032
 30
0.0
 10
-26.9413239301
 20
1.0190920225
 30
0.0
 10
-26.9467458315
 20
1.0296436825
 30
0.0
 10
-26.9526785283
 20
1.0390921197
 30
0.0
 10
-26.9596579457
 20
1.0474131026
 30
0.0
 10
-26.9675500495
 20
1.0542251056
 30
0.0
 10
-26.9736962204
 20
1.0584121269
 30
0.0
 10
-26.9801173789
 20
1.0617073007
 30
0.0
 10
-26.9867466505
 20
1.0640872436
 30
0.0
 10
-26.99351748
 20
1.0655314138
 30
0.0
 10
-26.9980916286
 20
1.0658568671
 30
0.0
 10
-27.0003654982
 20
1.0658568671
 30
0.0
  0
SPLINE
  5
398
100
AcDbEntity
  8
0
100
AcDbSpline
 62
3
  6
CONTINUOUS
 70
0
 71
3
 72
31
 73
27
 74
0
 42
0.0000001
 43
0.0000001
 44
0.0000000001
 40
0.0
 40
0.0
 40
0.0
 40
0.0
 40
0.0256450659
 40
0.0515157689
 40
0.0778455381
 40
0.1048428222
 40
0.1326886024
 40
0.1615047555
 40
0.2222104693
 40
0.2542073536
 40
0.2872204816
 40
0.3558568326
 40
0.4272158944
 40
0.5
 40
0.5727841056
 40
0.6441431674
 40
0.7127795184
 40
0.7457926464
 40
0.7777895307
 40
0.8384952445
 40
0.8673113976
 40
0.8951571778
 40
0.9221544619
 40
0.9484842311
 40
0.9743549341
 40
1.0
 40
1.0
 40
1.0
 40
1.0
 10
-40.3205229511
 20
3.9658568671
 30
0.0
 10
-40.3227965107
 20
3.9658568671
 30
0.0
 10
-40.3273699172
 20
3.9655314411
 30
0.0
 10
-40.3341394506
 20
3.9640872822
 30
0.0
 10
-40.3407670642
 20
3.9617073341
 30
0.0
 10
-40.347186236
 20
3.9584121403
 30
0.0
 10
-40.3533301319
 20
3.9542250843
 30
0.0
 10
-40.3612189514
 20
3.9474129486
 30
0.0
 10
-40.3681947753
 20
3.9390918599
 30
0.0
 10
-40.3741239378
 20
3.9296435544
 30
0.0
 10
-40.3795425553
 20
3.9190917104
 30
0.0
 10
-40.3848597236
 20
3.9046332422
 30
0.0
 10
-40.3887047011
 20
3.8861033362
 30
0.0
 10
-40.3900191181
 20
3.8668568671
 30
0.0
 10
-40.3887047011
 20
3.847610398
 30
0.0
 10
-40.3848597236
 20
3.829080492
 30
0.0
 10
-40.3795425553
 20
3.8146220239
 30
0.0
 10
-40.3741239378
 20
3.8040701799
 30
0.0
 10
-40.3681947753
 20
3.7946218743
 30
0.0
 10
-40.3612189514
 20
3.7863007856
 30
0.0
 10
-40.3533301319
 20
3.77948865
 30
0.0
 10
-40.347186236
 20
3.775301594
 30
0.0
 10
-40.3407670642
 20
3.7720064002
 30
0.0
 10
-40.3341394506
 20
3.7696264521
 30
0.0
 10
-40.3273699172
 20
3.7681822932
 30
0.0
 10
-40.3227965107
 20
3.7678568671
 30
0.0
 10
-40.3205229511
 20
3.7678568671
 30
0.0
  0
SPLINE
  5
399
100
AcDbEntity
  8
0
100
AcDbSpline
 62
3
  6
CONTINUOUS
 70
0
 71
3
 72
31
 73
27
 74
0
 42
0.0000001
 43
0.0000001
 44
0.0000000001
 40
0.0
 40
0.0
 40
0.0
 40
0.0
 40
0.0256469506
 40
0.0515208317
 40
0.0778546529
 40
0.1048564253
 40
0.1327066868
 40
0.1615268569
 40
0.2222378034
 40
0.2542354216
 40
0.2872479042
 40
0.3558789007
 40
0.4272281504
 40
0.5
 40
0.5727718496
 40
0.6441210993
 40
0.7127520958
 40
0.7457645784
 40
0.7777621966
 40
0.8384731431
 40
0.8672933132
 40
0.8951435747
 40
0.9221453471
 40
0.9484791683
 40
0.9743530494
 40
1.0
 40
1.0
 40
1.0
 40
1.0
 10
-27.0010671921
 20
3.7678568671
 30
0.0
 10
-26.9987930734
 20
3.7678568671
 30
0.0
 10
-26.994218434
 20
3.7681823189
 30
0.0
 10
-26.987446869
 20
3.7696264837
 30
0.0
 10
-26.9808168725
 20
3.7720064192
 30
0.0
 10
-26.9743950063
 20
3.7753015853
 30
0.0
 10
-26.9682481521
 20
3.7794886007
 30
0.0
 10
-26.9603552123
 20
3.7863005578
 30
0.0
 10
-26.9533749913
 20
3.7946215347
 30
0.0
 10
-26.9474415962
 20
3.8040700208
 30
0.0
 10
-26.9420190999
 20
3.8146216486
 30
0.0
 10
-26.9366976875
 20
3.8290799517
 30
0.0
 10
-26.9328493923
 20
3.8476101031
 30
0.0
 10
-26.9315337733
 20
3.8668568671
 30
0.0
 10
-26.9328493923
 20
3.8861036312
 30
0.0
 10
-26.9366976875
 20
3.9046337825
 30
0.0
 10
-26.9420190999
 20
3.9190920856
 30
0.0
 10
-26.9474415962
 20
3.9296437135
 30
0.0
 10
-26.9533749913
 20
3.9390921996
 30
0.0
 10
-26.9603552123
 20
3.9474131765
 30
0.0
 10
-26.9682481521
 20
3.9542251335
 30
0.0
 10
-26.9743950063
 20
3.958412149
 30
0.0
 10
-26.9808168725
 20
3.961707315
 30
0.0
 10
-26.987446869
 20
3.9640872506
 30
0.0
 10
-26.994218434
 20
3.9655314153
 30
0.0
 10
-26.9987930734
 20
3.9658568671
 30
0.0
 10
-27.0010671921
 20
3.9658568671
 30
0.0
  0
SPLINE
  5
39A
100
AcDbEntity
  8
0
100
AcDbSpline
 62
3
  6
CONTINUOUS
 70
0
 71
3
 72
9
 73
5
 74
0
 42
0.0000001
 43
0.0000001
 44
0.0000000001
 40
0.0
 40
0.0
 40
0.0
 40
0.0
 40
0.2474612026
 40
1.0
 40
1.0
 40
1.0
 40
1.0
 10
-40.2938167471
 20
1.0647484577
 30
0.0
 10
-40.2946764717
 20
1.0645633984
 30
0.0
 10
-40.2981307275
 20
1.0637250849
 30
0.0
 10
-40.301496361
 20
1.0625273218
 30
0.0
 10
-40.3039437896
 20
1.0614492773
 30
0.0
  0
SPLINE
  5
39B
100
AcDbEntity
  8
0
100
AcDbSpline
 62
3
  6
CONTINUOUS
 70
0
 71
3
 72
9
 73
5
 74
0
 42
0.0000001
 43
0.0000001
 44
0.0000000001
 40
0.0
 40
0.0
 40
0.0
 40
0.0
 40
0.4942720526
 40
1.0
 40
1.0
 40
1.0
 40
1.0
 10
-40.3039437896
 20
1.0614492773
 30
0.0
 10
-40.3056120098
 20
1.0607144588
 30
0.0
 10
-40.3089151313
 20
1.0590592825
 30
0.0
 10
-40.312044803
 20
1.0570970707
 30
0.0
 10
-40.3135793465
 20
1.0560369242
 30
0.0
  0
SPLINE
  5
39C
100
AcDbEntity
  8
0
100
AcDbSpline
 62
3
  6
CONTINUOUS
 70
0
 71
3
 72
21
 73
17
 74
0
 42
0.0000001
 43
0.0000001
 44
0.0000000001
 40
0.0
 40
0.0
 40
0.0
 40
0.0
 40
0.1102028998
 40
0.169740164
 40
0.2320295212
 40
0.2967166877
 40
0.3633448818
 40
0.4313306852
 40
0.5
 40
0.5686693148
 40
0.6366551182
 40
0.7032833123
 40
0.7679704788
 40
0.830259836
 40
0.8897971002
 40
1.0
 40
1.0
 40
1.0
 40
1.0
 10
-40.3135793465
 20
1.0560369242
 30
0.0
 10
-40.3196752374
 20
1.05182555
 30
0.0
 10
-40.3279615296
 20
1.0436493828
 30
0.0
 10
-40.3366674458
 20
1.0306828004
 30
0.0
 10
-40.3423329437
 20
1.0194571132
 30
0.0
 10
-40.3468577524
 20
1.0072261924
 30
0.0
 10
-40.3501396318
 20
0.994209436
 30
0.0
 10
-40.3521346724
 20
0.9806666132
 30
0.0
 10
-40.3528120591
 20
0.9668568671
 30
0.0
 10
-40.3521346724
 20
0.953047121
 30
0.0
 10
-40.3501396318
 20
0.9395042982
 30
0.0
 10
-40.3468577524
 20
0.9264875418
 30
0.0
 10
-40.3423329437
 20
0.9142566211
 30
0.0
 10
-40.3366674458
 20
0.9030309339
 30
0.0
 10
-40.3279615296
 20
0.8900643515
 30
0.0
 10
-40.3196752374
 20
0.8818881842
 30
0.0
 10
-40.3135793465
 20
0.87767681
 30
0.0
  0
SPLINE
  5
39D
100
AcDbEntity
  8
0
100
AcDbSpline
 62
3
  6
CONTINUOUS
 70
0
 71
3
 72
9
 73
5
 74
0
 42
0.0000001
 43
0.0000001
 44
0.0000000001
 40
0.0
 40
0.0
 40
0.0
 40
0.0
 40
0.5057279474
 40
1.0
 40
1.0
 40
1.0
 40
1.0
 10
-40.3135793465
 20
0.87767681
 30
0.0
 10
-40.312044803
 20
0.8766166636
 30
0.0
 10
-40.3089151313
 20
0.8746544518
 30
0.0
 10
-40.3056120098
 20
0.8729992754
 30
0.0
 10
-40.3039437896
 20
0.872264457
 30
0.0
  0
SPLINE
  5
39E
100
AcDbEntity
  8
0
100
AcDbSpline
 62
3
  6
CONTINUOUS
 70
0
 71
3
 72
9
 73
5
 74
0
 42
0.0000001
 43
0.0000001
 44
0.0000000001
 40
0.0
 40
0.0
 40
0.0
 40
0.0
 40
0.2531563818
 40
1.0
 40
1.0
 40
1.0
 40
1.0
 10
-40.3039437896
 20
0.872264457
 30
0.0
 10
-40.3031204781
 20
0.8719018043
 30
0.0
 10
-40.2998338908
 20
0.8705490162
 30
0.0
 10
-40.296411381
 20
0.8695237823
 30
0.0
 10
-40.2938167471
 20
0.8689652765
 30
0.0
  0
SPLINE
  5
39F
100
AcDbEntity
  8
0
100
AcDbSpline
 62
3
  6
CONTINUOUS
 70
0
 71
3
 72
9
 73
5
 74
0
 42
0.0000001
 43
0.0000001
 44
0.0000000001
 40
0.0
 40
0.0
 40
0.0
 40
0.0
 40
0.2474623206
 40
1.0
 40
1.0
 40
1.0
 40
1.0
 10
-40.2931160106
 20
3.9647484577
 30
0.0
 10
-40.2939758291
 20
3.9645633986
 30
0.0
 10
-40.2974304502
 20
3.9637250892
 30
0.0
 10
-40.3007964589
 20
3.9625273278
 30
0.0
 10
-40.3032441718
 20
3.9614492773
 30
0.0
  0
SPLINE
  5
3A0
100
AcDbEntity
  8
0
100
AcDbSpline
 62
3
  6
CONTINUOUS
 70
0
 71
3
 72
9
 73
5
 74
0
 42
0.0000001
 43
0.0000001
 44
0.0000000001
 40
0.0
 40
0.0
 40
0.0
 40
0.0
 40
0.494274263
 40
1.0
 40
1.0
 40
1.0
 40
1.0
 10
-40.3032441718
 20
3.9614492773
 30
0.0
 10
-40.3049125698
 20
3.9607144618
 30
0.0
 10
-40.3082160423
 20
3.9590592945
 30
0.0
 10
-40.3113460755
 20
3.9570970755
 30
0.0
 10
-40.3128807963
 20
3.9560369242
 30
0.0
  0
SPLINE
  5
3A1
100
AcDbEntity
  8
0
100
AcDbSpline
 62
3
  6
CONTINUOUS
 70
0
 71
3
 72
21
 73
17
 74
0
 42
0.0000001
 43
0.0000001
 44
0.0000000001
 40
0.0
 40
0.0
 40
0.0
 40
0.0
 40
0.1102067724
 40
0.169744764
 40
0.2320341274
 40
0.2967206964
 40
0.3633478207
 40
0.4313322352
 40
0.5
 40
0.5686677648
 40
0.6366521793
 40
0.7032793036
 40
0.7679658726
 40
0.830255236
 40
0.8897932276
 40
1.0
 40
1.0
 40
1.0
 40
1.0
 10
-40.3128807963
 20
3.9560369242
 30
0.0
 10
-40.3189772592
 20
3.9518256222
 30
0.0
 10
-40.3272644574
 20
3.9436495492
 30
0.0
 10
-40.3359714297
 20
3.9306828644
 30
0.0
 10
-40.3416375748
 20
3.9194571683
 30
0.0
 10
-40.346162901
 20
3.9072262357
 30
0.0
 10
-40.3494451561
 20
3.8942094651
 30
0.0
 10
-40.351440425
 20
3.8806666279
 30
0.0
 10
-40.3521178893
 20
3.8668568671
 30
0.0
 10
-40.351440425
 20
3.8530471063
 30
0.0
 10
-40.3494451561
 20
3.8395042691
 30
0.0
 10
-40.346162901
 20
3.8264874986
 30
0.0
 10
-40.3416375748
 20
3.814256566
 30
0.0
 10
-40.3359714297
 20
3.8030308699
 30
0.0
 10
-40.3272644574
 20
3.7900641851
 30
0.0
 10
-40.3189772592
 20
3.7818881121
 30
0.0
 10
-40.3128807963
 20
3.77767681
 30
0.0
  0
SPLINE
  5
3A2
100
AcDbEntity
  8
0
100
AcDbSpline
 62
3
  6
CONTINUOUS
 70
0
 71
3
 72
9
 73
5
 74
0
 42
0.0000001
 43
0.0000001
 44
0.0000000001
 40
0.0
 40
0.0
 40
0.0
 40
0.0
 40
0.505725737
 40
1.0
 40
1.0
 40
1.0
 40
1.0
 10
-40.3128807963
 20
3.77767681
 30
0.0
 10
-40.3113460755
 20
3.7766166587
 30
0.0
 10
-40.3082160423
 20
3.7746544397
 30
0.0
 10
-40.3049125698
 20
3.7729992724
 30
0.0
 10
-40.3032441718
 20
3.772264457
 30
0.0
  0
SPLINE
  5
3A3
100
AcDbEntity
  8
0
100
AcDbSpline
 62
3
  6
CONTINUOUS
 70
0
 71
3
 72
9
 73
5
 74
0
 42
0.0000001
 43
0.0000001
 44
0.0000000001
 40
0.0
 40
0.0
 40
0.0
 40
0.0
 40
0.2531550894
 40
1.0
 40
1.0
 40
1.0
 40
1.0
 10
-40.3032441718
 20
3.772264457
 30
0.0
 10
-40.3024207676
 20
3.7719018036
 30
0.0
 10
-40.2991337999
 20
3.7705490089
 30
0.0
 10
-40.2957109204
 20
3.7695237801
 30
0.0
 10
-40.2931160106
 20
3.7689652765
 30
0.0
  0
SPLINE
  5
3A4
100
AcDbEntity
  8
0
100
AcDbSpline
 62
7
  6
CONTINUOUS
 70
0
 71
3
 72
9
 73
5
 74
0
 42
0.0000001
 43
0.0000001
 44
0.0000000001
 40
0.0
 40
0.0
 40
0.0
 40
0.0
 40
0.4947971879
 40
1.0
 40
1.0
 40
1.0
 40
1.0
 10
-3.9232720247
 20
1.0658568671
 30
0.0
 10
-3.9267246358
 20
1.0658568671
 30
0.0
 10
-3.9337214968
 20
1.0650933532
 30
0.0
 10
-3.9403986388
 20
1.0628899368
 30
0.0
 10
-3.9436242256
 20
1.0614676975
 30
0.0
  0
SPLINE
  5
3A5
100
AcDbEntity
  8
0
100
AcDbSpline
 62
7
  6
CONTINUOUS
 70
0
 71
3
 72
9
 73
5
 74
0
 42
0.0000001
 43
0.0000001
 44
0.0000000001
 40
0.0
 40
0.0
 40
0.0
 40
0.0
 40
0.4942231531
 40
1.0
 40
1.0
 40
1.0
 40
1.0
 10
-3.9436242256
 20
1.0614676975
 30
0.0
 10
-3.9452847818
 20
1.0607355181
 30
0.0
 10
-3.9485729128
 20
1.0590861396
 30
0.0
 10
-3.9516881348
 20
1.0571310037
 30
0.0
 10
-3.9532156837
 20
1.056074634
 30
0.0
  0
SPLINE
  5
3A6
100
AcDbEntity
  8
0
100
AcDbSpline
 62
7
  6
CONTINUOUS
 70
0
 71
3
 72
21
 73
17
 74
0
 42
0.0000001
 43
0.0000001
 44
0.0000000001
 40
0.0
 40
0.0
 40
0.0
 40
0.0
 40
0.1100721723
 40
0.1695834491
 40
0.2318714921
 40
0.2965784421
 40
0.3632430995
 40
0.4312768788
 40
0.5
 40
0.5687231212
 40
0.6367569005
 40
0.7034215579
 40
0.7681285079
 40
0.8304165509
 40
0.8899278277
 40
1.0
 40
1.0
 40
1.0
 40
1.0
 10
-3.9532156837
 20
1.056074634
 30
0.0
 10
-3.9593023004
 20
1.0518654609
 30
0.0
 10
-3.9675733272
 20
1.0436883763
 30
0.0
 10
-3.9762605401
 20
1.0307225007
 30
0.0
 10
-3.9819154207
 20
1.0194922152
 30
0.0
 10
-3.9864319543
 20
1.0072545669
 30
0.0
 10
-3.9897079663
 20
0.9942293618
 30
0.0
 10
-3.9916994465
 20
0.9806768807
 30
0.0
 10
-3.9923756396
 20
0.9668568671
 30
0.0
 10
-3.9916994465
 20
0.9530368535
 30
0.0
 10
-3.9897079663
 20
0.9394843724
 30
0.0
 10
-3.9864319543
 20
0.9264591674
 30
0.0
 10
-3.9819154207
 20
0.9142215191
 30
0.0
 10
-3.9762605401
 20
0.9029912336
 30
0.0
 10
-3.9675733272
 20
0.8900253579
 30
0.0
 10
-3.9593023004
 20
0.8818482734
 30
0.0
 10
-3.9532156837
 20
0.8776391002
 30
0.0
  0
SPLINE
  5
3A7
100
AcDbEntity
  8
0
100
AcDbSpline
 62
7
  6
CONTINUOUS
 70
0
 71
3
 72
9
 73
5
 74
0
 42
0.0000001
 43
0.0000001
 44
0.0000000001
 40
0.0
 40
0.0
 40
0.0
 40
0.0
 40
0.5057768469
 40
1.0
 40
1.0
 40
1.0
 40
1.0
 10
-3.9532156837
 20
0.8776391002
 30
0.0
 10
-3.9516881348
 20
0.8765827305
 30
0.0
 10
-3.9485729128
 20
0.8746275947
 30
0.0
 10
-3.9452847818
 20
0.8729782162
 30
0.0
 10
-3.9436242256
 20
0.8722460368
 30
0.0
  0
SPLINE
  5
3A8
100
AcDbEntity
  8
0
100
AcDbSpline
 62
7
  6
CONTINUOUS
 70
0
 71
3
 72
9
 73
5
 74
0
 42
0.0000001
 43
0.0000001
 44
0.0000000001
 40
0.0
 40
0.0
 40
0.0
 40
0.0
 40
0.5052028121
 40
1.0
 40
1.0
 40
1.0
 40
1.0
 10
-3.9436242256
 20
0.8722460368
 30
0.0
 10
-3.9403986388
 20
0.8708237974
 30
0.0
 10
-3.9337214968
 20
0.8686203811
 30
0.0
 10
-3.9267246358
 20
0.8678568671
 30
0.0
 10
-3.9232720247
 20
0.8678568671
 30
0.0
  0
SPLINE
  5
3A9
100
AcDbEntity
  8
0
100
AcDbSpline
 62
7
  6
CONTINUOUS
 70
0
 71
3
 72
9
 73
5
 74
0
 42
0.0000001
 43
0.0000001
 44
0.0000000001
 40
0.0
 40
0.0
 40
0.0
 40
0.0
 40
0.4947994431
 40
1.0
 40
1.0
 40
1.0
 40
1.0
 10
-3.9225724368
 20
3.9658568671
 30
0.0
 10
-3.9260254236
 20
3.9658568671
 30
0.0
 10
-3.9330230098
 20
3.9650933615
 30
0.0
 10
-3.9397009141
 20
3.9628899471
 30
0.0
 10
-3.9429268807
 20
3.9614676975
 30
0.0
  0
SPLINE
  5
3AA
100
AcDbEntity
  8
0
100
AcDbSpline
 62
7
  6
CONTINUOUS
 70
0
 71
3
 72
9
 73
5
 74
0
 42
0.0000001
 43
0.0000001
 44
0.0000000001
 40
0.0
 40
0.0
 40
0.0
 40
0.0
 40
0.4942253641
 40
1.0
 40
1.0
 40
1.0
 40
1.0
 10
-3.9429268807
 20
3.9614676975
 30
0.0
 10
-3.9445876136
 20
3.9607355211
 30
0.0
 10
-3.9478760937
 20
3.9590861516
 30
0.0
 10
-3.9509916753
 20
3.9571310086
 30
0.0
 10
-3.9525194006
 20
3.956074634
 30
0.0
  0
SPLINE
  5
3AB
100
AcDbEntity
  8
0
100
AcDbSpline
 62
7
  6
CONTINUOUS
 70
0
 71
3
 72
21
 73
17
 74
0
 42
0.0000001
 43
0.0000001
 44
0.0000000001
 40
0.0
 40
0.0
 40
0.0
 40
0.0
 40
0.1100760352
 40
0.1695880368
 40
0.2318760854
 40
0.2965824391
 40
0.3632460296
 40
0.4312784241
 40
0.5
 40
0.5687215759
 40
0.6367539704
 40
0.7034175609
 40
0.7681239146
 40
0.8304119632
 40
0.8899239648
 40
1.0
 40
1.0
 40
1.0
 40
1.0
 10
-3.9525194006
 20
3.956074634
 30
0.0
 10
-3.9586065877
 20
3.9518655331
 30
0.0
 10
-3.9668785184
 20
3.9436885426
 30
0.0
 10
-3.9755667843
 20
3.9307225645
 30
0.0
 10
-3.9812223104
 20
3.9194922701
 30
0.0
 10
-3.9857393602
 20
3.9072546099
 30
0.0
 10
-3.9890157469
 20
3.8942293908
 30
0.0
 10
-3.9910074547
 20
3.8806768953
 30
0.0
 10
-3.9916837253
 20
3.8668568671
 30
0.0
 10
-3.9910074547
 20
3.8530368389
 30
0.0
 10
-3.9890157469
 20
3.8394843435
 30
0.0
 10
-3.9857393602
 20
3.8264591244
 30
0.0
 10
-3.9812223104
 20
3.8142214642
 30
0.0
 10
-3.9755667843
 20
3.8029911697
 30
0.0
 10
-3.9668785184
 20
3.7900251917
 30
0.0
 10
-3.9586065877
 20
3.7818482011
 30
0.0
 10
-3.9525194006
 20
3.7776391002
 30
0.0
  0
SPLINE
  5
3AC
100
AcDbEntity
  8
0
100
AcDbSpline
 62
7
  6
CONTINUOUS
 70
0
 71
3
 72
9
 73
5
 74
0
 42
0.0000001
 43
0.0000001
 44
0.0000000001
 40
0.0
 40
0.0
 40
0.0
 40
0.0
 40
0.5057746359
 40
1.0
 40
1.0
 40
1.0
 40
1.0
 10
-3.9525194006
 20
3.7776391002
 30
0.0
 10
-3.9509916753
 20
3.7765827257
 30
0.0
 10
-3.9478760937
 20
3.7746275826
 30
0.0
 10
-3.9445876136
 20
3.7729782132
 30
0.0
 10
-3.9429268807
 20
3.7722460368
 30
0.0
  0
SPLINE
  5
3AD
100
AcDbEntity
  8
0
100
AcDbSpline
 62
7
  6
CONTINUOUS
 70
0
 71
3
 72
9
 73
5
 74
0
 42
0.0000001
 43
0.0000001
 44
0.0000000001
 40
0.0
 40
0.0
 40
0.0
 40
0.0
 40
0.5052005569
 40
1.0
 40
1.0
 40
1.0
 40
1.0
 10
-3.9429268807
 20
3.7722460368
 30
0.0
 10
-3.9397009141
 20
3.7708237872
 30
0.0
 10
-3.9330230098
 20
3.7686203728
 30
0.0
 10
-3.9260254236
 20
3.7678568671
 30
0.0
 10
-3.9225724368
 20
3.7678568671
 30
0.0
  0
SPLINE
  5
3AE
100
AcDbEntity
  8
0
100
AcDbSpline
 62
7
  6
CONTINUOUS
 70
0
 71
3
 72
9
 73
5
 74
0
 42
0.0000001
 43
0.0000001
 44
0.0000000001
 40
0.0
 40
0.0
 40
0.0
 40
0.0
 40
0.4947754675
 40
1.0
 40
1.0
 40
1.0
 40
1.0
 10
9.3112821016
 20
0.8678568671
 30
0.0
 10
9.3147311017
 20
0.8678568671
 30
0.0
 10
9.3217209895
 20
0.868620461
 30
0.0
 10
9.3283908021
 20
0.870823896
 30
0.0
 10
9.3316127371
 20
0.8722460368
 30
0.0
  0
SPLINE
  5
3AF
100
AcDbEntity
  8
0
100
AcDbSpline
 62
7
  6
CONTINUOUS
 70
0
 71
3
 72
9
 73
5
 74
0
 42
0.0000001
 43
0.0000001
 44
0.0000000001
 40
0.0
 40
0.0
 40
0.0
 40
0.0
 40
0.4942018683
 40
1.0
 40
1.0
 40
1.0
 40
1.0
 10
9.3316127371
 20
0.8722460368
 30
0.0
 10
9.3332715936
 20
0.872978245
 30
0.0
 10
9.3365563676
 20
0.8746277103
 30
0.0
 10
9.3396681325
 20
0.8765827773
 30
0.0
 10
9.3411939852
 20
0.8776391002
 30
0.0
  0
SPLINE
  5
3B0
100
AcDbEntity
  8
0
100
AcDbSpline
 62
7
  6
CONTINUOUS
 70
0
 71
3
 72
21
 73
17
 74
0
 42
0.0000001
 43
0.0000001
 44
0.0000000001
 40
0.0
 40
0.0
 40
0.0
 40
0.0
 40
0.1100350298
 40
0.1695393384
 40
0.2318273296
 40
0.2965400146
 40
0.3632149293
 40
0.4312620227
 40
0.5
 40
0.5687379773
 40
0.6367850707
 40
0.7034599854
 40
0.7681726704
 40
0.8304606616
 40
0.8899649702
 40
1.0
 40
1.0
 40
1.0
 40
1.0
 10
9.3411939852
 20
0.8776391002
 30
0.0
 10
9.347275117
 20
0.8818489685
 30
0.0
 10
9.3555374519
 20
0.8900269572
 30
0.0
 10
9.3642145407
 20
0.9029918477
 30
0.0
 10
9.3698632145
 20
0.9142220472
 30
0.0
 10
9.3743747854
 20
0.926459581
 30
0.0
 10
9.3776471948
 20
0.9394846507
 30
0.0
 10
9.3796364859
 20
0.953036994
 30
0.0
 10
9.3803119351
 20
0.9668568671
 30
0.0
 10
9.3796364859
 20
0.9806767402
 30
0.0
 10
9.3776471948
 20
0.9942290836
 30
0.0
 10
9.3743747854
 20
1.0072541533
 30
0.0
 10
9.3698632145
 20
1.0194916871
 30
0.0
 10
9.3642145407
 20
1.0307218865
 30
0.0
 10
9.3555374519
 20
1.0436867771
 30
0.0
 10
9.347275117
 20
1.0518647658
 30
0.0
 10
9.3411939852
 20
1.056074634
 30
0.0
  0
SPLINE
  5
3B1
100
AcDbEntity
  8
0
100
AcDbSpline
 62
7
  6
CONTINUOUS
 70
0
 71
3
 72
9
 73
5
 74
0
 42
0.0000001
 43
0.0000001
 44
0.0000000001
 40
0.0
 40
0.0
 40
0.0
 40
0.0
 40
0.5057981317
 40
1.0
 40
1.0
 40
1.0
 40
1.0
 10
9.3411939852
 20
1.056074634
 30
0.0
 10
9.3396681325
 20
1.0571309569
 30
0.0
 10
9.3365563676
 20
1.0590860239
 30
0.0
 10
9.3332715936
 20
1.0607354892
 30
0.0
 10
9.3316127371
 20
1.0614676975
 30
0.0
  0
SPLINE
  5
3B2
100
AcDbEntity
  8
0
100
AcDbSpline
 62
7
  6
CONTINUOUS
 70
0
 71
3
 72
9
 73
5
 74
0
 42
0.0000001
 43
0.0000001
 44
0.0000000001
 40
0.0
 40
0.0
 40
0.0
 40
0.0
 40
0.5052245325
 40
1.0
 40
1.0
 40
1.0
 40
1.0
 10
9.3316127371
 20
1.0614676975
 30
0.0
 10
9.3283908021
 20
1.0628898382
 30
0.0
 10
9.3217209895
 20
1.0650932732
 30
0.0
 10
9.3147311017
 20
1.0658568671
 30
0.0
 10
9.3112821016
 20
1.0658568671
 30
0.0
  0
SPLINE
  5
3B3
100
AcDbEntity
  8
0
100
AcDbSpline
 62
7
  6
CONTINUOUS
 70
0
 71
3
 72
9
 73
5
 74
0
 42
0.0000001
 43
0.0000001
 44
0.0000000001
 40
0.0
 40
0.0
 40
0.0
 40
0.0
 40
0.4947777318
 40
1.0
 40
1.0
 40
1.0
 40
1.0
 10
9.3105832526
 20
3.7678568671
 30
0.0
 10
9.3140326287
 20
3.7678568671
 30
0.0
 10
9.3210232425
 20
3.7686204527
 30
0.0
 10
9.3276938181
 20
3.7708238858
 30
0.0
 10
9.3309161333
 20
3.7722460368
 30
0.0
  0
SPLINE
  5
3B4
100
AcDbEntity
  8
0
100
AcDbSpline
 62
7
  6
CONTINUOUS
 70
0
 71
3
 72
9
 73
5
 74
0
 42
0.0000001
 43
0.0000001
 44
0.0000000001
 40
0.0
 40
0.0
 40
0.0
 40
0.0
 40
0.4942040864
 40
1.0
 40
1.0
 40
1.0
 40
1.0
 10
9.3309161333
 20
3.7722460368
 30
0.0
 10
9.3325751667
 20
3.772978242
 30
0.0
 10
9.3358602902
 20
3.7746276983
 30
0.0
 10
9.338972415
 20
3.7765827725
 30
0.0
 10
9.3404984443
 20
3.7776391002
 30
0.0
  0
SPLINE
  5
3B5
100
AcDbEntity
  8
0
100
AcDbSpline
 62
7
  6
CONTINUOUS
 70
0
 71
3
 72
21
 73
17
 74
0
 42
0.0000001
 43
0.0000001
 44
0.0000000001
 40
0.0
 40
0.0
 40
0.0
 40
0.0
 40
0.1100388967
 40
0.1695439305
 40
0.231831927
 40
0.2965440148
 40
0.3632178618
 40
0.4312635692
 40
0.5
 40
0.5687364308
 40
0.6367821382
 40
0.7034559852
 40
0.768168073
 40
0.8304560695
 40
0.8899611033
 40
1.0
 40
1.0
 40
1.0
 40
1.0
 10
9.3404984443
 20
3.7776391002
 30
0.0
 10
9.3465801471
 20
3.781848896
 30
0.0
 10
9.354843387
 20
3.7900267906
 30
0.0
 10
9.3635215297
 20
3.8029917838
 30
0.0
 10
9.3691708497
 20
3.8142219922
 30
0.0
 10
9.3736829372
 20
3.8264595379
 30
0.0
 10
9.3769557217
 20
3.8394846218
 30
0.0
 10
9.3789452407
 20
3.8530369794
 30
0.0
 10
9.3796207674
 20
3.8668568671
 30
0.0
 10
9.3789452407
 20
3.8806767549
 30
0.0
 10
9.3769557217
 20
3.8942291125
 30
0.0
 10
9.3736829372
 20
3.9072541963
 30
0.0
 10
9.3691708497
 20
3.9194917421
 30
0.0
 10
9.3635215297
 20
3.9307219505
 30
0.0
 10
9.354843387
 20
3.9436869436
 30
0.0
 10
9.3465801471
 20
3.9518648382
 30
0.0
 10
9.3404984443
 20
3.956074634
 30
0.0
  0
SPLINE
  5
3B6
100
AcDbEntity
  8
0
100
AcDbSpline
 62
7
  6
CONTINUOUS
 70
0
 71
3
 72
9
 73
5
 74
0
 42
0.0000001
 43
0.0000001
 44
0.0000000001
 40
0.0
 40
0.0
 40
0.0
 40
0.0
 40
0.5057959136
 40
1.0
 40
1.0
 40
1.0
 40
1.0
 10
9.3404984443
 20
3.956074634
 30
0.0
 10
9.338972415
 20
3.9571309618
 30
0.0
 10
9.3358602902
 20
3.959086036
 30
0.0
 10
9.3325751667
 20
3.9607354923
 30
0.0
 10
9.3309161333
 20
3.9614676975
 30
0.0
  0
SPLINE
  5
3B7
100
AcDbEntity
  8
0
100
AcDbSpline
 62
7
  6
CONTINUOUS
 70
0
 71
3
 72
9
 73
5
 74
0
 42
0.0000001
 43
0.0000001
 44
0.0000000001
 40
0.0
 40
0.0
 40
0.0
 40
0.0
 40
0.5052222682
 40
1.0
 40
1.0
 40
1.0
 40
1.0
 10
9.3309161333
 20
3.9614676975
 30
0.0
 10
9.3276938181
 20
3.9628898485
 30
0.0
 10
9.3210232425
 20
3.9650932816
 30
0.0
 10
9.3140326287
 20
3.9658568671
 30
0.0
 10
9.3105832526
 20
3.9658568671
 30
0.0
  0
SPLINE
  5
3B8
100
AcDbEntity
  8
0
100
AcDbSpline
 62
7
  6
CONTINUOUS
 70
0
 71
3
 72
9
 73
5
 74
0
 42
0.0000001
 43
0.0000001
 44
0.0000000001
 40
0.0
 40
0.0
 40
0.0
 40
0.0
 40
0.2474454202
 40
1.0
 40
1.0
 40
1.0
 40
1.0
 10
9.3097598483
 20
1.0647533349
 30
0.0
 10
9.3106157939
 20
1.0645690477
 30
0.0
 10
9.3140550749
 20
1.0637341667
 30
0.0
 10
9.3174060614
 20
1.0625412881
 30
0.0
 10
9.3198428822
 20
1.0614676975
 30
0.0
  0
SPLINE
  5
3B9
100
AcDbEntity
  8
0
100
AcDbSpline
 62
7
  6
CONTINUOUS
 70
0
 71
3
 72
9
 73
5
 74
0
 42
0.0000001
 43
0.0000001
 44
0.0000000001
 40
0.0
 40
0.0
 40
0.0
 40
0.0
 40
0.4942392132
 40
1.0
 40
1.0
 40
1.0
 40
1.0
 10
9.3198428822
 20
1.0614676975
 30
0.0
 10
9.3215047233
 20
1.0607355398
 30
0.0
 10
9.3247953922
 20
1.0590862269
 30
0.0
 10
9.3279132278
 20
1.0571310391
 30
0.0
 10
9.3294420589
 20
1.056074634
 30
0.0
  0
SPLINE
  5
3BA
100
AcDbEntity
  8
0
100
AcDbSpline
 62
7
  6
CONTINUOUS
 70
0
 71
3
 72
21
 73
17
 74
0
 42
0.0000001
 43
0.0000001
 44
0.0000000001
 40
0.0
 40
0.0
 40
0.0
 40
0.0
 40
0.1101002513
 40
0.1696167981
 40
0.231904882
 40
0.2966074973
 40
0.3632643997
 40
0.4312881121
 40
0.5
 40
0.5687118879
 40
0.6367356003
 40
0.7033925027
 40
0.768095118
 40
0.8303832019
 40
0.8898997487
 40
1.0
 40
1.0
 40
1.0
 40
1.0
 10
9.3294420589
 20
1.056074634
 30
0.0
 10
9.3355328219
 20
1.0518659856
 30
0.0
 10
9.3438104187
 20
1.0436895847
 30
0.0
 10
9.3525052862
 20
1.030722965
 30
0.0
 10
9.3581648592
 20
1.0194926145
 30
0.0
 10
9.3626851447
 20
1.0072548798
 30
0.0
 10
9.3659638805
 20
0.9942295724
 30
0.0
 10
9.3679570156
 20
0.980676987
 30
0.0
 10
9.3686337712
 20
0.9668568671
 30
0.0
 10
9.3679570156
 20
0.9530367472
 30
0.0
 10
9.3659638805
 20
0.9394841619
 30
0.0
 10
9.3626851447
 20
0.9264588545
 30
0.0
 10
9.3581648592
 20
0.9142211198
 30
0.0
 10
9.3525052862
 20
0.9029907693
 30
0.0
 10
9.3438104187
 20
0.8900241496
 30
0.0
 10
9.3355328219
 20
0.8818477487
 30
0.0
 10
9.3294420589
 20
0.8776391002
 30
0.0
  0
SPLINE
  5
3BB
100
AcDbEntity
  8
0
100
AcDbSpline
 62
7
  6
CONTINUOUS
 70
0
 71
3
 72
9
 73
5
 74
0
 42
0.0000001
 43
0.0000001
 44
0.0000000001
 40
0.0
 40
0.0
 40
0.0
 40
0.0
 40
0.5057607868
 40
1.0
 40
1.0
 40
1.0
 40
1.0
 10
9.3294420589
 20
0.8776391002
 30
0.0
 10
9.3279132278
 20
0.8765826952
 30
0.0
 10
9.3247953922
 20
0.8746275074
 30
0.0
 10
9.3215047233
 20
0.8729781944
 30
0.0
 10
9.3198428822
 20
0.8722460368
 30
0.0
  0
SPLINE
  5
3BC
100
AcDbEntity
  8
0
100
AcDbSpline
 62
7
  6
CONTINUOUS
 70
0
 71
3
 72
9
 73
5
 74
0
 42
0.0000001
 43
0.0000001
 44
0.0000000001
 40
0.0
 40
0.0
 40
0.0
 40
0.0
 40
0.2531738209
 40
1.0
 40
1.0
 40
1.0
 40
1.0
 10
9.3198428822
 20
0.8722460368
 30
0.0
 10
9.3190231
 20
0.8718848651
 30
0.0
 10
9.315750825
 20
0.8705376685
 30
0.0
 10
9.3123431814
 20
0.8695165976
 30
0.0
 10
9.3097598483
 20
0.8689603993
 30
0.0
  0
SPLINE
  5
3BD
100
AcDbEntity
  8
0
100
AcDbSpline
 62
7
  6
CONTINUOUS
 70
0
 71
3
 72
22
 73
18
 74
0
 42
0.0000001
 43
0.0000001
 44
0.0000000001
 40
0.0
 40
0.0
 40
0.0
 40
0.0
 40
0.063102405
 40
0.1276832583
 40
0.1934489155
 40
0.2600483415
 40
0.3271103558
 40
0.3942627683
 40
0.4611363428
 40
0.5273573247
 40
0.5925618455
 40
0.6564230383
 40
0.7186777033
 40
0.7790960373
 40
0.8374939766
 40
0.8937817708
 40
1.0
 40
1.0
 40
1.0
 40
1.0
 10
9.3576802867
 20
3.9183919592
 30
0.0
 10
9.3589407964
 20
3.9154133678
 30
0.0
 10
9.3612368413
 20
3.9092755686
 30
0.0
 10
9.3639551208
 20
3.8997300725
 30
0.0
 10
9.3659662061
 20
3.889828029
 30
0.0
 10
9.3672585491
 20
3.8796793404
 30
0.0
 10
9.367817618
 20
3.8693926874
 30
0.0
 10
9.3676259282
 20
3.859078546
 30
0.0
 10
9.3666920132
 20
3.8488483901
 30
0.0
 10
9.3650321479
 20
3.8388116659
 30
0.0
 10
9.3626603144
 20
3.8290770203
 30
0.0
 10
9.3595898443
 20
3.819752824
 30
0.0
 10
9.3558627226
 20
3.8109360759
 30
0.0
 10
9.3515217566
 20
3.8027198458
 30
0.0
 10
9.3466024683
 20
3.7951935925
 30
0.0
 10
9.3394812845
 20
3.786378367
 30
0.0
 10
9.3332243519
 20
3.7807337909
 30
0.0
 10
9.3287452147
 20
3.7776391002
 30
0.0
  0
SPLINE
  5
3BE
100
AcDbEntity
  8
0
100
AcDbSpline
 62
7
  6
CONTINUOUS
 70
0
 71
3
 72
9
 73
5
 74
0
 42
0.0000001
 43
0.0000001
 44
0.0000000001
 40
0.0
 40
0.0
 40
0.0
 40
0.0
 40
0.5057585812
 40
1.0
 40
1.0
 40
1.0
 40
1.0
 10
9.3287452147
 20
3.7776391002
 30
0.0
 10
9.3272162073
 20
3.7765826903
 30
0.0
 10
9.3240980124
 20
3.7746274954
 30
0.0
 10
9.3208069946
 20
3.7729781914
 30
0.0
 10
9.3191449769
 20
3.7722460368
 30
0.0
  0
SPLINE
  5
3BF
100
AcDbEntity
  8
0
100
AcDbSpline
 62
7
  6
CONTINUOUS
 70
0
 71
3
 72
9
 73
5
 74
0
 42
0.0000001
 43
0.0000001
 44
0.0000000001
 40
0.0
 40
0.0
 40
0.0
 40
0.0
 40
0.2531725311
 40
1.0
 40
1.0
 40
1.0
 40
1.0
 10
9.3191449769
 20
3.7722460368
 30
0.0
 10
9.3183251026
 20
3.7718848644
 30
0.0
 10
9.3150524498
 20
3.7705376612
 30
0.0
 10
9.3116444389
 20
3.7695165953
 30
0.0
 10
9.3090608319
 20
3.7689603993
 30
0.0
  0
SPLINE
  5
3C0
100
AcDbEntity
  8
0
100
AcDbSpline
 62
7
  6
CONTINUOUS
 70
0
 71
3
 72
22
 73
18
 74
0
 42
0.0000001
 43
0.0000001
 44
0.0000000001
 40
0.0
 40
0.0
 40
0.0
 40
0.0
 40
0.0584576944
 40
0.1192355522
 40
0.1820961623
 40
0.2467230115
 40
0.3127428555
 40
0.37969369
 40
0.4470777449
 40
0.5144016763
 40
0.5811694027
 40
0.6468870362
 40
0.7111115652
 40
0.7734878241
 40
0.8337129561
 40
0.8915829448
 40
1.0
 40
1.0
 40
1.0
 40
1.0
 10
-3.7880812473
 20
3.9419900446
 30
0.0
 10
-3.785779567
 20
3.9392448437
 30
0.0
 10
-3.7814382957
 20
3.9333410624
 30
0.0
 10
-3.7758943424
 20
3.9236319985
 30
0.0
 10
-3.7712518798
 20
3.9130474306
 30
0.0
 10
-3.7675950727
 20
3.9017465545
 30
0.0
 10
-3.7649913193
 20
3.8899022214
 30
0.0
 10
-3.7634610217
 20
3.8777028685
 30
0.0
 10
-3.7630350083
 20
3.8653349671
 30
0.0
 10
-3.7637361098
 20
3.8529909412
 30
0.0
 10
-3.765532439
 20
3.8408615825
 30
0.0
 10
-3.7683970572
 20
3.8291332947
 30
0.0
 10
-3.772304831
 20
3.8179932236
 30
0.0
 10
-3.7771749348
 20
3.8076100719
 30
0.0
 10
-3.7829338947
 20
3.7981359657
 30
0.0
 10
-3.7914957859
 20
3.7871894971
 30
0.0
 10
-3.7992698054
 20
3.7803440846
 30
0.0
 10
-3.8048745773
 20
3.7767761335
 30
0.0
  0
SPLINE
  5
3C1
100
AcDbEntity
  8
0
100
AcDbSpline
 62
7
  6
CONTINUOUS
 70
0
 71
3
 72
9
 73
5
 74
0
 42
0.0000001
 43
0.0000001
 44
0.0000000001
 40
0.0
 40
0.0
 40
0.0
 40
0.0
 40
0.2540601649
 40
1.0
 40
1.0
 40
1.0
 40
1.0
 10
-3.8048745773
 20
3.7767761335
 30
0.0
 10
-3.8056377685
 20
3.7762902924
 30
0.0
 10
-3.8086820094
 20
3.7744422122
 30
0.0
 10
-3.8118891018
 20
3.7728605321
 30
0.0
 10
-3.8143479529
 20
3.7718555529
 30
0.0
  0
SPLINE
  5
3C2
100
AcDbEntity
  8
0
100
AcDbSpline
 62
7
  6
CONTINUOUS
 70
0
 71
3
 72
9
 73
5
 74
0
 42
0.0000001
 43
0.0000001
 44
0.0000000001
 40
0.0
 40
0.0
 40
0.0
 40
0.0
 40
0.2528983541
 40
1.0
 40
1.0
 40
1.0
 40
1.0
 10
-3.8143479529
 20
3.7718555529
 30
0.0
 10
-3.8151532888
 20
3.7715263968
 30
0.0
 10
-3.8183670191
 20
3.7702980293
 30
0.0
 10
-3.8216961644
 20
3.7693693151
 30
0.0
 10
-3.8242159234
 20
3.7688629538
 30
0.0
  0
SPLINE
  5
3C3
100
AcDbEntity
  8
0
100
AcDbSpline
 62
7
  6
CONTINUOUS
 70
0
 71
3
 72
9
 73
5
 74
0
 42
0.0000001
 43
0.0000001
 44
0.0000000001
 40
0.0
 40
0.0
 40
0.0
 40
0.0
 40
0.2476266624
 40
1.0
 40
1.0
 40
1.0
 40
1.0
 10
-3.8235012436
 20
1.0648507805
 30
0.0
 10
-3.8226659723
 20
1.0646829462
 30
0.0
 10
-3.8193097389
 20
1.0639231217
 30
0.0
 10
-3.8160283619
 20
1.0628374391
 30
0.0
 10
-3.8136321772
 20
1.0618581814
 30
0.0
  0
SPLINE
  5
3C4
100
AcDbEntity
  8
0
100
AcDbSpline
 62
7
  6
CONTINUOUS
 70
0
 71
3
 72
9
 73
5
 74
0
 42
0.0000001
 43
0.0000001
 44
0.0000000001
 40
0.0
 40
0.0
 40
0.0
 40
0.0
 40
0.2463879509
 40
1.0
 40
1.0
 40
1.0
 40
1.0
 10
-3.8136321772
 20
1.0618581814
 30
0.0
 10
-3.812819913
 20
1.0615262304
 30
0.0
 10
-3.8095546474
 20
1.0601029228
 30
0.0
 10
-3.8064218804
 20
1.0583787663
 30
0.0
 10
-3.8041577526
 20
1.0569376007
 30
0.0
  0
SPLINE
  5
3C5
100
AcDbEntity
  8
0
100
AcDbSpline
 62
7
  6
CONTINUOUS
 70
0
 71
3
 72
25
 73
21
 74
0
 42
0.0000001
 43
0.0000001
 44
0.0000000001
 40
0.0
 40
0.0
 40
0.0
 40
0.0
 40
0.0541675816
 40
0.1110153033
 40
0.1404948146
 40
0.170663615
 40
0.2329234247
 40
0.2974847199
 40
0.3639038038
 40
0.4316248039
 40
0.5
 40
0.5683751961
 40
0.6360961962
 40
0.7025152801
 40
0.7670765753
 40
0.829336385
 40
0.8595051854
 40
0.8889846967
 40
0.9458324184
 40
1.0
 40
1.0
 40
1.0
 40
1.0
 10
-3.8041577526
 20
1.0569376007
 30
0.0
 10
-3.8010133436
 20
1.0549361174
 30
0.0
 10
-3.7949210405
 20
1.0502618171
 30
0.0
 10
-3.7882215333
 20
1.0432436964
 30
0.0
 10
-3.783318068
 20
1.0368951996
 30
0.0
 10
-3.7786521965
 20
1.0299168887
 30
0.0
 10
-3.7735374163
 20
1.0203676388
 30
0.0
 10
-3.7686706349
 20
1.0079626471
 30
0.0
 10
-3.7651332025
 20
0.9947264401
 30
0.0
 10
-3.7629807284
 20
0.9809330054
 30
0.0
 10
-3.7622485962
 20
0.9668568671
 30
0.0
 10
-3.7629807284
 20
0.9527807288
 30
0.0
 10
-3.7651332025
 20
0.9389872941
 30
0.0
 10
-3.7686706349
 20
0.9257510871
 30
0.0
 10
-3.7735374163
 20
0.9133460955
 30
0.0
 10
-3.7786521965
 20
0.9037968456
 30
0.0
 10
-3.783318068
 20
0.8968185347
 30
0.0
 10
-3.7882215333
 20
0.8904700378
 30
0.0
 10
-3.7949210405
 20
0.8834519172
 30
0.0
 10
-3.8010133436
 20
0.8787776169
 30
0.0
 10
-3.8041577526
 20
0.8767761335
 30
0.0
  0
SPLINE
  5
3C6
100
AcDbEntity
  8
0
100
AcDbSpline
 62
7
  6
CONTINUOUS
 70
0
 71
3
 72
9
 73
5
 74
0
 42
0.0000001
 43
0.0000001
 44
0.0000000001
 40
0.0
 40
0.0
 40
0.0
 40
0.0
 40
0.2540585739
 40
1.0
 40
1.0
 40
1.0
 40
1.0
 10
-3.8041577526
 20
0.8767761335
 30
0.0
 10
-3.8049210298
 20
0.8762902913
 30
0.0
 10
-3.8079656269
 20
0.8744421998
 30
0.0
 10
-3.8111730676
 20
0.8728605263
 30
0.0
 10
-3.8136321772
 20
0.8718555529
 30
0.0
  0
SPLINE
  5
3C7
100
AcDbEntity
  8
0
100
AcDbSpline
 62
7
  6
CONTINUOUS
 70
0
 71
3
 72
9
 73
5
 74
0
 42
0.0000001
 43
0.0000001
 44
0.0000000001
 40
0.0
 40
0.0
 40
0.0
 40
0.0
 40
0.2528971539
 40
1.0
 40
1.0
 40
1.0
 40
1.0
 10
-3.8136321772
 20
0.8718555529
 30
0.0
 10
-3.8144376038
 20
0.8715263962
 30
0.0
 10
-3.817651706
 20
0.8702980232
 30
0.0
 10
-3.8209812137
 20
0.8693693132
 30
0.0
 10
-3.8235012436
 20
0.8688629538
 30
0.0
  0
SPLINE
  5
3C8
100
AcDbEntity
  8
0
100
AcDbSpline
 62
3
  6
CONTINUOUS
 70
0
 71
3
 72
9
 73
5
 74
0
 42
0.0000001
 43
0.0000001
 44
0.0000000001
 40
0.0
 40
0.0
 40
0.0
 40
0.0
 40
0.4950234231
 40
1.0
 40
1.0
 40
1.0
 40
1.0
 10
-3.8573169178
 20
1.0658568671
 30
0.0
 10
-3.8539321167
 20
1.0658568671
 30
0.0
 10
-3.8470784445
 20
1.0651587898
 30
0.0
 10
-3.8404964157
 20
1.0631449027
 30
0.0
 10
-3.8372994769
 20
1.0618403696
 30
0.0
  0
SPLINE
  5
3C9
100
AcDbEntity
  8
0
100
AcDbSpline
 62
3
  6
CONTINUOUS
 70
0
 71
3
 72
9
 73
5
 74
0
 42
0.0000001
 43
0.0000001
 44
0.0000000001
 40
0.0
 40
0.0
 40
0.0
 40
0.0
 40
0.2464275597
 40
1.0
 40
1.0
 40
1.0
 40
1.0
 10
-3.8372994769
 20
1.0618403696
 30
0.0
 10
-3.8364827967
 20
1.0615071175
 30
0.0
 10
-3.8332002179
 20
1.0600784471
 30
0.0
 10
-3.8300504903
 20
1.0583476427
 30
0.0
 10
-3.8277740478
 20
1.0569008076
 30
0.0
  0
SPLINE
  5
3CA
100
AcDbEntity
  8
0
100
AcDbSpline
 62
3
  6
CONTINUOUS
 70
0
 71
3
 72
21
 73
17
 74
0
 42
0.0000001
 43
0.0000001
 44
0.0000000001
 40
0.0
 40
0.0
 40
0.0
 40
0.0
 40
0.1113844892
 40
0.1712012913
 40
0.2335415362
 40
0.2980664355
 40
0.3643522748
 40
0.4318676771
 40
0.5
 40
0.5681323229
 40
0.6356477252
 40
0.7019335645
 40
0.7664584638
 40
0.8287987087
 40
0.8886155108
 40
1.0
 40
1.0
 40
1.0
 40
1.0
 10
-3.8261524881
 20
1.0558356524
 30
0.0
 10
-3.8199316765
 20
1.0516154681
 30
0.0
 10
-3.8114367525
 20
1.043456577
 30
0.0
 10
-3.8024545812
 20
1.0304806192
 30
0.0
 10
-3.7966093549
 20
1.0192800711
 30
0.0
 10
-3.7919335991
 20
1.007084182
 30
0.0
 10
-3.7885389953
 20
0.994109983
 30
0.0
 10
-3.7864734447
 20
0.9806155178
 30
0.0
 10
-3.7857713271
 20
0.9668568671
 30
0.0
 10
-3.7864734447
 20
0.9530982165
 30
0.0
 10
-3.7885389953
 20
0.9396037512
 30
0.0
 10
-3.7919335991
 20
0.9266295523
 30
0.0
 10
-3.7966093549
 20
0.9144336632
 30
0.0
 10
-3.8024545812
 20
0.903233115
 30
0.0
 10
-3.8114367525
 20
0.8902571572
 30
0.0
 10
-3.8199316765
 20
0.8820982662
 30
0.0
 10
-3.8261524881
 20
0.8778780819
 30
0.0
  0
SPLINE
  5
3CB
100
AcDbEntity
  8
0
100
AcDbSpline
 62
3
  6
CONTINUOUS
 70
0
 71
3
 72
9
 73
5
 74
0
 42
0.0000001
 43
0.0000001
 44
0.0000000001
 40
0.0
 40
0.0
 40
0.0
 40
0.0
 40
0.2540164078
 40
1.0
 40
1.0
 40
1.0
 40
1.0
 10
-3.8277740478
 20
0.8768129267
 30
0.0
 10
-3.8285413896
 20
0.8763252284
 30
0.0
 10
-3.8316026231
 20
0.8744698239
 30
0.0
 10
-3.8348272552
 20
0.872882172
 30
0.0
 10
-3.8372994769
 20
0.8718733647
 30
0.0
  0
SPLINE
  5
3CC
100
AcDbEntity
  8
0
100
AcDbSpline
 62
3
  6
CONTINUOUS
 70
0
 71
3
 72
9
 73
5
 74
0
 42
0.0000001
 43
0.0000001
 44
0.0000000001
 40
0.0
 40
0.0
 40
0.0
 40
0.0
 40
0.5049765769
 40
1.0
 40
1.0
 40
1.0
 40
1.0
 10
-3.8372994769
 20
0.8718733647
 30
0.0
 10
-3.8404964157
 20
0.8705688316
 30
0.0
 10
-3.8470784445
 20
0.8685549445
 30
0.0
 10
-3.8539321167
 20
0.8678568671
 30
0.0
 10
-3.8573169178
 20
0.8678568671
 30
0.0
  0
SPLINE
  5
3CD
100
AcDbEntity
  8
0
100
AcDbSpline
 62
3
  6
CONTINUOUS
 70
0
 71
3
 72
22
 73
18
 74
0
 42
0.0000001
 43
0.0000001
 44
0.0000000001
 40
0.0
 40
0.0
 40
0.0
 40
0.0
 40
0.0600994621
 40
0.1221540922
 40
0.1859034689
 40
0.2510477486
 40
0.3172160009
 40
0.3839895551
 40
0.4509424248
 40
0.5176556034
 40
0.5837024085
 40
0.648667774
 40
0.7121920117
 40
0.7739816058
 40
0.8337832835
 40
0.8914258981
 40
1.0
 40
1.0
 40
1.0
 40
1.0
 10
-3.805947111
 20
3.9343515826
 30
0.0
 10
-3.8040195659
 20
3.9314850547
 30
0.0
 10
-3.8004207217
 20
3.9254388744
 30
0.0
 10
-3.7958930405
 20
3.9157431523
 30
0.0
 10
-3.7922033082
 20
3.9053896663
 30
0.0
 10
-3.7894191706
 20
3.8945138864
 30
0.0
 10
-3.7875635477
 20
3.8832667158
 30
0.0
 10
-3.7866570007
 20
3.8717994197
 30
0.0
 10
-3.7867275889
 20
3.8602650459
 30
0.0
 10
-3.7877715037
 20
3.8488199835
 30
0.0
 10
-3.7897610734
 20
3.8376166578
 30
0.0
 10
-3.7926772036
 20
3.8268066309
 30
0.0
 10
-3.7964913686
 20
3.8165392912
 30
0.0
 10
-3.8011339223
 20
3.8069479725
 30
0.0
 10
-3.8065460076
 20
3.7981562637
 30
0.0
 10
-3.8145352214
 20
3.7878953699
 30
0.0
 10
-3.8217063802
 20
3.7813832686
 30
0.0
 10
-3.8268703609
 20
3.777879383
 30
0.0
  0
SPLINE
  5
3CE
100
AcDbEntity
  8
0
100
AcDbSpline
 62
3
  6
CONTINUOUS
 70
0
 71
3
 72
9
 73
5
 74
0
 42
0.0000001
 43
0.0000001
 44
0.0000000001
 40
0.0
 40
0.0
 40
0.0
 40
0.0
 40
0.2540179962
 40
1.0
 40
1.0
 40
1.0
 40
1.0
 10
-3.8284936592
 20
3.7768129267
 30
0.0
 10
-3.8292609144
 20
3.7763252295
 30
0.0
 10
-3.83232179
 20
3.7744698363
 30
0.0
 10
-3.8355460719
 20
3.7728821779
 30
0.0
 10
-3.8380180338
 20
3.7718733647
 30
0.0
  0
SPLINE
  5
3CF
100
AcDbEntity
  8
0
100
AcDbSpline
 62
3
  6
CONTINUOUS
 70
0
 71
3
 72
9
 73
5
 74
0
 42
0.0000001
 43
0.0000001
 44
0.0000000001
 40
0.0
 40
0.0
 40
0.0
 40
0.0
 40
0.5049787199
 40
1.0
 40
1.0
 40
1.0
 40
1.0
 10
-3.8380180338
 20
3.7718733647
 30
0.0
 10
-3.8412145967
 20
3.7705688403
 30
0.0
 10
-3.8477958711
 20
3.7685549518
 30
0.0
 10
-3.8546488204
 20
3.7678568671
 30
0.0
 10
-3.8580332482
 20
3.7678568671
 30
0.0
  0
SPLINE
  5
3D0
100
AcDbEntity
  8
0
100
AcDbSpline
 62
3
  6
CONTINUOUS
 70
0
 71
3
 72
31
 73
27
 74
0
 42
0.0000001
 43
0.0000001
 44
0.0000000001
 40
0.0
 40
0.0
 40
0.0
 40
0.0
 40
0.0258992305
 40
0.0520599891
 40
0.0786924545
 40
0.1059826511
 40
0.1340907409
 40
0.1631197666
 40
0.2240499112
 40
0.2560428976
 40
0.2889733135
 40
0.3572230893
 40
0.427961771
 40
0.5
 40
0.572038229
 40
0.6427769107
 40
0.7110266865
 40
0.7439571024
 40
0.7759500888
 40
0.8368802334
 40
0.8659092591
 40
0.8940173489
 40
0.9213075455
 40
0.9479400109
 40
0.9741007695
 40
1.0
 40
1.0
 40
1.0
 40
1.0
 10
9.2066546329
 20
1.0658568671
 30
0.0
 10
9.204334299
 20
1.0658568671
 30
0.0
 10
9.1996641111
 20
1.0655307111
 30
0.0
 10
9.192743065
 20
1.0640869221
 30
0.0
 10
9.185952768
 20
1.0617081772
 30
0.0
 10
9.1793619088
 20
1.0584147587
 30
0.0
 10
9.173039791
 20
1.0542297162
 30
0.0
 10
9.164915555
 20
1.0474286581
 30
0.0
 10
9.1576982255
 20
1.0391122974
 30
0.0
 10
9.1515445283
 20
1.0296524917
 30
0.0
 10
9.1459255453
 20
1.0191118187
 30
0.0
 10
9.1403939733
 20
1.0046611679
 30
0.0
 10
9.1363837992
 20
0.9861182979
 30
0.0
 10
9.1350105548
 20
0.9668568671
 30
0.0
 10
9.1363837992
 20
0.9475954364
 30
0.0
 10
9.1403939733
 20
0.9290525663
 30
0.0
 10
9.1459255453
 20
0.9146019156
 30
0.0
 10
9.1515445283
 20
0.9040612426
 30
0.0
 10
9.1576982255
 20
0.8946014369
 30
0.0
 10
9.164915555
 20
0.8862850762
 30
0.0
 10
9.173039791
 20
0.8794840181
 30
0.0
 10
9.1793619088
 20
0.8752989756
 30
0.0
 10
9.185952768
 20
0.8720055571
 30
0.0
 10
9.192743065
 20
0.8696268121
 30
0.0
 10
9.1996641111
 20
0.8681830232
 30
0.0
 10
9.204334299
 20
0.8678568671
 30
0.0
 10
9.2066546329
 20
0.8678568671
 30
0.0
  0
SPLINE
  5
3D1
100
AcDbEntity
  8
0
100
AcDbSpline
 62
3
  6
CONTINUOUS
 70
0
 71
3
 72
31
 73
27
 74
0
 42
0.0000001
 43
0.0000001
 44
0.0000000001
 40
0.0
 40
0.0
 40
0.0
 40
0.0
 40
0.0258975325
 40
0.0520566825
 40
0.0786877042
 40
0.1059766853
 40
0.1340838345
 40
0.1631122196
 40
0.2240420121
 40
0.2560352718
 40
0.2889662328
 40
0.3572177969
 40
0.4279589502
 40
0.5
 40
0.5720410498
 40
0.6427822031
 40
0.7110337672
 40
0.7439647282
 40
0.7759579879
 40
0.8368877804
 40
0.8659161655
 40
0.8940233147
 40
0.9213122958
 40
0.9479433175
 40
0.9741024675
 40
1.0
 40
1.0
 40
1.0
 40
1.0
 10
9.2073698866
 20
3.9658568671
 30
0.0
 10
9.205049797
 20
3.9658568671
 30
0.0
 10
9.2003800897
 20
3.9655307095
 30
0.0
 10
9.1934597632
 20
3.9640869154
 30
0.0
 10
9.1866701739
 20
3.9617081636
 30
0.0
 10
9.180080004
 20
3.9584147378
 30
0.0
 10
9.1737585501
 20
3.9542296899
 30
0.0
 10
9.1656351237
 20
3.9474285883
 30
0.0
 10
9.1584185713
 20
3.9391122207
 30
0.0
 10
9.1522655503
 20
3.9296524617
 30
0.0
 10
9.1466471396
 20
3.919111757
 30
0.0
 10
9.1411161504
 20
3.9046610894
 30
0.0
 10
9.1371064093
 20
3.8861182579
 30
0.0
 10
9.1357333128
 20
3.8668568671
 30
0.0
 10
9.1371064093
 20
3.8475954764
 30
0.0
 10
9.1411161504
 20
3.8290526449
 30
0.0
 10
9.1466471396
 20
3.8146019772
 30
0.0
 10
9.1522655503
 20
3.8040612726
 30
0.0
 10
9.1584185713
 20
3.7946015135
 30
0.0
 10
9.1656351237
 20
3.7862851459
 30
0.0
 10
9.1737585501
 20
3.7794840444
 30
0.0
 10
9.180080004
 20
3.7752989964
 30
0.0
 10
9.1866701739
 20
3.7720055707
 30
0.0
 10
9.1934597632
 20
3.7696268189
 30
0.0
 10
9.2003800897
 20
3.7681830248
 30
0.0
 10
9.205049797
 20
3.7678568671
 30
0.0
 10
9.2073698866
 20
3.7678568671
 30
0.0
  0
SPLINE
  5
3D2
100
AcDbEntity
  8
0
100
AcDbSpline
 62
3
  6
CONTINUOUS
 70
0
 71
3
 72
31
 73
27
 74
0
 42
0.0000001
 43
0.0000001
 44
0.0000000001
 40
0.0
 40
0.0
 40
0.0
 40
0.0
 40
0.0259155302
 40
0.0520917311
 40
0.0787380552
 40
0.1060399223
 40
0.1341570425
 40
0.1631922204
 40
0.2241257492
 40
0.256116113
 40
0.2890412973
 40
0.3572739048
 40
0.4279888554
 40
0.5
 40
0.5720111446
 40
0.6427260952
 40
0.7109587027
 40
0.743883887
 40
0.7758742508
 40
0.8368077796
 40
0.8658429575
 40
0.8939600777
 40
0.9212619448
 40
0.9479082689
 40
0.9740844698
 40
1.0
 40
1.0
 40
1.0
 40
1.0
 10
-3.8184862316
 20
0.8678568671
 30
0.0
 10
-3.8161635524
 20
0.8678568671
 30
0.0
 10
-3.8114887475
 20
0.8681830077
 30
0.0
 10
-3.8045607897
 20
0.8696267474
 30
0.0
 10
-3.7977636963
 20
0.8720054266
 30
0.0
 10
-3.7911662176
 20
0.8752987756
 30
0.0
 10
-3.7848377225
 20
0.8794837662
 30
0.0
 10
-3.7767057125
 20
0.8862844069
 30
0.0
 10
-3.7694809196
 20
0.8946007012
 30
0.0
 10
-3.7633207278
 20
0.9040609547
 30
0.0
 10
-3.7576962476
 20
0.9146013238
 30
0.0
 10
-3.7521590786
 20
0.9290518116
 30
0.0
 10
-3.7481447451
 20
0.9475950517
 30
0.0
 10
-3.7467700811
 20
0.9668568671
 30
0.0
 10
-3.7481447451
 20
0.9861186826
 30
0.0
 10
-3.7521590786
 20
1.0046619226
 30
0.0
 10
-3.7576962476
 20
1.0191124104
 30
0.0
 10
-3.7633207278
 20
1.0296527796
 30
0.0
 10
-3.7694809196
 20
1.039113033
 30
0.0
 10
-3.7767057125
 20
1.0474293274
 30
0.0
 10
-3.7848377225
 20
1.0542299681
 30
0.0
 10
-3.7911662176
 20
1.0584149587
 30
0.0
 10
-3.7977636963
 20
1.0617083076
 30
0.0
 10
-3.8045607897
 20
1.0640869868
 30
0.0
 10
-3.8114887475
 20
1.0655307265
 30
0.0
 10
-3.8161635524
 20
1.0658568671
 30
0.0
 10
-3.8184862316
 20
1.0658568671
 30
0.0
  0
SPLINE
  5
3D3
100
AcDbEntity
  8
0
100
AcDbSpline
 62
3
  6
CONTINUOUS
 70
0
 71
3
 72
31
 73
27
 74
0
 42
0.0000001
 43
0.0000001
 44
0.0000000001
 40
0.0
 40
0.0
 40
0.0
 40
0.0
 40
0.0259138356
 40
0.052088431
 40
0.0787333141
 40
0.1060339677
 40
0.1341501488
 40
0.1631846869
 40
0.2241178635
 40
0.2561084998
 40
0.289034228
 40
0.3572686206
 40
0.4279860389
 40
0.5
 40
0.5720139611
 40
0.6427313794
 40
0.710965772
 40
0.7438915002
 40
0.7758821365
 40
0.8368153131
 40
0.8658498512
 40
0.8939660323
 40
0.9212666859
 40
0.947911569
 40
0.9740861644
 40
1.0
 40
1.0
 40
1.0
 40
1.0
 10
-3.8192022126
 20
3.7678568671
 30
0.0
 10
-3.8168797773
 20
3.7678568671
 30
0.0
 10
-3.8122054527
 20
3.7681830094
 30
0.0
 10
-3.8052782138
 20
3.7696267542
 30
0.0
 10
-3.7984818272
 20
3.7720054402
 30
0.0
 10
-3.791885037
 20
3.7752987963
 30
0.0
 10
-3.7855572053
 20
3.7794837924
 30
0.0
 10
-3.7774260038
 20
3.7862844765
 30
0.0
 10
-3.7702019871
 20
3.7946007777
 30
0.0
 10
-3.7640424709
 20
3.8040609846
 30
0.0
 10
-3.7584185624
 20
3.8146013854
 30
0.0
 10
-3.7528819755
 20
3.8290518902
 30
0.0
 10
-3.7488680747
 20
3.8475950917
 30
0.0
 10
-3.7474935583
 20
3.8668568671
 30
0.0
 10
-3.7488680747
 20
3.8861186426
 30
0.0
 10
-3.7528819755
 20
3.9046618441
 30
0.0
 10
-3.7584185624
 20
3.9191123489
 30
0.0
 10
-3.7640424709
 20
3.9296527496
 30
0.0
 10
-3.7702019871
 20
3.9391129565
 30
0.0
 10
-3.7774260038
 20
3.9474292578
 30
0.0
 10
-3.7855572053
 20
3.9542299419
 30
0.0
 10
-3.791885037
 20
3.9584149379
 30
0.0
 10
-3.7984818272
 20
3.9617082941
 30
0.0
 10
-3.8052782138
 20
3.9640869801
 30
0.0
 10
-3.8122054527
 20
3.9655307249
 30
0.0
 10
-3.8168797773
 20
3.9658568671
 30
0.0
 10
-3.8192022126
 20
3.9658568671
 30
0.0
  0
SPLINE
  5
3D4
100
AcDbEntity
  8
0
100
AcDbSpline
 62
3
  6
CONTINUOUS
 70
0
 71
3
 72
9
 73
5
 74
0
 42
0.0000001
 43
0.0000001
 44
0.0000000001
 40
0.0
 40
0.0
 40
0.0
 40
0.0
 40
0.2474460852
 40
1.0
 40
1.0
 40
1.0
 40
1.0
 10
-3.8096035496
 20
1.0647484577
 30
0.0
 10
-3.8087237551
 20
1.0645633779
 30
0.0
 10
-3.8051877173
 20
1.0637249903
 30
0.0
 10
-3.8017381149
 20
1.0625276291
 30
0.0
 10
-3.7992254689
 20
1.0614492773
 30
0.0
  0
SPLINE
  5
3D5
100
AcDbEntity
  8
0
100
AcDbSpline
 62
3
  6
CONTINUOUS
 70
0
 71
3
 72
9
 73
5
 74
0
 42
0.0000001
 43
0.0000001
 44
0.0000000001
 40
0.0
 40
0.0
 40
0.0
 40
0.0
 40
0.4945281602
 40
1.0
 40
1.0
 40
1.0
 40
1.0
 10
-3.7992254689
 20
1.0614492773
 30
0.0
 10
-3.7975138836
 20
1.0607147165
 30
0.0
 10
-3.7941230429
 20
1.0590606617
 30
0.0
 10
-3.7909018709
 20
1.0570977666
 30
0.0
 10
-3.7893210623
 20
1.0560369242
 30
0.0
  0
SPLINE
  5
3D6
100
AcDbEntity
  8
0
100
AcDbSpline
 62
3
  6
CONTINUOUS
 70
0
 71
3
 72
21
 73
17
 74
0
 42
0.0000001
 43
0.0000001
 44
0.0000000001
 40
0.0
 40
0.0
 40
0.0
 40
0.0
 40
0.1112626503
 40
0.1710478764
 40
0.2333810375
 40
0.2979222192
 40
0.3642439097
 40
0.4318097315
 40
0.5
 40
0.5681902685
 40
0.6357560903
 40
0.7020777808
 40
0.7666189625
 40
0.8289521236
 40
0.8887373497
 40
1.0
 40
1.0
 40
1.0
 40
1.0
 10
-3.7893210623
 20
1.0560369242
 30
0.0
 10
-3.7830653778
 20
1.0518388857
 30
0.0
 10
-3.7745184286
 20
1.043688904
 30
0.0
 10
-3.7654809965
 20
1.0307011021
 30
0.0
 10
-3.7595978702
 20
1.0194746418
 30
0.0
 10
-3.7548908737
 20
1.0072411736
 30
0.0
 10
-3.7514729354
 20
0.9942200096
 30
0.0
 10
-3.7493932503
 20
0.9806721535
 30
0.0
 10
-3.7486862667
 20
0.9668568671
 30
0.0
 10
-3.7493932503
 20
0.9530415807
 30
0.0
 10
-3.7514729354
 20
0.9394937247
 30
0.0
 10
-3.7548908737
 20
0.9264725607
 30
0.0
 10
-3.7595978702
 20
0.9142390925
 30
0.0
 10
-3.7654809965
 20
0.9030126321
 30
0.0
 10
-3.7745184286
 20
0.8900248302
 30
0.0
 10
-3.7830653778
 20
0.8818748486
 30
0.0
 10
-3.7893210623
 20
0.87767681
 30
0.0
  0
SPLINE
  5
3D7
100
AcDbEntity
  8
0
100
AcDbSpline
 62
3
  6
CONTINUOUS
 70
0
 71
3
 72
9
 73
5
 74
0
 42
0.0000001
 43
0.0000001
 44
0.0000000001
 40
0.0
 40
0.0
 40
0.0
 40
0.0
 40
0.5054718398
 40
1.0
 40
1.0
 40
1.0
 40
1.0
 10
-3.7893210623
 20
0.87767681
 30
0.0
 10
-3.7909018709
 20
0.8766159677
 30
0.0
 10
-3.7941230429
 20
0.8746530726
 30
0.0
 10
-3.7975138836
 20
0.8729990178
 30
0.0
 10
-3.7992254689
 20
0.872264457
 30
0.0
  0
SPLINE
  5
3D8
100
AcDbEntity
  8
0
100
AcDbSpline
 62
3
  6
CONTINUOUS
 70
0
 71
3
 72
9
 73
5
 74
0
 42
0.0000001
 43
0.0000001
 44
0.0000000001
 40
0.0
 40
0.0
 40
0.0
 40
0.0
 40
0.2531216231
 40
1.0
 40
1.0
 40
1.0
 40
1.0
 10
-3.7992254689
 20
0.872264457
 30
0.0
 10
-3.8000705871
 20
0.8719017578
 30
0.0
 10
-3.8034429935
 20
0.8705488307
 30
0.0
 10
-3.8069480573
 20
0.8695239048
 30
0.0
 10
-3.8096035496
 20
0.8689652765
 30
0.0
  0
SPLINE
  5
3D9
100
AcDbEntity
  8
0
100
AcDbSpline
 62
3
  6
CONTINUOUS
 70
0
 71
3
 72
21
 73
17
 74
0
 42
0.0000001
 43
0.0000001
 44
0.0000000001
 40
0.0
 40
0.0
 40
0.0
 40
0.0
 40
0.0572521695
 40
0.1169307532
 40
0.1788750976
 40
0.2427884986
 40
0.3083141374
 40
0.3750098563
 40
0.4423640923
 40
0.5098560288
 40
0.5769705327
 40
0.643185831
 40
0.7708858983
 40
0.8318126826
 40
0.8903748563
 40
1.0
 40
1.0
 40
1.0
 40
1.0
 10
-3.7785955559
 20
3.9464315779
 30
0.0
 10
-3.7760892439
 20
3.9438579454
 30
0.0
 10
-3.7713218038
 20
3.9382491692
 30
0.0
 10
-3.7651536065
 20
3.9288426423
 30
0.0
 10
-3.7598977242
 20
3.9184288406
 30
0.0
 10
-3.7556348364
 20
3.9071795955
 30
0.0
 10
-3.7524560555
 20
3.895269562
 30
0.0
 10
-3.7503996349
 20
3.8828982745
 30
0.0
 10
-3.7494906757
 20
3.870266452
 30
0.0
 10
-3.7497663935
 20
3.8575790672
 30
0.0
 10
-3.7512115799
 20
3.845041317
 30
0.0
 10
-3.7546049677
 20
3.8290010828
 30
0.0
 10
-3.7601991579
 20
3.813877631
 30
0.0
 10
-3.7679022368
 20
3.8003778151
 30
0.0
 10
-3.7764576034
 20
3.7888019504
 30
0.0
 10
-3.7843286016
 20
3.7815100671
 30
0.0
 10
-3.7900401108
 20
3.77767681
 30
0.0
  0
SPLINE
  5
3DA
100
AcDbEntity
  8
0
100
AcDbSpline
 62
3
  6
CONTINUOUS
 70
0
 71
3
 72
9
 73
5
 74
0
 42
0.0000001
 43
0.0000001
 44
0.0000000001
 40
0.0
 40
0.0
 40
0.0
 40
0.0
 40
0.5054739186
 40
1.0
 40
1.0
 40
1.0
 40
1.0
 10
-3.7900401108
 20
3.77767681
 30
0.0
 10
-3.791620747
 20
3.7766159723
 30
0.0
 10
-3.7948415675
 20
3.7746530839
 30
0.0
 10
-3.7982320665
 20
3.7729990206
 30
0.0
 10
-3.7999434787
 20
3.772264457
 30
0.0
  0
SPLINE
  5
3DB
100
AcDbEntity
  8
0
100
AcDbSpline
 62
3
  6
CONTINUOUS
 70
0
 71
3
 72
9
 73
5
 74
0
 42
0.0000001
 43
0.0000001
 44
0.0000000001
 40
0.0
 40
0.0
 40
0.0
 40
0.0
 40
0.2531228535
 40
1.0
 40
1.0
 40
1.0
 40
1.0
 10
-3.7999434787
 20
3.772264457
 30
0.0
 10
-3.8007885066
 20
3.7719017584
 30
0.0
 10
-3.804160542
 20
3.7705488376
 30
0.0
 10
-3.8076652448
 20
3.769523907
 30
0.0
 10
-3.8103204676
 20
3.7689652765
 30
0.0
  0
SPLINE
  5
3DC
100
AcDbEntity
  8
0
100
AcDbSpline
 62
3
  6
CONTINUOUS
 70
0
 71
3
 72
31
 73
27
 74
0
 42
0.0000001
 43
0.0000001
 44
0.0000000001
 40
0.0
 40
0.0
 40
0.0
 40
0.0
 40
0.0256387718
 40
0.0515048791
 40
0.077831711
 40
0.1048275948
 40
0.1326733031
 40
0.1614903786
 40
0.2221996517
 40
0.2541986084
 40
0.2872137397
 40
0.3558533889
 40
0.4272145617
 40
0.5
 40
0.5727854383
 40
0.6441466111
 40
0.7127862603
 40
0.7458013916
 40
0.7778003483
 40
0.8385096214
 40
0.8673266969
 40
0.8951724052
 40
0.922168289
 40
0.9484951209
 40
0.9743612282
 40
1.0
 40
1.0
 40
1.0
 40
1.0
 10
9.3355753935
 20
0.8678568671
 30
0.0
 10
9.3378483571
 20
0.8678568671
 30
0.0
 10
9.3424207212
 20
0.868182326
 30
0.0
 10
9.3491888759
 20
0.8696265161
 30
0.0
 10
9.3558155112
 20
0.8720064859
 30
0.0
 10
9.362234096
 20
0.875301688
 30
0.0
 10
9.368377782
 20
0.8794887301
 30
0.0
 10
9.376266846
 20
0.8863009003
 30
0.0
 10
9.3832433409
 20
0.8946219052
 30
0.0
 10
9.389173498
 20
0.9040701645
 30
0.0
 10
9.3945932362
 20
0.9146219415
 30
0.0
 10
9.3999118423
 20
0.9290803197
 30
0.0
 10
9.403758057
 20
0.947610289
 30
0.0
 10
9.405072965
 20
0.9668568671
 30
0.0
 10
9.403758057
 20
0.9861034453
 30
0.0
 10
9.3999118423
 20
1.0046334146
 30
0.0
 10
9.3945932362
 20
1.0190917927
 30
0.0
 10
9.389173498
 20
1.0296435697
 30
0.0
 10
9.3832433409
 20
1.0390918291
 30
0.0
 10
9.376266846
 20
1.0474128339
 30
0.0
 10
9.368377782
 20
1.0542250041
 30
0.0
 10
9.362234096
 20
1.0584120462
 30
0.0
 10
9.3558155112
 20
1.0617072484
 30
0.0
 10
9.3491888759
 20
1.0640872182
 30
0.0
 10
9.3424207212
 20
1.0655314083
 30
0.0
 10
9.3378483571
 20
1.0658568671
 30
0.0
 10
9.3355753935
 20
1.0658568671
 30
0.0
  0
SPLINE
  5
3DD
100
AcDbEntity
  8
0
100
AcDbSpline
 62
3
  6
CONTINUOUS
 70
0
 71
3
 72
31
 73
27
 74
0
 42
0.0000001
 43
0.0000001
 44
0.0000000001
 40
0.0
 40
0.0
 40
0.0
 40
0.0
 40
0.0256405368
 40
0.0515083216
 40
0.0778366618
 40
0.1048338163
 40
0.132680507
 40
0.1614982502
 40
0.2222078842
 40
0.2542065521
 40
0.2872211118
 40
0.3558588938
 40
0.4272174938
 40
0.5
 40
0.5727825062
 40
0.6441411062
 40
0.7127788882
 40
0.7457934479
 40
0.7777921158
 40
0.8385017498
 40
0.867319493
 40
0.8951661837
 40
0.9221633382
 40
0.9484916784
 40
0.9743594632
 40
1.0
 40
1.0
 40
1.0
 40
1.0
 10
9.3348739803
 20
3.7678568671
 30
0.0
 10
9.3371471931
 20
3.7678568671
 30
0.0
 10
9.3417200481
 20
3.7681823245
 30
0.0
 10
9.3484889386
 20
3.7696265091
 30
0.0
 10
9.3551162991
 20
3.7720064715
 30
0.0
 10
9.3615355919
 20
3.7753016659
 30
0.0
 10
9.3676799614
 20
3.7794887022
 30
0.0
 10
9.3755698617
 20
3.7863008264
 30
0.0
 10
9.3825471606
 20
3.7946218252
 30
0.0
 10
9.3884780163
 20
3.8040701335
 30
0.0
 10
9.3938983496
 20
3.8146218783
 30
0.0
 10
9.3992175612
 20
3.8290802403
 30
0.0
 10
9.4030642248
 20
3.8476102489
 30
0.0
 10
9.4043792861
 20
3.8668568671
 30
0.0
 10
9.4030642248
 20
3.8861034854
 30
0.0
 10
9.3992175612
 20
3.9046334939
 30
0.0
 10
9.3938983496
 20
3.9190918559
 30
0.0
 10
9.3884780163
 20
3.9296436008
 30
0.0
 10
9.3825471606
 20
3.939091909
 30
0.0
 10
9.3755698617
 20
3.9474129079
 30
0.0
 10
9.3676799614
 20
3.9542250321
 30
0.0
 10
9.3615355919
 20
3.9584120684
 30
0.0
 10
9.3551162991
 20
3.9617072628
 30
0.0
 10
9.3484889386
 20
3.9640872252
 30
0.0
 10
9.3417200481
 20
3.9655314098
 30
0.0
 10
9.3371471931
 20
3.9658568671
 30
0.0
 10
9.3348739803
 20
3.9658568671
 30
0.0
  0
SPLINE
  5
3DE
100
AcDbEntity
  8
0
100
AcDbSpline
 62
3
  6
CONTINUOUS
 70
0
 71
3
 72
31
 73
27
 74
0
 42
0.0000001
 43
0.0000001
 44
0.0000000001
 40
0.0
 40
0.0
 40
0.0
 40
0.0
 40
0.0256557177
 40
0.0515379321
 40
0.0778792459
 40
0.1048873316
 40
0.1327424753
 40
0.161565964
 40
0.2222787067
 40
0.2542748909
 40
0.2872845344
 40
0.3559062545
 40
0.4272427206
 40
0.5
 40
0.5727572794
 40
0.6440937455
 40
0.7127154656
 40
0.7457251091
 40
0.7777212933
 40
0.838434036
 40
0.8672575247
 40
0.8951126684
 40
0.9221207541
 40
0.9484620679
 40
0.9743442823
 40
1.0
 40
1.0
 40
1.0
 40
1.0
 10
-3.9475406624
 20
1.0658568671
 30
0.0
 10
-3.94981602
 20
1.0658568671
 30
0.0
 10
-3.9543930995
 20
1.0655314229
 30
0.0
 10
-3.961168322
 20
1.0640872853
 30
0.0
 10
-3.9678019233
 20
1.0617073864
 30
0.0
 10
-3.9742273086
 20
1.0584122591
 30
0.0
 10
-3.9803775607
 20
1.0542252722
 30
0.0
 10
-3.9882746568
 20
1.0474135436
 30
0.0
 10
-3.9952588739
 20
1.0390925968
 30
0.0
 10
-4.0011957419
 20
1.0296438676
 30
0.0
 10
-4.0066211962
 20
1.0190923998
 30
0.0
 10
-4.0119456183
 20
1.0046341773
 30
0.0
 10
-4.0157961448
 20
0.9861038306
 30
0.0
 10
-4.0171125264
 20
0.9668568671
 30
0.0
 10
-4.0157961448
 20
0.9476099037
 30
0.0
 10
-4.0119456183
 20
0.9290795569
 30
0.0
 10
-4.0066211962
 20
0.9146213345
 30
0.0
 10
-4.0011957419
 20
0.9040698667
 30
0.0
 10
-3.9952588739
 20
0.8946211374
 30
0.0
 10
-3.9882746568
 20
0.8863001906
 30
0.0
 10
-3.9803775607
 20
0.8794884621
 30
0.0
 10
-3.9742273086
 20
0.8753014751
 30
0.0
 10
-3.9678019233
 20
0.8720063478
 30
0.0
 10
-3.961168322
 20
0.869626449
 30
0.0
 10
-3.9543930995
 20
0.8681823114
 30
0.0
 10
-3.94981602
 20
0.8678568671
 30
0.0
 10
-3.9475406624
 20
0.8678568671
 30
0.0
  0
SPLINE
  5
3DF
100
AcDbEntity
  8
0
100
AcDbSpline
 62
3
  6
CONTINUOUS
 70
0
 71
3
 72
31
 73
27
 74
0
 42
0.0000001
 43
0.0000001
 44
0.0000000001
 40
0.0
 40
0.0
 40
0.0
 40
0.0
 40
0.0256574792
 40
0.0515413678
 40
0.0778841871
 40
0.1048935414
 40
0.1327496662
 40
0.1615738218
 40
0.2222869257
 40
0.2542828218
 40
0.2872918949
 40
0.3559117512
 40
0.4272456484
 40
0.5
 40
0.5727543516
 40
0.6440882488
 40
0.7127081051
 40
0.7457171782
 40
0.7777130743
 40
0.8384261782
 40
0.8672503338
 40
0.8951064586
 40
0.9221158129
 40
0.9484586322
 40
0.9743425208
 40
1.0
 40
1.0
 40
1.0
 40
1.0
 10
-3.9468385075
 20
3.9658568671
 30
0.0
 10
-3.9491141142
 20
3.9658568671
 30
0.0
 10
-3.953691684
 20
3.9655314244
 30
0.0
 10
-3.9604676416
 20
3.9640872922
 30
0.0
 10
-3.9671019674
 20
3.9617074008
 30
0.0
 10
-3.97352806
 20
3.9584122812
 30
0.0
 10
-3.9796789949
 20
3.9542253001
 30
0.0
 10
-3.9875769263
 20
3.9474136174
 30
0.0
 10
-3.9945619466
 20
3.9390926767
 30
0.0
 10
-4.0004995126
 20
3.9296438986
 30
0.0
 10
-4.0059255613
 20
3.919092463
 30
0.0
 10
-4.0112505883
 20
3.9046342567
 30
0.0
 10
-4.0151015633
 20
3.8861038707
 30
0.0
 10
-4.0164180981
 20
3.8668568671
 30
0.0
 10
-4.0151015633
 20
3.8476098636
 30
0.0
 10
-4.0112505883
 20
3.8290794776
 30
0.0
 10
-4.0059255613
 20
3.8146212713
 30
0.0
 10
-4.0004995126
 20
3.8040698357
 30
0.0
 10
-3.9945619466
 20
3.7946210576
 30
0.0
 10
-3.9875769263
 20
3.7863001169
 30
0.0
 10
-3.9796789949
 20
3.7794884342
 30
0.0
 10
-3.97352806
 20
3.775301453
 30
0.0
 10
-3.9671019674
 20
3.7720063335
 30
0.0
 10
-3.9604676416
 20
3.7696264421
 30
0.0
 10
-3.953691684
 20
3.7681823098
 30
0.0
 10
-3.9491141142
 20
3.7678568671
 30
0.0
 10
-3.9468385075
 20
3.7678568671
 30
0.0
  0
LINE
  5
3E0
100
AcDbEntity
  8
0
100
AcDbLine
 62
7
  6
CONTINUOUS
 10
-28.9780272638
 20
-23.2283895798
 11
-28.9906712347
 21
-23.2502895798
  0
LINE
  5
3E1
100
AcDbEntity
  8
0
100
AcDbLine
 62
7
  6
CONTINUOUS
 10
-29.0862804393
 20
-23.0408895798
 11
-29.1115683811
 21
-23.0408895798
  0
LINE
  5
3E2
100
AcDbEntity
  8
0
100
AcDbLine
 62
7
  6
CONTINUOUS
 10
-28.7615209129
 20
-23.2283895798
 11
-28.748876942
 21
-23.2502895798
  0
LINE
  5
3E3
100
AcDbEntity
  8
0
100
AcDbLine
 62
7
  6
CONTINUOUS
 10
-28.6532677374
 20
-23.0408895798
 11
-28.6279797956
 21
-23.0408895798
  0
LINE
  5
3E4
100
AcDbEntity
  8
0
100
AcDbLine
 62
7
  6
CONTINUOUS
 10
-28.7615209129
 20
-22.8533895798
 11
-28.748876942
 21
-22.8314895798
  0
LINE
  5
3E5
100
AcDbEntity
  8
0
100
AcDbLine
 62
7
  6
CONTINUOUS
 10
-28.9780272638
 20
-22.8533895798
 11
-28.9906712347
 21
-22.8314895798
  0
LINE
  5
3E6
100
AcDbEntity
  8
0
100
AcDbLine
 62
7
  6
CONTINUOUS
 10
-27.917367092
 20
-33.8349912976
 11
-27.9300110629
 21
-33.8568912976
  0
LINE
  5
3E7
100
AcDbEntity
  8
0
100
AcDbLine
 62
7
  6
CONTINUOUS
 10
-28.0256202675
 20
-33.6474912976
 11
-28.0509082093
 21
-33.6474912976
  0
LINE
  5
3E8
100
AcDbEntity
  8
0
100
AcDbLine
 62
7
  6
CONTINUOUS
 10
-27.7008607411
 20
-33.8349912976
 11
-27.6882167702
 21
-33.8568912976
  0
LINE
  5
3E9
100
AcDbEntity
  8
0
100
AcDbLine
 62
7
  6
CONTINUOUS
 10
-27.5926075656
 20
-33.6474912976
 11
-27.5673196238
 21
-33.6474912976
  0
LINE
  5
3EA
100
AcDbEntity
  8
0
100
AcDbLine
 62
7
  6
CONTINUOUS
 10
-27.7008607411
 20
-33.4599912976
 11
-27.6882167702
 21
-33.4380912976
  0
LINE
  5
3EB
100
AcDbEntity
  8
0
100
AcDbLine
 62
7
  6
CONTINUOUS
 10
-27.917367092
 20
-33.4599912976
 11
-27.9300110629
 21
-33.4380912976
  0
LINE
  5
3EC
100
AcDbEntity
  8
0
100
AcDbLine
 62
7
  6
CONTINUOUS
 10
-39.5846289816
 20
-33.8349912976
 11
-39.5972729525
 21
-33.8568912976
  0
LINE
  5
3ED
100
AcDbEntity
  8
0
100
AcDbLine
 62
7
  6
CONTINUOUS
 10
-39.6928821571
 20
-33.6474912976
 11
-39.7181700989
 21
-33.6474912976
  0
LINE
  5
3EE
100
AcDbEntity
  8
0
100
AcDbLine
 62
7
  6
CONTINUOUS
 10
-39.3681226307
 20
-33.8349912976
 11
-39.3554786598
 21
-33.8568912976
  0
LINE
  5
3EF
100
AcDbEntity
  8
0
100
AcDbLine
 62
7
  6
CONTINUOUS
 10
-39.2598694552
 20
-33.6474912976
 11
-39.2345815134
 21
-33.6474912976
  0
LINE
  5
3F0
100
AcDbEntity
  8
0
100
AcDbLine
 62
7
  6
CONTINUOUS
 10
-39.3681226307
 20
-33.4599912976
 11
-39.3554786598
 21
-33.4380912976
  0
LINE
  5
3F1
100
AcDbEntity
  8
0
100
AcDbLine
 62
7
  6
CONTINUOUS
 10
-39.5846289816
 20
-33.4599912976
 11
-39.5972729525
 21
-33.4380912976
  0
LINE
  5
3F2
100
AcDbEntity
  8
0
100
AcDbLine
 62
7
  6
CONTINUOUS
 10
-39.5846289816
 20
-22.167729408
 11
-39.5972729525
 21
-22.189629408
  0
LINE
  5
3F3
100
AcDbEntity
  8
0
100
AcDbLine
 62
7
  6
CONTINUOUS
 10
-39.6928821571
 20
-21.980229408
 11
-39.7181700989
 21
-21.980229408
  0
LINE
  5
3F4
100
AcDbEntity
  8
0
100
AcDbLine
 62
7
  6
CONTINUOUS
 10
-39.3681226307
 20
-22.167729408
 11
-39.3554786598
 21
-22.189629408
  0
LINE
  5
3F5
100
AcDbEntity
  8
0
100
AcDbLine
 62
7
  6
CONTINUOUS
 10
-39.2598694552
 20
-21.980229408
 11
-39.2345815134
 21
-21.980229408
  0
LINE
  5
3F6
100
AcDbEntity
  8
0
100
AcDbLine
 62
7
  6
CONTINUOUS
 10
-39.3681226307
 20
-21.792729408
 11
-39.3554786598
 21
-21.770829408
  0
LINE
  5
3F7
100
AcDbEntity
  8
0
100
AcDbLine
 62
7
  6
CONTINUOUS
 10
-39.5846289816
 20
-21.792729408
 11
-39.5972729525
 21
-21.770829408
  0
LINE
  5
3F8
100
AcDbEntity
  8
0
100
AcDbLine
 62
7
  6
CONTINUOUS
 10
-27.917367092
 20
-22.167729408
 11
-27.9300110629
 21
-22.189629408
  0
LINE
  5
3F9
100
AcDbEntity
  8
0
100
AcDbLine
 62
7
  6
CONTINUOUS
 10
-28.0256202675
 20
-21.980229408
 11
-28.0509082093
 21
-21.980229408
  0
LINE
  5
3FA
100
AcDbEntity
  8
0
100
AcDbLine
 62
7
  6
CONTINUOUS
 10
-27.7008607411
 20
-22.167729408
 11
-27.6882167702
 21
-22.189629408
  0
LINE
  5
3FB
100
AcDbEntity
  8
0
100
AcDbLine
 62
7
  6
CONTINUOUS
 10
-27.5926075656
 20
-21.980229408
 11
-27.5673196238
 21
-21.980229408
  0
LINE
  5
3FC
100
AcDbEntity
  8
0
100
AcDbLine
 62
7
  6
CONTINUOUS
 10
-27.7008607411
 20
-21.792729408
 11
-27.6882167702
 21
-21.770829408
  0
LINE
  5
3FD
100
AcDbEntity
  8
0
100
AcDbLine
 62
7
  6
CONTINUOUS
 10
-27.917367092
 20
-21.792729408
 11
-27.9300110629
 21
-21.770829408
  0
LINE
  5
3FE
100
AcDbEntity
  8
0
100
AcDbLine
 62
7
  6
CONTINUOUS
 10
-28.9780272638
 20
-32.7743311258
 11
-28.9906712347
 21
-32.7962311258
  0
LINE
  5
3FF
100
AcDbEntity
  8
0
100
AcDbLine
 62
7
  6
CONTINUOUS
 10
-29.0862804393
 20
-32.5868311258
 11
-29.1115683811
 21
-32.5868311258
  0
LINE
  5
400
100
AcDbEntity
  8
0
100
AcDbLine
 62
7
  6
CONTINUOUS
 10
-28.7615209129
 20
-32.7743311258
 11
-28.748876942
 21
-32.7962311258
  0
LINE
  5
401
100
AcDbEntity
  8
0
100
AcDbLine
 62
7
  6
CONTINUOUS
 10
-28.6532677374
 20
-32.5868311258
 11
-28.6279797956
 21
-32.5868311258
  0
LINE
  5
402
100
AcDbEntity
  8
0
100
AcDbLine
 62
7
  6
CONTINUOUS
 10
-28.7615209129
 20
-32.3993311258
 11
-28.748876942
 21
-32.3774311258
  0
LINE
  5
403
100
AcDbEntity
  8
0
100
AcDbLine
 62
7
  6
CONTINUOUS
 10
-28.9780272638
 20
-32.3993311258
 11
-28.9906712347
 21
-32.3774311258
  0
LINE
  5
404
100
AcDbEntity
  8
0
100
AcDbLine
 62
7
  6
CONTINUOUS
 10
-38.5239688098
 20
-32.7743311258
 11
-38.5366127807
 21
-32.7962311258
  0
LINE
  5
405
100
AcDbEntity
  8
0
100
AcDbLine
 62
7
  6
CONTINUOUS
 10
-38.6322219853
 20
-32.5868311258
 11
-38.6575099271
 21
-32.5868311258
  0
LINE
  5
406
100
AcDbEntity
  8
0
100
AcDbLine
 62
7
  6
CONTINUOUS
 10
-38.3074624589
 20
-32.7743311258
 11
-38.294818488
 21
-32.7962311258
  0
LINE
  5
407
100
AcDbEntity
  8
0
100
AcDbLine
 62
7
  6
CONTINUOUS
 10
-38.1992092834
 20
-32.5868311258
 11
-38.1739213416
 21
-32.5868311258
  0
LINE
  5
408
100
AcDbEntity
  8
0
100
AcDbLine
 62
7
  6
CONTINUOUS
 10
-38.3074624589
 20
-32.3993311258
 11
-38.294818488
 21
-32.3774311258
  0
LINE
  5
409
100
AcDbEntity
  8
0
100
AcDbLine
 62
7
  6
CONTINUOUS
 10
-38.5239688098
 20
-32.3993311258
 11
-38.5366127807
 21
-32.3774311258
  0
LINE
  5
40A
100
AcDbEntity
  8
0
100
AcDbLine
 62
7
  6
CONTINUOUS
 10
-38.5239688098
 20
-23.2283895798
 11
-38.5366127807
 21
-23.2502895798
  0
LINE
  5
40B
100
AcDbEntity
  8
0
100
AcDbLine
 62
7
  6
CONTINUOUS
 10
-38.6322219853
 20
-23.0408895798
 11
-38.6575099271
 21
-23.0408895798
  0
LINE
  5
40C
100
AcDbEntity
  8
0
100
AcDbLine
 62
7
  6
CONTINUOUS
 10
-38.3074624589
 20
-23.2283895798
 11
-38.294818488
 21
-23.2502895798
  0
LINE
  5
40D
100
AcDbEntity
  8
0
100
AcDbLine
 62
7
  6
CONTINUOUS
 10
-38.1992092834
 20
-23.0408895798
 11
-38.1739213416
 21
-23.0408895798
  0
LINE
  5
40E
100
AcDbEntity
  8
0
100
AcDbLine
 62
7
  6
CONTINUOUS
 10
-38.3074624589
 20
-22.8533895798
 11
-38.294818488
 21
-22.8314895798
  0
LINE
  5
40F
100
AcDbEntity
  8
0
100
AcDbLine
 62
7
  6
CONTINUOUS
 10
-38.5239688098
 20
-22.8533895798
 11
-38.5366127807
 21
-22.8314895798
  0
SPLINE
  5
410
100
AcDbEntity
  8
0
100
AcDbSpline
 62
7
  6
CONTINUOUS
 70
0
 71
3
 72
15
 73
11
 74
0
 42
0.0000001
 43
0.0000001
 44
0.0000000001
 40
0.0
 40
0.0
 40
0.0
 40
0.0
 40
0.1252146822
 40
0.2499116931
 40
0.3743170529
 40
0.498661262
 40
0.6231754954
 40
0.7480888588
 40
0.8736249174
 40
1.0
 40
1.0
 40
1.0
 40
1.0
 10
-32.5257194613
 20
-28.6728872845
 30
0.0
 10
-32.5205535105
 20
-28.6670131632
 30
0.0
 10
-32.5105901133
 20
-28.654978358
 30
0.0
 10
-32.4967849304
 20
-28.6360864694
 30
0.0
 10
-32.4841827131
 20
-28.6164351756
 30
0.0
 10
-32.4728078641
 20
-28.5960621511
 30
0.0
 10
-32.4626815217
 20
-28.5750054682
 30
0.0
 10
-32.4538226158
 20
-28.553304443
 30
0.0
 10
-32.4462478541
 20
-28.5310008052
 30
0.0
 10
-32.4420789895
 20
-28.5158141331
 30
0.0
 10
-32.4402120416
 20
-28.508143
 30
0.0
  0
SPLINE
  5
411
100
AcDbEntity
  8
0
100
AcDbSpline
 62
7
  6
CONTINUOUS
 70
0
 71
3
 72
15
 73
11
 74
0
 42
0.0000001
 43
0.0000001
 44
0.0000000001
 40
0.0
 40
0.0
 40
0.0
 40
0.0
 40
0.1261099833
 40
0.2512738785
 40
0.3757984041
 40
0.5
 40
0.6242015959
 40
0.7487261215
 40
0.8738900167
 40
1.0
 40
1.0
 40
1.0
 40
1.0
 10
-32.4402120416
 20
-28.508143
 30
0.0
 10
-32.4334567464
 20
-28.5016923851
 30
0.0
 10
-32.4204359505
 20
-28.4883697861
 30
0.0
 10
-32.4024197759
 20
-28.4671238277
 30
0.0
 10
-32.3860501207
 20
-28.4447575892
 30
0.0
 10
-32.3713716611
 20
-28.4213310422
 30
0.0
 10
-32.358422906
 20
-28.3969058497
 30
0.0
 10
-32.3472380029
 20
-28.3715461932
 30
0.0
 10
-32.3378465506
 20
-28.3453207491
 30
0.0
 10
-32.3328192393
 20
-28.3273831096
 30
0.0
 10
-32.3306104905
 20
-28.318307545
 30
0.0
  0
ELLIPSE
  5
412
100
AcDbEntity
  8
0
100
AcDbEllipse
 62
7
  6
CONTINUOUS
 10
-32.9669444639
 20
-28.2040338942
 30
0.0
 11
0.0775
 21
0.1342339376
 31
0.0
 40
0.0524077793
 41
-0.0
 42
3.1415926536
  0
ELLIPSE
  5
413
100
AcDbEntity
  8
0
100
AcDbEllipse
 62
7
  6
CONTINUOUS
 10
-33.746669043
 20
-27.9938623155
 30
0.0
 11
0.312026085
 21
0.5404450325
 31
0.0
 40
0.942904759
 41
-1.6383928458
 42
-1.5753565419
  0
ELLIPSE
  5
414
100
AcDbEntity
  8
0
100
AcDbEllipse
 62
7
  6
CONTINUOUS
 10
-33.5388206797
 20
-27.6338583901
 30
0.0
 11
0.312026085
 21
0.5404450325
 31
0.0
 40
0.942904759
 41
-1.5662361117
 42
-1.5031998078
  0
ENDSEC
  0
SECTION
  2
OBJECTS
  0
DICTIONARY
  5
C
100
AcDbDictionary
280
0
281
1
  3
ACAD_GROUP
350
D
  3
ACAD_MLINESTYLE
350
17
  3
ACAD_LAYOUT
350
1A
  3
ACAD_PLOTSETTINGS
350
19
  3
ACAD_PLOTSTYLENAME
350
E
  0
DICTIONARY
  5
D
102
{ACAD_REACTORS
330
C
102
}
100
AcDbDictionary
280
0
281
1
  0
ACDBDICTIONARYWDFLT
  5
E
102
{ACAD_REACTORS
330
C
102
}
100
AcDbDictionary
281
1
  3
Normal
350
F
100
AcDbDictionaryWithDefault
340
F
  0
DICTIONARY
  5
17
102
{ACAD_REACTORS
330
C
102
}
100
AcDbDictionary
280
0
281
1
  3
Standard
350
18
  0
DICTIONARY
  5
19
102
{ACAD_REACTORS
330
C
102
}
100
AcDbDictionary
281
1
  0
DICTIONARY
  5
1A
102
{ACAD_REACTORS
330
C
102
}
100
AcDbDictionary
281
1
  3
Model
350
415
  3
Layout1
350
416
  0
ACDBPLACEHOLDER
  5
F
102
{ACAD_REACTORS
330
E
102
}
  0
MLINESTYLE
  5
18
102
{ACAD_REACTORS
330
17
102
}
100
AcDbMlineStyle
  2
STANDARD
 70
0
  3

 62
256
 51
90.0
 52
90.0
 71
2
 49
0.5
 62
256
  6
BYLAYER
 49
-0.5
 62
256
  6
BYLAYER
  0
LAYOUT
  5
415
102
{ACAD_REACTORS
330
1A
102
}
100
AcDbPlotSettings
  1

  2
none_device
  4

  6

 40
0.0
 41
0.0
 42
0.0
 43
0.0
 44
431.8
 45
279.4
 46
0.0
 47
0.0
 48
0.0
 49
0.0
140
0.0
141
0.0
142
1.0
143
1.0
 70
1024
 72
0
 73
0
 74
0
  7

 75
0
147
1.0
148
0.0
149
0.0
100
AcDbLayout
  1
Model
 70
0
 71
0
 10
0.0
 20
0.0
 11
17.0
 21
11.0
 12
0.0
 22
0.0
 32
0.0
 14
0.0
 24
0.0
 34
0.0
 15
0.0
 25
0.0
 35
0.0
146
0.0
 13
0.0
 23
0.0
 33
0.0
 16
1.0
 26
0.0
 36
0.0
 17
0.0
 27
1.0
 37
0.0
 76
0
330
237
345
0
346
0
  0
LAYOUT
  5
416
102
{ACAD_REACTORS
330
1A
102
}
100
AcDbPlotSettings
  1

  2
none_device
  4

  6

 40
0.0
 41
0.0
 42
0.0
 43
0.0
 44
431.8
 45
279.4
 46
0.0
 47
0.0
 48
0.0
 49
0.0
140
0.0
141
0.0
142
1.0
143
1.0
 70
0
 72
0
 73
0
 74
0
  7

 75
0
147
1.0
148
0.0
149
0.0
100
AcDbLayout
  1
Layout1
 70
0
 71
1
 10
0.0
 20
0.0
 11
17.0
 21
11.0
 12
0.0
 22
0.0
 32
0.0
 14
0.0
 24
0.0
 34
0.0
 15
0.0
 25
0.0
 35
0.0
146
0.0
 13
0.0
 23
0.0
 33
0.0
 16
1.0
 26
0.0
 36
0.0
 17
0.0
 27
1.0
 37
0.0
 76
0
330
238
345
0
346
0
  0
ENDSEC
  0
EOF
