999
DXF file: N:\Master\master\M3_ProE_files\Lenexa\MADAM DXF\47392.dxf
999
Pro/ENGINEER 2010280 by Parametric Technology Corporation
  0
SECTION
  2
HEADER
  9
$ACADVER
  1
AC1021
  9
$DWGCODEPAGE
  3
ANSI_1252
  9
$EXTMAX
 10
17.0
 20
11.0
 30
0.0
  9
$EXTMIN
 10
0.0
 20
-0.0
 30
0.0
  9
$LIMMIN
 10
0.0
 20
-0.0
  9
$LIMMAX
 10
17.0
 20
11.0
  9
$VIEWCTR
 10
8.5
 20
5.5
  9
$VIEWSIZE
 40
11.0
  9
$CLAYER
  8
0
  9
$LTSCALE
 40
0.935
  9
$CELTYPE
  6
BYLAYER
  9
$DIMSCALE
 40
1.0
  9
$DIMASZ
 40
0.125
  9
$DIMEXO
 40
0.10625
  9
$DIMDLI
 40
0.646
  9
$DIMEXE
 40
0.306
  9
$DIMCEN
 40
0.153
  9
$DIMLFAC
 40
1.0
  9
$DIMBLK
  1
_FILLED
  9
$DIMTXT
 40
0.15625
  9
$DIMTOL
 70
1
  9
$DIMLIM
 70
0
  9
$DIMTFAC
 40
1.0
  9
$DIMTP
 40
0.7
  9
$DIMTM
 40
0.7
  9
$PDMODE
 70
3
  9
$PDSIZE
 40
0.3125
  9
$HANDSEED
  5
555
  9
$TILEMODE
 70
1
  9
$MEASUREMENT
 70
0
  9
$INSUNITS
 70
1
  0
ENDSEC
  0
SECTION
  2
CLASSES
  0
CLASS
  1
ACDBDICTIONARYWDFLT
  2
AcDbDictionaryWithDefault
  3
AutoCAD 2000
 90
0
 91
1
280
0
281
0
  0
CLASS
  1
ACDBPLACEHOLDER
  2
AcDbPlaceHolder
  3
AutoCAD 2000
 90
0
 91
1
280
0
281
0
  0
CLASS
  1
LAYOUT
  2
AcDbLayout
  3
AutoCAD 2000
 90
0
 91
0
280
0
281
0
  0
ENDSEC
  0
SECTION
  2
TABLES
  0
TABLE
  2
VPORT
  5
8
100
AcDbSymbolTable
 70
2
  0
VPORT
  5
1F4
100
AcDbSymbolTableRecord
100
AcDbViewportTableRecord
  2
*ACTIVE
 70
0
 10
0.0
 20
0.0
 11
1.0
 21
1.0
 12
8.5
 22
5.5
 13
0.0
 23
0.0
 14
1.0
 24
1.0
 15
0.0
 25
0.0
 16
0.0
 26
0.0
 36
1.0
 17
0.0
 27
0.0
 37
0.0
 40
11.0
 41
1.5454545455
 42
50.0
 43
0.0
 44
0.0
 50
0.0
 51
0.0
 71
0
 72
100
 73
1
 74
1
 75
0
 76
0
 77
0
 78
0
  0
ENDTAB
  0
TABLE
  2
LTYPE
  5
5
100
AcDbSymbolTable
 70
6
  0
LTYPE
  5
14
100
AcDbSymbolTableRecord
100
AcDbLinetypeTableRecord
  2
BYBLOCK
 70
0
  3

 72
65
 73
0
 40
0.0
  0
LTYPE
  5
15
100
AcDbSymbolTableRecord
100
AcDbLinetypeTableRecord
  2
BYLAYER
 70
0
  3

 72
65
 73
0
 40
0.0
  0
LTYPE
  5
16
100
AcDbSymbolTableRecord
100
AcDbLinetypeTableRecord
  2
CONTINUOUS
 70
64
  3
Solid line
 72
65
 73
0
 40
0.0
  0
LTYPE
  5
1F5
100
AcDbSymbolTableRecord
100
AcDbLinetypeTableRecord
  2
CENTER
 70
64
  3
____ _ ____ _ ____ _ ____ _ ____ _ ____ _ ____
 72
65
 73
4
 40
0.6
 49
0.375
 74
0
 49
-0.075
 74
0
 49
0.075
 74
0
 49
-0.075
 74
0
  0
LTYPE
  5
1F6
100
AcDbSymbolTableRecord
100
AcDbLinetypeTableRecord
  2
HIDDEN
 70
64
  3
- - - - - - - - - - - - - - - - - - - -
 72
65
 73
2
 40
0.2
 49
0.1
 74
0
 49
-0.1
 74
0
  0
LTYPE
  5
1F7
100
AcDbSymbolTableRecord
100
AcDbLinetypeTableRecord
  2
PHANTOM
 70
64
  3
_____ _ _ _____ _ _ _____ _ _ _____
 72
65
 73
6
 40
0.8
 49
0.45
 74
0
 49
-0.05
 74
0
 49
0.1
 74
0
 49
-0.05
 74
0
 49
0.1
 74
0
 49
-0.05
 74
0
  0
LTYPE
  5
1F8
100
AcDbSymbolTableRecord
100
AcDbLinetypeTableRecord
  2
DOT
 70
64
  3
. . . . . . . . . . . . . . . . . . . .
 72
65
 73
2
 40
0.2
 49
0.1
 74
0
 49
-0.1
 74
0
  0
LTYPE
  5
1F9
100
AcDbSymbolTableRecord
100
AcDbLinetypeTableRecord
  2
DASHED
 70
64
  3
- - - - - - - - - - - - - - - - - - - -
 72
65
 73
2
 40
0.2
 49
0.1
 74
0
 49
-0.1
 74
0
  0
ENDTAB
  0
TABLE
  2
LAYER
  5
2
100
AcDbSymbolTable
 70
36
  0
LAYER
  5
10
100
AcDbSymbolTableRecord
100
AcDbLayerTableRecord
  2
0
 70
0
 62
7
  6
CONTINUOUS
370
-3
390
F
  0
LAYER
  5
1FA
100
AcDbSymbolTableRecord
100
AcDbLayerTableRecord
  2
DEFAULT_1
 70
0
 62
7
  6
CENTER
370
-3
390
F
  0
LAYER
  5
1FB
100
AcDbSymbolTableRecord
100
AcDbLayerTableRecord
  2
DEFAULT_2
 70
0
 62
8
  6
HIDDEN
370
-3
390
F
  0
LAYER
  5
1FC
100
AcDbSymbolTableRecord
100
AcDbLayerTableRecord
  2
DEFAULT_3
 70
0
 62
7
  6
PHANTOM
370
-3
390
F
  0
LAYER
  5
1FD
100
AcDbSymbolTableRecord
100
AcDbLayerTableRecord
  2
01_ALL_DTM_PLN
 70
0
 62
7
  6
CONTINUOUS
370
-3
390
F
  0
LAYER
  5
1FE
100
AcDbSymbolTableRecord
100
AcDbLayerTableRecord
  2
01__ASM_ALL_DTM_PLN
 70
0
 62
7
  6
CONTINUOUS
370
-3
390
F
  0
LAYER
  5
1FF
100
AcDbSymbolTableRecord
100
AcDbLayerTableRecord
  2
01__ASM_DEF_DTM_PLN
 70
0
 62
7
  6
CONTINUOUS
370
-3
390
F
  0
LAYER
  5
200
100
AcDbSymbolTableRecord
100
AcDbLayerTableRecord
  2
01___PRT_ALL_DTM_PLN
 70
0
 62
7
  6
CONTINUOUS
370
-3
390
F
  0
LAYER
  5
201
100
AcDbSymbolTableRecord
100
AcDbLayerTableRecord
  2
01___PRT_DEF_DTM_PLN
 70
0
 62
7
  6
CONTINUOUS
370
-3
390
F
  0
LAYER
  5
202
100
AcDbSymbolTableRecord
100
AcDbLayerTableRecord
  2
02_ALL_AXES
 70
0
 62
7
  6
CONTINUOUS
370
-3
390
F
  0
LAYER
  5
203
100
AcDbSymbolTableRecord
100
AcDbLayerTableRecord
  2
02__ASM_ALL_AXES
 70
0
 62
7
  6
CONTINUOUS
370
-3
390
F
  0
LAYER
  5
204
100
AcDbSymbolTableRecord
100
AcDbLayerTableRecord
  2
02___PRT_ALL_AXES
 70
0
 62
7
  6
CONTINUOUS
370
-3
390
F
  0
LAYER
  5
205
100
AcDbSymbolTableRecord
100
AcDbLayerTableRecord
  2
03_ALL_CURVES
 70
0
 62
7
  6
CONTINUOUS
370
-3
390
F
  0
LAYER
  5
206
100
AcDbSymbolTableRecord
100
AcDbLayerTableRecord
  2
03__ASM_ALL_CURVES
 70
0
 62
7
  6
CONTINUOUS
370
-3
390
F
  0
LAYER
  5
207
100
AcDbSymbolTableRecord
100
AcDbLayerTableRecord
  2
03___PRT_ALL_CURVES
 70
0
 62
7
  6
CONTINUOUS
370
-3
390
F
  0
LAYER
  5
208
100
AcDbSymbolTableRecord
100
AcDbLayerTableRecord
  2
04_ALL_DTM_PNT
 70
0
 62
7
  6
CONTINUOUS
370
-3
390
F
  0
LAYER
  5
209
100
AcDbSymbolTableRecord
100
AcDbLayerTableRecord
  2
04__ASM_ALL_DTM_PNT
 70
0
 62
7
  6
CONTINUOUS
370
-3
390
F
  0
LAYER
  5
20A
100
AcDbSymbolTableRecord
100
AcDbLayerTableRecord
  2
04___PRT_ALL_DTM_PNT
 70
0
 62
7
  6
CONTINUOUS
370
-3
390
F
  0
LAYER
  5
20B
100
AcDbSymbolTableRecord
100
AcDbLayerTableRecord
  2
05_ALL_DTM_CSYS
 70
0
 62
7
  6
CONTINUOUS
370
-3
390
F
  0
LAYER
  5
20C
100
AcDbSymbolTableRecord
100
AcDbLayerTableRecord
  2
05__ASM_ALL_DTM_CSYS
 70
0
 62
7
  6
CONTINUOUS
370
-3
390
F
  0
LAYER
  5
20D
100
AcDbSymbolTableRecord
100
AcDbLayerTableRecord
  2
05__ASM_DEF_DTM_CSYS
 70
0
 62
7
  6
CONTINUOUS
370
-3
390
F
  0
LAYER
  5
20E
100
AcDbSymbolTableRecord
100
AcDbLayerTableRecord
  2
05___PRT_ALL_DTM_CSYS
 70
0
 62
7
  6
CONTINUOUS
370
-3
390
F
  0
LAYER
  5
20F
100
AcDbSymbolTableRecord
100
AcDbLayerTableRecord
  2
05___PRT_DEF_DTM_CSYS
 70
0
 62
7
  6
CONTINUOUS
370
-3
390
F
  0
LAYER
  5
210
100
AcDbSymbolTableRecord
100
AcDbLayerTableRecord
  2
06_ALL_SURFS
 70
0
 62
7
  6
CONTINUOUS
370
-3
390
F
  0
LAYER
  5
211
100
AcDbSymbolTableRecord
100
AcDbLayerTableRecord
  2
06__ASM_ALL_SURFS
 70
0
 62
7
  6
CONTINUOUS
370
-3
390
F
  0
LAYER
  5
212
100
AcDbSymbolTableRecord
100
AcDbLayerTableRecord
  2
06___PRT_ALL_SURFS
 70
0
 62
7
  6
CONTINUOUS
370
-3
390
F
  0
LAYER
  5
213
100
AcDbSymbolTableRecord
100
AcDbLayerTableRecord
  2
07__ASM_ALL_SKELETONS
 70
0
 62
7
  6
CONTINUOUS
370
-3
390
F
  0
LAYER
  5
214
100
AcDbSymbolTableRecord
100
AcDbLayerTableRecord
  2
904PLANES
 70
0
 62
7
  6
CONTINUOUS
370
-3
390
F
  0
LAYER
  5
215
100
AcDbSymbolTableRecord
100
AcDbLayerTableRecord
  2
90517DTMS
 70
0
 62
7
  6
CONTINUOUS
370
-3
390
F
  0
LAYER
  5
216
100
AcDbSymbolTableRecord
100
AcDbLayerTableRecord
  2
AXIS
 70
0
 62
7
  6
CONTINUOUS
370
-3
390
F
  0
LAYER
  5
217
100
AcDbSymbolTableRecord
100
AcDbLayerTableRecord
  2
BAFFLE_DTMS
 70
0
 62
7
  6
CONTINUOUS
370
-3
390
F
  0
LAYER
  5
218
100
AcDbSymbolTableRecord
100
AcDbLayerTableRecord
  2
BD_ANGLE
 70
0
 62
7
  6
CONTINUOUS
370
-3
390
F
  0
LAYER
  5
219
100
AcDbSymbolTableRecord
100
AcDbLayerTableRecord
  2
CONDUIT_DTMS
 70
0
 62
7
  6
CONTINUOUS
370
-3
390
F
  0
LAYER
  5
21A
100
AcDbSymbolTableRecord
100
AcDbLayerTableRecord
  2
CS
 70
0
 62
7
  6
CONTINUOUS
370
-3
390
F
  0
LAYER
  5
21B
100
AcDbSymbolTableRecord
100
AcDbLayerTableRecord
  2
CSYS
 70
0
 62
7
  6
CONTINUOUS
370
-3
390
F
  0
LAYER
  5
21C
100
AcDbSymbolTableRecord
100
AcDbLayerTableRecord
  2
CURVE
 70
0
 62
7
  6
CONTINUOUS
370
-3
390
F
  0
LAYER
  5
21D
100
AcDbSymbolTableRecord
100
AcDbLayerTableRecord
  2
CURVES
 70
0
 62
7
  6
CONTINUOUS
370
-3
390
F
  0
LAYER
  5
21E
100
AcDbSymbolTableRecord
100
AcDbLayerTableRecord
  2
DATUM_PLANES
 70
0
 62
7
  6
CONTINUOUS
370
-3
390
F
  0
LAYER
  5
21F
100
AcDbSymbolTableRecord
100
AcDbLayerTableRecord
  2
DEF_DTMS
 70
0
 62
7
  6
CONTINUOUS
370
-3
390
F
  0
LAYER
  5
220
100
AcDbSymbolTableRecord
100
AcDbLayerTableRecord
  2
GENPLANES
 70
0
 62
7
  6
CONTINUOUS
370
-3
390
F
  0
LAYER
  5
221
100
AcDbSymbolTableRecord
100
AcDbLayerTableRecord
  2
HEAD
 70
0
 62
7
  6
CONTINUOUS
370
-3
390
F
  0
LAYER
  5
222
100
AcDbSymbolTableRecord
100
AcDbLayerTableRecord
  2
HUB_DTMS
 70
0
 62
7
  6
CONTINUOUS
370
-3
390
F
  0
LAYER
  5
223
100
AcDbSymbolTableRecord
100
AcDbLayerTableRecord
  2
IGES_ITEMS
 70
0
 62
7
  6
CONTINUOUS
370
-3
390
F
  0
LAYER
  5
224
100
AcDbSymbolTableRecord
100
AcDbLayerTableRecord
  2
IGS_ITEMS
 70
0
 62
7
  6
CONTINUOUS
370
-3
390
F
  0
LAYER
  5
225
100
AcDbSymbolTableRecord
100
AcDbLayerTableRecord
  2
INTF_1
 70
0
 62
7
  6
CONTINUOUS
370
-3
390
F
  0
LAYER
  5
226
100
AcDbSymbolTableRecord
100
AcDbLayerTableRecord
  2
J_BOX_ANGLE
 70
0
 62
7
  6
CONTINUOUS
370
-3
390
F
  0
LAYER
  5
227
100
AcDbSymbolTableRecord
100
AcDbLayerTableRecord
  2
LAY0001
 70
0
 62
7
  6
CONTINUOUS
370
-3
390
F
  0
LAYER
  5
228
100
AcDbSymbolTableRecord
100
AcDbLayerTableRecord
  2
MTR_HOLE_ANG_DTM
 70
0
 62
7
  6
CONTINUOUS
370
-3
390
F
  0
LAYER
  5
229
100
AcDbSymbolTableRecord
100
AcDbLayerTableRecord
  2
NEW
 70
0
 62
7
  6
CONTINUOUS
370
-3
390
F
  0
LAYER
  5
22A
100
AcDbSymbolTableRecord
100
AcDbLayerTableRecord
  2
PARTDTMS
 70
0
 62
7
  6
CONTINUOUS
370
-3
390
F
  0
LAYER
  5
22B
100
AcDbSymbolTableRecord
100
AcDbLayerTableRecord
  2
PLANE
 70
0
 62
7
  6
CONTINUOUS
370
-3
390
F
  0
LAYER
  5
22C
100
AcDbSymbolTableRecord
100
AcDbLayerTableRecord
  2
PLANES
 70
0
 62
7
  6
CONTINUOUS
370
-3
390
F
  0
LAYER
  5
22D
100
AcDbSymbolTableRecord
100
AcDbLayerTableRecord
  2
POINT
 70
0
 62
7
  6
CONTINUOUS
370
-3
390
F
  0
LAYER
  5
22E
100
AcDbSymbolTableRecord
100
AcDbLayerTableRecord
  2
ROUND
 70
0
 62
7
  6
CONTINUOUS
370
-3
390
F
  0
LAYER
  5
22F
100
AcDbSymbolTableRecord
100
AcDbLayerTableRecord
  2
STANDOFF_DTMS
 70
0
 62
7
  6
CONTINUOUS
370
-3
390
F
  0
LAYER
  5
230
100
AcDbSymbolTableRecord
100
AcDbLayerTableRecord
  2
STIFF_ANGLE
 70
0
 62
7
  6
CONTINUOUS
370
-3
390
F
  0
LAYER
  5
231
100
AcDbSymbolTableRecord
100
AcDbLayerTableRecord
  2
SURFACE
 70
0
 62
7
  6
CONTINUOUS
370
-3
390
F
  0
LAYER
  5
232
100
AcDbSymbolTableRecord
100
AcDbLayerTableRecord
  2
TOP_SURFACE
 70
0
 62
7
  6
CONTINUOUS
370
-3
390
F
  0
LAYER
  5
233
100
AcDbSymbolTableRecord
100
AcDbLayerTableRecord
  2
WITNESS
 70
0
 62
7
  6
CONTINUOUS
370
-3
390
F
  0
ENDTAB
  0
TABLE
  2
STYLE
  5
3
100
AcDbSymbolTable
 70
1
  0
STYLE
  5
11
100
AcDbSymbolTableRecord
100
AcDbTextStyleTableRecord
  2
STANDARD
 70
0
 40
0.0
 41
0.8
 50
0.0
 71
0
 42
0.2
  3
txt
  4

  0
STYLE
  5
234
100
AcDbSymbolTableRecord
100
AcDbTextStyleTableRecord
  2
TEXTSTYLE_1
 70
0
 40
0.0
 41
0.8
 50
0.0
 71
0
 42
0.2
  3
gdt
  4

  0
ENDTAB
  0
TABLE
  2
VIEW
  5
6
100
AcDbSymbolTable
 70
0
  0
ENDTAB
  0
TABLE
  2
UCS
  5
7
100
AcDbSymbolTable
 70
0
  0
ENDTAB
  0
TABLE
  2
APPID
  5
9
100
AcDbSymbolTable
 70
1
  0
APPID
  5
235
100
AcDbSymbolTableRecord
100
AcDbRegAppTableRecord
  2
ACAD
 70
0
  0
ENDTAB
  0
TABLE
  2
BLOCK_RECORD
  5
1
100
AcDbSymbolTable
 70
0
  0
BLOCK_RECORD
  5
236
100
AcDbSymbolTableRecord
100
AcDbBlockTableRecord
  2
*Model_Space
  0
BLOCK_RECORD
  5
237
100
AcDbSymbolTableRecord
100
AcDbBlockTableRecord
  2
*Paper_Space
  0
ENDTAB
  0
TABLE
  2
DIMSTYLE
  5
A
100
AcDbSymbolTable
 70
1
100
AcDbDimStyleTable
 71
0
  0
DIMSTYLE
105
238
100
AcDbSymbolTableRecord
100
AcDbDimStyleTableRecord
  2
STANDARD
 70
0
  3

  4

 40
1.0
 41
0.125
 42
0.0625
 43
0.38
 44
0.18
 45
0.0
 46
0.0
 47
0.7
 48
0.7
140
0.15625
141
0.09
142
0.0
143
25.4
144
1.0
145
0.0
146
1.0
147
0.09
 71
1.0
 72
0.0
 73
1
 74
1
 75
0
 76
0
 77
0
 78
4
170
0
171
2
172
0
173
0
174
0
175
0
176
0
177
0
178
0
270
2
271
2
272
2
273
2
274
2
275
0
280
0
281
0
282
0
283
1
284
4
285
0
286
0
287
3
288
0
340
11
  0
ENDTAB
  0
ENDSEC
  0
SECTION
  2
BLOCKS
  0
BLOCK
  5
20
100
AcDbEntity
  8
0
100
AcDbBlockBegin
  2
*Model_Space
 70
0
 10
0.0
 20
0.0
 30
0.0
  3
*Model_Space
  1

  0
ENDBLK
  5
21
100
AcDbEntity
  8
0
100
AcDbBlockEnd
  0
BLOCK
  5
1C
100
AcDbEntity
  8
0
100
AcDbBlockBegin
  2
*Paper_Space
 70
0
 10
0.0
 20
0.0
 30
0.0
  3
*Paper_Space
  1

  0
ENDBLK
  5
1D
100
AcDbEntity
  8
0
100
AcDbBlockEnd
  0
ENDSEC
  0
SECTION
  2
ENTITIES
  0
MTEXT
  5
239
100
AcDbEntity
  8
0
100
AcDbMText
 62
2
  6
CONTINUOUS
  7
STANDARD
 71
1
 72
1
 10
26.6842479104
 20
-22.3255636976
 30
0.0
 11
1.0
 21
0.0
 31
0.0
 44
0.9
  1
47392
 40
4.0
 41
16.0
  0
LINE
  5
23A
100
AcDbEntity
  8
0
100
AcDbLine
 62
7
  6
CONTINUOUS
 10
-12.804819846
 20
-0.6086638194
 11
-12.804819846
 21
-0.5411638194
  0
LINE
  5
23B
100
AcDbEntity
  8
0
100
AcDbLine
 62
3
  6
CONTINUOUS
 10
-12.7742132443
 20
-0.7286638194
 11
-12.7742132443
 21
-2.1086638194
  0
LINE
  5
23C
100
AcDbEntity
  8
0
100
AcDbLine
 62
7
  6
CONTINUOUS
 10
-12.7142132443
 20
-0.7286638194
 11
-12.7142132443
 21
-2.1086638194
  0
LINE
  5
23D
100
AcDbEntity
  8
0
100
AcDbLine
 62
3
  6
CONTINUOUS
 10
-12.6542132443
 20
-0.6086638194
 11
-12.6542132443
 21
-2.1086638194
  0
LINE
  5
23E
100
AcDbEntity
  8
0
100
AcDbLine
 62
3
  6
CONTINUOUS
 10
-13.2432720027
 20
3.8523361806
 11
-11.7295124668
 21
8.011356324
  0
LINE
  5
23F
100
AcDbEntity
  8
0
100
AcDbLine
 62
3
  6
CONTINUOUS
 10
-10.334819846
 20
-0.5411638194
 11
-10.334819846
 21
0.0723361806
  0
LINE
  5
240
100
AcDbEntity
  8
0
100
AcDbLine
 62
3
  6
CONTINUOUS
 10
-10.334819846
 20
0.2703361806
 11
-10.334819846
 21
2.7223361806
  0
LINE
  5
241
100
AcDbEntity
  8
0
100
AcDbLine
 62
3
  6
CONTINUOUS
 10
-10.334819846
 20
2.9203361806
 11
-10.334819846
 21
3.3463361806
  0
LINE
  5
242
100
AcDbEntity
  8
0
100
AcDbLine
 62
7
  6
CONTINUOUS
 10
-10.304819846
 20
-0.5411638194
 11
-10.304819846
 21
-0.6036638194
  0
LINE
  5
243
100
AcDbEntity
  8
0
100
AcDbLine
 62
7
  6
CONTINUOUS
 10
-10.204819846
 20
-0.6036638194
 11
-10.204819846
 21
-0.5986638194
  0
LINE
  5
244
100
AcDbEntity
  8
0
100
AcDbLine
 62
7
  6
CONTINUOUS
 10
-10.054819846
 20
-0.6086638194
 11
-10.054819846
 21
-0.6036638194
  0
LINE
  5
245
100
AcDbEntity
  8
0
100
AcDbLine
 62
7
  6
CONTINUOUS
 10
-10.054819846
 20
-0.5986638194
 11
-10.054819846
 21
-0.5586638194
  0
LINE
  5
246
100
AcDbEntity
  8
0
100
AcDbLine
 62
7
  6
CONTINUOUS
 10
-9.9784132703
 20
8.7343361806
 11
-9.9784132703
 21
8.6693361806
  0
LINE
  5
247
100
AcDbEntity
  8
0
100
AcDbLine
 62
7
  6
CONTINUOUS
 10
-9.8499132703
 20
8.7343361806
 11
-9.8499132703
 21
8.9143361806
  0
LINE
  5
248
100
AcDbEntity
  8
0
100
AcDbLine
 62
7
  6
CONTINUOUS
 10
-9.6857267395
 20
-1.6736618681
 11
-9.6857267395
 21
6.8363361806
  0
LINE
  5
249
100
AcDbEntity
  8
0
100
AcDbLine
 62
7
  6
CONTINUOUS
 10
-9.6334132703
 20
8.7343361806
 11
-9.6334132703
 21
8.9143361806
  0
LINE
  5
24A
100
AcDbEntity
  8
0
100
AcDbLine
 62
7
  6
CONTINUOUS
 10
-9.4169132703
 20
8.8422005511
 11
-9.4169132703
 21
8.9143361806
  0
LINE
  5
24B
100
AcDbEntity
  8
0
100
AcDbLine
 62
3
  6
CONTINUOUS
 10
-9.3199735356
 20
8.998326109
 11
-7.3534313625
 21
14.401356324
  0
LINE
  5
24C
100
AcDbEntity
  8
0
100
AcDbLine
 62
7
  6
CONTINUOUS
 10
-8.046669396
 20
6.3631229772
 11
-8.046669396
 21
-1.2004506159
  0
LINE
  5
24D
100
AcDbEntity
  8
0
100
AcDbLine
 62
7
  6
CONTINUOUS
 10
-12.7742132443
 20
-2.1086638194
 11
-12.7142132443
 21
-2.1086638194
  0
LINE
  5
24E
100
AcDbEntity
  8
0
100
AcDbLine
 62
7
  6
CONTINUOUS
 10
9.4445735523
 20
-2.1086638194
 11
9.3845735523
 21
-2.1086638194
  0
LINE
  5
24F
100
AcDbEntity
  8
0
100
AcDbLine
 62
3
  6
CONTINUOUS
 10
9.3245735523
 20
-2.1086638194
 11
-12.6542132443
 21
-2.1086638194
  0
LINE
  5
250
100
AcDbEntity
  8
0
100
AcDbLine
 62
7
  6
CONTINUOUS
 10
3.6342732605
 20
-1.8136638194
 11
6.2160870475
 21
-1.8136638194
  0
LINE
  5
251
100
AcDbEntity
  8
0
100
AcDbLine
 62
7
  6
CONTINUOUS
 10
-6.9639129525
 20
-1.8136638194
 11
-9.5457267395
 21
-1.8136638194
  0
LINE
  5
252
100
AcDbEntity
  8
0
100
AcDbLine
 62
7
  6
CONTINUOUS
 10
3.7665832794
 20
-1.2216638194
 11
4.7276363057
 21
-1.2216638194
  0
LINE
  5
253
100
AcDbEntity
  8
0
100
AcDbLine
 62
7
  6
CONTINUOUS
 10
-7.0962229715
 20
-1.2216638194
 11
-8.0572759977
 21
-1.2216638194
  0
LINE
  5
254
100
AcDbEntity
  8
0
100
AcDbLine
 62
7
  6
CONTINUOUS
 10
-7.342669396
 20
6.8363361806
 11
-7.342669396
 21
6.3843361806
  0
LINE
  5
255
100
AcDbEntity
  8
0
100
AcDbLine
 62
7
  6
CONTINUOUS
 10
-12.804819846
 20
-0.6086638194
 11
-12.6542132443
 21
-0.6086638194
  0
LINE
  5
256
100
AcDbEntity
  8
0
100
AcDbLine
 62
3
  6
CONTINUOUS
 10
-12.6542132443
 20
-0.6086638194
 11
-9.6857267395
 21
-0.6086638194
  0
LINE
  5
257
100
AcDbEntity
  8
0
100
AcDbLine
 62
3
  6
CONTINUOUS
 10
-8.046669396
 20
-0.6086638194
 11
4.7170297039
 21
-0.6086638194
  0
LINE
  5
258
100
AcDbEntity
  8
0
100
AcDbLine
 62
3
  6
CONTINUOUS
 10
9.3245735523
 20
-0.6086638194
 11
6.3560870475
 21
-0.6086638194
  0
LINE
  5
259
100
AcDbEntity
  8
0
100
AcDbLine
 62
7
  6
CONTINUOUS
 10
-10.204819846
 20
-0.6036638194
 11
-9.6857267395
 21
-0.6036638194
  0
LINE
  5
25A
100
AcDbEntity
  8
0
100
AcDbLine
 62
7
  6
CONTINUOUS
 10
-10.304819846
 20
-0.6036638194
 11
-12.804819846
 21
-0.6036638194
  0
LINE
  5
25B
100
AcDbEntity
  8
0
100
AcDbLine
 62
7
  6
CONTINUOUS
 10
-10.204819846
 20
-0.5986638194
 11
-9.6857267395
 21
-0.5986638194
  0
LINE
  5
25C
100
AcDbEntity
  8
0
100
AcDbLine
 62
7
  6
CONTINUOUS
 10
-10.304819846
 20
-0.5586638194
 11
-10.054819846
 21
-0.5586638194
  0
LINE
  5
25D
100
AcDbEntity
  8
0
100
AcDbLine
 62
7
  6
CONTINUOUS
 10
-10.304819846
 20
-0.5411638194
 11
-12.804819846
 21
-0.5411638194
  0
LINE
  5
25E
100
AcDbEntity
  8
0
100
AcDbLine
 62
7
  6
CONTINUOUS
 10
-8.3591486741
 20
6.9023361806
 11
-8.3747806606
 21
6.9336001537
  0
LINE
  5
25F
100
AcDbEntity
  8
0
100
AcDbLine
 62
7
  6
CONTINUOUS
 10
-8.272669396
 20
6.8151229772
 11
-8.046669396
 21
6.3631229772
  0
LINE
  5
260
100
AcDbEntity
  8
0
100
AcDbLine
 62
7
  6
CONTINUOUS
 10
-8.2620627942
 20
6.8363361806
 11
-8.0360627942
 21
6.3843361806
  0
LINE
  5
261
100
AcDbEntity
  8
0
100
AcDbLine
 62
7
  6
CONTINUOUS
 10
-6.842669396
 20
-1.2216638194
 11
-6.842669396
 21
-1.6736638194
  0
LINE
  5
262
100
AcDbEntity
  8
0
100
AcDbLine
 62
7
  6
CONTINUOUS
 10
-14.0316626121
 20
0.0713361806
 11
-14.3971273733
 21
0.0713361806
  0
LINE
  5
263
100
AcDbEntity
  8
0
100
AcDbLine
 62
3
  6
CONTINUOUS
 10
2.7735285153
 20
0.0723361806
 11
2.6154571939
 21
0.0723361806
  0
LINE
  5
264
100
AcDbEntity
  8
0
100
AcDbLine
 62
7
  6
CONTINUOUS
 10
-14.0316626121
 20
0.2613361806
 11
-14.3971273733
 21
0.2613361806
  0
LINE
  5
265
100
AcDbEntity
  8
0
100
AcDbLine
 62
3
  6
CONTINUOUS
 10
2.6154571939
 20
0.2703361806
 11
2.7735285153
 21
0.2703361806
  0
LINE
  5
266
100
AcDbEntity
  8
0
100
AcDbLine
 62
7
  6
CONTINUOUS
 10
-14.0316626121
 20
1.8763361806
 11
-14.3971273733
 21
1.8763361806
  0
LINE
  5
267
100
AcDbEntity
  8
0
100
AcDbLine
 62
7
  6
CONTINUOUS
 10
-14.0316626121
 20
2.0663361806
 11
-14.3971273733
 21
2.0663361806
  0
LINE
  5
268
100
AcDbEntity
  8
0
100
AcDbLine
 62
7
  6
CONTINUOUS
 10
-8.3591486741
 20
-1.7396638194
 11
-8.3747806606
 21
-1.7709277924
  0
LINE
  5
269
100
AcDbEntity
  8
0
100
AcDbLine
 62
7
  6
CONTINUOUS
 10
-8.272669396
 20
-1.6524506159
 11
-8.046669396
 21
-1.2004506159
  0
LINE
  5
26A
100
AcDbEntity
  8
0
100
AcDbLine
 62
7
  6
CONTINUOUS
 10
-8.2620627942
 20
-1.6736638194
 11
-8.0360627942
 21
-1.2216638194
  0
LINE
  5
26B
100
AcDbEntity
  8
0
100
AcDbLine
 62
3
  6
CONTINUOUS
 10
2.7726655613
 20
2.7223361806
 11
2.6163312172
 21
2.7223361806
  0
LINE
  5
26C
100
AcDbEntity
  8
0
100
AcDbLine
 62
3
  6
CONTINUOUS
 10
2.8120165232
 20
2.8463361806
 11
2.5324922324
 21
2.8463361806
  0
LINE
  5
26D
100
AcDbEntity
  8
0
100
AcDbLine
 62
7
  6
CONTINUOUS
 10
2.7731953678
 20
2.9063361806
 11
2.5722307509
 21
2.9063361806
  0
LINE
  5
26E
100
AcDbEntity
  8
0
100
AcDbLine
 62
3
  6
CONTINUOUS
 10
2.6163312172
 20
2.9203361806
 11
2.7726655613
 21
2.9203361806
  0
LINE
  5
26F
100
AcDbEntity
  8
0
100
AcDbLine
 62
7
  6
CONTINUOUS
 10
-13.5262500402
 20
3.3463361806
 11
-9.6857267395
 21
3.3463361806
  0
LINE
  5
270
100
AcDbEntity
  8
0
100
AcDbLine
 62
7
  6
CONTINUOUS
 10
-8.046669396
 20
3.3463361806
 11
4.7170297039
 21
3.3463361806
  0
LINE
  5
271
100
AcDbEntity
  8
0
100
AcDbLine
 62
7
  6
CONTINUOUS
 10
6.3560870475
 20
3.3463361806
 11
10.1966103481
 21
3.3463361806
  0
LINE
  5
272
100
AcDbEntity
  8
0
100
AcDbLine
 62
7
  6
CONTINUOUS
 10
-13.5262500402
 20
3.8523361806
 11
-9.6857267395
 21
3.8523361806
  0
LINE
  5
273
100
AcDbEntity
  8
0
100
AcDbLine
 62
7
  6
CONTINUOUS
 10
-8.046669396
 20
3.8523361806
 11
4.7170297039
 21
3.8523361806
  0
LINE
  5
274
100
AcDbEntity
  8
0
100
AcDbLine
 62
7
  6
CONTINUOUS
 10
6.3560870475
 20
3.8523361806
 11
10.1966103481
 21
3.8523361806
  0
LINE
  5
275
100
AcDbEntity
  8
0
100
AcDbLine
 62
7
  6
CONTINUOUS
 10
-14.0316626121
 20
4.9263361806
 11
-14.3971273733
 21
4.9263361806
  0
LINE
  5
276
100
AcDbEntity
  8
0
100
AcDbLine
 62
7
  6
CONTINUOUS
 10
-14.0316626121
 20
5.1163361806
 11
-14.3971273733
 21
5.1163361806
  0
LINE
  5
277
100
AcDbEntity
  8
0
100
AcDbLine
 62
3
  6
CONTINUOUS
 10
-0.9619538065
 20
-0.6086638194
 11
-0.9619538065
 21
3.3463361806
  0
LINE
  5
278
100
AcDbEntity
  8
0
100
AcDbLine
 62
7
  6
CONTINUOUS
 10
-0.5372832994
 20
8.7343361806
 11
-0.5372832994
 21
8.6693361806
  0
LINE
  5
279
100
AcDbEntity
  8
0
100
AcDbLine
 62
7
  6
CONTINUOUS
 10
-0.4087832994
 20
8.7343361806
 11
-0.4087832994
 21
8.9143361806
  0
LINE
  5
27A
100
AcDbEntity
  8
0
100
AcDbLine
 62
7
  6
CONTINUOUS
 10
4.0130297039
 20
6.3843361806
 11
4.7276363057
 21
6.3843361806
  0
LINE
  5
27B
100
AcDbEntity
  8
0
100
AcDbLine
 62
7
  6
CONTINUOUS
 10
-7.342669396
 20
6.3843361806
 11
-8.0572759977
 21
6.3843361806
  0
LINE
  5
27C
100
AcDbEntity
  8
0
100
AcDbLine
 62
7
  6
CONTINUOUS
 10
-0.1922832994
 20
8.7343361806
 11
-0.1922832994
 21
8.9143361806
  0
LINE
  5
27D
100
AcDbEntity
  8
0
100
AcDbLine
 62
7
  6
CONTINUOUS
 10
0.0242167006
 20
8.7343361806
 11
0.0242167006
 21
8.9143361806
  0
LINE
  5
27E
100
AcDbEntity
  8
0
100
AcDbLine
 62
7
  6
CONTINUOUS
 10
0.1527167006
 20
8.7343361806
 11
0.1527167006
 21
8.6693361806
  0
LINE
  5
27F
100
AcDbEntity
  8
0
100
AcDbLine
 62
7
  6
CONTINUOUS
 10
4.1342732605
 20
6.9763361806
 11
6.2160870475
 21
6.9763361806
  0
LINE
  5
280
100
AcDbEntity
  8
0
100
AcDbLine
 62
7
  6
CONTINUOUS
 10
-7.4639129525
 20
6.9763361806
 11
-9.5457267395
 21
6.9763361806
  0
LINE
  5
281
100
AcDbEntity
  8
0
100
AcDbLine
 62
7
  6
CONTINUOUS
 10
4.9324231022
 20
-1.6736638194
 11
4.7064231022
 21
-1.2216638194
  0
LINE
  5
282
100
AcDbEntity
  8
0
100
AcDbLine
 62
7
  6
CONTINUOUS
 10
4.9430297039
 20
-1.6524506159
 11
4.7170297039
 21
-1.2004506159
  0
LINE
  5
283
100
AcDbEntity
  8
0
100
AcDbLine
 62
3
  6
CONTINUOUS
 10
7.4601730505
 20
8.6693361806
 11
-10.7898127425
 21
8.6693361806
  0
LINE
  5
284
100
AcDbEntity
  8
0
100
AcDbLine
 62
7
  6
CONTINUOUS
 10
0.1527140487
 20
8.7343361806
 11
-0.5372806475
 21
8.7343361806
  0
LINE
  5
285
100
AcDbEntity
  8
0
100
AcDbLine
 62
7
  6
CONTINUOUS
 10
-9.5545863549
 20
8.7343361806
 11
-9.9784132703
 21
8.7343361806
  0
LINE
  5
286
100
AcDbEntity
  8
0
100
AcDbLine
 62
7
  6
CONTINUOUS
 10
5.0295089821
 20
-1.7396638194
 11
5.0451409686
 21
-1.7709277924
  0
LINE
  5
287
100
AcDbEntity
  8
0
100
AcDbLine
 62
7
  6
CONTINUOUS
 10
-9.8499132703
 20
8.9143361806
 11
-9.4169132703
 21
8.9143361806
  0
LINE
  5
288
100
AcDbEntity
  8
0
100
AcDbLine
 62
7
  6
CONTINUOUS
 10
-0.4087832994
 20
8.9143361806
 11
0.0242167006
 21
8.9143361806
  0
LINE
  5
289
100
AcDbEntity
  8
0
100
AcDbLine
 62
3
  6
CONTINUOUS
 10
3.1211052879
 20
-0.6086638194
 11
3.1211052879
 21
3.3463361806
  0
LINE
  5
28A
100
AcDbEntity
  8
0
100
AcDbLine
 62
7
  6
CONTINUOUS
 10
3.5130297039
 20
-1.2216638194
 11
3.5130297039
 21
-1.6736638194
  0
LINE
  5
28B
100
AcDbEntity
  8
0
100
AcDbLine
 62
7
  6
CONTINUOUS
 10
4.0130297039
 20
6.8363361806
 11
4.0130297039
 21
6.3843361806
  0
LINE
  5
28C
100
AcDbEntity
  8
0
100
AcDbLine
 62
7
  6
CONTINUOUS
 10
4.7170297039
 20
6.3631229772
 11
4.7170297039
 21
-1.2004506159
  0
LINE
  5
28D
100
AcDbEntity
  8
0
100
AcDbLine
 62
7
  6
CONTINUOUS
 10
4.9324231022
 20
6.8363361806
 11
4.7064231022
 21
6.3843361806
  0
LINE
  5
28E
100
AcDbEntity
  8
0
100
AcDbLine
 62
7
  6
CONTINUOUS
 10
4.9430297039
 20
6.8151229772
 11
4.7170297039
 21
6.3631229772
  0
LINE
  5
28F
100
AcDbEntity
  8
0
100
AcDbLine
 62
7
  6
CONTINUOUS
 10
5.0295089821
 20
6.9023361806
 11
5.0451409686
 21
6.9336001537
  0
LINE
  5
290
100
AcDbEntity
  8
0
100
AcDbLine
 62
7
  6
CONTINUOUS
 10
6.3560870475
 20
6.8363342294
 11
6.3560870475
 21
-1.6736638194
  0
LINE
  5
291
100
AcDbEntity
  8
0
100
AcDbLine
 62
3
  6
CONTINUOUS
 10
7.005180154
 20
-0.6086638194
 11
7.005180154
 21
3.3463361806
  0
LINE
  5
292
100
AcDbEntity
  8
0
100
AcDbLine
 62
3
  6
CONTINUOUS
 10
5.9903338436
 20
8.998326109
 11
4.0237916705
 21
14.401356324
  0
LINE
  5
293
100
AcDbEntity
  8
0
100
AcDbLine
 62
3
  6
CONTINUOUS
 10
3.0840550891
 20
15.0593361806
 11
-6.4136947812
 21
15.0593361806
  0
LINE
  5
294
100
AcDbEntity
  8
0
100
AcDbLine
 62
3
  6
CONTINUOUS
 10
9.9136323107
 20
3.8523361806
 11
8.3998727748
 21
8.011356324
  0
LINE
  5
295
100
AcDbEntity
  8
0
100
AcDbLine
 62
3
  6
CONTINUOUS
 10
9.3245735523
 20
-0.6086638194
 11
9.3245735523
 21
-2.1086638194
  0
LINE
  5
296
100
AcDbEntity
  8
0
100
AcDbLine
 62
7
  6
CONTINUOUS
 10
9.3845735523
 20
-0.7286638194
 11
9.3845735523
 21
-2.1086638194
  0
LINE
  5
297
100
AcDbEntity
  8
0
100
AcDbLine
 62
3
  6
CONTINUOUS
 10
9.4445735523
 20
-0.7286638194
 11
9.4445735523
 21
-2.1086638194
  0
LINE
  5
298
100
AcDbEntity
  8
0
100
AcDbLine
 62
7
  6
CONTINUOUS
 10
22.5053513477
 20
-1.698846852
 11
22.505379696
 21
-1.6988795774
  0
LWPOLYLINE
  5
299
100
AcDbEntity
  8
0
100
AcDbPolyline
 62
7
  6
CONTINUOUS
 90
5
 70
0
 10
22.5053631329
 20
-1.6988607414
 10
22.5055235337
 20
-1.6990618962
 10
22.5089844217
 20
-1.7043269579
 10
22.5153087574
 20
-1.7166038795
 10
22.5193372417
 20
-1.7259804844
  0
LWPOLYLINE
  5
29A
100
AcDbEntity
  8
0
100
AcDbPolyline
 62
7
  6
CONTINUOUS
 90
10
 70
0
 10
22.5194049467
 20
-1.7261475329
 10
22.5236456939
 20
-1.7356129657
 10
22.5324703823
 20
-1.7509658902
 10
22.5432398251
 20
-1.7651708713
 10
22.5565154716
 20
-1.7785882721
 10
22.5728675772
 20
-1.7910315122
 10
22.5925325306
 20
-1.801685512
 10
22.6150815946
 20
-1.8094505084
 10
22.6398277251
 20
-1.8133516725
 10
22.6492539308
 20
-1.813663809
  0
LINE
  5
29B
100
AcDbEntity
  8
0
100
AcDbLine
 62
7
  6
CONTINUOUS
 10
22.5193373089
 20
-1.7259804579
 11
22.5194049467
 21
-1.7261475329
  0
LINE
  5
29C
100
AcDbEntity
  8
0
100
AcDbLine
 62
7
  6
CONTINUOUS
 10
22.0876792111
 20
-1.6736741255
 11
22.0876792111
 21
6.8363361806
  0
LINE
  5
29D
100
AcDbEntity
  8
0
100
AcDbLine
 62
7
  6
CONTINUOUS
 10
22.5193370763
 20
6.8886524366
 11
22.5194003681
 21
6.8888088406
  0
LWPOLYLINE
  5
29E
100
AcDbEntity
  8
0
100
AcDbPolyline
 62
7
  6
CONTINUOUS
 90
4
 70
0
 10
22.5193370763
 20
6.8886524366
 10
22.5155303394
 20
6.8797605846
 10
22.509099892
 20
6.8671955056
 10
22.5072196159
 20
6.8641497136
  0
LINE
  5
29F
100
AcDbEntity
  8
0
100
AcDbLine
 62
7
  6
CONTINUOUS
 10
23.3541226936
 20
6.3631229772
 11
23.3541226936
 21
-1.2004506159
  0
LINE
  5
2A0
100
AcDbEntity
  8
0
100
AcDbLine
 62
3
  6
CONTINUOUS
 10
24.1034169621
 20
-0.7286638194
 11
24.1034169621
 21
-2.1086638194
  0
LINE
  5
2A1
100
AcDbEntity
  8
0
100
AcDbLine
 62
7
  6
CONTINUOUS
 10
24.1634169621
 20
-0.7286638194
 11
24.1634169621
 21
-2.1086638194
  0
LINE
  5
2A2
100
AcDbEntity
  8
0
100
AcDbLine
 62
3
  6
CONTINUOUS
 10
24.2234169621
 20
-0.6086638194
 11
24.2234169621
 21
-2.1086638194
  0
LINE
  5
2A3
100
AcDbEntity
  8
0
100
AcDbLine
 62
7
  6
CONTINUOUS
 10
24.4728103604
 20
-0.6036638194
 11
24.4728103604
 21
-0.5411638194
  0
LWPOLYLINE
  5
2A4
100
AcDbEntity
  8
0
100
AcDbPolyline
 62
7
  6
CONTINUOUS
 90
3
 70
0
 10
22.5072196159
 20
6.8641497136
 10
22.5055387001
 20
6.8617537439
 10
22.5053786793
 20
6.8615507055
  0
LINE
  5
2A5
100
AcDbEntity
  8
0
100
AcDbLine
 62
7
  6
CONTINUOUS
 10
24.5734864621
 20
6.8363361806
 11
24.5734864621
 21
6.3843361806
  0
LINE
  5
2A6
100
AcDbEntity
  8
0
100
AcDbLine
 62
3
  6
CONTINUOUS
 10
23.6343582037
 20
3.8523361806
 11
24.5559308369
 21
6.3843361806
  0
LINE
  5
2A7
100
AcDbEntity
  8
0
100
AcDbLine
 62
3
  6
CONTINUOUS
 10
24.5734864621
 20
6.4325698646
 11
25.1481177396
 21
8.011356324
  0
LINE
  5
2A8
100
AcDbEntity
  8
0
100
AcDbLine
 62
7
  6
CONTINUOUS
 10
22.5053804564
 20
6.8615528169
 11
22.505351186
 21
6.8615190267
  0
LINE
  5
2A9
100
AcDbEntity
  8
0
100
AcDbLine
 62
7
  6
CONTINUOUS
 10
46.3222037587
 20
-2.1086638194
 11
46.2622037587
 21
-2.1086638194
  0
LINE
  5
2AA
100
AcDbEntity
  8
0
100
AcDbLine
 62
3
  6
CONTINUOUS
 10
46.2022037587
 20
-2.1086638194
 11
24.2234169621
 21
-2.1086638194
  0
LINE
  5
2AB
100
AcDbEntity
  8
0
100
AcDbLine
 62
7
  6
CONTINUOUS
 10
24.1034169621
 20
-2.1086638194
 11
24.1634169621
 21
-2.1086638194
  0
LINE
  5
2AC
100
AcDbEntity
  8
0
100
AcDbLine
 62
7
  6
CONTINUOUS
 10
22.2276792111
 20
-1.8136638194
 11
24.1034169621
 21
-1.8136638194
  0
LINE
  5
2AD
100
AcDbEntity
  8
0
100
AcDbLine
 62
7
  6
CONTINUOUS
 10
24.1634169621
 20
-1.8136638194
 11
24.2234169621
 21
-1.8136638194
  0
LINE
  5
2AE
100
AcDbEntity
  8
0
100
AcDbLine
 62
7
  6
CONTINUOUS
 10
46.9628103604
 20
-1.8136638194
 11
49.8228103604
 21
-1.8136638194
  0
LINE
  5
2AF
100
AcDbEntity
  8
0
100
AcDbLine
 62
7
  6
CONTINUOUS
 10
26.4728103604
 20
-0.6036638194
 11
26.4728103604
 21
-0.5986638194
  0
LINE
  5
2B0
100
AcDbEntity
  8
0
100
AcDbLine
 62
7
  6
CONTINUOUS
 10
26.5166406148
 20
8.7343361806
 11
26.5166406148
 21
8.6693361806
  0
LINE
  5
2B1
100
AcDbEntity
  8
0
100
AcDbLine
 62
3
  6
CONTINUOUS
 10
26.5428103604
 20
-0.6086638194
 11
26.5428103604
 21
3.3463361806
  0
LINE
  5
2B2
100
AcDbEntity
  8
0
100
AcDbLine
 62
3
  6
CONTINUOUS
 10
26.57134756
 20
-0.6086638194
 11
26.57134756
 21
3.3463361806
  0
LINE
  5
2B3
100
AcDbEntity
  8
0
100
AcDbLine
 62
7
  6
CONTINUOUS
 10
26.6116479483
 20
8.7343361806
 11
26.6116479483
 21
8.9143361806
  0
LINE
  5
2B4
100
AcDbEntity
  8
0
100
AcDbLine
 62
7
  6
CONTINUOUS
 10
26.7366442816
 20
8.7343361806
 11
26.7366442816
 21
8.9143361806
  0
LINE
  5
2B5
100
AcDbEntity
  8
0
100
AcDbLine
 62
7
  6
CONTINUOUS
 10
49.801597157
 20
-1.6736638194
 11
49.8228103604
 21
-1.6736638194
  0
LINE
  5
2B6
100
AcDbEntity
  8
0
100
AcDbLine
 62
7
  6
CONTINUOUS
 10
49.349597157
 20
-1.2216638194
 11
46.9628103604
 21
-1.2216638194
  0
LINE
  5
2B7
100
AcDbEntity
  8
0
100
AcDbLine
 62
7
  6
CONTINUOUS
 10
23.3354938667
 20
-1.2216638194
 11
24.1034169621
 21
-1.2216638194
  0
LINE
  5
2B8
100
AcDbEntity
  8
0
100
AcDbLine
 62
7
  6
CONTINUOUS
 10
24.1634169621
 20
-1.2216638194
 11
24.2234169621
 21
-1.2216638194
  0
LINE
  5
2B9
100
AcDbEntity
  8
0
100
AcDbLine
 62
3
  6
CONTINUOUS
 10
46.2022037587
 20
-0.6086638194
 11
24.2234169621
 21
-0.6086638194
  0
LINE
  5
2BA
100
AcDbEntity
  8
0
100
AcDbLine
 62
7
  6
CONTINUOUS
 10
24.4728103604
 20
-0.6036638194
 11
26.5428103604
 21
-0.6036638194
  0
LINE
  5
2BB
100
AcDbEntity
  8
0
100
AcDbLine
 62
7
  6
CONTINUOUS
 10
22.9440503842
 20
6.8363361806
 11
22.8598173127
 21
6.9336001537
  0
LINE
  5
2BC
100
AcDbEntity
  8
0
100
AcDbLine
 62
7
  6
CONTINUOUS
 10
22.9626792111
 20
6.8151229772
 11
23.3541226936
 21
6.3631229772
  0
LINE
  5
2BD
100
AcDbEntity
  8
0
100
AcDbLine
 62
7
  6
CONTINUOUS
 10
22.9810503842
 20
6.8363361806
 11
23.3724938667
 21
6.3843361806
  0
LINE
  5
2BE
100
AcDbEntity
  8
0
100
AcDbLine
 62
7
  6
CONTINUOUS
 10
26.9866369481
 20
8.7343361806
 11
26.9866369481
 21
8.9143361806
  0
LINE
  5
2BF
100
AcDbEntity
  8
0
100
AcDbLine
 62
7
  6
CONTINUOUS
 10
27.1116332814
 20
8.7343361806
 11
27.1116332814
 21
8.9143361806
  0
LINE
  5
2C0
100
AcDbEntity
  8
0
100
AcDbLine
 62
7
  6
CONTINUOUS
 10
27.2066406148
 20
8.7343361806
 11
27.2066406148
 21
8.6693361806
  0
LINE
  5
2C1
100
AcDbEntity
  8
0
100
AcDbLine
 62
3
  6
CONTINUOUS
 10
27.9233448672
 20
-0.6086638194
 11
27.9233448672
 21
3.3463361806
  0
LINE
  5
2C2
100
AcDbEntity
  8
0
100
AcDbLine
 62
7
  6
CONTINUOUS
 10
27.9517011449
 20
-0.6086638194
 11
27.9517011449
 21
3.3463361806
  0
LINE
  5
2C3
100
AcDbEntity
  8
0
100
AcDbLine
 62
3
  6
CONTINUOUS
 10
27.5576566708
 20
8.998326109
 11
29.5241988439
 21
14.401356324
  0
LINE
  5
2C4
100
AcDbEntity
  8
0
100
AcDbLine
 62
7
  6
CONTINUOUS
 10
24.4728103604
 20
-0.5986638194
 11
26.4728103604
 21
-0.5986638194
  0
LINE
  5
2C5
100
AcDbEntity
  8
0
100
AcDbLine
 62
7
  6
CONTINUOUS
 10
26.5428103604
 20
-0.5411638194
 11
24.4728103604
 21
-0.5411638194
  0
LINE
  5
2C6
100
AcDbEntity
  8
0
100
AcDbLine
 62
7
  6
CONTINUOUS
 10
47.5796531264
 20
0.0713361806
 11
48.0299863364
 21
0.0713361806
  0
LINE
  5
2C7
100
AcDbEntity
  8
0
100
AcDbLine
 62
3
  6
CONTINUOUS
 10
42.7684459612
 20
0.0723361806
 11
42.6772776637
 21
0.0723361806
  0
LINE
  5
2C8
100
AcDbEntity
  8
0
100
AcDbLine
 62
3
  6
CONTINUOUS
 10
27.7056665808
 20
0.0723361806
 11
27.6144323901
 21
0.0723361806
  0
LINE
  5
2C9
100
AcDbEntity
  8
0
100
AcDbLine
 62
7
  6
CONTINUOUS
 10
47.5796531264
 20
0.2613361806
 11
48.0299863364
 21
0.2613361806
  0
LINE
  5
2CA
100
AcDbEntity
  8
0
100
AcDbLine
 62
3
  6
CONTINUOUS
 10
27.6144323901
 20
0.2703361806
 11
27.7056665808
 21
0.2703361806
  0
LINE
  5
2CB
100
AcDbEntity
  8
0
100
AcDbLine
 62
3
  6
CONTINUOUS
 10
42.6772776637
 20
0.2703361806
 11
42.7684459612
 21
0.2703361806
  0
LINE
  5
2CC
100
AcDbEntity
  8
0
100
AcDbLine
 62
7
  6
CONTINUOUS
 10
47.5796531264
 20
1.8763361806
 11
48.0299863364
 21
1.8763361806
  0
LINE
  5
2CD
100
AcDbEntity
  8
0
100
AcDbLine
 62
7
  6
CONTINUOUS
 10
47.5796531264
 20
2.0663361806
 11
48.0299863364
 21
2.0663361806
  0
LINE
  5
2CE
100
AcDbEntity
  8
0
100
AcDbLine
 62
3
  6
CONTINUOUS
 10
42.7679541453
 20
2.7223361806
 11
42.6777876609
 21
2.7223361806
  0
LINE
  5
2CF
100
AcDbEntity
  8
0
100
AcDbLine
 62
3
  6
CONTINUOUS
 10
27.705155725
 20
2.7223361806
 11
27.6149240673
 21
2.7223361806
  0
LINE
  5
2D0
100
AcDbEntity
  8
0
100
AcDbLine
 62
3
  6
CONTINUOUS
 10
27.6149240673
 20
2.9203361806
 11
27.705155725
 21
2.9203361806
  0
LINE
  5
2D1
100
AcDbEntity
  8
0
100
AcDbLine
 62
3
  6
CONTINUOUS
 10
42.6777876609
 20
2.9203361806
 11
42.7679541453
 21
2.9203361806
  0
LINE
  5
2D2
100
AcDbEntity
  8
0
100
AcDbLine
 62
7
  6
CONTINUOUS
 10
22.9440503842
 20
-1.6736638194
 11
22.8598173127
 21
-1.7709277924
  0
LINE
  5
2D3
100
AcDbEntity
  8
0
100
AcDbLine
 62
7
  6
CONTINUOUS
 10
22.9626792111
 20
-1.6524506159
 11
23.3541226936
 21
-1.2004506159
  0
LINE
  5
2D4
100
AcDbEntity
  8
0
100
AcDbLine
 62
7
  6
CONTINUOUS
 10
22.9810503842
 20
-1.6736638194
 11
23.3724938667
 21
-1.2216638194
  0
LINE
  5
2D5
100
AcDbEntity
  8
0
100
AcDbLine
 62
7
  6
CONTINUOUS
 10
23.3541226936
 20
3.3463361806
 11
47.0851989273
 21
3.3463361806
  0
LINE
  5
2D6
100
AcDbEntity
  8
0
100
AcDbLine
 62
7
  6
CONTINUOUS
 10
23.3541226936
 20
3.8523361806
 11
47.0851989273
 21
3.8523361806
  0
LINE
  5
2D7
100
AcDbEntity
  8
0
100
AcDbLine
 62
7
  6
CONTINUOUS
 10
47.5796531264
 20
4.9263361806
 11
48.0299863364
 21
4.9263361806
  0
LINE
  5
2D8
100
AcDbEntity
  8
0
100
AcDbLine
 62
7
  6
CONTINUOUS
 10
47.5796531264
 20
5.1163361806
 11
48.0299863364
 21
5.1163361806
  0
LINE
  5
2D9
100
AcDbEntity
  8
0
100
AcDbLine
 62
7
  6
CONTINUOUS
 10
24.5734864621
 20
6.3843361806
 11
23.3354938667
 21
6.3843361806
  0
LINE
  5
2DA
100
AcDbEntity
  8
0
100
AcDbLine
 62
7
  6
CONTINUOUS
 10
47.9628103604
 20
6.3843361806
 11
49.349597157
 21
6.3843361806
  0
LWPOLYLINE
  5
2DB
100
AcDbEntity
  8
0
100
AcDbPolyline
 62
7
  6
CONTINUOUS
 90
10
 70
0
 10
22.6492539451
 20
6.9763361703
 10
22.6397949403
 20
6.9760218396
 10
22.6150545007
 20
6.9721160595
 10
22.5925402285
 20
6.9643612825
 10
22.5729272813
 20
6.9537426549
 10
22.5566155501
 20
6.9413491486
 10
22.5433642648
 20
6.9279871359
 10
22.5326173626
 20
6.9138593105
 10
22.5238184297
 20
6.8986339354
 10
22.5194004348
 20
6.8888088138
  0
LINE
  5
2DC
100
AcDbEntity
  8
0
100
AcDbLine
 62
7
  6
CONTINUOUS
 10
49.8228103604
 20
6.8363361806
 11
49.801597157
 21
6.8363361806
  0
LINE
  5
2DD
100
AcDbEntity
  8
0
100
AcDbLine
 62
7
  6
CONTINUOUS
 10
49.8228103604
 20
6.9763361806
 11
47.9628103604
 21
6.9763361806
  0
LINE
  5
2DE
100
AcDbEntity
  8
0
100
AcDbLine
 62
7
  6
CONTINUOUS
 10
22.2276792111
 20
6.9763361806
 11
22.6337535733
 21
6.9763361806
  0
LINE
  5
2DF
100
AcDbEntity
  8
0
100
AcDbLine
 62
7
  6
CONTINUOUS
 10
22.649194801
 20
6.9763361806
 11
24.5034864621
 21
6.9763361806
  0
LINE
  5
2E0
100
AcDbEntity
  8
0
100
AcDbLine
 62
3
  6
CONTINUOUS
 10
26.0878174639
 20
8.6693361806
 11
44.3378032569
 21
8.6693361806
  0
LINE
  5
2E1
100
AcDbEntity
  8
0
100
AcDbLine
 62
7
  6
CONTINUOUS
 10
41.0086466387
 20
8.7343361806
 11
40.3186519424
 21
8.7343361806
  0
LINE
  5
2E2
100
AcDbEntity
  8
0
100
AcDbLine
 62
7
  6
CONTINUOUS
 10
27.206637963
 20
8.7343361806
 11
26.5166432667
 21
8.7343361806
  0
LINE
  5
2E3
100
AcDbEntity
  8
0
100
AcDbLine
 62
7
  6
CONTINUOUS
 10
26.6116479483
 20
8.9143361806
 11
27.1116332814
 21
8.9143361806
  0
LINE
  5
2E4
100
AcDbEntity
  8
0
100
AcDbLine
 62
7
  6
CONTINUOUS
 10
40.413656624
 20
8.9143361806
 11
40.9136419571
 21
8.9143361806
  0
LINE
  5
2E5
100
AcDbEntity
  8
0
100
AcDbLine
 62
7
  6
CONTINUOUS
 10
49.349597157
 20
-1.2216638194
 11
49.89886113
 21
-1.7709277924
  0
LINE
  5
2E6
100
AcDbEntity
  8
0
100
AcDbLine
 62
7
  6
CONTINUOUS
 10
49.3708103604
 20
-1.2004506159
 11
49.9200743334
 21
-1.7497145889
  0
LINE
  5
2E7
100
AcDbEntity
  8
0
100
AcDbLine
 62
7
  6
CONTINUOUS
 10
40.3186492905
 20
8.7343361806
 11
40.3186492905
 21
8.6693361806
  0
LINE
  5
2E8
100
AcDbEntity
  8
0
100
AcDbLine
 62
7
  6
CONTINUOUS
 10
40.413656624
 20
8.7343361806
 11
40.413656624
 21
8.9143361806
  0
LINE
  5
2E9
100
AcDbEntity
  8
0
100
AcDbLine
 62
7
  6
CONTINUOUS
 10
40.5386529573
 20
8.7343361806
 11
40.5386529573
 21
8.9143361806
  0
LINE
  5
2EA
100
AcDbEntity
  8
0
100
AcDbLine
 62
7
  6
CONTINUOUS
 10
40.7886456238
 20
8.7343361806
 11
40.7886456238
 21
8.9143361806
  0
LINE
  5
2EB
100
AcDbEntity
  8
0
100
AcDbLine
 62
7
  6
CONTINUOUS
 10
40.9136419571
 20
8.7343361806
 11
40.9136419571
 21
8.9143361806
  0
LINE
  5
2EC
100
AcDbEntity
  8
0
100
AcDbLine
 62
7
  6
CONTINUOUS
 10
41.0086492905
 20
8.7343361806
 11
41.0086492905
 21
8.6693361806
  0
LINE
  5
2ED
100
AcDbEntity
  8
0
100
AcDbLine
 62
3
  6
CONTINUOUS
 10
30.4639086308
 20
15.0593361806
 11
39.9617120899
 21
15.0593361806
  0
LINE
  5
2EE
100
AcDbEntity
  8
0
100
AcDbLine
 62
3
  6
CONTINUOUS
 10
42.86796405
 20
8.998326109
 11
40.9014218769
 21
14.401356324
  0
LINE
  5
2EF
100
AcDbEntity
  8
0
100
AcDbLine
 62
3
  6
CONTINUOUS
 10
43.8828103604
 20
-0.6086638194
 11
43.8828103604
 21
3.3463361806
  0
LINE
  5
2F0
100
AcDbEntity
  8
0
100
AcDbLine
 62
7
  6
CONTINUOUS
 10
49.349597157
 20
6.3843361806
 11
49.89886113
 21
6.9336001537
  0
LINE
  5
2F1
100
AcDbEntity
  8
0
100
AcDbLine
 62
7
  6
CONTINUOUS
 10
49.3708103604
 20
6.3631229772
 11
49.9200743334
 21
6.9123869502
  0
LINE
  5
2F2
100
AcDbEntity
  8
0
100
AcDbLine
 62
3
  6
CONTINUOUS
 10
46.2022037587
 20
-0.6086638194
 11
46.2022037587
 21
-2.1086638194
  0
LINE
  5
2F3
100
AcDbEntity
  8
0
100
AcDbLine
 62
3
  6
CONTINUOUS
 10
46.7912625171
 20
3.8523361806
 11
45.2775029812
 21
8.011356324
  0
LINE
  5
2F4
100
AcDbEntity
  8
0
100
AcDbLine
 62
7
  6
CONTINUOUS
 10
46.2622037587
 20
-0.7286638194
 11
46.2622037587
 21
-2.1086638194
  0
LINE
  5
2F5
100
AcDbEntity
  8
0
100
AcDbLine
 62
3
  6
CONTINUOUS
 10
46.3222037587
 20
-0.7286638194
 11
46.3222037587
 21
-2.1086638194
  0
LINE
  5
2F6
100
AcDbEntity
  8
0
100
AcDbLine
 62
7
  6
CONTINUOUS
 10
46.9628103604
 20
-1.8136638194
 11
46.9628103604
 21
-1.2216638194
  0
LINE
  5
2F7
100
AcDbEntity
  8
0
100
AcDbLine
 62
7
  6
CONTINUOUS
 10
47.9628103604
 20
6.3843361806
 11
47.9628103604
 21
6.9763361806
  0
LINE
  5
2F8
100
AcDbEntity
  8
0
100
AcDbLine
 62
7
  6
CONTINUOUS
 10
49.3708103604
 20
6.3631229772
 11
49.3708103604
 21
-1.2004506159
  0
LINE
  5
2F9
100
AcDbEntity
  8
0
100
AcDbLine
 62
7
  6
CONTINUOUS
 10
49.8228103604
 20
-1.6736638194
 11
49.8228103604
 21
-1.6524506159
  0
LINE
  5
2FA
100
AcDbEntity
  8
0
100
AcDbLine
 62
7
  6
CONTINUOUS
 10
49.8228103604
 20
6.8151229772
 11
49.8228103604
 21
6.8363361806
  0
LINE
  5
2FB
100
AcDbEntity
  8
0
100
AcDbLine
 62
7
  6
CONTINUOUS
 10
49.9628103604
 20
-1.6736638194
 11
49.9628103604
 21
6.8363361806
  0
LINE
  5
2FC
100
AcDbEntity
  8
0
100
AcDbLine
 62
7
  6
CONTINUOUS
 10
-0.999819846
 20
-38.7997942671
 11
-2.329819846
 21
-38.7997942671
  0
LINE
  5
2FD
100
AcDbEntity
  8
0
100
AcDbLine
 62
7
  6
CONTINUOUS
 10
-8.8959448923
 20
-36.9644702431
 11
-9.2336947997
 21
-36.7694702431
  0
LINE
  5
2FE
100
AcDbEntity
  8
0
100
AcDbLine
 62
7
  6
CONTINUOUS
 10
-8.7225474327
 20
-36.4641370332
 11
-8.8870922594
 21
-36.3691370332
  0
LINE
  5
2FF
100
AcDbEntity
  8
0
100
AcDbLine
 62
7
  6
CONTINUOUS
 10
-14.579495822
 20
-16.8186692209
 11
-14.384495822
 21
-16.4809193134
  0
LINE
  5
300
100
AcDbEntity
  8
0
100
AcDbLine
 62
7
  6
CONTINUOUS
 10
-14.0791626121
 20
-16.9920666805
 11
-13.9841626121
 21
-16.8275218538
  0
LINE
  5
301
100
AcDbEntity
  8
0
100
AcDbLine
 62
7
  6
CONTINUOUS
 10
-9.6157267395
 20
-11.6084195613
 11
-8.4639129525
 21
-10.9434195613
  0
LINE
  5
302
100
AcDbEntity
  8
0
100
AcDbLine
 62
7
  6
CONTINUOUS
 10
-2.469819846
 20
-35.7997942671
 11
-0.859819846
 21
-35.7997942671
  0
LINE
  5
303
100
AcDbEntity
  8
0
100
AcDbLine
 62
7
  6
CONTINUOUS
 10
-12.804819846
 20
-18.4797942671
 11
-12.804819846
 21
-16.9597942671
  0
LINE
  5
304
100
AcDbEntity
  8
0
100
AcDbLine
 62
7
  6
CONTINUOUS
 10
-12.804819846
 20
-13.3097942671
 11
-12.804819846
 21
-16.8097942671
  0
LINE
  5
305
100
AcDbEntity
  8
0
100
AcDbLine
 62
3
  6
CONTINUOUS
 10
-12.7742132443
 20
-13.0604008689
 11
-12.7742132443
 21
-35.0391876654
  0
LINE
  5
306
100
AcDbEntity
  8
0
100
AcDbLine
 62
7
  6
CONTINUOUS
 10
-12.7142132443
 20
-13.0604008689
 11
-12.7142132443
 21
-35.0391876654
  0
LINE
  5
307
100
AcDbEntity
  8
0
100
AcDbLine
 62
7
  6
CONTINUOUS
 10
-12.6542132443
 20
-12.9404008689
 11
-12.6542132443
 21
-13.0604008689
  0
LINE
  5
308
100
AcDbEntity
  8
0
100
AcDbLine
 62
7
  6
CONTINUOUS
 10
-12.6542132443
 20
-35.0391876654
 11
-12.6542132443
 21
-35.1591876654
  0
LINE
  5
309
100
AcDbEntity
  8
0
100
AcDbLine
 62
7
  6
CONTINUOUS
 10
-6.842669396
 20
-13.4714957727
 11
-8.2369702961
 21
-14.2764957727
  0
LINE
  5
30A
100
AcDbEntity
  8
0
100
AcDbLine
 62
3
  6
CONTINUOUS
 10
-12.6542132443
 20
-35.1591876654
 11
9.3245735523
 21
-35.1591876654
  0
LINE
  5
30B
100
AcDbEntity
  8
0
100
AcDbLine
 62
7
  6
CONTINUOUS
 10
-12.6542132443
 20
-35.0991876654
 11
9.3245735523
 21
-35.0991876654
  0
LINE
  5
30C
100
AcDbEntity
  8
0
100
AcDbLine
 62
7
  6
CONTINUOUS
 10
9.3245735523
 20
-35.0391876654
 11
9.4445735523
 21
-35.0391876654
  0
LINE
  5
30D
100
AcDbEntity
  8
0
100
AcDbLine
 62
7
  6
CONTINUOUS
 10
-12.6542132443
 20
-35.0391876654
 11
-12.7742132443
 21
-35.0391876654
  0
LINE
  5
30E
100
AcDbEntity
  8
0
100
AcDbLine
 62
7
  6
CONTINUOUS
 10
-9.3930730215
 20
-24.2372942671
 11
-9.501326197
 21
-24.0497942671
  0
LINE
  5
30F
100
AcDbEntity
  8
0
100
AcDbLine
 62
7
  6
CONTINUOUS
 10
-9.501326197
 20
-24.0497942671
 11
-9.3930730215
 21
-23.8622942671
  0
LINE
  5
310
100
AcDbEntity
  8
0
100
AcDbLine
 62
7
  6
CONTINUOUS
 10
2.2534333295
 20
-30.836407844
 11
2.0369269785
 21
-30.836407844
  0
LINE
  5
311
100
AcDbEntity
  8
0
100
AcDbLine
 62
7
  6
CONTINUOUS
 10
2.0369269785
 20
-30.461407844
 11
2.2534333295
 21
-30.461407844
  0
LINE
  5
312
100
AcDbEntity
  8
0
100
AcDbLine
 62
7
  6
CONTINUOUS
 10
-9.1765666705
 20
-23.8622942671
 11
-9.0683134951
 21
-24.0497942671
  0
LINE
  5
313
100
AcDbEntity
  8
0
100
AcDbLine
 62
7
  6
CONTINUOUS
 10
-7.8930730215
 20
-24.2372942671
 11
-8.001326197
 21
-24.0497942671
  0
LINE
  5
314
100
AcDbEntity
  8
0
100
AcDbLine
 62
7
  6
CONTINUOUS
 10
-9.0683134951
 20
-24.0497942671
 11
-9.1765666705
 21
-24.2372942671
  0
LINE
  5
315
100
AcDbEntity
  8
0
100
AcDbLine
 62
7
  6
CONTINUOUS
 10
-8.001326197
 20
-24.0497942671
 11
-7.8930730215
 21
-23.8622942671
  0
LINE
  5
316
100
AcDbEntity
  8
0
100
AcDbLine
 62
7
  6
CONTINUOUS
 10
-7.5683134951
 20
-24.0497942671
 11
-7.6765666705
 21
-24.2372942671
  0
LINE
  5
317
100
AcDbEntity
  8
0
100
AcDbLine
 62
7
  6
CONTINUOUS
 10
1.5034333295
 20
-29.5373697383
 11
1.2869269785
 21
-29.5373697383
  0
LINE
  5
318
100
AcDbEntity
  8
0
100
AcDbLine
 62
7
  6
CONTINUOUS
 10
1.2869269785
 20
-29.1623697383
 11
1.5034333295
 21
-29.1623697383
  0
LINE
  5
319
100
AcDbEntity
  8
0
100
AcDbLine
 62
7
  6
CONTINUOUS
 10
-7.6765666705
 20
-23.8622942671
 11
-7.5683134951
 21
-24.0497942671
  0
LINE
  5
31A
100
AcDbEntity
  8
0
100
AcDbLine
 62
7
  6
CONTINUOUS
 10
-1.664819846
 20
-25.3020963348
 11
-1.883319846
 21
-25.175945301
  0
LINE
  5
31B
100
AcDbEntity
  8
03___PRT_ALL_CURVES
100
AcDbLine
 62
4
  6
CONTINUOUS
 10
-12.789179947
 20
-16.9243142558
 11
-12.804819846
 21
-16.9097942671
  0
LINE
  5
31C
100
AcDbEntity
  8
0
100
AcDbLine
 62
7
  6
CONTINUOUS
 10
-2.7493452498
 20
-23.675945301
 11
-2.7493452498
 21
-23.4236432333
  0
LINE
  5
31D
100
AcDbEntity
  8
0
100
AcDbLine
 62
7
  6
CONTINUOUS
 10
-2.469819846
 20
-38.6597942671
 11
-2.469819846
 21
-35.7997942671
  0
LINE
  5
31E
100
AcDbEntity
  8
0
100
AcDbLine
 62
7
  6
CONTINUOUS
 10
-2.395819846
 20
-38.7358450367
 11
-2.395819846
 21
-38.7570582401
  0
LINE
  5
31F
100
AcDbEntity
  8
0
100
AcDbLine
 62
7
  6
CONTINUOUS
 10
-2.3123452498
 20
-23.4236432333
 11
-2.3123452498
 21
-23.675945301
  0
LINE
  5
320
100
AcDbEntity
  8
0
100
AcDbLine
 62
7
  6
CONTINUOUS
 10
-1.883319846
 20
-25.175945301
 11
-1.883319846
 21
-24.9236432333
  0
LINE
  5
321
100
AcDbEntity
  8
0
100
AcDbLine
 62
7
  6
CONTINUOUS
 10
3.5130297039
 20
-13.4714957727
 11
3.7850164735
 21
-13.0004008689
  0
LINE
  5
322
100
AcDbEntity
  8
0
100
AcDbLine
 62
7
  6
CONTINUOUS
 10
4.9430297039
 20
-10.9946631178
 11
3.8196574896
 21
-12.9404008689
  0
LINE
  5
323
100
AcDbEntity
  8
0
100
AcDbLine
 62
7
  6
CONTINUOUS
 10
-7.6765666705
 20
-24.2372942671
 11
-7.8930730215
 21
-24.2372942671
  0
LINE
  5
324
100
AcDbEntity
  8
0
100
AcDbLine
 62
7
  6
CONTINUOUS
 10
-9.1765666705
 20
-24.2372942671
 11
-9.3930730215
 21
-24.2372942671
  0
LINE
  5
325
100
AcDbEntity
  8
0
100
AcDbLine
 62
7
  6
CONTINUOUS
 10
-1.664819846
 20
-24.7974921995
 11
-1.446319846
 21
-24.9236432333
  0
LINE
  5
326
100
AcDbEntity
  8
0
100
AcDbLine
 62
7
  6
CONTINUOUS
 10
-1.096999523
 20
-24.6663006181
 11
-1.2813954376
 21
-24.5598395872
  0
LINE
  5
327
100
AcDbEntity
  8
0
100
AcDbLine
 62
7
  6
CONTINUOUS
 10
-2.5308452498
 20
-23.8020963348
 11
-2.7493452498
 21
-23.675945301
  0
LINE
  5
328
100
AcDbEntity
  8
0
100
AcDbLine
 62
7
  6
CONTINUOUS
 10
-1.1113864569
 20
-24.6126078497
 11
-1.2605840342
 21
-24.5264685883
  0
LINE
  5
329
100
AcDbEntity
  8
0
100
AcDbLine
 62
7
  6
CONTINUOUS
 10
-14.529495822
 20
-16.7320666805
 11
-14.0791626121
 21
-16.9920666805
  0
LINE
  5
32A
100
AcDbEntity
  8
0
100
AcDbLine
 62
7
  6
CONTINUOUS
 10
-14.434495822
 20
-16.5675218538
 11
-13.9841626121
 21
-16.8275218538
  0
LINE
  5
32B
100
AcDbEntity
  8
0
100
AcDbLine
 62
7
  6
CONTINUOUS
 10
-0.9006922914
 20
-24.2476748501
 11
-1.0498898687
 21
-24.1615355887
  0
LINE
  5
32C
100
AcDbEntity
  8
0
100
AcDbLine
 62
7
  6
CONTINUOUS
 10
-2.5308452498
 20
-23.2974921995
 11
-2.3123452498
 21
-23.4236432333
  0
LINE
  5
32D
100
AcDbEntity
  8
0
100
AcDbLine
 62
7
  6
CONTINUOUS
 10
-0.846999523
 20
-24.2332879162
 11
-1.0313954376
 21
-24.1268268853
  0
LINE
  5
32E
100
AcDbEntity
  8
0
100
AcDbLine
 62
7
  6
CONTINUOUS
 10
-8.2369702961
 20
-14.2764957727
 11
-8.9737240323
 21
-13.0004008689
  0
LINE
  5
32F
100
AcDbEntity
  8
0
100
AcDbLine
 62
7
  6
CONTINUOUS
 10
-9.6669702961
 20
-11.7996631178
 11
-9.0083650484
 21
-12.9404008689
  0
LINE
  5
330
100
AcDbEntity
  8
0
100
AcDbLine
 62
7
  6
CONTINUOUS
 10
-9.640909801
 20
-11.6968012194
 11
-9.6515164027
 21
-11.6784300463
  0
LINE
  5
331
100
AcDbEntity
  8
0
100
AcDbLine
 62
7
  6
CONTINUOUS
 10
2.0369269785
 20
-30.836407844
 11
1.928673803
 21
-30.648907844
  0
LINE
  5
332
100
AcDbEntity
  8
0
100
AcDbLine
 62
7
  6
CONTINUOUS
 10
1.2869269785
 20
-29.5373697383
 11
1.178673803
 21
-29.3498697383
  0
LINE
  5
333
100
AcDbEntity
  8
0
100
AcDbLine
 62
7
  6
CONTINUOUS
 10
1.5034333295
 20
-29.1623697383
 11
1.6116865049
 21
-29.3498697383
  0
LINE
  5
334
100
AcDbEntity
  8
0
100
AcDbLine
 62
7
  6
CONTINUOUS
 10
2.2534333295
 20
-30.461407844
 11
2.3616865049
 21
-30.648907844
  0
LINE
  5
335
100
AcDbEntity
  8
0
100
AcDbLine
 62
7
  6
CONTINUOUS
 10
-1.446319846
 20
-24.9236432333
 11
-1.446319846
 21
-25.175945301
  0
LINE
  5
336
100
AcDbEntity
  8
0
100
AcDbLine
 62
7
  6
CONTINUOUS
 10
-1.0172944422
 20
-23.675945301
 11
-1.0172944422
 21
-23.4236432333
  0
LINE
  5
337
100
AcDbEntity
  8
0
100
AcDbLine
 62
7
  6
CONTINUOUS
 10
-0.933819846
 20
-38.7358450367
 11
-0.933819846
 21
-38.7570582401
  0
LINE
  5
338
100
AcDbEntity
  8
0
100
AcDbLine
 62
7
  6
CONTINUOUS
 10
-0.859819846
 20
-35.7997942671
 11
-0.859819846
 21
-38.6597942671
  0
LINE
  5
339
100
AcDbEntity
  8
0
100
AcDbLine
 62
7
  6
CONTINUOUS
 10
-0.5802944422
 20
-23.4236432333
 11
-0.5802944422
 21
-23.675945301
  0
LINE
  5
33A
100
AcDbEntity
  8
0
100
AcDbLine
 62
7
  6
CONTINUOUS
 10
5.0451409686
 20
-10.9658012194
 11
5.0557475703
 21
-10.9474300463
  0
LINE
  5
33B
100
AcDbEntity
  8
0
100
AcDbLine
 62
7
  6
CONTINUOUS
 10
1.178673803
 20
-18.749718796
 11
1.2869269785
 21
-18.562218796
  0
LINE
  5
33C
100
AcDbEntity
  8
0
100
AcDbLine
 62
7
  6
CONTINUOUS
 10
1.928673803
 20
-17.4506806903
 11
2.0369269785
 21
-17.2631806903
  0
LINE
  5
33D
100
AcDbEntity
  8
0
100
AcDbLine
 62
7
  6
CONTINUOUS
 10
-9.1470922594
 20
-36.8194702431
 11
-8.8870922594
 21
-36.3691370332
  0
LINE
  5
33E
100
AcDbEntity
  8
0
100
AcDbLine
 62
7
  6
CONTINUOUS
 10
5.6279077406
 20
-11.2284195613
 11
5.6779077406
 21
-11.1418170209
  0
LINE
  5
33F
100
AcDbEntity
  8
0
100
AcDbLine
 62
7
  6
CONTINUOUS
 10
-8.9825474327
 20
-36.9144702431
 11
-8.7225474327
 21
-36.4641370332
  0
LINE
  5
340
100
AcDbEntity
  8
0
100
AcDbLine
 62
7
  6
CONTINUOUS
 10
5.7924525673
 20
-11.3234195613
 11
5.8424525673
 21
-11.2368170209
  0
LINE
  5
341
100
AcDbEntity
  8
0
100
AcDbLine
 62
7
  6
CONTINUOUS
 10
2.3616865049
 20
-17.4506806903
 11
2.2534333295
 21
-17.6381806903
  0
LINE
  5
342
100
AcDbEntity
  8
0
100
AcDbLine
 62
7
  6
CONTINUOUS
 10
1.6116865049
 20
-18.749718796
 11
1.5034333295
 21
-18.937218796
  0
LINE
  5
343
100
AcDbEntity
  8
0
100
AcDbLine
 62
7
  6
CONTINUOUS
 10
-2.7493452498
 20
-23.4236432333
 11
-2.5308452498
 21
-23.2974921995
  0
LINE
  5
344
100
AcDbEntity
  8
0
100
AcDbLine
 62
7
  6
CONTINUOUS
 10
-2.3123452498
 20
-23.675945301
 11
-2.5308452498
 21
-23.8020963348
  0
LINE
  5
345
100
AcDbEntity
  8
0
100
AcDbLine
 62
7
  6
CONTINUOUS
 10
-0.9006922914
 20
-24.2476748501
 11
-0.846999523
 21
-24.2332879162
  0
LINE
  5
346
100
AcDbEntity
  8
0
100
AcDbLine
 62
7
  6
CONTINUOUS
 10
-9.3930730215
 20
-23.8622942671
 11
-9.1765666705
 21
-23.8622942671
  0
LINE
  5
347
100
AcDbEntity
  8
0
100
AcDbLine
 62
7
  6
CONTINUOUS
 10
-7.8930730215
 20
-23.8622942671
 11
-7.6765666705
 21
-23.8622942671
  0
LINE
  5
348
100
AcDbEntity
  8
0
100
AcDbLine
 62
7
  6
CONTINUOUS
 10
-0.7987944422
 20
-23.8020963348
 11
-1.0172944422
 21
-23.675945301
  0
LINE
  5
349
100
AcDbEntity
  8
0
100
AcDbLine
 62
7
  6
CONTINUOUS
 10
-0.7987944422
 20
-23.2974921995
 11
-0.5802944422
 21
-23.4236432333
  0
LINE
  5
34A
100
AcDbEntity
  8
0
100
AcDbLine
 62
7
  6
CONTINUOUS
 10
-8.3747806606
 20
-10.9658012194
 11
-8.3853872624
 21
-10.9474300463
  0
LINE
  5
34B
100
AcDbEntity
  8
0
100
AcDbLine
 62
7
  6
CONTINUOUS
 10
-8.272669396
 20
-10.9946631178
 11
-7.1492971816
 21
-12.9404008689
  0
LINE
  5
34C
100
AcDbEntity
  8
0
100
AcDbLine
 62
7
  6
CONTINUOUS
 10
-7.1146561655
 20
-13.0004008689
 11
-6.842669396
 21
-13.4714957727
  0
LINE
  5
34D
100
AcDbEntity
  8
0
100
AcDbLine
 62
7
  6
CONTINUOUS
 10
-1.096999523
 20
-24.6663006181
 11
-1.1113864569
 21
-24.6126078497
  0
LINE
  5
34E
100
AcDbEntity
  8
0
100
AcDbLine
 62
7
  6
CONTINUOUS
 10
6.3112701089
 20
-11.6968012194
 11
6.3218767107
 21
-11.6784300463
  0
LINE
  5
34F
100
AcDbEntity
  8
0
100
AcDbLine
 62
7
  6
CONTINUOUS
 10
-1.1113864569
 20
-24.6126078497
 11
-0.9006922914
 21
-24.2476748501
  0
LINE
  5
350
100
AcDbEntity
  8
0
100
AcDbLine
 62
7
  6
CONTINUOUS
 10
-0.846999523
 20
-24.2332879162
 11
-1.096999523
 21
-24.6663006181
  0
LINE
  5
351
100
AcDbEntity
  8
0
100
AcDbLine
 62
7
  6
CONTINUOUS
 10
6.337330604
 20
-11.7996631178
 11
5.6787253564
 21
-12.9404008689
  0
LINE
  5
352
100
AcDbEntity
  8
0
100
AcDbLine
 62
7
  6
CONTINUOUS
 10
5.6440843403
 20
-13.0004008689
 11
4.907330604
 21
-14.2764957727
  0
LINE
  5
353
100
AcDbEntity
  8
0
100
AcDbLine
 62
7
  6
CONTINUOUS
 10
-1.0172944422
 20
-23.4236432333
 11
-0.7987944422
 21
-23.2974921995
  0
LINE
  5
354
100
AcDbEntity
  8
0
100
AcDbLine
 62
7
  6
CONTINUOUS
 10
-0.5802944422
 20
-23.675945301
 11
-0.7987944422
 21
-23.8020963348
  0
LINE
  5
355
100
AcDbEntity
  8
0
100
AcDbLine
 62
7
  6
CONTINUOUS
 10
-1.883319846
 20
-24.9236432333
 11
-1.664819846
 21
-24.7974921995
  0
LINE
  5
356
100
AcDbEntity
  8
0
100
AcDbLine
 62
7
  6
CONTINUOUS
 10
-1.446319846
 20
-25.175945301
 11
-1.664819846
 21
-25.3020963348
  0
LINE
  5
357
100
AcDbEntity
  8
0
100
AcDbLine
 62
7
  6
CONTINUOUS
 10
1.5034333295
 20
-18.937218796
 11
1.2869269785
 21
-18.937218796
  0
LINE
  5
358
100
AcDbEntity
  8
0
100
AcDbLine
 62
7
  6
CONTINUOUS
 10
1.2869269785
 20
-18.562218796
 11
1.5034333295
 21
-18.562218796
  0
LINE
  5
359
100
AcDbEntity
  8
0
100
AcDbLine
 62
7
  6
CONTINUOUS
 10
1.2869269785
 20
-18.937218796
 11
1.178673803
 21
-18.749718796
  0
LINE
  5
35A
100
AcDbEntity
  8
0
100
AcDbLine
 62
7
  6
CONTINUOUS
 10
1.5034333295
 20
-18.562218796
 11
1.6116865049
 21
-18.749718796
  0
LINE
  5
35B
100
AcDbEntity
  8
0
100
AcDbLine
 62
7
  6
CONTINUOUS
 10
1.178673803
 20
-29.3498697383
 11
1.2869269785
 21
-29.1623697383
  0
LINE
  5
35C
100
AcDbEntity
  8
0
100
AcDbLine
 62
7
  6
CONTINUOUS
 10
1.6116865049
 20
-29.3498697383
 11
1.5034333295
 21
-29.5373697383
  0
LINE
  5
35D
100
AcDbEntity
  8
0
100
AcDbLine
 62
7
  6
CONTINUOUS
 10
2.2534333295
 20
-17.6381806903
 11
2.0369269785
 21
-17.6381806903
  0
LINE
  5
35E
100
AcDbEntity
  8
0
100
AcDbLine
 62
7
  6
CONTINUOUS
 10
2.0369269785
 20
-17.2631806903
 11
2.2534333295
 21
-17.2631806903
  0
LINE
  5
35F
100
AcDbEntity
  8
0
100
AcDbLine
 62
7
  6
CONTINUOUS
 10
2.0369269785
 20
-17.6381806903
 11
1.928673803
 21
-17.4506806903
  0
LINE
  5
360
100
AcDbEntity
  8
0
100
AcDbLine
 62
7
  6
CONTINUOUS
 10
2.2534333295
 20
-17.2631806903
 11
2.3616865049
 21
-17.4506806903
  0
LINE
  5
361
100
AcDbEntity
  8
0
100
AcDbLine
 62
7
  6
CONTINUOUS
 10
1.928673803
 20
-30.648907844
 11
2.0369269785
 21
-30.461407844
  0
LINE
  5
362
100
AcDbEntity
  8
0
100
AcDbLine
 62
7
  6
CONTINUOUS
 10
2.3616865049
 20
-30.648907844
 11
2.2534333295
 21
-30.836407844
  0
LINE
  5
363
100
AcDbEntity
  8
0
100
AcDbLine
 62
7
  6
CONTINUOUS
 10
-12.804819846
 20
-16.8097942671
 11
-12.7742132443
 21
-16.8097942671
  0
LINE
  5
364
100
AcDbEntity
  8
0
100
AcDbLine
 62
7
  6
CONTINUOUS
 10
9.3245735523
 20
-12.9404008689
 11
9.3245735523
 21
-13.0604008689
  0
LINE
  5
365
100
AcDbEntity
  8
0
100
AcDbLine
 62
7
  6
CONTINUOUS
 10
9.3245735523
 20
-35.0391876654
 11
9.3245735523
 21
-35.1591876654
  0
LINE
  5
366
100
AcDbEntity
  8
0
100
AcDbLine
 62
7
  6
CONTINUOUS
 10
9.3845735523
 20
-35.0391876654
 11
9.3845735523
 21
-13.0604008689
  0
LINE
  5
367
100
AcDbEntity
  8
0
100
AcDbLine
 62
3
  6
CONTINUOUS
 10
9.4445735523
 20
-35.0391876654
 11
9.4445735523
 21
-13.0604008689
  0
LINE
  5
368
100
AcDbEntity
  8
0
100
AcDbLine
 62
7
  6
CONTINUOUS
 10
-12.7742132443
 20
-13.3097942671
 11
-12.804819846
 21
-13.3097942671
  0
LINE
  5
369
100
AcDbEntity
  8
0
100
AcDbLine
 62
7
  6
CONTINUOUS
 10
9.3245735523
 20
-13.0604008689
 11
9.4445735523
 21
-13.0604008689
  0
LINE
  5
36A
100
AcDbEntity
  8
0
100
AcDbLine
 62
7
  6
CONTINUOUS
 10
-12.6542132443
 20
-13.0604008689
 11
-12.7742132443
 21
-13.0604008689
  0
LINE
  5
36B
100
AcDbEntity
  8
0
100
AcDbLine
 62
7
  6
CONTINUOUS
 10
9.3245735523
 20
-13.0004008689
 11
-12.6542132443
 21
-13.0004008689
  0
LINE
  5
36C
100
AcDbEntity
  8
0
100
AcDbLine
 62
3
  6
CONTINUOUS
 10
9.3245735523
 20
-12.9404008689
 11
-12.6542132443
 21
-12.9404008689
  0
LINE
  5
36D
100
AcDbEntity
  8
0
100
AcDbLine
 62
7
  6
CONTINUOUS
 10
4.907330604
 20
-14.2764957727
 11
3.5130297039
 21
-13.4714957727
  0
LINE
  5
36E
100
AcDbEntity
  8
0
100
AcDbLine
 62
7
  6
CONTINUOUS
 10
5.1342732605
 20
-10.9434195613
 11
6.2860870475
 21
-11.6084195613
  0
LINE
  5
36F
100
AcDbEntity
  8
0
100
AcDbLine
 62
7
  6
CONTINUOUS
 10
5.5913052003
 20
-11.0918170209
 11
5.9290551077
 21
-11.2868170209
  0
ARC
  5
370
100
AcDbEntity
  8
0
100
AcDbCircle
 62
7
  6
CONTINUOUS
 10
-14.2770878372
 20
1.9713362259
 40
0.3066073313
100
AcDbArc
 50
153.0089741008
 51
206.9911690151
  0
ARC
  5
371
100
AcDbEntity
  8
0
100
AcDbCircle
 62
7
  6
CONTINUOUS
 10
-14.2770878372
 20
5.0213362259
 40
0.3066073313
100
AcDbArc
 50
153.0089741008
 51
206.9911690151
  0
ARC
  5
372
100
AcDbEntity
  8
0
100
AcDbCircle
 62
7
  6
CONTINUOUS
 10
-14.2770878372
 20
0.1663362259
 40
0.3066073313
100
AcDbArc
 50
153.0089741008
 51
206.9911690151
  0
ARC
  5
373
100
AcDbEntity
  8
0
100
AcDbCircle
 62
7
  6
CONTINUOUS
 10
-13.5375502487
 20
3.5993361806
 40
0.253
100
AcDbArc
 50
90.0
 51
270.0
  0
ARC
  5
374
100
AcDbEntity
  8
0
100
AcDbCircle
 62
3
  6
CONTINUOUS
 10
-7.164819846
 20
-1.3586638194
 40
0.155
100
AcDbArc
 50
270.0
 51
116.5974537036
  0
ARC
  5
375
100
AcDbEntity
  8
0
100
AcDbCircle
 62
7
  6
CONTINUOUS
 10
-9.5455276268
 20
-1.6735084312
 40
0.1402512336
100
AcDbArc
 50
214.3706203897
 51
215.9856741403
  0
ARC
  5
376
100
AcDbEntity
  8
0
100
AcDbCircle
 62
7
  6
CONTINUOUS
 10
-9.545731661
 20
-1.6736739018
 40
0.1399886039
100
AcDbArc
 50
225.8036747895
 51
270.0020142935
  0
ARC
  5
377
100
AcDbEntity
  8
0
100
AcDbCircle
 62
7
  6
CONTINUOUS
 10
-9.5458068093
 20
-1.6736654368
 40
0.1399208528
100
AcDbArc
 50
179.9927771719
 51
198.8031339038
  0
ARC
  5
378
100
AcDbEntity
  8
0
100
AcDbCircle
 62
7
  6
CONTINUOUS
 10
-9.5458221972
 20
-1.673754278
 40
0.1398684249
100
AcDbArc
 50
215.9750866582
 51
225.8073118329
  0
ARC
  5
379
100
AcDbEntity
  8
0
100
AcDbCircle
 62
3
  6
CONTINUOUS
 10
-12.6542132443
 20
-0.7286638194
 40
0.12
100
AcDbArc
 50
90.0
 51
180.0
  0
ARC
  5
37A
100
AcDbEntity
  8
0
100
AcDbCircle
 62
7
  6
CONTINUOUS
 10
-9.0023218188
 20
2.9998954711
 40
0.0814848029
100
AcDbArc
 50
103.6313414647
 51
110.5459393622
  0
ARC
  5
37B
100
AcDbEntity
  8
0
100
AcDbCircle
 62
7
  6
CONTINUOUS
 10
-9.0023576403
 20
2.9526603684
 40
0.0813631214
100
AcDbArc
 50
249.4488838257
 51
256.3738353474
  0
ARC
  5
37C
100
AcDbEntity
  8
0
100
AcDbCircle
 62
7
  6
CONTINUOUS
 10
-9.0399311277
 20
2.9511037761
 40
0.0797676731
100
AcDbArc
 50
270.0799318103
 51
283.6445990726
  0
ARC
  5
37D
100
AcDbEntity
  8
0
100
AcDbCircle
 62
7
  6
CONTINUOUS
 10
-9.0398601135
 20
3.0021586732
 40
0.0791775177
100
AcDbArc
 50
76.3046081736
 51
89.9708609436
  0
ARC
  5
37E
100
AcDbEntity
  8
0
100
AcDbCircle
 62
7
  6
CONTINUOUS
 10
-9.6174389175
 20
-1.6892170974
 40
0.0694350162
100
AcDbArc
 50
235.7124927733
 51
240.6079793233
  0
ARC
  5
37F
100
AcDbEntity
  8
0
100
AcDbCircle
 62
7
  6
CONTINUOUS
 10
-12.6542132443
 20
-0.7286638194
 40
0.06
100
AcDbArc
 50
90.0
 51
180.0
  0
ARC
  5
380
100
AcDbEntity
  8
0
100
AcDbCircle
 62
7
  6
CONTINUOUS
 10
-9.6168773306
 20
-1.7226773613
 40
0.0536455468
100
AcDbArc
 50
194.6790141576
 51
197.8451451166
  0
ARC
  5
381
100
AcDbEntity
  8
0
100
AcDbCircle
 62
7
  6
CONTINUOUS
 10
-9.6170529843
 20
-1.7224178797
 40
0.0536031284
100
AcDbArc
 50
214.3804675613
 51
218.1810648798
  0
ARC
  5
382
100
AcDbEntity
  8
0
100
AcDbCircle
 62
7
  6
CONTINUOUS
 10
-9.6180184419
 20
-1.7230663995
 40
0.0524401214
100
AcDbArc
 50
197.8226020613
 51
214.3913418836
  0
ARC
  5
383
100
AcDbEntity
  8
0
100
AcDbCircle
 62
3
  6
CONTINUOUS
 10
-10.789819846
 20
7.6693361806
 40
1.0
100
AcDbArc
 50
90.0
 51
160.0
  0
ARC
  5
384
100
AcDbEntity
  8
0
100
AcDbCircle
 62
3
  6
CONTINUOUS
 10
-6.4137387417
 20
14.0593361806
 40
1.0
100
AcDbArc
 50
90.0
 51
160.0
  0
ARC
  5
385
100
AcDbEntity
  8
0
100
AcDbCircle
 62
3
  6
CONTINUOUS
 10
-9.789819846
 20
9.1693361806
 40
0.5
100
AcDbArc
 50
270.0
 51
340.0
  0
ARC
  5
386
100
AcDbEntity
  8
AXIS
100
AcDbCircle
 62
7
  6
CONTINUOUS
 10
-9.6334132703
 20
8.9143361806
 40
0.2
100
AcDbArc
 50
0.0
 51
180.0
  0
ARC
  5
387
100
AcDbEntity
  8
0
100
AcDbCircle
 62
7
  6
CONTINUOUS
 10
-9.5454149974
 20
6.8360978016
 40
0.1403901939
100
AcDbArc
 50
144.0164356661
 51
145.6385257779
  0
ARC
  5
388
100
AcDbEntity
  8
0
100
AcDbCircle
 62
7
  6
CONTINUOUS
 10
-9.5454386903
 20
6.8362897097
 40
0.140288057
100
AcDbArc
 50
161.2444005233
 51
179.9810205366
  0
ARC
  5
389
100
AcDbEntity
  8
0
100
AcDbCircle
 62
7
  6
CONTINUOUS
 10
-9.545583643
 20
6.8362281121
 40
0.140177164
100
AcDbArc
 50
134.2100186445
 51
144.0190340519
  0
ARC
  5
38A
100
AcDbEntity
  8
0
100
AcDbCircle
 62
7
  6
CONTINUOUS
 10
-9.5457270005
 20
6.8363349106
 40
0.1400005204
100
AcDbArc
 50
89.9998931796
 51
134.1984419028
  0
ARC
  5
38B
100
AcDbEntity
  8
0
100
AcDbCircle
 62
7
  6
CONTINUOUS
 10
-9.0023218188
 20
6.2498954711
 40
0.0814848029
100
AcDbArc
 50
103.6313414647
 51
110.5459393621
  0
ARC
  5
38C
100
AcDbEntity
  8
0
100
AcDbCircle
 62
7
  6
CONTINUOUS
 10
-9.0023576403
 20
6.2026603684
 40
0.0813631214
100
AcDbArc
 50
249.4488838257
 51
256.3738353474
  0
ARC
  5
38D
100
AcDbEntity
  8
0
100
AcDbCircle
 62
7
  6
CONTINUOUS
 10
-9.0399311277
 20
6.2011037761
 40
0.0797676731
100
AcDbArc
 50
270.0799318103
 51
283.6445990726
  0
ARC
  5
38E
100
AcDbEntity
  8
0
100
AcDbCircle
 62
7
  6
CONTINUOUS
 10
-9.0398601135
 20
6.2521586732
 40
0.0791775177
100
AcDbArc
 50
76.3046081736
 51
89.9708609436
  0
ARC
  5
38F
100
AcDbEntity
  8
0
100
AcDbCircle
 62
7
  6
CONTINUOUS
 10
-9.6179094183
 20
6.8526471928
 40
0.0685439131
100
AcDbArc
 50
119.3602093334
 51
124.3460608829
  0
ARC
  5
390
100
AcDbEntity
  8
0
100
AcDbCircle
 62
7
  6
CONTINUOUS
 10
-9.617046174
 20
6.8850835122
 40
0.0536126871
100
AcDbArc
 50
141.8130761324
 51
145.6469299593
  0
ARC
  5
391
100
AcDbEntity
  8
0
100
AcDbCircle
 62
7
  6
CONTINUOUS
 10
-9.616943031
 20
6.8853758848
 40
0.053574978
100
AcDbArc
 50
161.987372239
 51
165.2805484338
  0
ARC
  5
392
100
AcDbEntity
  8
0
100
AcDbCircle
 62
7
  6
CONTINUOUS
 10
-9.6180445636
 20
6.8857523483
 40
0.0524110236
100
AcDbArc
 50
145.6346781848
 51
162.0063822125
  0
ARC
  5
393
100
AcDbEntity
  8
0
100
AcDbCircle
 62
3
  6
CONTINUOUS
 10
4.1378804105
 20
0.9241008366
 40
1.725
100
AcDbArc
 50
205.6890429066
 51
209.7515638666
  0
ARC
  5
394
100
AcDbEntity
  8
0
100
AcDbCircle
 62
3
  6
CONTINUOUS
 10
3.835180154
 20
-1.3586638194
 40
0.155
100
AcDbArc
 50
63.4025462964
 51
270.0
  0
ARC
  5
395
100
AcDbEntity
  8
0
100
AcDbCircle
 62
7
  6
CONTINUOUS
 10
6.2157753053
 20
-1.6734254403
 40
0.1403901939
100
AcDbArc
 50
324.0164356661
 51
325.638525778
  0
ARC
  5
396
100
AcDbEntity
  8
0
100
AcDbCircle
 62
7
  6
CONTINUOUS
 10
6.2157989982
 20
-1.6736173484
 40
0.140288057
100
AcDbArc
 50
341.2444005233
 51
359.9810205366
  0
ARC
  5
397
100
AcDbEntity
  8
0
100
AcDbCircle
 62
7
  6
CONTINUOUS
 10
6.215943951
 20
-1.6735557508
 40
0.140177164
100
AcDbArc
 50
314.2100186445
 51
324.0190340519
  0
ARC
  5
398
100
AcDbEntity
  8
0
100
AcDbCircle
 62
7
  6
CONTINUOUS
 10
6.2160872658
 20
-1.6736625687
 40
0.1400005204
100
AcDbArc
 50
269.9999106738
 51
314.1984599533
  0
ARC
  5
399
100
AcDbEntity
  8
0
100
AcDbCircle
 62
7
  6
CONTINUOUS
 10
2.7270813375
 20
0.1931350377
 40
0.0773559463
100
AcDbArc
 50
60.6480248102
 51
70.2721793611
  0
ARC
  5
39A
100
AcDbEntity
  8
0
100
AcDbCircle
 62
7
  6
CONTINUOUS
 10
2.7270813375
 20
0.1495373236
 40
0.0773559463
100
AcDbArc
 50
289.7278206389
 51
299.3519751899
  0
ARC
  5
39B
100
AcDbEntity
  8
0
100
AcDbCircle
 62
7
  6
CONTINUOUS
 10
2.7298670329
 20
0.1495111906
 40
0.0773301831
100
AcDbArc
 50
289.7319510246
 51
299.3575329258
  0
ARC
  5
39C
100
AcDbEntity
  8
0
100
AcDbCircle
 62
7
  6
CONTINUOUS
 10
2.7298670329
 20
0.1931611707
 40
0.0773301831
100
AcDbArc
 50
60.6424670742
 51
70.2680489754
  0
ARC
  5
39D
100
AcDbEntity
  8
0
100
AcDbCircle
 62
3
  6
CONTINUOUS
 10
2.7476188363
 20
0.14892309
 40
0.0766595342
100
AcDbArc
 50
288.9022587908
 51
289.6799391997
  0
ARC
  5
39E
100
AcDbEntity
  8
0
100
AcDbCircle
 62
3
  6
CONTINUOUS
 10
2.7476188363
 20
0.1937492713
 40
0.0766595342
100
AcDbArc
 50
70.3200608002
 51
71.0977412092
  0
ARC
  5
39F
100
AcDbEntity
  8
0
100
AcDbCircle
 62
7
  6
CONTINUOUS
 10
2.7302930521
 20
0.1484195585
 40
0.0761588232
100
AcDbArc
 50
289.0280044865
 51
289.7075402178
  0
ARC
  5
3A0
100
AcDbEntity
  8
0
100
AcDbCircle
 62
7
  6
CONTINUOUS
 10
2.7302930521
 20
0.1942528028
 40
0.0761588232
100
AcDbArc
 50
70.2924597822
 51
70.9719955135
  0
ARC
  5
3A1
100
AcDbEntity
  8
0
100
AcDbCircle
 62
3
  6
CONTINUOUS
 10
2.7478727326
 20
0.1945259912
 40
0.0758424507
100
AcDbArc
 50
71.0891155209
 51
80.0474253464
  0
ARC
  5
3A2
100
AcDbEntity
  8
0
100
AcDbCircle
 62
3
  6
CONTINUOUS
 10
2.7479480932
 20
0.1478535333
 40
0.0755409997
100
AcDbArc
 50
279.9346635864
 51
288.9287955464
  0
ARC
  5
3A3
100
AcDbEntity
  8
0
100
AcDbCircle
 62
7
  6
CONTINUOUS
 10
2.7277494612
 20
0.1477278173
 40
0.0754271213
100
AcDbArc
 50
279.9712538787
 51
289.7140668317
  0
ARC
  5
3A4
100
AcDbEntity
  8
0
100
AcDbCircle
 62
7
  6
CONTINUOUS
 10
2.7305565684
 20
0.1950540307
 40
0.0753154616
100
AcDbArc
 50
70.9627851977
 51
80.030882811
  0
ARC
  5
3A5
100
AcDbEntity
  8
0
100
AcDbCircle
 62
7
  6
CONTINUOUS
 10
2.7558225567
 20
0.1951856032
 40
0.0751814596
100
AcDbArc
 50
71.1687801843
 51
80.47174241
  0
ARC
  5
3A6
100
AcDbEntity
  8
0
100
AcDbCircle
 62
7
  6
CONTINUOUS
 10
2.7278356944
 20
0.1952699424
 40
0.0750917119
100
AcDbArc
 50
70.2641213027
 51
80.0505579868
  0
ARC
  5
3A7
100
AcDbEntity
  8
0
100
AcDbCircle
 62
7
  6
CONTINUOUS
 10
2.7306352482
 20
0.1473141678
 40
0.0750022746
100
AcDbArc
 50
279.9501444925
 51
289.0561874989
  0
ARC
  5
3A8
100
AcDbEntity
  8
0
100
AcDbCircle
 62
7
  6
CONTINUOUS
 10
2.7559014049
 20
0.1471746889
 40
0.0748606482
100
AcDbArc
 50
279.5082797193
 51
288.8511976864
  0
ARC
  5
3A9
100
AcDbEntity
  8
0
100
AcDbCircle
 62
7
  6
CONTINUOUS
 10
6.2882697263
 20
-1.6899748315
 40
0.0685439131
100
AcDbArc
 50
299.3602093334
 51
304.3460608829
  0
ARC
  5
3AA
100
AcDbEntity
  8
0
100
AcDbCircle
 62
7
  6
CONTINUOUS
 10
6.287406482
 20
-1.7224111509
 40
0.0536126871
100
AcDbArc
 50
321.8130761324
 51
325.6469299592
  0
ARC
  5
3AB
100
AcDbEntity
  8
0
100
AcDbCircle
 62
7
  6
CONTINUOUS
 10
6.287303339
 20
-1.7227035235
 40
0.053574978
100
AcDbArc
 50
341.9873722391
 51
345.2805484336
  0
ARC
  5
3AC
100
AcDbEntity
  8
0
100
AcDbCircle
 62
7
  6
CONTINUOUS
 10
6.2884048716
 20
-1.723079987
 40
0.0524110236
100
AcDbArc
 50
325.6346781849
 51
342.0063822124
  0
ARC
  5
3AD
100
AcDbEntity
  8
0
100
AcDbCircle
 62
3
  6
CONTINUOUS
 10
4.2955833994
 20
0.9999610191
 40
1.9
100
AcDbArc
 50
203.352729345
 51
205.6890429066
  0
ARC
  5
3AE
100
AcDbEntity
  8
0
100
AcDbCircle
 62
7
  6
CONTINUOUS
 10
5.6726821268
 20
2.9527768902
 40
0.0814848029
100
AcDbArc
 50
283.6313414647
 51
290.5459393622
  0
ARC
  5
3AF
100
AcDbEntity
  8
0
100
AcDbCircle
 62
7
  6
CONTINUOUS
 10
5.6727179483
 20
3.0000119929
 40
0.0813631214
100
AcDbArc
 50
69.4488838257
 51
76.3738353474
  0
ARC
  5
3B0
100
AcDbEntity
  8
0
100
AcDbCircle
 62
7
  6
CONTINUOUS
 10
5.7102914357
 20
3.0015685852
 40
0.0797676731
100
AcDbArc
 50
90.0799318103
 51
103.6445990726
  0
ARC
  5
3B1
100
AcDbEntity
  8
0
100
AcDbCircle
 62
7
  6
CONTINUOUS
 10
5.7102204215
 20
2.9505136881
 40
0.0791775177
100
AcDbArc
 50
256.3046081736
 51
269.9708609436
  0
ARC
  5
3B2
100
AcDbEntity
  8
0
100
AcDbCircle
 62
7
  6
CONTINUOUS
 10
2.7290079715
 20
2.7995192513
 40
0.0773381297
100
AcDbArc
 50
289.7306767305
 51
299.3558183049
  0
ARC
  5
3B3
100
AcDbEntity
  8
0
100
AcDbCircle
 62
7
  6
CONTINUOUS
 10
2.7290079715
 20
2.84315311
 40
0.0773381297
100
AcDbArc
 50
60.6441816951
 51
70.2693232695
  0
ARC
  5
3B4
100
AcDbEntity
  8
0
100
AcDbCircle
 62
3
  6
CONTINUOUS
 10
2.7467560878
 20
2.8437404486
 40
0.0766683052
100
AcDbArc
 50
70.3213124102
 51
71.0999943914
  0
ARC
  5
3B5
100
AcDbEntity
  8
0
100
AcDbCircle
 62
3
  6
CONTINUOUS
 10
2.7467560879
 20
2.7989319127
 40
0.0766683052
100
AcDbArc
 50
288.9000056085
 51
289.6786875899
  0
ARC
  5
3B6
100
AcDbEntity
  8
0
100
AcDbCircle
 62
7
  6
CONTINUOUS
 10
2.7294336862
 20
2.7984283186
 40
0.0761675317
100
AcDbArc
 50
289.0258740534
 51
289.7062871225
  0
ARC
  5
3B7
100
AcDbEntity
  8
0
100
AcDbCircle
 62
7
  6
CONTINUOUS
 10
2.7294336862
 20
2.8442440427
 40
0.0761675317
100
AcDbArc
 50
70.2937128774
 51
70.9741259468
  0
ARC
  5
3B8
100
AcDbEntity
  8
0
100
AcDbCircle
 62
3
  6
CONTINUOUS
 10
2.747009807
 20
2.8445167184
 40
0.0758517045
100
AcDbArc
 50
71.0913775956
 51
80.0481171235
  0
ARC
  5
3B9
100
AcDbEntity
  8
0
100
AcDbCircle
 62
3
  6
CONTINUOUS
 10
2.7470851139
 20
2.7978629833
 40
0.0755504376
100
AcDbArc
 50
279.9339881361
 51
288.9265171448
  0
ARC
  5
3BA
100
AcDbEntity
  8
0
100
AcDbCircle
 62
7
  6
CONTINUOUS
 10
2.7296970256
 20
2.8450448225
 40
0.0753246509
100
AcDbArc
 50
70.9649245527
 51
80.0315756268
  0
ARC
  5
3BB
100
AcDbEntity
  8
0
100
AcDbCircle
 62
7
  6
CONTINUOUS
 10
2.7549633153
 20
2.8451757379
 40
0.0751913096
100
AcDbArc
 50
71.1700610469
 51
80.4724384833
  0
ARC
  5
3BC
100
AcDbEntity
  8
0
100
AcDbCircle
 62
7
  6
CONTINUOUS
 10
2.7297756522
 20
2.7973235507
 40
0.0750116454
100
AcDbArc
 50
279.9494680814
 51
289.0540317392
  0
ARC
  5
3BD
100
AcDbEntity
  8
0
100
AcDbCircle
 62
7
  6
CONTINUOUS
 10
2.7550421193
 20
2.7971847068
 40
0.0748706563
100
AcDbArc
 50
279.50759742
 51
288.8499030498
  0
ARC
  5
3BE
100
AcDbEntity
  8
0
100
AcDbCircle
 62
3
  6
CONTINUOUS
 10
9.3245735523
 20
-0.7286638194
 40
0.12
100
AcDbArc
 50
0.0
 51
90.0
  0
ARC
  5
3BF
100
AcDbEntity
  8
0
100
AcDbCircle
 62
7
  6
CONTINUOUS
 10
9.3245735523
 20
-0.7286638194
 40
0.06
100
AcDbArc
 50
0.0
 51
90.0
  0
ARC
  5
3C0
100
AcDbEntity
  8
0
100
AcDbCircle
 62
7
  6
CONTINUOUS
 10
10.2079105567
 20
3.5993361806
 40
0.253
100
AcDbArc
 50
270.0
 51
90.0
  0
ARC
  5
3C1
100
AcDbEntity
  8
0
100
AcDbCircle
 62
3
  6
CONTINUOUS
 10
3.0840990497
 20
14.0593361806
 40
1.0
100
AcDbArc
 50
20.0
 51
90.0
  0
ARC
  5
3C2
100
AcDbEntity
  8
0
100
AcDbCircle
 62
3
  6
CONTINUOUS
 10
7.460180154
 20
7.6693361806
 40
1.0
100
AcDbArc
 50
20.0
 51
90.0
  0
ARC
  5
3C3
100
AcDbEntity
  8
0
100
AcDbCircle
 62
3
  6
CONTINUOUS
 10
6.460180154
 20
9.1693361806
 40
0.5
100
AcDbArc
 50
200.0
 51
270.0
  0
ARC
  5
3C4
100
AcDbEntity
  8
AXIS
100
AcDbCircle
 62
7
  6
CONTINUOUS
 10
-0.1922832994
 20
8.9143361806
 40
0.2
100
AcDbArc
 50
0.0
 51
180.0
  0
ARC
  5
3C5
100
AcDbEntity
  8
0
100
AcDbCircle
 62
7
  6
CONTINUOUS
 10
6.2158879348
 20
6.8361807925
 40
0.1402512336
100
AcDbArc
 50
34.3706203897
 51
35.9856741402
  0
ARC
  5
3C6
100
AcDbEntity
  8
0
100
AcDbCircle
 62
7
  6
CONTINUOUS
 10
6.2160919248
 20
6.8363462778
 40
0.1399886039
100
AcDbArc
 50
45.8036576213
 51
90.0019961863
  0
ARC
  5
3C7
100
AcDbEntity
  8
0
100
AcDbCircle
 62
7
  6
CONTINUOUS
 10
6.2161671173
 20
6.8363377981
 40
0.1399208528
100
AcDbArc
 50
359.9927771719
 51
18.8031339038
  0
ARC
  5
3C8
100
AcDbEntity
  8
0
100
AcDbCircle
 62
7
  6
CONTINUOUS
 10
6.2161825052
 20
6.8364266393
 40
0.1398684249
100
AcDbArc
 50
35.9750866582
 51
45.8073118329
  0
ARC
  5
3C9
100
AcDbEntity
  8
0
100
AcDbCircle
 62
7
  6
CONTINUOUS
 10
5.6726821268
 20
6.2027768902
 40
0.0814848029
100
AcDbArc
 50
283.6313414647
 51
290.5459393621
  0
ARC
  5
3CA
100
AcDbEntity
  8
0
100
AcDbCircle
 62
7
  6
CONTINUOUS
 10
5.6727179483
 20
6.2500119929
 40
0.0813631214
100
AcDbArc
 50
69.4488838257
 51
76.3738353474
  0
ARC
  5
3CB
100
AcDbEntity
  8
0
100
AcDbCircle
 62
7
  6
CONTINUOUS
 10
5.7102914357
 20
6.2515685852
 40
0.0797676731
100
AcDbArc
 50
90.0799318103
 51
103.6445990726
  0
ARC
  5
3CC
100
AcDbEntity
  8
0
100
AcDbCircle
 62
7
  6
CONTINUOUS
 10
5.7102204215
 20
6.2005136881
 40
0.0791775177
100
AcDbArc
 50
256.3046081736
 51
269.9708609435
  0
ARC
  5
3CD
100
AcDbEntity
  8
0
100
AcDbCircle
 62
7
  6
CONTINUOUS
 10
6.2877992255
 20
6.8518894587
 40
0.0694350162
100
AcDbArc
 50
55.7124927733
 51
60.6079793233
  0
ARC
  5
3CE
100
AcDbEntity
  8
0
100
AcDbCircle
 62
7
  6
CONTINUOUS
 10
6.2872376386
 20
6.8853497226
 40
0.0536455468
100
AcDbArc
 50
14.6790141573
 51
17.8451451168
  0
ARC
  5
3CF
100
AcDbEntity
  8
0
100
AcDbCircle
 62
7
  6
CONTINUOUS
 10
6.2874132923
 20
6.885090241
 40
0.0536031284
100
AcDbArc
 50
34.3804675613
 51
38.1810648798
  0
ARC
  5
3D0
100
AcDbEntity
  8
0
100
AcDbCircle
 62
7
  6
CONTINUOUS
 10
6.2883787499
 20
6.8857387608
 40
0.0524401214
100
AcDbArc
 50
17.8226020613
 51
34.3913418836
  0
ARC
  5
3D1
100
AcDbEntity
  8
0
100
AcDbCircle
 62
7
  6
CONTINUOUS
 10
22.4707449217
 20
-1.2315769454
 40
0.6751684746
100
AcDbArc
 50
316.6653852051
 51
319.097022751
  0
ARC
  5
3D2
100
AcDbEntity
  8
0
100
AcDbCircle
 62
7
  6
CONTINUOUS
 10
22.557241099
 20
1.9713362259
 40
0.3066073313
100
AcDbArc
 50
153.0089741008
 51
206.9911690151
  0
ARC
  5
3D3
100
AcDbEntity
  8
0
100
AcDbCircle
 62
7
  6
CONTINUOUS
 10
22.557241099
 20
0.1663362259
 40
0.3066073313
100
AcDbArc
 50
153.0089741008
 51
206.9911690151
  0
ARC
  5
3D4
100
AcDbEntity
  8
0
100
AcDbCircle
 62
7
  6
CONTINUOUS
 10
22.557241099
 20
5.0213362259
 40
0.3066073313
100
AcDbArc
 50
153.0089741008
 51
206.9911690151
  0
CIRCLE
  5
3D5
100
AcDbEntity
  8
0
100
AcDbCircle
 62
3
  6
CONTINUOUS
 10
29.7128103604
 20
-1.3586638194
 40
0.155
  0
ARC
  5
3D6
100
AcDbEntity
  8
0
100
AcDbCircle
 62
7
  6
CONTINUOUS
 10
22.2288663747
 20
-1.6736446776
 40
0.1411797716
100
AcDbArc
 50
180.0051977665
 51
180.5941474175
  0
ARC
  5
3D7
100
AcDbEntity
  8
0
100
AcDbCircle
 62
7
  6
CONTINUOUS
 10
22.2282619222
 20
-1.6736682063
 40
0.1405751086
100
AcDbArc
 50
180.5871127865
 51
188.824760448
  0
ARC
  5
3D8
100
AcDbEntity
  8
0
100
AcDbCircle
 62
7
  6
CONTINUOUS
 10
22.2276772271
 20
-1.6736615686
 40
0.1399985844
100
AcDbArc
 50
188.8641553731
 51
222.2952783511
  0
ARC
  5
3D9
100
AcDbEntity
  8
0
100
AcDbCircle
 62
7
  6
CONTINUOUS
 10
22.2276762222
 20
-1.6736695524
 40
0.1399929632
100
AcDbArc
 50
224.5593605585
 51
270.0012232842
  0
ARC
  5
3DA
100
AcDbEntity
  8
0
100
AcDbCircle
 62
7
  6
CONTINUOUS
 10
22.2274745826
 20
-1.6737633872
 40
0.1397730151
100
AcDbArc
 50
210.0475548376
 51
212.9673907654
  0
ARC
  5
3DB
100
AcDbEntity
  8
0
100
AcDbCircle
 62
7
  6
CONTINUOUS
 10
22.2273407236
 20
-1.6738471509
 40
0.1396152034
100
AcDbArc
 50
207.7490846318
 51
210.0453055304
  0
ARC
  5
3DC
100
AcDbEntity
  8
0
100
AcDbCircle
 62
7
  6
CONTINUOUS
 10
22.2271441873
 20
-1.6741510642
 40
0.1392763579
100
AcDbArc
 50
222.2938947183
 51
224.5717894025
  0
ARC
  5
3DD
100
AcDbEntity
  8
0
100
AcDbCircle
 62
3
  6
CONTINUOUS
 10
24.2234169621
 20
-0.7286638194
 40
0.12
100
AcDbArc
 50
90.0
 51
180.0
  0
ARC
  5
3DE
100
AcDbEntity
  8
0
100
AcDbCircle
 62
7
  6
CONTINUOUS
 10
24.2234169621
 20
-0.7286638194
 40
0.06
100
AcDbArc
 50
90.0
 51
180.0
  0
ARC
  5
3DF
100
AcDbEntity
  8
0
100
AcDbCircle
 62
3
  6
CONTINUOUS
 10
26.0878103604
 20
7.6693361806
 40
1.0
100
AcDbArc
 50
90.0
 51
160.0
  0
ARC
  5
3E0
100
AcDbEntity
  8
0
100
AcDbCircle
 62
3
  6
CONTINUOUS
 10
30.4638914647
 20
14.0593361806
 40
1.0
100
AcDbArc
 50
90.0
 51
160.0
  0
ARC
  5
3E1
100
AcDbEntity
  8
0
100
AcDbCircle
 62
7
  6
CONTINUOUS
 10
22.444641287
 20
6.3658639225
 40
0.6857132124
100
AcDbArc
 50
42.216659865
 51
43.311043646
  0
ARC
  5
3E2
100
AcDbEntity
  8
0
100
AcDbCircle
 62
7
  6
CONTINUOUS
 10
22.4723466675
 20
6.3956484013
 40
0.6730417448
100
AcDbArc
 50
40.9022390304
 51
43.3251813281
  0
ARC
  5
3E3
100
AcDbEntity
  8
0
100
AcDbCircle
 62
7
  6
CONTINUOUS
 10
22.4605963665
 20
6.3802537921
 40
0.6642276651
100
AcDbArc
 50
40.8968301432
 51
42.2221391569
  0
ARC
  5
3E4
100
AcDbEntity
  8
0
100
AcDbCircle
 62
3
  6
CONTINUOUS
 10
27.0878103604
 20
9.1693361806
 40
0.5
100
AcDbArc
 50
283.5106182899
 51
340.0
  0
ARC
  5
3E5
100
AcDbEntity
  8
AXIS
100
AcDbCircle
 62
7
  6
CONTINUOUS
 10
26.8616406148
 20
8.9143361806
 40
0.2
100
AcDbArc
 50
0.0
 51
180.0
  0
ARC
  5
3E6
100
AcDbEntity
  8
0
100
AcDbCircle
 62
7
  6
CONTINUOUS
 10
22.2278027404
 20
6.8363661683
 40
0.1401161415
100
AcDbArc
 50
168.3651421729
 51
180.0148525806
  0
ARC
  5
3E7
100
AcDbEntity
  8
0
100
AcDbCircle
 62
7
  6
CONTINUOUS
 10
22.2276796226
 20
6.8363355966
 40
0.139999981
100
AcDbArc
 50
90.0001684036
 51
179.0015496497
  0
ARC
  5
3E8
100
AcDbEntity
  8
0
100
AcDbCircle
 62
7
  6
CONTINUOUS
 10
22.2276696848
 20
6.8363980984
 40
0.1399421246
100
AcDbArc
 50
120.8307013801
 51
126.4090566423
  0
ARC
  5
3E9
100
AcDbEntity
  8
0
100
AcDbCircle
 62
7
  6
CONTINUOUS
 10
22.2274359412
 20
6.8364369324
 40
0.1397371174
100
AcDbArc
 50
154.2417035089
 51
158.6309721377
  0
ARC
  5
3EA
100
AcDbEntity
  8
0
100
AcDbCircle
 62
7
  6
CONTINUOUS
 10
22.2272875122
 20
6.8364987395
 40
0.1395765775
100
AcDbArc
 50
152.2331364805
 51
154.2380755175
  0
ARC
  5
3EB
100
AcDbEntity
  8
0
100
AcDbCircle
 62
7
  6
CONTINUOUS
 10
22.2263659515
 20
6.8363353438
 40
0.1386867404
100
AcDbArc
 50
178.9919881701
 51
179.9996542909
  0
ARC
  5
3EC
100
AcDbEntity
  8
0
100
AcDbCircle
 62
7
  6
CONTINUOUS
 10
47.8250783516
 20
5.0213362259
 40
0.3066073313
100
AcDbArc
 50
333.0088309849
 51
26.9910258964
  0
ARC
  5
3ED
100
AcDbEntity
  8
0
100
AcDbCircle
 62
7
  6
CONTINUOUS
 10
47.8250783516
 20
1.9713362259
 40
0.3066073313
100
AcDbArc
 50
333.0088309849
 51
26.9910258964
  0
ARC
  5
3EE
100
AcDbEntity
  8
0
100
AcDbCircle
 62
7
  6
CONTINUOUS
 10
47.8250783516
 20
0.1663362259
 40
0.3066073313
100
AcDbArc
 50
333.0088309849
 51
26.9910258964
  0
ARC
  5
3EF
100
AcDbEntity
  8
0
100
AcDbCircle
 62
7
  6
CONTINUOUS
 10
47.0855407631
 20
3.5993361806
 40
0.253
100
AcDbArc
 50
270.0
 51
90.0
  0
CIRCLE
  5
3F0
100
AcDbEntity
  8
0
100
AcDbCircle
 62
3
  6
CONTINUOUS
 10
40.7128103604
 20
-1.3586638194
 40
0.155
  0
ARC
  5
3F1
100
AcDbEntity
  8
0
100
AcDbCircle
 62
7
  6
CONTINUOUS
 10
49.8228103604
 20
-1.6736638194
 40
0.14
100
AcDbArc
 50
270.0
 51
360.0
  0
ARC
  5
3F2
100
AcDbEntity
  8
0
100
AcDbCircle
 62
7
  6
CONTINUOUS
 10
49.8228103604
 20
-1.6736638194
 40
0.1234665947
100
AcDbArc
 50
308.0218771906
 51
321.9781228094
  0
ARC
  5
3F3
100
AcDbEntity
  8
0
100
AcDbCircle
 62
3
  6
CONTINUOUS
 10
46.2022037587
 20
-0.7286638194
 40
0.12
100
AcDbArc
 50
0.0
 51
90.0
  0
ARC
  5
3F4
100
AcDbEntity
  8
0
100
AcDbCircle
 62
7
  6
CONTINUOUS
 10
46.2022037587
 20
-0.7286638194
 40
0.06
100
AcDbArc
 50
0.0
 51
90.0
  0
ARC
  5
3F5
100
AcDbEntity
  8
0
100
AcDbCircle
 62
3
  6
CONTINUOUS
 10
39.9617292561
 20
14.0593361806
 40
1.0
100
AcDbArc
 50
20.0
 51
90.0
  0
ARC
  5
3F6
100
AcDbEntity
  8
0
100
AcDbCircle
 62
3
  6
CONTINUOUS
 10
44.3378103604
 20
7.6693361806
 40
1.0
100
AcDbArc
 50
20.0
 51
90.0
  0
ARC
  5
3F7
100
AcDbEntity
  8
0
100
AcDbCircle
 62
3
  6
CONTINUOUS
 10
43.3378103604
 20
9.1693361806
 40
0.5
100
AcDbArc
 50
200.0
 51
270.0
  0
ARC
  5
3F8
100
AcDbEntity
  8
AXIS
100
AcDbCircle
 62
7
  6
CONTINUOUS
 10
40.6636492905
 20
8.9143361806
 40
0.2
100
AcDbArc
 50
0.0
 51
180.0
  0
ARC
  5
3F9
100
AcDbEntity
  8
0
100
AcDbCircle
 62
7
  6
CONTINUOUS
 10
49.8228103604
 20
6.8363361806
 40
0.14
100
AcDbArc
 50
0.0
 51
90.0
  0
ARC
  5
3FA
100
AcDbEntity
  8
0
100
AcDbCircle
 62
7
  6
CONTINUOUS
 10
49.8228103604
 20
6.8363361806
 40
0.1234665947
100
AcDbArc
 50
38.0218771906
 51
51.9781228094
  0
ARC
  5
3FB
100
AcDbEntity
  8
0
100
AcDbCircle
 62
7
  6
CONTINUOUS
 10
-8.9465162746
 20
-36.6620624467
 40
0.3066071429
100
AcDbArc
 50
200.5063267891
 51
279.4936732109
  0
ARC
  5
3FC
100
AcDbEntity
  8
0
100
AcDbCircle
 62
7
  6
CONTINUOUS
 10
-12.754819846
 20
-18.4797942671
 40
0.05
100
AcDbArc
 50
180.0
 51
246.9348811359
  0
ARC
  5
3FD
100
AcDbEntity
  8
0
100
AcDbCircle
 62
7
  6
CONTINUOUS
 10
-14.2770880256
 20
-16.7680978386
 40
0.3066071429
100
AcDbArc
 50
110.5063267891
 51
189.4936732109
  0
ARC
  5
3FE
100
AcDbEntity
  8
0
100
AcDbCircle
 62
7
  6
CONTINUOUS
 10
-12.754819846
 20
-16.9597942671
 40
0.05
100
AcDbArc
 50
113.0651188641
 51
180.0
  0
CIRCLE
  5
3FF
100
AcDbEntity
  8
0
100
AcDbCircle
 62
7
  6
CONTINUOUS
 10
-7.784819846
 20
-24.0497942671
 40
0.625
  0
CIRCLE
  5
400
100
AcDbEntity
  8
0
100
AcDbCircle
 62
7
  6
CONTINUOUS
 10
-9.284819846
 20
-24.0497942671
 40
0.625
  0
CIRCLE
  5
401
100
AcDbEntity
  8
0
100
AcDbCircle
 62
7
  6
CONTINUOUS
 10
-9.284819846
 20
-24.0497942671
 40
0.26
  0
CIRCLE
  5
402
100
AcDbEntity
  8
0
100
AcDbCircle
 62
7
  6
CONTINUOUS
 10
-7.784819846
 20
-24.0497942671
 40
0.26
  0
CIRCLE
  5
403
100
AcDbEntity
  8
0
100
AcDbCircle
 62
7
  6
CONTINUOUS
 10
-9.284819846
 20
-24.0497942671
 40
0.187
  0
CIRCLE
  5
404
100
AcDbEntity
  8
0
100
AcDbCircle
 62
7
  6
CONTINUOUS
 10
-7.784819846
 20
-24.0497942671
 40
0.187
  0
ARC
  5
405
100
AcDbEntity
  8
0
100
AcDbCircle
 62
7
  6
CONTINUOUS
 10
-9.5272111679
 20
-11.7796616335
 40
0.1603110278
100
AcDbArc
 50
140.8413481646
 51
144.3078873973
  0
ARC
  5
406
100
AcDbEntity
  8
0
100
AcDbCircle
 62
7
  6
CONTINUOUS
 10
-9.5457267395
 20
-11.7296631178
 40
0.14
100
AcDbArc
 50
201.3266169343
 51
210.0
  0
ARC
  5
407
100
AcDbEntity
  8
0
100
AcDbCircle
 62
7
  6
CONTINUOUS
 10
-9.5457267395
 20
-11.7296631178
 40
0.14
100
AcDbArc
 50
120.0
 51
201.3083505313
  0
ARC
  5
408
100
AcDbEntity
  8
0
100
AcDbCircle
 62
7
  6
CONTINUOUS
 10
-9.5353612636
 20
-11.7481691497
 40
0.1397237496
100
AcDbArc
 50
201.3110630241
 51
210.0015466659
  0
CIRCLE
  5
409
100
AcDbEntity
  8
0
100
AcDbCircle
 62
7
  6
CONTINUOUS
 10
-7.789819846
 20
-13.4409830708
 40
0.11
  0
CIRCLE
  5
40A
100
AcDbEntity
  8
0
100
AcDbCircle
 62
7
  6
CONTINUOUS
 10
-8.539819846
 20
-12.1419449651
 40
0.11
  0
ARC
  5
40B
100
AcDbEntity
  8
0
100
AcDbCircle
 62
7
  6
CONTINUOUS
 10
-8.3834312019
 20
-11.0831087293
 40
0.1401453434
100
AcDbArc
 50
30.0008339893
 51
38.7233147556
  0
ARC
  5
40C
100
AcDbEntity
  8
0
100
AcDbCircle
 62
7
  6
CONTINUOUS
 10
-8.3939129525
 20
-11.0646631178
 40
0.14
100
AcDbArc
 50
30.0
 51
120.0
  0
ARC
  5
40D
100
AcDbEntity
  8
0
100
AcDbCircle
 62
7
  6
CONTINUOUS
 10
-2.339236678
 20
-38.6083246967
 40
0.1591330319
100
AcDbArc
 50
245.6824341429
 51
249.171526739
  0
ARC
  5
40E
100
AcDbEntity
  8
0
100
AcDbCircle
 62
7
  6
CONTINUOUS
 10
-2.3296745026
 20
-38.6385790238
 40
0.1401453434
100
AcDbArc
 50
180.0008339893
 51
188.7233147556
  0
ARC
  5
40F
100
AcDbEntity
  8
0
100
AcDbCircle
 62
7
  6
CONTINUOUS
 10
-2.329819846
 20
-38.6597942671
 40
0.14
100
AcDbArc
 50
180.0
 51
270.0
  0
ARC
  5
410
100
AcDbEntity
  8
0
100
AcDbCircle
 62
7
  6
CONTINUOUS
 10
-0.9908555436
 20
-38.6072364966
 40
0.1603110278
100
AcDbArc
 50
290.8413481644
 51
294.3078873974
  0
ARC
  5
411
100
AcDbEntity
  8
0
100
AcDbCircle
 62
7
  6
CONTINUOUS
 10
-0.999819846
 20
-38.6597942671
 40
0.14
100
AcDbArc
 50
351.3266169343
 51
360.0
  0
ARC
  5
412
100
AcDbEntity
  8
0
100
AcDbCircle
 62
7
  6
CONTINUOUS
 10
-0.999819846
 20
-38.6597942671
 40
0.14
100
AcDbArc
 50
270.0
 51
351.3083505313
  0
ARC
  5
413
100
AcDbEntity
  8
0
100
AcDbCircle
 62
7
  6
CONTINUOUS
 10
-0.9995435956
 20
-38.6385848355
 40
0.1397237496
100
AcDbArc
 50
351.3110630241
 51
0.0015466659
  0
CIRCLE
  5
414
100
AcDbEntity
  8
0
100
AcDbCircle
 62
7
  6
CONTINUOUS
 10
-1.664819846
 20
-37.7997942671
 40
0.11
  0
CIRCLE
  5
415
100
AcDbEntity
  8
0
100
AcDbCircle
 62
7
  6
CONTINUOUS
 10
-1.664819846
 20
-36.2997942671
 40
0.11
  0
CIRCLE
  5
416
100
AcDbEntity
  8
0
100
AcDbCircle
 62
7
  6
CONTINUOUS
 10
-1.664819846
 20
-25.0497942671
 40
0.2655
  0
CIRCLE
  5
417
100
AcDbEntity
  8
0
100
AcDbCircle
 62
7
  6
CONTINUOUS
 10
-1.664819846
 20
-25.0497942671
 40
0.218
  0
CIRCLE
  5
418
100
AcDbEntity
  8
0
100
AcDbCircle
 62
7
  6
CONTINUOUS
 10
2.145180154
 20
-30.648907844
 40
0.625
  0
CIRCLE
  5
419
100
AcDbEntity
  8
0
100
AcDbCircle
 62
7
  6
CONTINUOUS
 10
1.395180154
 20
-29.3498697383
 40
0.625
  0
CIRCLE
  5
41A
100
AcDbEntity
  8
0
100
AcDbCircle
 62
7
  6
CONTINUOUS
 10
1.395180154
 20
-29.3498697383
 40
0.26
  0
CIRCLE
  5
41B
100
AcDbEntity
  8
0
100
AcDbCircle
 62
7
  6
CONTINUOUS
 10
2.145180154
 20
-30.648907844
 40
0.26
  0
CIRCLE
  5
41C
100
AcDbEntity
  8
0
100
AcDbCircle
 62
7
  6
CONTINUOUS
 10
1.395180154
 20
-29.3498697383
 40
0.187
  0
CIRCLE
  5
41D
100
AcDbEntity
  8
0
100
AcDbCircle
 62
7
  6
CONTINUOUS
 10
2.145180154
 20
-30.648907844
 40
0.187
  0
ARC
  5
41E
100
AcDbEntity
  8
0
100
AcDbCircle
 62
7
  6
CONTINUOUS
 10
-1.664819846
 20
-24.0497942671
 40
12.1257304027
100
AcDbArc
 50
66.4474386989
 51
113.5740948146
  0
ARC
  5
41F
100
AcDbEntity
  8
0
100
AcDbCircle
 62
7
  6
CONTINUOUS
 10
-1.664819846
 20
-24.0497942671
 40
12.1257304027
100
AcDbArc
 50
336.6812050457
 51
23.3255839817
  0
ARC
  5
420
100
AcDbEntity
  8
0
100
AcDbCircle
 62
7
  6
CONTINUOUS
 10
-1.664819846
 20
-24.0497942671
 40
12.1257304027
100
AcDbArc
 50
273.8160933767
 51
293.5740948146
  0
ARC
  5
421
100
AcDbEntity
  8
0
100
AcDbCircle
 62
7
  6
CONTINUOUS
 10
-1.664819846
 20
-24.0497942671
 40
12.1257304027
100
AcDbArc
 50
246.4474386989
 51
266.1851410536
  0
ARC
  5
422
100
AcDbEntity
  8
0
100
AcDbCircle
 62
7
  6
CONTINUOUS
 10
-1.664819846
 20
-24.0497942671
 40
12.1257304027
100
AcDbArc
 50
156.6812050457
 51
203.3255839817
  0
ARC
  5
423
100
AcDbEntity
  8
0
100
AcDbCircle
 62
7
  6
CONTINUOUS
 10
-1.664819846
 20
-24.0497942671
 40
5.6157010339
100
AcDbArc
 50
183.3563485227
 51
296.649385462
  0
ARC
  5
424
100
AcDbEntity
  8
0
100
AcDbCircle
 62
7
  6
CONTINUOUS
 10
-1.664819846
 20
-24.0497942671
 40
5.6157010339
100
AcDbArc
 50
303.5429715358
 51
56.4570284642
  0
ARC
  5
425
100
AcDbEntity
  8
0
100
AcDbCircle
 62
7
  6
CONTINUOUS
 10
-1.664819846
 20
-24.0497942671
 40
5.6157010339
100
AcDbArc
 50
63.350614538
 51
176.6436514773
  0
CIRCLE
  5
426
100
AcDbEntity
  8
0
100
AcDbCircle
 62
7
  6
CONTINUOUS
 10
-1.664819846
 20
-24.0497942671
 40
5.264474391
  0
CIRCLE
  5
427
100
AcDbEntity
  8
0
100
AcDbCircle
 62
7
  6
CONTINUOUS
 10
-1.664819846
 20
-24.0497942671
 40
4.0005515385
  0
ARC
  5
428
100
AcDbEntity
  8
0
100
AcDbCircle
 62
7
  6
CONTINUOUS
 10
-1.664819846
 20
-24.0497942671
 40
1.25
100
AcDbArc
 50
274.7539852488
 51
25.1891239858
  0
ARC
  5
429
100
AcDbEntity
  8
0
100
AcDbCircle
 62
7
  6
CONTINUOUS
 10
-1.664819846
 20
-24.0497942671
 40
1.25
100
AcDbArc
 50
34.874742549
 51
145.1335038411
  0
ARC
  5
42A
100
AcDbEntity
  8
0
100
AcDbCircle
 62
7
  6
CONTINUOUS
 10
-1.664819846
 20
-24.0497942671
 40
1.25
100
AcDbArc
 50
154.7353544735
 51
265.4991229413
  0
ARC
  5
42B
100
AcDbEntity
  8
0
100
AcDbCircle
 62
7
  6
CONTINUOUS
 10
-1.664819846
 20
-24.0497942671
 40
1.2368456474
100
AcDbArc
 50
36.3295727514
 51
143.5754607678
  0
ARC
  5
42C
100
AcDbEntity
  8
0
100
AcDbCircle
 62
7
  6
CONTINUOUS
 10
-1.664819846
 20
-24.0497942671
 40
1.2368456474
100
AcDbArc
 50
276.4195550169
 51
23.7760638916
  0
ARC
  5
42D
100
AcDbEntity
  8
0
100
AcDbCircle
 62
7
  6
CONTINUOUS
 10
-1.664819846
 20
-24.0497942671
 40
1.2368456474
100
AcDbArc
 50
156.1405136236
 51
263.6750871004
  0
ARC
  5
42E
100
AcDbEntity
  8
0
100
AcDbCircle
 62
7
  6
CONTINUOUS
 10
-1.664819846
 20
-24.0497942671
 40
0.6380912987
100
AcDbArc
 50
353.0661400609
 51
306.9338599391
  0
ARC
  5
42F
100
AcDbEntity
  8
0
100
AcDbCircle
 62
7
  6
CONTINUOUS
 10
-1.664819846
 20
-24.0497942671
 40
0.625
100
AcDbArc
 50
349.7009376039
 51
310.2990623961
  0
CIRCLE
  5
430
100
AcDbEntity
  8
0
100
AcDbCircle
 62
7
  6
CONTINUOUS
 10
-2.5308452498
 20
-23.5497942671
 40
0.2655
  0
CIRCLE
  5
431
100
AcDbEntity
  8
0
100
AcDbCircle
 62
7
  6
CONTINUOUS
 10
-0.7987944422
 20
-23.5497942671
 40
0.2655
  0
CIRCLE
  5
432
100
AcDbEntity
  8
0
100
AcDbCircle
 62
7
  6
CONTINUOUS
 10
-1.664819846
 20
-24.0497942671
 40
0.25
  0
CIRCLE
  5
433
100
AcDbEntity
  8
0
100
AcDbCircle
 62
7
  6
CONTINUOUS
 10
-2.5308452498
 20
-23.5497942671
 40
0.218
  0
CIRCLE
  5
434
100
AcDbEntity
  8
0
100
AcDbCircle
 62
7
  6
CONTINUOUS
 10
-0.7987944422
 20
-23.5497942671
 40
0.218
  0
CIRCLE
  5
435
100
AcDbEntity
  8
0
100
AcDbCircle
 62
7
  6
CONTINUOUS
 10
1.395180154
 20
-18.749718796
 40
0.625
  0
CIRCLE
  5
436
100
AcDbEntity
  8
0
100
AcDbCircle
 62
7
  6
CONTINUOUS
 10
1.395180154
 20
-18.749718796
 40
0.26
  0
CIRCLE
  5
437
100
AcDbEntity
  8
0
100
AcDbCircle
 62
7
  6
CONTINUOUS
 10
1.395180154
 20
-18.749718796
 40
0.187
  0
CIRCLE
  5
438
100
AcDbEntity
  8
0
100
AcDbCircle
 62
7
  6
CONTINUOUS
 10
5.585180154
 20
-24.0497942671
 40
0.345
  0
CIRCLE
  5
439
100
AcDbEntity
  8
0
100
AcDbCircle
 62
7
  6
CONTINUOUS
 10
2.145180154
 20
-17.4506806903
 40
0.625
  0
CIRCLE
  5
43A
100
AcDbEntity
  8
0
100
AcDbCircle
 62
7
  6
CONTINUOUS
 10
2.145180154
 20
-17.4506806903
 40
0.26
  0
CIRCLE
  5
43B
100
AcDbEntity
  8
0
100
AcDbCircle
 62
7
  6
CONTINUOUS
 10
2.145180154
 20
-17.4506806903
 40
0.187
  0
CIRCLE
  5
43C
100
AcDbEntity
  8
0
100
AcDbCircle
 62
7
  6
CONTINUOUS
 10
4.460180154
 20
-13.4409830708
 40
0.11
  0
ARC
  5
43D
100
AcDbEntity
  8
0
100
AcDbCircle
 62
7
  6
CONTINUOUS
 10
5.0642732605
 20
-11.0646631178
 40
0.14
100
AcDbArc
 50
60.0
 51
141.3083505313
  0
ARC
  5
43E
100
AcDbEntity
  8
0
100
AcDbCircle
 62
7
  6
CONTINUOUS
 10
5.0642732605
 20
-11.0646631178
 40
0.14
100
AcDbArc
 50
141.3266169343
 51
150.0
  0
ARC
  5
43F
100
AcDbEntity
  8
0
100
AcDbCircle
 62
7
  6
CONTINUOUS
 10
5.0534293047
 20
-11.0828928993
 40
0.1397237496
100
AcDbArc
 50
141.3110630241
 51
150.0015466659
  0
CIRCLE
  5
440
100
AcDbEntity
  8
0
100
AcDbCircle
 62
7
  6
CONTINUOUS
 10
5.210180154
 20
-12.1419449651
 40
0.11
  0
ARC
  5
441
100
AcDbEntity
  8
0
100
AcDbCircle
 62
7
  6
CONTINUOUS
 10
5.6418765826
 20
-11.3942248174
 40
0.3066071429
100
AcDbArc
 50
20.5063267891
 51
99.4936732109
  0
ARC
  5
442
100
AcDbEntity
  8
0
100
AcDbCircle
 62
7
  6
CONTINUOUS
 10
6.2053535547
 20
-11.7479633858
 40
0.1401453434
100
AcDbArc
 50
330.0008339892
 51
338.7233147557
  0
ARC
  5
443
100
AcDbEntity
  8
0
100
AcDbCircle
 62
7
  6
CONTINUOUS
 10
6.2160870475
 20
-11.7296631178
 40
0.14
100
AcDbArc
 50
330.0
 51
60.0
  0
SPLINE
  5
444
100
AcDbEntity
  8
0
100
AcDbSpline
 62
7
  6
CONTINUOUS
 70
0
 71
3
 72
61
 73
57
 74
0
 42
0.0000001
 43
0.0000001
 44
0.0000000001
 40
0.0
 40
0.0
 40
0.0
 40
0.0
 40
0.0334291029
 40
0.0501292469
 40
0.0667963495
 40
0.0999901962
 40
0.1165096459
 40
0.1329636835
 40
0.1493438214
 40
0.165642522
 40
0.1979621793
 40
0.2139807246
 40
0.2298965263
 40
0.245706158
 40
0.2614073778
 40
0.2769989851
 40
0.2924805968
 40
0.3078531257
 40
0.3231185188
 40
0.3382796167
 40
0.3533405906
 40
0.3683065699
 40
0.3831835726
 40
0.4126893505
 40
0.427345898
 40
0.4419471963
 40
0.4565034442
 40
0.4710253968
 40
0.5
 40
0.5289746032
 40
0.5434965558
 40
0.5580528037
 40
0.572654102
 40
0.5873106495
 40
0.6168164274
 40
0.6316934301
 40
0.6466594094
 40
0.6617203833
 40
0.6768814812
 40
0.6921468743
 40
0.7075194032
 40
0.7230010149
 40
0.7385926222
 40
0.754293842
 40
0.7701034737
 40
0.7860192754
 40
0.8020378207
 40
0.834357478
 40
0.8506561786
 40
0.8670363165
 40
0.8834903541
 40
0.9000098038
 40
0.9332036505
 40
0.9498707531
 40
0.9665708971
 40
1.0
 40
1.0
 40
1.0
 40
1.0
 10
5.5913052003
 20
5.0213361806
 30
0.0
 10
5.5913052003
 20
5.0277122196
 30
0.0
 10
5.5917124206
 20
5.0372800125
 30
0.0
 10
5.593064647
 20
5.0499511913
 30
0.0
 10
5.5949512606
 20
5.0625088469
 30
0.0
 10
5.597636005
 20
5.0749010373
 30
0.0
 10
5.6011077667
 20
5.0870376153
 30
0.0
 10
5.6040903358
 20
5.0959693051
 30
0.0
 10
5.6074488927
 20
5.1047215563
 30
0.0
 10
5.6124030729
 20
5.1160892901
 30
0.0
 10
5.6180860863
 20
5.1270527507
 30
0.0
 10
5.6244683035
 20
5.1375190886
 30
0.0
 10
5.6295680593
 20
5.1450677803
 30
0.0
 10
5.6349826305
 20
5.1523183363
 30
0.0
 10
5.6406992201
 20
5.159253442
 30
0.0
 10
5.6467033553
 20
5.1658569097
 30
0.0
 10
5.6529813209
 20
5.1721122374
 30
0.0
 10
5.6595179159
 20
5.178004355
 30
0.0
 10
5.6662968942
 20
5.1835196681
 30
0.0
 10
5.6733026611
 20
5.188644063
 30
0.0
 10
5.6805179844
 20
5.1933653382
 30
0.0
 10
5.6879256276
 20
5.1976728468
 30
0.0
 10
5.6980049232
 20
5.2028337536
 30
0.0
 10
5.7084347274
 20
5.2071499561
 30
0.0
 10
5.7191150399
 20
5.2105636395
 30
0.0
 10
5.7272085243
 20
5.2126630412
 30
0.0
 10
5.7353815413
 20
5.2143015648
 30
0.0
 10
5.7463483274
 20
5.2158637876
 30
0.0
 10
5.760180154
 20
5.2166508585
 30
0.0
 10
5.7740119806
 20
5.2158637876
 30
0.0
 10
5.7849787667
 20
5.2143015648
 30
0.0
 10
5.7931517837
 20
5.2126630412
 30
0.0
 10
5.8012452681
 20
5.2105636395
 30
0.0
 10
5.8119255806
 20
5.2071499561
 30
0.0
 10
5.8223553848
 20
5.2028337536
 30
0.0
 10
5.8324346803
 20
5.1976728468
 30
0.0
 10
5.8398423235
 20
5.1933653382
 30
0.0
 10
5.8470576469
 20
5.188644063
 30
0.0
 10
5.8540634137
 20
5.1835196681
 30
0.0
 10
5.8608423921
 20
5.178004355
 30
0.0
 10
5.867378987
 20
5.1721122374
 30
0.0
 10
5.8736569527
 20
5.1658569097
 30
0.0
 10
5.8796610879
 20
5.159253442
 30
0.0
 10
5.8853776775
 20
5.1523183363
 30
0.0
 10
5.8907922487
 20
5.1450677803
 30
0.0
 10
5.8958920044
 20
5.1375190886
 30
0.0
 10
5.9022742217
 20
5.1270527507
 30
0.0
 10
5.9079572351
 20
5.1160892901
 30
0.0
 10
5.9129114153
 20
5.1047215563
 30
0.0
 10
5.9162699721
 20
5.0959693051
 30
0.0
 10
5.9192525413
 20
5.0870376153
 30
0.0
 10
5.922724303
 20
5.0749010373
 30
0.0
 10
5.9254090473
 20
5.0625088469
 30
0.0
 10
5.927295661
 20
5.0499511913
 30
0.0
 10
5.9286478874
 20
5.0372800125
 30
0.0
 10
5.9290551077
 20
5.0277122196
 30
0.0
 10
5.9290551077
 20
5.0213361806
 30
0.0
  0
SPLINE
  5
445
100
AcDbEntity
  8
0
100
AcDbSpline
 62
7
  6
CONTINUOUS
 70
0
 71
3
 72
61
 73
57
 74
0
 42
0.0000001
 43
0.0000001
 44
0.0000000001
 40
0.0
 40
0.0
 40
0.0
 40
0.0
 40
0.0334291029
 40
0.0501292469
 40
0.0667963495
 40
0.0999901962
 40
0.1165096459
 40
0.1329636835
 40
0.1493438214
 40
0.165642522
 40
0.1979621793
 40
0.2139807246
 40
0.2298965263
 40
0.245706158
 40
0.2614073778
 40
0.2769989851
 40
0.2924805968
 40
0.3078531257
 40
0.3231185188
 40
0.3382796167
 40
0.3533405906
 40
0.3683065699
 40
0.3831835726
 40
0.4126893505
 40
0.427345898
 40
0.4419471963
 40
0.4565034442
 40
0.4710253968
 40
0.5
 40
0.5289746032
 40
0.5434965558
 40
0.5580528037
 40
0.572654102
 40
0.5873106495
 40
0.6168164274
 40
0.6316934301
 40
0.6466594094
 40
0.6617203833
 40
0.6768814812
 40
0.6921468743
 40
0.7075194032
 40
0.7230010149
 40
0.7385926222
 40
0.754293842
 40
0.7701034737
 40
0.7860192754
 40
0.8020378207
 40
0.834357478
 40
0.8506561786
 40
0.8670363165
 40
0.8834903541
 40
0.9000098038
 40
0.9332036505
 40
0.9498707531
 40
0.9665708971
 40
1.0
 40
1.0
 40
1.0
 40
1.0
 10
5.5913052003
 20
5.0213361806
 30
0.0
 10
5.5913052003
 20
5.0149601417
 30
0.0
 10
5.5917124206
 20
5.0053923488
 30
0.0
 10
5.593064647
 20
4.99272117
 30
0.0
 10
5.5949512606
 20
4.9801635144
 30
0.0
 10
5.597636005
 20
4.967771324
 30
0.0
 10
5.6011077667
 20
4.955634746
 30
0.0
 10
5.6040903358
 20
4.9467030562
 30
0.0
 10
5.6074488927
 20
4.937950805
 30
0.0
 10
5.6124030729
 20
4.9265830712
 30
0.0
 10
5.6180860863
 20
4.9156196106
 30
0.0
 10
5.6244683035
 20
4.9051532727
 30
0.0
 10
5.6295680593
 20
4.897604581
 30
0.0
 10
5.6349826305
 20
4.890354025
 30
0.0
 10
5.6406992201
 20
4.8834189193
 30
0.0
 10
5.6467033553
 20
4.8768154516
 30
0.0
 10
5.6529813209
 20
4.8705601239
 30
0.0
 10
5.6595179159
 20
4.8646680063
 30
0.0
 10
5.6662968942
 20
4.8591526932
 30
0.0
 10
5.6733026611
 20
4.8540282983
 30
0.0
 10
5.6805179844
 20
4.8493070231
 30
0.0
 10
5.6879256276
 20
4.8449995145
 30
0.0
 10
5.6980049232
 20
4.8398386077
 30
0.0
 10
5.7084347274
 20
4.8355224052
 30
0.0
 10
5.7191150399
 20
4.8321087218
 30
0.0
 10
5.7272085243
 20
4.8300093201
 30
0.0
 10
5.7353815413
 20
4.8283707965
 30
0.0
 10
5.7463483274
 20
4.8268085737
 30
0.0
 10
5.760180154
 20
4.8260215028
 30
0.0
 10
5.7740119806
 20
4.8268085737
 30
0.0
 10
5.7849787667
 20
4.8283707965
 30
0.0
 10
5.7931517837
 20
4.8300093201
 30
0.0
 10
5.8012452681
 20
4.8321087218
 30
0.0
 10
5.8119255806
 20
4.8355224052
 30
0.0
 10
5.8223553848
 20
4.8398386077
 30
0.0
 10
5.8324346803
 20
4.8449995145
 30
0.0
 10
5.8398423235
 20
4.8493070231
 30
0.0
 10
5.8470576469
 20
4.8540282983
 30
0.0
 10
5.8540634137
 20
4.8591526932
 30
0.0
 10
5.8608423921
 20
4.8646680063
 30
0.0
 10
5.867378987
 20
4.8705601239
 30
0.0
 10
5.8736569527
 20
4.8768154516
 30
0.0
 10
5.8796610879
 20
4.8834189193
 30
0.0
 10
5.8853776775
 20
4.890354025
 30
0.0
 10
5.8907922487
 20
4.897604581
 30
0.0
 10
5.8958920044
 20
4.9051532727
 30
0.0
 10
5.9022742217
 20
4.9156196106
 30
0.0
 10
5.9079572351
 20
4.9265830712
 30
0.0
 10
5.9129114153
 20
4.937950805
 30
0.0
 10
5.9162699721
 20
4.9467030562
 30
0.0
 10
5.9192525413
 20
4.955634746
 30
0.0
 10
5.922724303
 20
4.967771324
 30
0.0
 10
5.9254090473
 20
4.9801635144
 30
0.0
 10
5.927295661
 20
4.99272117
 30
0.0
 10
5.9286478874
 20
5.0053923488
 30
0.0
 10
5.9290551077
 20
5.0149601417
 30
0.0
 10
5.9290551077
 20
5.0213361806
 30
0.0
  0
SPLINE
  5
446
100
AcDbEntity
  8
0
100
AcDbSpline
 62
7
  6
CONTINUOUS
 70
0
 71
3
 72
61
 73
57
 74
0
 42
0.0000001
 43
0.0000001
 44
0.0000000001
 40
0.0
 40
0.0
 40
0.0
 40
0.0
 40
0.0334291029
 40
0.0501292469
 40
0.0667963495
 40
0.0999901962
 40
0.1165096459
 40
0.1329636835
 40
0.1493438214
 40
0.165642522
 40
0.1979621793
 40
0.2139807246
 40
0.2298965263
 40
0.245706158
 40
0.2614073778
 40
0.2769989851
 40
0.2924805968
 40
0.3078531257
 40
0.3231185188
 40
0.3382796167
 40
0.3533405906
 40
0.3683065699
 40
0.3831835726
 40
0.4126893505
 40
0.427345898
 40
0.4419471963
 40
0.4565034442
 40
0.4710253968
 40
0.5
 40
0.5289746032
 40
0.5434965558
 40
0.5580528037
 40
0.572654102
 40
0.5873106495
 40
0.6168164274
 40
0.6316934301
 40
0.6466594094
 40
0.6617203833
 40
0.6768814812
 40
0.6921468743
 40
0.7075194032
 40
0.7230010149
 40
0.7385926222
 40
0.754293842
 40
0.7701034737
 40
0.7860192754
 40
0.8020378207
 40
0.834357478
 40
0.8506561786
 40
0.8670363165
 40
0.8834903541
 40
0.9000098038
 40
0.9332036505
 40
0.9498707531
 40
0.9665708971
 40
1.0
 40
1.0
 40
1.0
 40
1.0
 10
5.5913052003
 20
0.1663361806
 30
0.0
 10
5.5913052003
 20
0.1727122196
 30
0.0
 10
5.5917124206
 20
0.1822800125
 30
0.0
 10
5.593064647
 20
0.1949511913
 30
0.0
 10
5.5949512606
 20
0.2075088469
 30
0.0
 10
5.597636005
 20
0.2199010373
 30
0.0
 10
5.6011077667
 20
0.2320376153
 30
0.0
 10
5.6040903358
 20
0.2409693051
 30
0.0
 10
5.6074488927
 20
0.2497215563
 30
0.0
 10
5.6124030729
 20
0.2610892901
 30
0.0
 10
5.6180860863
 20
0.2720527507
 30
0.0
 10
5.6244683035
 20
0.2825190886
 30
0.0
 10
5.6295680593
 20
0.2900677803
 30
0.0
 10
5.6349826305
 20
0.2973183363
 30
0.0
 10
5.6406992201
 20
0.304253442
 30
0.0
 10
5.6467033553
 20
0.3108569097
 30
0.0
 10
5.6529813209
 20
0.3171122374
 30
0.0
 10
5.6595179159
 20
0.323004355
 30
0.0
 10
5.6662968942
 20
0.3285196681
 30
0.0
 10
5.6733026611
 20
0.333644063
 30
0.0
 10
5.6805179844
 20
0.3383653382
 30
0.0
 10
5.6879256276
 20
0.3426728468
 30
0.0
 10
5.6980049232
 20
0.3478337536
 30
0.0
 10
5.7084347274
 20
0.3521499561
 30
0.0
 10
5.7191150399
 20
0.3555636395
 30
0.0
 10
5.7272085243
 20
0.3576630412
 30
0.0
 10
5.7353815413
 20
0.3593015648
 30
0.0
 10
5.7463483274
 20
0.3608637876
 30
0.0
 10
5.760180154
 20
0.3616508585
 30
0.0
 10
5.7740119806
 20
0.3608637876
 30
0.0
 10
5.7849787667
 20
0.3593015648
 30
0.0
 10
5.7931517837
 20
0.3576630412
 30
0.0
 10
5.8012452681
 20
0.3555636395
 30
0.0
 10
5.8119255806
 20
0.3521499561
 30
0.0
 10
5.8223553848
 20
0.3478337536
 30
0.0
 10
5.8324346803
 20
0.3426728468
 30
0.0
 10
5.8398423235
 20
0.3383653382
 30
0.0
 10
5.8470576469
 20
0.333644063
 30
0.0
 10
5.8540634137
 20
0.3285196681
 30
0.0
 10
5.8608423921
 20
0.323004355
 30
0.0
 10
5.867378987
 20
0.3171122374
 30
0.0
 10
5.8736569527
 20
0.3108569097
 30
0.0
 10
5.8796610879
 20
0.304253442
 30
0.0
 10
5.8853776775
 20
0.2973183363
 30
0.0
 10
5.8907922487
 20
0.2900677803
 30
0.0
 10
5.8958920044
 20
0.2825190886
 30
0.0
 10
5.9022742217
 20
0.2720527507
 30
0.0
 10
5.9079572351
 20
0.2610892901
 30
0.0
 10
5.9129114153
 20
0.2497215563
 30
0.0
 10
5.9162699721
 20
0.2409693051
 30
0.0
 10
5.9192525413
 20
0.2320376153
 30
0.0
 10
5.922724303
 20
0.2199010373
 30
0.0
 10
5.9254090473
 20
0.2075088469
 30
0.0
 10
5.927295661
 20
0.1949511913
 30
0.0
 10
5.9286478874
 20
0.1822800125
 30
0.0
 10
5.9290551077
 20
0.1727122196
 30
0.0
 10
5.9290551077
 20
0.1663361806
 30
0.0
  0
SPLINE
  5
447
100
AcDbEntity
  8
0
100
AcDbSpline
 62
7
  6
CONTINUOUS
 70
0
 71
3
 72
61
 73
57
 74
0
 42
0.0000001
 43
0.0000001
 44
0.0000000001
 40
0.0
 40
0.0
 40
0.0
 40
0.0
 40
0.0334291029
 40
0.0501292469
 40
0.0667963495
 40
0.0999901962
 40
0.1165096459
 40
0.1329636835
 40
0.1493438214
 40
0.165642522
 40
0.1979621793
 40
0.2139807246
 40
0.2298965263
 40
0.245706158
 40
0.2614073778
 40
0.2769989851
 40
0.2924805968
 40
0.3078531257
 40
0.3231185188
 40
0.3382796167
 40
0.3533405906
 40
0.3683065699
 40
0.3831835726
 40
0.4126893505
 40
0.427345898
 40
0.4419471963
 40
0.4565034442
 40
0.4710253968
 40
0.5
 40
0.5289746032
 40
0.5434965558
 40
0.5580528037
 40
0.572654102
 40
0.5873106495
 40
0.6168164274
 40
0.6316934301
 40
0.6466594094
 40
0.6617203833
 40
0.6768814812
 40
0.6921468743
 40
0.7075194032
 40
0.7230010149
 40
0.7385926222
 40
0.754293842
 40
0.7701034737
 40
0.7860192754
 40
0.8020378207
 40
0.834357478
 40
0.8506561786
 40
0.8670363165
 40
0.8834903541
 40
0.9000098038
 40
0.9332036505
 40
0.9498707531
 40
0.9665708971
 40
1.0
 40
1.0
 40
1.0
 40
1.0
 10
5.5913052003
 20
0.1663361806
 30
0.0
 10
5.5913052003
 20
0.1599601417
 30
0.0
 10
5.5917124206
 20
0.1503923488
 30
0.0
 10
5.593064647
 20
0.13772117
 30
0.0
 10
5.5949512606
 20
0.1251635144
 30
0.0
 10
5.597636005
 20
0.112771324
 30
0.0
 10
5.6011077667
 20
0.100634746
 30
0.0
 10
5.6040903358
 20
0.0917030562
 30
0.0
 10
5.6074488927
 20
0.082950805
 30
0.0
 10
5.6124030729
 20
0.0715830712
 30
0.0
 10
5.6180860863
 20
0.0606196106
 30
0.0
 10
5.6244683035
 20
0.0501532727
 30
0.0
 10
5.6295680593
 20
0.042604581
 30
0.0
 10
5.6349826305
 20
0.035354025
 30
0.0
 10
5.6406992201
 20
0.0284189193
 30
0.0
 10
5.6467033553
 20
0.0218154516
 30
0.0
 10
5.6529813209
 20
0.0155601239
 30
0.0
 10
5.6595179159
 20
0.0096680063
 30
0.0
 10
5.6662968942
 20
0.0041526932
 30
0.0
 10
5.6733026611
 20
-0.0009717017
 30
0.0
 10
5.6805179844
 20
-0.0056929769
 30
0.0
 10
5.6879256276
 20
-0.0100004855
 30
0.0
 10
5.6980049232
 20
-0.0151613923
 30
0.0
 10
5.7084347274
 20
-0.0194775948
 30
0.0
 10
5.7191150399
 20
-0.0228912782
 30
0.0
 10
5.7272085243
 20
-0.0249906799
 30
0.0
 10
5.7353815413
 20
-0.0266292035
 30
0.0
 10
5.7463483274
 20
-0.0281914263
 30
0.0
 10
5.760180154
 20
-0.0289784972
 30
0.0
 10
5.7740119806
 20
-0.0281914263
 30
0.0
 10
5.7849787667
 20
-0.0266292035
 30
0.0
 10
5.7931517837
 20
-0.0249906799
 30
0.0
 10
5.8012452681
 20
-0.0228912782
 30
0.0
 10
5.8119255806
 20
-0.0194775948
 30
0.0
 10
5.8223553848
 20
-0.0151613923
 30
0.0
 10
5.8324346803
 20
-0.0100004855
 30
0.0
 10
5.8398423235
 20
-0.0056929769
 30
0.0
 10
5.8470576469
 20
-0.0009717017
 30
0.0
 10
5.8540634137
 20
0.0041526932
 30
0.0
 10
5.8608423921
 20
0.0096680063
 30
0.0
 10
5.867378987
 20
0.0155601239
 30
0.0
 10
5.8736569527
 20
0.0218154516
 30
0.0
 10
5.8796610879
 20
0.0284189193
 30
0.0
 10
5.8853776775
 20
0.035354025
 30
0.0
 10
5.8907922487
 20
0.042604581
 30
0.0
 10
5.8958920044
 20
0.0501532727
 30
0.0
 10
5.9022742217
 20
0.0606196106
 30
0.0
 10
5.9079572351
 20
0.0715830712
 30
0.0
 10
5.9129114153
 20
0.082950805
 30
0.0
 10
5.9162699721
 20
0.0917030562
 30
0.0
 10
5.9192525413
 20
0.100634746
 30
0.0
 10
5.922724303
 20
0.112771324
 30
0.0
 10
5.9254090473
 20
0.1251635144
 30
0.0
 10
5.927295661
 20
0.13772117
 30
0.0
 10
5.9286478874
 20
0.1503923488
 30
0.0
 10
5.9290551077
 20
0.1599601417
 30
0.0
 10
5.9290551077
 20
0.1663361806
 30
0.0
  0
SPLINE
  5
448
100
AcDbEntity
  8
0
100
AcDbSpline
 62
7
  6
CONTINUOUS
 70
0
 71
3
 72
61
 73
57
 74
0
 42
0.0000001
 43
0.0000001
 44
0.0000000001
 40
0.0
 40
0.0
 40
0.0
 40
0.0
 40
0.0334291029
 40
0.0501292469
 40
0.0667963495
 40
0.0999901962
 40
0.1165096459
 40
0.1329636835
 40
0.1493438214
 40
0.165642522
 40
0.1979621793
 40
0.2139807246
 40
0.2298965263
 40
0.245706158
 40
0.2614073778
 40
0.2769989851
 40
0.2924805968
 40
0.3078531257
 40
0.3231185188
 40
0.3382796167
 40
0.3533405906
 40
0.3683065699
 40
0.3831835726
 40
0.4126893505
 40
0.427345898
 40
0.4419471963
 40
0.4565034442
 40
0.4710253968
 40
0.5
 40
0.5289746032
 40
0.5434965558
 40
0.5580528037
 40
0.572654102
 40
0.5873106495
 40
0.6168164274
 40
0.6316934301
 40
0.6466594094
 40
0.6617203833
 40
0.6768814812
 40
0.6921468743
 40
0.7075194032
 40
0.7230010149
 40
0.7385926222
 40
0.754293842
 40
0.7701034737
 40
0.7860192754
 40
0.8020378207
 40
0.834357478
 40
0.8506561786
 40
0.8670363165
 40
0.8834903541
 40
0.9000098038
 40
0.9332036505
 40
0.9498707531
 40
0.9665708971
 40
1.0
 40
1.0
 40
1.0
 40
1.0
 10
5.5913052003
 20
1.9713361806
 30
0.0
 10
5.5913052003
 20
1.9777122196
 30
0.0
 10
5.5917124206
 20
1.9872800125
 30
0.0
 10
5.593064647
 20
1.9999511913
 30
0.0
 10
5.5949512606
 20
2.0125088469
 30
0.0
 10
5.597636005
 20
2.0249010373
 30
0.0
 10
5.6011077667
 20
2.0370376153
 30
0.0
 10
5.6040903358
 20
2.0459693051
 30
0.0
 10
5.6074488927
 20
2.0547215563
 30
0.0
 10
5.6124030729
 20
2.0660892901
 30
0.0
 10
5.6180860863
 20
2.0770527507
 30
0.0
 10
5.6244683035
 20
2.0875190886
 30
0.0
 10
5.6295680593
 20
2.0950677803
 30
0.0
 10
5.6349826305
 20
2.1023183363
 30
0.0
 10
5.6406992201
 20
2.109253442
 30
0.0
 10
5.6467033553
 20
2.1158569097
 30
0.0
 10
5.6529813209
 20
2.1221122374
 30
0.0
 10
5.6595179159
 20
2.128004355
 30
0.0
 10
5.6662968942
 20
2.1335196681
 30
0.0
 10
5.6733026611
 20
2.138644063
 30
0.0
 10
5.6805179844
 20
2.1433653382
 30
0.0
 10
5.6879256276
 20
2.1476728468
 30
0.0
 10
5.6980049232
 20
2.1528337536
 30
0.0
 10
5.7084347274
 20
2.1571499561
 30
0.0
 10
5.7191150399
 20
2.1605636395
 30
0.0
 10
5.7272085243
 20
2.1626630412
 30
0.0
 10
5.7353815413
 20
2.1643015648
 30
0.0
 10
5.7463483274
 20
2.1658637876
 30
0.0
 10
5.760180154
 20
2.1666508585
 30
0.0
 10
5.7740119806
 20
2.1658637876
 30
0.0
 10
5.7849787667
 20
2.1643015648
 30
0.0
 10
5.7931517837
 20
2.1626630412
 30
0.0
 10
5.8012452681
 20
2.1605636395
 30
0.0
 10
5.8119255806
 20
2.1571499561
 30
0.0
 10
5.8223553848
 20
2.1528337536
 30
0.0
 10
5.8324346803
 20
2.1476728468
 30
0.0
 10
5.8398423235
 20
2.1433653382
 30
0.0
 10
5.8470576469
 20
2.138644063
 30
0.0
 10
5.8540634137
 20
2.1335196681
 30
0.0
 10
5.8608423921
 20
2.128004355
 30
0.0
 10
5.867378987
 20
2.1221122374
 30
0.0
 10
5.8736569527
 20
2.1158569097
 30
0.0
 10
5.8796610879
 20
2.109253442
 30
0.0
 10
5.8853776775
 20
2.1023183363
 30
0.0
 10
5.8907922487
 20
2.0950677803
 30
0.0
 10
5.8958920044
 20
2.0875190886
 30
0.0
 10
5.9022742217
 20
2.0770527507
 30
0.0
 10
5.9079572351
 20
2.0660892901
 30
0.0
 10
5.9129114153
 20
2.0547215563
 30
0.0
 10
5.9162699721
 20
2.0459693051
 30
0.0
 10
5.9192525413
 20
2.0370376153
 30
0.0
 10
5.922724303
 20
2.0249010373
 30
0.0
 10
5.9254090473
 20
2.0125088469
 30
0.0
 10
5.927295661
 20
1.9999511913
 30
0.0
 10
5.9286478874
 20
1.9872800125
 30
0.0
 10
5.9290551077
 20
1.9777122196
 30
0.0
 10
5.9290551077
 20
1.9713361806
 30
0.0
  0
SPLINE
  5
449
100
AcDbEntity
  8
0
100
AcDbSpline
 62
7
  6
CONTINUOUS
 70
0
 71
3
 72
61
 73
57
 74
0
 42
0.0000001
 43
0.0000001
 44
0.0000000001
 40
0.0
 40
0.0
 40
0.0
 40
0.0
 40
0.0334291029
 40
0.0501292469
 40
0.0667963495
 40
0.0999901962
 40
0.1165096459
 40
0.1329636835
 40
0.1493438214
 40
0.165642522
 40
0.1979621793
 40
0.2139807246
 40
0.2298965263
 40
0.245706158
 40
0.2614073778
 40
0.2769989851
 40
0.2924805968
 40
0.3078531257
 40
0.3231185188
 40
0.3382796167
 40
0.3533405906
 40
0.3683065699
 40
0.3831835726
 40
0.4126893505
 40
0.427345898
 40
0.4419471963
 40
0.4565034442
 40
0.4710253968
 40
0.5
 40
0.5289746032
 40
0.5434965558
 40
0.5580528037
 40
0.572654102
 40
0.5873106495
 40
0.6168164274
 40
0.6316934301
 40
0.6466594094
 40
0.6617203833
 40
0.6768814812
 40
0.6921468743
 40
0.7075194032
 40
0.7230010149
 40
0.7385926222
 40
0.754293842
 40
0.7701034737
 40
0.7860192754
 40
0.8020378207
 40
0.834357478
 40
0.8506561786
 40
0.8670363165
 40
0.8834903541
 40
0.9000098038
 40
0.9332036505
 40
0.9498707531
 40
0.9665708971
 40
1.0
 40
1.0
 40
1.0
 40
1.0
 10
5.5913052003
 20
1.9713361806
 30
0.0
 10
5.5913052003
 20
1.9649601417
 30
0.0
 10
5.5917124206
 20
1.9553923488
 30
0.0
 10
5.593064647
 20
1.94272117
 30
0.0
 10
5.5949512606
 20
1.9301635144
 30
0.0
 10
5.597636005
 20
1.917771324
 30
0.0
 10
5.6011077667
 20
1.905634746
 30
0.0
 10
5.6040903358
 20
1.8967030562
 30
0.0
 10
5.6074488927
 20
1.887950805
 30
0.0
 10
5.6124030729
 20
1.8765830712
 30
0.0
 10
5.6180860863
 20
1.8656196106
 30
0.0
 10
5.6244683035
 20
1.8551532727
 30
0.0
 10
5.6295680593
 20
1.847604581
 30
0.0
 10
5.6349826305
 20
1.840354025
 30
0.0
 10
5.6406992201
 20
1.8334189193
 30
0.0
 10
5.6467033553
 20
1.8268154516
 30
0.0
 10
5.6529813209
 20
1.8205601239
 30
0.0
 10
5.6595179159
 20
1.8146680063
 30
0.0
 10
5.6662968942
 20
1.8091526932
 30
0.0
 10
5.6733026611
 20
1.8040282983
 30
0.0
 10
5.6805179844
 20
1.7993070231
 30
0.0
 10
5.6879256276
 20
1.7949995145
 30
0.0
 10
5.6980049232
 20
1.7898386077
 30
0.0
 10
5.7084347274
 20
1.7855224052
 30
0.0
 10
5.7191150399
 20
1.7821087218
 30
0.0
 10
5.7272085243
 20
1.7800093201
 30
0.0
 10
5.7353815413
 20
1.7783707965
 30
0.0
 10
5.7463483274
 20
1.7768085737
 30
0.0
 10
5.760180154
 20
1.7760215028
 30
0.0
 10
5.7740119806
 20
1.7768085737
 30
0.0
 10
5.7849787667
 20
1.7783707965
 30
0.0
 10
5.7931517837
 20
1.7800093201
 30
0.0
 10
5.8012452681
 20
1.7821087218
 30
0.0
 10
5.8119255806
 20
1.7855224052
 30
0.0
 10
5.8223553848
 20
1.7898386077
 30
0.0
 10
5.8324346803
 20
1.7949995145
 30
0.0
 10
5.8398423235
 20
1.7993070231
 30
0.0
 10
5.8470576469
 20
1.8040282983
 30
0.0
 10
5.8540634137
 20
1.8091526932
 30
0.0
 10
5.8608423921
 20
1.8146680063
 30
0.0
 10
5.867378987
 20
1.8205601239
 30
0.0
 10
5.8736569527
 20
1.8268154516
 30
0.0
 10
5.8796610879
 20
1.8334189193
 30
0.0
 10
5.8853776775
 20
1.840354025
 30
0.0
 10
5.8907922487
 20
1.847604581
 30
0.0
 10
5.8958920044
 20
1.8551532727
 30
0.0
 10
5.9022742217
 20
1.8656196106
 30
0.0
 10
5.9079572351
 20
1.8765830712
 30
0.0
 10
5.9129114153
 20
1.887950805
 30
0.0
 10
5.9162699721
 20
1.8967030562
 30
0.0
 10
5.9192525413
 20
1.905634746
 30
0.0
 10
5.922724303
 20
1.917771324
 30
0.0
 10
5.9254090473
 20
1.9301635144
 30
0.0
 10
5.927295661
 20
1.94272117
 30
0.0
 10
5.9286478874
 20
1.9553923488
 30
0.0
 10
5.9290551077
 20
1.9649601417
 30
0.0
 10
5.9290551077
 20
1.9713361806
 30
0.0
  0
SPLINE
  5
44A
100
AcDbEntity
  8
0
100
AcDbSpline
 62
7
  6
CONTINUOUS
 70
0
 71
3
 72
28
 73
24
 74
0
 42
0.0000001
 43
0.0000001
 44
0.0000000001
 40
0.0
 40
0.0
 40
0.0
 40
0.0
 40
0.0202877696
 40
0.0407212365
 40
0.0614410531
 40
0.0825803778
 40
0.1265503263
 40
0.1734715902
 40
0.1982361688
 40
0.2239263189
 40
0.2781916848
 40
0.3068187944
 40
0.3364387145
 40
0.3670446691
 40
0.398618862
 40
0.4645534343
 40
0.5339885155
 40
0.6065660192
 40
0.6818598826
 40
0.7593796862
 40
0.8386186356
 40
0.9190461709
 40
1.0
 40
1.0
 40
1.0
 40
1.0
 10
-14.0316626121
 20
1.8763361806
 30
0.0
 10
-14.0308847722
 20
1.8763361806
 30
0.0
 10
-14.0293224336
 20
1.8764133264
 30
0.0
 10
-14.026988753
 20
1.8767589679
 30
0.0
 10
-14.0246667958
 20
1.8773334929
 30
0.0
 10
-14.0215552266
 20
1.8784167712
 30
0.0
 10
-14.0177047235
 20
1.8803694411
 30
0.0
 10
-14.0140990724
 20
1.882978037
 30
0.0
 10
-14.0113069944
 20
1.8854595778
 30
0.0
 10
-14.008478881
 20
1.8883127912
 30
0.0
 10
-14.0058185848
 20
1.8915279496
 30
0.0
 10
-14.0033237541
 20
1.8950483062
 30
0.0
 10
-14.0014872915
 20
1.8979191745
 30
0.0
 10
-13.9997239021
 20
1.900966453
 30
0.0
 10
-13.9974423984
 20
1.9053177576
 30
0.0
 10
-13.9948094388
 20
1.9111589807
 30
0.0
 10
-13.9920476415
 20
1.9186441145
 30
0.0
 10
-13.9896640817
 20
1.9266329352
 30
0.0
 10
-13.9876823095
 20
1.9350489334
 30
0.0
 10
-13.9861205425
 20
1.943812049
 30
0.0
 10
-13.9849939386
 20
1.9528398606
 30
0.0
 10
-13.9843145116
 20
1.9620438997
 30
0.0
 10
-13.9841626121
 20
1.9682323838
 30
0.0
 10
-13.9841626121
 20
1.9713361806
 30
0.0
  0
SPLINE
  5
44B
100
AcDbEntity
  8
0
100
AcDbSpline
 62
7
  6
CONTINUOUS
 70
0
 71
3
 72
28
 73
24
 74
0
 42
0.0000001
 43
0.0000001
 44
0.0000000001
 40
0.0
 40
0.0
 40
0.0
 40
0.0
 40
0.0202877696
 40
0.0407212365
 40
0.0614410531
 40
0.0825803778
 40
0.1265503263
 40
0.1734715902
 40
0.1982361688
 40
0.2239263189
 40
0.2781916848
 40
0.3068187944
 40
0.3364387145
 40
0.3670446691
 40
0.398618862
 40
0.4645534343
 40
0.5339885155
 40
0.6065660192
 40
0.6818598826
 40
0.7593796862
 40
0.8386186356
 40
0.9190461709
 40
1.0
 40
1.0
 40
1.0
 40
1.0
 10
-14.0316626121
 20
2.0663361806
 30
0.0
 10
-14.0308847722
 20
2.0663361806
 30
0.0
 10
-14.0293224336
 20
2.0662590349
 30
0.0
 10
-14.026988753
 20
2.0659133934
 30
0.0
 10
-14.0246667958
 20
2.0653388684
 30
0.0
 10
-14.0215552266
 20
2.0642555901
 30
0.0
 10
-14.0177047235
 20
2.0623029202
 30
0.0
 10
-14.0140990724
 20
2.0596943243
 30
0.0
 10
-14.0113069944
 20
2.0572127835
 30
0.0
 10
-14.008478881
 20
2.0543595701
 30
0.0
 10
-14.0058185848
 20
2.0511444117
 30
0.0
 10
-14.0033237541
 20
2.0476240551
 30
0.0
 10
-14.0014872915
 20
2.0447531868
 30
0.0
 10
-13.9997239021
 20
2.0417059083
 30
0.0
 10
-13.9974423984
 20
2.0373546037
 30
0.0
 10
-13.9948094388
 20
2.0315133806
 30
0.0
 10
-13.9920476415
 20
2.0240282468
 30
0.0
 10
-13.9896640817
 20
2.0160394261
 30
0.0
 10
-13.9876823095
 20
2.0076234279
 30
0.0
 10
-13.9861205425
 20
1.9988603123
 30
0.0
 10
-13.9849939386
 20
1.9898325007
 30
0.0
 10
-13.9843145116
 20
1.9806284616
 30
0.0
 10
-13.9841626121
 20
1.9744399775
 30
0.0
 10
-13.9841626121
 20
1.9713361806
 30
0.0
  0
SPLINE
  5
44C
100
AcDbEntity
  8
0
100
AcDbSpline
 62
7
  6
CONTINUOUS
 70
0
 71
3
 72
48
 73
44
 74
0
 42
0.0000001
 43
0.0000001
 44
0.0000000001
 40
0.0
 40
0.0
 40
0.0
 40
0.0
 40
0.0334179923
 40
0.0652649576
 40
0.0955198217
 40
0.1100548361
 40
0.1241993503
 40
0.1379608929
 40
0.1513493687
 40
0.1643781899
 40
0.1770642332
 40
0.2014794699
 40
0.2248025374
 40
0.2361382423
 40
0.2472999614
 40
0.2583268681
 40
0.2692602216
 40
0.280142678
 40
0.2910178729
 40
0.3019296266
 40
0.3129209701
 40
0.3240336671
 40
0.3353077171
 40
0.3584733844
 40
0.3826928299
 40
0.4081742117
 40
0.4350713894
 40
0.44908838
 40
0.4634936212
 40
0.4934852627
 40
0.5250698598
 40
0.5582309524
 40
0.5929218775
 40
0.6290721128
 40
0.6665885028
 40
0.7053610256
 40
0.7452636781
 40
0.7861587047
 40
0.8278940323
 40
0.8703105866
 40
0.9132510557
 40
0.9565494392
 40
1.0
 40
1.0
 40
1.0
 40
1.0
 10
-14.5502983501
 20
1.8321816625
 30
0.0
 10
-14.5486359564
 20
1.8289177394
 30
0.0
 10
-14.5452039936
 20
1.8226349759
 30
0.0
 10
-14.5395951552
 20
1.8137855437
 30
0.0
 10
-14.5345970259
 20
1.80702309
 30
0.0
 10
-14.5304486593
 20
1.8020693685
 30
0.0
 10
-14.5273134873
 20
1.798630672
 30
0.0
 10
-14.5241172024
 20
1.7954236911
 30
0.0
 10
-14.520863787
 20
1.7924530425
 30
0.0
 10
-14.5175573713
 20
1.7897226746
 30
0.0
 10
-14.5131415257
 20
1.786449455
 30
0.0
 10
-14.5075033105
 20
1.7829452798
 30
0.0
 10
-14.5016104714
 20
1.7802159507
 30
0.0
 10
-14.4968613993
 20
1.7785716817
 30
0.0
 10
-14.4933117727
 20
1.7776099242
 30
0.0
 10
-14.489746406
 20
1.7769095692
 30
0.0
 10
-14.4861701647
 20
1.7764712931
 30
0.0
 10
-14.4825880375
 20
1.7762958899
 30
0.0
 10
-14.4790050644
 20
1.7763841904
 30
0.0
 10
-14.4754263244
 20
1.7767356692
 30
0.0
 10
-14.4718568293
 20
1.7773494894
 30
0.0
 10
-14.4683013927
 20
1.7782249323
 30
0.0
 10
-14.463544535
 20
1.7797531137
 30
0.0
 10
-14.4576361236
 20
1.7823387022
 30
0.0
 10
-14.4507566524
 20
1.78643133
 30
0.0
 10
-14.4440555402
 20
1.7915156362
 30
0.0
 10
-14.438722699
 20
1.7964849812
 30
0.0
 10
-14.4345722773
 20
1.8009073794
 30
0.0
 10
-14.4303936747
 20
1.8057608287
 30
0.0
 10
-14.4253541348
 20
1.8124026572
 30
0.0
 10
-14.4196918488
 20
1.8211165086
 30
0.0
 10
-14.4143650284
 20
1.8306334946
 30
0.0
 10
-14.4094009082
 20
1.8409022972
 30
0.0
 10
-14.4048264091
 20
1.8518688808
 30
0.0
 10
-14.4006647931
 20
1.8634744975
 30
0.0
 10
-14.396939178
 20
1.8756576236
 30
0.0
 10
-14.3936684054
 20
1.8883530652
 30
0.0
 10
-14.3908711931
 20
1.9014930929
 30
0.0
 10
-14.3885612228
 20
1.9150068655
 30
0.0
 10
-14.3867519005
 20
1.9288226902
 30
0.0
 10
-14.3854521355
 20
1.9428677312
 30
0.0
 10
-14.3846703096
 20
1.9570643251
 30
0.0
 10
-14.384495822
 20
1.9665736406
 30
0.0
 10
-14.384495822
 20
1.9713361806
 30
0.0
  0
SPLINE
  5
44D
100
AcDbEntity
  8
0
100
AcDbSpline
 62
7
  6
CONTINUOUS
 70
0
 71
3
 72
48
 73
44
 74
0
 42
0.0000001
 43
0.0000001
 44
0.0000000001
 40
0.0
 40
0.0
 40
0.0
 40
0.0
 40
0.0334179923
 40
0.0652649576
 40
0.0955198217
 40
0.1100548361
 40
0.1241993503
 40
0.1379608929
 40
0.1513493687
 40
0.1643781899
 40
0.1770642332
 40
0.2014794699
 40
0.2248025374
 40
0.2361382423
 40
0.2472999614
 40
0.2583268681
 40
0.2692602216
 40
0.280142678
 40
0.2910178729
 40
0.3019296266
 40
0.3129209701
 40
0.3240336671
 40
0.3353077171
 40
0.3584733844
 40
0.3826928299
 40
0.4081742117
 40
0.4350713894
 40
0.44908838
 40
0.4634936212
 40
0.4934852627
 40
0.5250698598
 40
0.5582309524
 40
0.5929218775
 40
0.6290721128
 40
0.6665885028
 40
0.7053610256
 40
0.7452636781
 40
0.7861587047
 40
0.8278940323
 40
0.8703105866
 40
0.9132510557
 40
0.9565494392
 40
1.0
 40
1.0
 40
1.0
 40
1.0
 10
-14.5502983501
 20
2.1104906988
 30
0.0
 10
-14.5486359564
 20
2.1137546219
 30
0.0
 10
-14.5452039936
 20
2.1200373854
 30
0.0
 10
-14.5395951552
 20
2.1288868176
 30
0.0
 10
-14.5345970259
 20
2.1356492713
 30
0.0
 10
-14.5304486593
 20
2.1406029928
 30
0.0
 10
-14.5273134873
 20
2.1440416893
 30
0.0
 10
-14.5241172024
 20
2.1472486702
 30
0.0
 10
-14.520863787
 20
2.1502193188
 30
0.0
 10
-14.5175573713
 20
2.1529496867
 30
0.0
 10
-14.5131415257
 20
2.1562229063
 30
0.0
 10
-14.5075033105
 20
2.1597270815
 30
0.0
 10
-14.5016104714
 20
2.1624564106
 30
0.0
 10
-14.4968613993
 20
2.1641006796
 30
0.0
 10
-14.4933117727
 20
2.1650624371
 30
0.0
 10
-14.489746406
 20
2.1657627921
 30
0.0
 10
-14.4861701647
 20
2.1662010682
 30
0.0
 10
-14.4825880375
 20
2.1663764714
 30
0.0
 10
-14.4790050644
 20
2.1662881709
 30
0.0
 10
-14.4754263244
 20
2.1659366921
 30
0.0
 10
-14.4718568293
 20
2.1653228719
 30
0.0
 10
-14.4683013927
 20
2.164447429
 30
0.0
 10
-14.463544535
 20
2.1629192476
 30
0.0
 10
-14.4576361236
 20
2.1603336591
 30
0.0
 10
-14.4507566524
 20
2.1562410313
 30
0.0
 10
-14.4440555402
 20
2.1511567251
 30
0.0
 10
-14.438722699
 20
2.1461873801
 30
0.0
 10
-14.4345722773
 20
2.1417649819
 30
0.0
 10
-14.4303936747
 20
2.1369115326
 30
0.0
 10
-14.4253541348
 20
2.1302697041
 30
0.0
 10
-14.4196918488
 20
2.1215558527
 30
0.0
 10
-14.4143650284
 20
2.1120388667
 30
0.0
 10
-14.4094009082
 20
2.1017700641
 30
0.0
 10
-14.4048264091
 20
2.0908034805
 30
0.0
 10
-14.4006647931
 20
2.0791978638
 30
0.0
 10
-14.396939178
 20
2.0670147377
 30
0.0
 10
-14.3936684054
 20
2.0543192961
 30
0.0
 10
-14.3908711931
 20
2.0411792684
 30
0.0
 10
-14.3885612228
 20
2.0276654958
 30
0.0
 10
-14.3867519005
 20
2.0138496711
 30
0.0
 10
-14.3854521355
 20
1.99980463
 30
0.0
 10
-14.3846703096
 20
1.9856080362
 30
0.0
 10
-14.384495822
 20
1.9760987207
 30
0.0
 10
-14.384495822
 20
1.9713361806
 30
0.0
  0
SPLINE
  5
44E
100
AcDbEntity
  8
0
100
AcDbSpline
 62
7
  6
CONTINUOUS
 70
0
 71
3
 72
28
 73
24
 74
0
 42
0.0000001
 43
0.0000001
 44
0.0000000001
 40
0.0
 40
0.0
 40
0.0
 40
0.0
 40
0.0202877696
 40
0.0407212365
 40
0.0614410531
 40
0.0825803778
 40
0.1265503263
 40
0.1734715902
 40
0.1982361688
 40
0.2239263189
 40
0.2781916848
 40
0.3068187944
 40
0.3364387145
 40
0.3670446691
 40
0.398618862
 40
0.4645534343
 40
0.5339885155
 40
0.6065660192
 40
0.6818598826
 40
0.7593796862
 40
0.8386186356
 40
0.9190461709
 40
1.0
 40
1.0
 40
1.0
 40
1.0
 10
-14.0316626121
 20
4.9263361806
 30
0.0
 10
-14.0308847722
 20
4.9263361806
 30
0.0
 10
-14.0293224336
 20
4.9264133264
 30
0.0
 10
-14.026988753
 20
4.9267589679
 30
0.0
 10
-14.0246667958
 20
4.9273334929
 30
0.0
 10
-14.0215552266
 20
4.9284167712
 30
0.0
 10
-14.0177047235
 20
4.9303694411
 30
0.0
 10
-14.0140990724
 20
4.932978037
 30
0.0
 10
-14.0113069944
 20
4.9354595778
 30
0.0
 10
-14.008478881
 20
4.9383127912
 30
0.0
 10
-14.0058185848
 20
4.9415279496
 30
0.0
 10
-14.0033237541
 20
4.9450483062
 30
0.0
 10
-14.0014872915
 20
4.9479191745
 30
0.0
 10
-13.9997239021
 20
4.950966453
 30
0.0
 10
-13.9974423984
 20
4.9553177576
 30
0.0
 10
-13.9948094388
 20
4.9611589807
 30
0.0
 10
-13.9920476415
 20
4.9686441145
 30
0.0
 10
-13.9896640817
 20
4.9766329352
 30
0.0
 10
-13.9876823095
 20
4.9850489334
 30
0.0
 10
-13.9861205425
 20
4.993812049
 30
0.0
 10
-13.9849939386
 20
5.0028398606
 30
0.0
 10
-13.9843145116
 20
5.0120438997
 30
0.0
 10
-13.9841626121
 20
5.0182323838
 30
0.0
 10
-13.9841626121
 20
5.0213361806
 30
0.0
  0
SPLINE
  5
44F
100
AcDbEntity
  8
0
100
AcDbSpline
 62
7
  6
CONTINUOUS
 70
0
 71
3
 72
28
 73
24
 74
0
 42
0.0000001
 43
0.0000001
 44
0.0000000001
 40
0.0
 40
0.0
 40
0.0
 40
0.0
 40
0.0202877696
 40
0.0407212365
 40
0.0614410531
 40
0.0825803778
 40
0.1265503263
 40
0.1734715902
 40
0.1982361688
 40
0.2239263189
 40
0.2781916848
 40
0.3068187944
 40
0.3364387145
 40
0.3670446691
 40
0.398618862
 40
0.4645534343
 40
0.5339885155
 40
0.6065660192
 40
0.6818598826
 40
0.7593796862
 40
0.8386186356
 40
0.9190461709
 40
1.0
 40
1.0
 40
1.0
 40
1.0
 10
-14.0316626121
 20
5.1163361806
 30
0.0
 10
-14.0308847722
 20
5.1163361806
 30
0.0
 10
-14.0293224336
 20
5.1162590349
 30
0.0
 10
-14.026988753
 20
5.1159133934
 30
0.0
 10
-14.0246667958
 20
5.1153388684
 30
0.0
 10
-14.0215552266
 20
5.1142555901
 30
0.0
 10
-14.0177047235
 20
5.1123029202
 30
0.0
 10
-14.0140990724
 20
5.1096943243
 30
0.0
 10
-14.0113069944
 20
5.1072127835
 30
0.0
 10
-14.008478881
 20
5.1043595701
 30
0.0
 10
-14.0058185848
 20
5.1011444117
 30
0.0
 10
-14.0033237541
 20
5.0976240551
 30
0.0
 10
-14.0014872915
 20
5.0947531868
 30
0.0
 10
-13.9997239021
 20
5.0917059083
 30
0.0
 10
-13.9974423984
 20
5.0873546037
 30
0.0
 10
-13.9948094388
 20
5.0815133806
 30
0.0
 10
-13.9920476415
 20
5.0740282468
 30
0.0
 10
-13.9896640817
 20
5.0660394261
 30
0.0
 10
-13.9876823095
 20
5.0576234279
 30
0.0
 10
-13.9861205425
 20
5.0488603123
 30
0.0
 10
-13.9849939386
 20
5.0398325007
 30
0.0
 10
-13.9843145116
 20
5.0306284616
 30
0.0
 10
-13.9841626121
 20
5.0244399775
 30
0.0
 10
-13.9841626121
 20
5.0213361806
 30
0.0
  0
SPLINE
  5
450
100
AcDbEntity
  8
0
100
AcDbSpline
 62
7
  6
CONTINUOUS
 70
0
 71
3
 72
48
 73
44
 74
0
 42
0.0000001
 43
0.0000001
 44
0.0000000001
 40
0.0
 40
0.0
 40
0.0
 40
0.0
 40
0.0334179923
 40
0.0652649576
 40
0.0955198217
 40
0.1100548361
 40
0.1241993503
 40
0.1379608929
 40
0.1513493687
 40
0.1643781899
 40
0.1770642332
 40
0.2014794699
 40
0.2248025374
 40
0.2361382423
 40
0.2472999614
 40
0.2583268681
 40
0.2692602216
 40
0.280142678
 40
0.2910178729
 40
0.3019296266
 40
0.3129209701
 40
0.3240336671
 40
0.3353077171
 40
0.3584733844
 40
0.3826928299
 40
0.4081742117
 40
0.4350713894
 40
0.44908838
 40
0.4634936212
 40
0.4934852627
 40
0.5250698598
 40
0.5582309524
 40
0.5929218775
 40
0.6290721128
 40
0.6665885028
 40
0.7053610256
 40
0.7452636781
 40
0.7861587047
 40
0.8278940323
 40
0.8703105866
 40
0.9132510557
 40
0.9565494392
 40
1.0
 40
1.0
 40
1.0
 40
1.0
 10
-14.5502983501
 20
4.8821816625
 30
0.0
 10
-14.5486359564
 20
4.8789177394
 30
0.0
 10
-14.5452039936
 20
4.8726349759
 30
0.0
 10
-14.5395951552
 20
4.8637855437
 30
0.0
 10
-14.5345970259
 20
4.85702309
 30
0.0
 10
-14.5304486593
 20
4.8520693685
 30
0.0
 10
-14.5273134873
 20
4.848630672
 30
0.0
 10
-14.5241172024
 20
4.8454236911
 30
0.0
 10
-14.520863787
 20
4.8424530425
 30
0.0
 10
-14.5175573713
 20
4.8397226746
 30
0.0
 10
-14.5131415257
 20
4.836449455
 30
0.0
 10
-14.5075033105
 20
4.8329452798
 30
0.0
 10
-14.5016104714
 20
4.8302159507
 30
0.0
 10
-14.4968613993
 20
4.8285716817
 30
0.0
 10
-14.4933117727
 20
4.8276099242
 30
0.0
 10
-14.489746406
 20
4.8269095692
 30
0.0
 10
-14.4861701647
 20
4.8264712931
 30
0.0
 10
-14.4825880375
 20
4.8262958899
 30
0.0
 10
-14.4790050644
 20
4.8263841904
 30
0.0
 10
-14.4754263244
 20
4.8267356692
 30
0.0
 10
-14.4718568293
 20
4.8273494894
 30
0.0
 10
-14.4683013927
 20
4.8282249323
 30
0.0
 10
-14.463544535
 20
4.8297531137
 30
0.0
 10
-14.4576361236
 20
4.8323387022
 30
0.0
 10
-14.4507566524
 20
4.83643133
 30
0.0
 10
-14.4440555402
 20
4.8415156362
 30
0.0
 10
-14.438722699
 20
4.8464849812
 30
0.0
 10
-14.4345722773
 20
4.8509073794
 30
0.0
 10
-14.4303936747
 20
4.8557608287
 30
0.0
 10
-14.4253541348
 20
4.8624026572
 30
0.0
 10
-14.4196918488
 20
4.8711165086
 30
0.0
 10
-14.4143650284
 20
4.8806334946
 30
0.0
 10
-14.4094009082
 20
4.8909022972
 30
0.0
 10
-14.4048264091
 20
4.9018688808
 30
0.0
 10
-14.4006647931
 20
4.9134744975
 30
0.0
 10
-14.396939178
 20
4.9256576236
 30
0.0
 10
-14.3936684054
 20
4.9383530652
 30
0.0
 10
-14.3908711931
 20
4.9514930929
 30
0.0
 10
-14.3885612228
 20
4.9650068655
 30
0.0
 10
-14.3867519005
 20
4.9788226902
 30
0.0
 10
-14.3854521355
 20
4.9928677312
 30
0.0
 10
-14.3846703096
 20
5.0070643251
 30
0.0
 10
-14.384495822
 20
5.0165736406
 30
0.0
 10
-14.384495822
 20
5.0213361806
 30
0.0
  0
SPLINE
  5
451
100
AcDbEntity
  8
0
100
AcDbSpline
 62
7
  6
CONTINUOUS
 70
0
 71
3
 72
48
 73
44
 74
0
 42
0.0000001
 43
0.0000001
 44
0.0000000001
 40
0.0
 40
0.0
 40
0.0
 40
0.0
 40
0.0334179923
 40
0.0652649576
 40
0.0955198217
 40
0.1100548361
 40
0.1241993503
 40
0.1379608929
 40
0.1513493687
 40
0.1643781899
 40
0.1770642332
 40
0.2014794699
 40
0.2248025374
 40
0.2361382423
 40
0.2472999614
 40
0.2583268681
 40
0.2692602216
 40
0.280142678
 40
0.2910178729
 40
0.3019296266
 40
0.3129209701
 40
0.3240336671
 40
0.3353077171
 40
0.3584733844
 40
0.3826928299
 40
0.4081742117
 40
0.4350713894
 40
0.44908838
 40
0.4634936212
 40
0.4934852627
 40
0.5250698598
 40
0.5582309524
 40
0.5929218775
 40
0.6290721128
 40
0.6665885028
 40
0.7053610256
 40
0.7452636781
 40
0.7861587047
 40
0.8278940323
 40
0.8703105866
 40
0.9132510557
 40
0.9565494392
 40
1.0
 40
1.0
 40
1.0
 40
1.0
 10
-14.5502983501
 20
5.1604906988
 30
0.0
 10
-14.5486359564
 20
5.1637546219
 30
0.0
 10
-14.5452039936
 20
5.1700373854
 30
0.0
 10
-14.5395951552
 20
5.1788868176
 30
0.0
 10
-14.5345970259
 20
5.1856492713
 30
0.0
 10
-14.5304486593
 20
5.1906029928
 30
0.0
 10
-14.5273134873
 20
5.1940416893
 30
0.0
 10
-14.5241172024
 20
5.1972486702
 30
0.0
 10
-14.520863787
 20
5.2002193188
 30
0.0
 10
-14.5175573713
 20
5.2029496867
 30
0.0
 10
-14.5131415257
 20
5.2062229063
 30
0.0
 10
-14.5075033105
 20
5.2097270815
 30
0.0
 10
-14.5016104714
 20
5.2124564106
 30
0.0
 10
-14.4968613993
 20
5.2141006796
 30
0.0
 10
-14.4933117727
 20
5.2150624371
 30
0.0
 10
-14.489746406
 20
5.2157627921
 30
0.0
 10
-14.4861701647
 20
5.2162010682
 30
0.0
 10
-14.4825880375
 20
5.2163764714
 30
0.0
 10
-14.4790050644
 20
5.2162881709
 30
0.0
 10
-14.4754263244
 20
5.2159366921
 30
0.0
 10
-14.4718568293
 20
5.2153228719
 30
0.0
 10
-14.4683013927
 20
5.214447429
 30
0.0
 10
-14.463544535
 20
5.2129192476
 30
0.0
 10
-14.4576361236
 20
5.2103336591
 30
0.0
 10
-14.4507566524
 20
5.2062410313
 30
0.0
 10
-14.4440555402
 20
5.2011567251
 30
0.0
 10
-14.438722699
 20
5.1961873801
 30
0.0
 10
-14.4345722773
 20
5.1917649819
 30
0.0
 10
-14.4303936747
 20
5.1869115326
 30
0.0
 10
-14.4253541348
 20
5.1802697041
 30
0.0
 10
-14.4196918488
 20
5.1715558527
 30
0.0
 10
-14.4143650284
 20
5.1620388667
 30
0.0
 10
-14.4094009082
 20
5.1517700641
 30
0.0
 10
-14.4048264091
 20
5.1408034805
 30
0.0
 10
-14.4006647931
 20
5.1291978638
 30
0.0
 10
-14.396939178
 20
5.1170147377
 30
0.0
 10
-14.3936684054
 20
5.1043192961
 30
0.0
 10
-14.3908711931
 20
5.0911792684
 30
0.0
 10
-14.3885612228
 20
5.0776654958
 30
0.0
 10
-14.3867519005
 20
5.0638496711
 30
0.0
 10
-14.3854521355
 20
5.04980463
 30
0.0
 10
-14.3846703096
 20
5.0356080362
 30
0.0
 10
-14.384495822
 20
5.0260987207
 30
0.0
 10
-14.384495822
 20
5.0213361806
 30
0.0
  0
SPLINE
  5
452
100
AcDbEntity
  8
0
100
AcDbSpline
 62
7
  6
CONTINUOUS
 70
0
 71
3
 72
28
 73
24
 74
0
 42
0.0000001
 43
0.0000001
 44
0.0000000001
 40
0.0
 40
0.0
 40
0.0
 40
0.0
 40
0.0202877696
 40
0.0407212365
 40
0.0614410531
 40
0.0825803778
 40
0.1265503263
 40
0.1734715902
 40
0.1982361688
 40
0.2239263189
 40
0.2781916848
 40
0.3068187944
 40
0.3364387145
 40
0.3670446691
 40
0.398618862
 40
0.4645534343
 40
0.5339885155
 40
0.6065660192
 40
0.6818598826
 40
0.7593796862
 40
0.8386186356
 40
0.9190461709
 40
1.0
 40
1.0
 40
1.0
 40
1.0
 10
-14.0316626121
 20
0.0713361806
 30
0.0
 10
-14.0308847722
 20
0.0713361806
 30
0.0
 10
-14.0293224336
 20
0.0714133264
 30
0.0
 10
-14.026988753
 20
0.0717589679
 30
0.0
 10
-14.0246667958
 20
0.0723334929
 30
0.0
 10
-14.0215552266
 20
0.0734167712
 30
0.0
 10
-14.0177047235
 20
0.0753694411
 30
0.0
 10
-14.0140990724
 20
0.077978037
 30
0.0
 10
-14.0113069944
 20
0.0804595778
 30
0.0
 10
-14.008478881
 20
0.0833127912
 30
0.0
 10
-14.0058185848
 20
0.0865279496
 30
0.0
 10
-14.0033237541
 20
0.0900483062
 30
0.0
 10
-14.0014872915
 20
0.0929191745
 30
0.0
 10
-13.9997239021
 20
0.095966453
 30
0.0
 10
-13.9974423984
 20
0.1003177576
 30
0.0
 10
-13.9948094388
 20
0.1061589807
 30
0.0
 10
-13.9920476415
 20
0.1136441145
 30
0.0
 10
-13.9896640817
 20
0.1216329352
 30
0.0
 10
-13.9876823095
 20
0.1300489334
 30
0.0
 10
-13.9861205425
 20
0.138812049
 30
0.0
 10
-13.9849939386
 20
0.1478398606
 30
0.0
 10
-13.9843145116
 20
0.1570438997
 30
0.0
 10
-13.9841626121
 20
0.1632323838
 30
0.0
 10
-13.9841626121
 20
0.1663361806
 30
0.0
  0
SPLINE
  5
453
100
AcDbEntity
  8
0
100
AcDbSpline
 62
7
  6
CONTINUOUS
 70
0
 71
3
 72
28
 73
24
 74
0
 42
0.0000001
 43
0.0000001
 44
0.0000000001
 40
0.0
 40
0.0
 40
0.0
 40
0.0
 40
0.0202877696
 40
0.0407212365
 40
0.0614410531
 40
0.0825803778
 40
0.1265503263
 40
0.1734715902
 40
0.1982361688
 40
0.2239263189
 40
0.2781916848
 40
0.3068187944
 40
0.3364387145
 40
0.3670446691
 40
0.398618862
 40
0.4645534343
 40
0.5339885155
 40
0.6065660192
 40
0.6818598826
 40
0.7593796862
 40
0.8386186356
 40
0.9190461709
 40
1.0
 40
1.0
 40
1.0
 40
1.0
 10
-14.0316626121
 20
0.2613361806
 30
0.0
 10
-14.0308847722
 20
0.2613361806
 30
0.0
 10
-14.0293224336
 20
0.2612590349
 30
0.0
 10
-14.026988753
 20
0.2609133934
 30
0.0
 10
-14.0246667958
 20
0.2603388684
 30
0.0
 10
-14.0215552266
 20
0.2592555901
 30
0.0
 10
-14.0177047235
 20
0.2573029202
 30
0.0
 10
-14.0140990724
 20
0.2546943243
 30
0.0
 10
-14.0113069944
 20
0.2522127835
 30
0.0
 10
-14.008478881
 20
0.2493595701
 30
0.0
 10
-14.0058185848
 20
0.2461444117
 30
0.0
 10
-14.0033237541
 20
0.2426240551
 30
0.0
 10
-14.0014872915
 20
0.2397531868
 30
0.0
 10
-13.9997239021
 20
0.2367059083
 30
0.0
 10
-13.9974423984
 20
0.2323546037
 30
0.0
 10
-13.9948094388
 20
0.2265133806
 30
0.0
 10
-13.9920476415
 20
0.2190282468
 30
0.0
 10
-13.9896640817
 20
0.2110394261
 30
0.0
 10
-13.9876823095
 20
0.2026234279
 30
0.0
 10
-13.9861205425
 20
0.1938603123
 30
0.0
 10
-13.9849939386
 20
0.1848325007
 30
0.0
 10
-13.9843145116
 20
0.1756284616
 30
0.0
 10
-13.9841626121
 20
0.1694399775
 30
0.0
 10
-13.9841626121
 20
0.1663361806
 30
0.0
  0
SPLINE
  5
454
100
AcDbEntity
  8
0
100
AcDbSpline
 62
7
  6
CONTINUOUS
 70
0
 71
3
 72
48
 73
44
 74
0
 42
0.0000001
 43
0.0000001
 44
0.0000000001
 40
0.0
 40
0.0
 40
0.0
 40
0.0
 40
0.0334179923
 40
0.0652649576
 40
0.0955198217
 40
0.1100548361
 40
0.1241993503
 40
0.1379608929
 40
0.1513493687
 40
0.1643781899
 40
0.1770642332
 40
0.2014794699
 40
0.2248025374
 40
0.2361382423
 40
0.2472999614
 40
0.2583268681
 40
0.2692602216
 40
0.280142678
 40
0.2910178729
 40
0.3019296266
 40
0.3129209701
 40
0.3240336671
 40
0.3353077171
 40
0.3584733844
 40
0.3826928299
 40
0.4081742117
 40
0.4350713894
 40
0.44908838
 40
0.4634936212
 40
0.4934852627
 40
0.5250698598
 40
0.5582309524
 40
0.5929218775
 40
0.6290721128
 40
0.6665885028
 40
0.7053610256
 40
0.7452636781
 40
0.7861587047
 40
0.8278940323
 40
0.8703105866
 40
0.9132510557
 40
0.9565494392
 40
1.0
 40
1.0
 40
1.0
 40
1.0
 10
-14.5502983501
 20
0.0271816625
 30
0.0
 10
-14.5486359564
 20
0.0239177394
 30
0.0
 10
-14.5452039936
 20
0.0176349759
 30
0.0
 10
-14.5395951552
 20
0.0087855437
 30
0.0
 10
-14.5345970259
 20
0.00202309
 30
0.0
 10
-14.5304486593
 20
-0.0029306315
 30
0.0
 10
-14.5273134873
 20
-0.006369328
 30
0.0
 10
-14.5241172024
 20
-0.0095763089
 30
0.0
 10
-14.520863787
 20
-0.0125469575
 30
0.0
 10
-14.5175573713
 20
-0.0152773254
 30
0.0
 10
-14.5131415257
 20
-0.018550545
 30
0.0
 10
-14.5075033105
 20
-0.0220547202
 30
0.0
 10
-14.5016104714
 20
-0.0247840493
 30
0.0
 10
-14.4968613993
 20
-0.0264283183
 30
0.0
 10
-14.4933117727
 20
-0.0273900758
 30
0.0
 10
-14.489746406
 20
-0.0280904308
 30
0.0
 10
-14.4861701647
 20
-0.0285287069
 30
0.0
 10
-14.4825880375
 20
-0.0287041101
 30
0.0
 10
-14.4790050644
 20
-0.0286158096
 30
0.0
 10
-14.4754263244
 20
-0.0282643308
 30
0.0
 10
-14.4718568293
 20
-0.0276505106
 30
0.0
 10
-14.4683013927
 20
-0.0267750677
 30
0.0
 10
-14.463544535
 20
-0.0252468863
 30
0.0
 10
-14.4576361236
 20
-0.0226612978
 30
0.0
 10
-14.4507566524
 20
-0.01856867
 30
0.0
 10
-14.4440555402
 20
-0.0134843638
 30
0.0
 10
-14.438722699
 20
-0.0085150188
 30
0.0
 10
-14.4345722773
 20
-0.0040926206
 30
0.0
 10
-14.4303936747
 20
0.0007608287
 30
0.0
 10
-14.4253541348
 20
0.0074026572
 30
0.0
 10
-14.4196918488
 20
0.0161165086
 30
0.0
 10
-14.4143650284
 20
0.0256334946
 30
0.0
 10
-14.4094009082
 20
0.0359022972
 30
0.0
 10
-14.4048264091
 20
0.0468688808
 30
0.0
 10
-14.4006647931
 20
0.0584744975
 30
0.0
 10
-14.396939178
 20
0.0706576236
 30
0.0
 10
-14.3936684054
 20
0.0833530652
 30
0.0
 10
-14.3908711931
 20
0.0964930929
 30
0.0
 10
-14.3885612228
 20
0.1100068655
 30
0.0
 10
-14.3867519005
 20
0.1238226902
 30
0.0
 10
-14.3854521355
 20
0.1378677312
 30
0.0
 10
-14.3846703096
 20
0.1520643251
 30
0.0
 10
-14.384495822
 20
0.1615736406
 30
0.0
 10
-14.384495822
 20
0.1663361806
 30
0.0
  0
SPLINE
  5
455
100
AcDbEntity
  8
0
100
AcDbSpline
 62
7
  6
CONTINUOUS
 70
0
 71
3
 72
48
 73
44
 74
0
 42
0.0000001
 43
0.0000001
 44
0.0000000001
 40
0.0
 40
0.0
 40
0.0
 40
0.0
 40
0.0334179923
 40
0.0652649576
 40
0.0955198217
 40
0.1100548361
 40
0.1241993503
 40
0.1379608929
 40
0.1513493687
 40
0.1643781899
 40
0.1770642332
 40
0.2014794699
 40
0.2248025374
 40
0.2361382423
 40
0.2472999614
 40
0.2583268681
 40
0.2692602216
 40
0.280142678
 40
0.2910178729
 40
0.3019296266
 40
0.3129209701
 40
0.3240336671
 40
0.3353077171
 40
0.3584733844
 40
0.3826928299
 40
0.4081742117
 40
0.4350713894
 40
0.44908838
 40
0.4634936212
 40
0.4934852627
 40
0.5250698598
 40
0.5582309524
 40
0.5929218775
 40
0.6290721128
 40
0.6665885028
 40
0.7053610256
 40
0.7452636781
 40
0.7861587047
 40
0.8278940323
 40
0.8703105866
 40
0.9132510557
 40
0.9565494392
 40
1.0
 40
1.0
 40
1.0
 40
1.0
 10
-14.5502983501
 20
0.3054906988
 30
0.0
 10
-14.5486359564
 20
0.3087546219
 30
0.0
 10
-14.5452039936
 20
0.3150373854
 30
0.0
 10
-14.5395951552
 20
0.3238868176
 30
0.0
 10
-14.5345970259
 20
0.3306492713
 30
0.0
 10
-14.5304486593
 20
0.3356029928
 30
0.0
 10
-14.5273134873
 20
0.3390416893
 30
0.0
 10
-14.5241172024
 20
0.3422486702
 30
0.0
 10
-14.520863787
 20
0.3452193188
 30
0.0
 10
-14.5175573713
 20
0.3479496867
 30
0.0
 10
-14.5131415257
 20
0.3512229063
 30
0.0
 10
-14.5075033105
 20
0.3547270815
 30
0.0
 10
-14.5016104714
 20
0.3574564106
 30
0.0
 10
-14.4968613993
 20
0.3591006796
 30
0.0
 10
-14.4933117727
 20
0.3600624371
 30
0.0
 10
-14.489746406
 20
0.3607627921
 30
0.0
 10
-14.4861701647
 20
0.3612010682
 30
0.0
 10
-14.4825880375
 20
0.3613764714
 30
0.0
 10
-14.4790050644
 20
0.3612881709
 30
0.0
 10
-14.4754263244
 20
0.3609366921
 30
0.0
 10
-14.4718568293
 20
0.3603228719
 30
0.0
 10
-14.4683013927
 20
0.359447429
 30
0.0
 10
-14.463544535
 20
0.3579192476
 30
0.0
 10
-14.4576361236
 20
0.3553336591
 30
0.0
 10
-14.4507566524
 20
0.3512410313
 30
0.0
 10
-14.4440555402
 20
0.3461567251
 30
0.0
 10
-14.438722699
 20
0.3411873801
 30
0.0
 10
-14.4345722773
 20
0.3367649819
 30
0.0
 10
-14.4303936747
 20
0.3319115326
 30
0.0
 10
-14.4253541348
 20
0.3252697041
 30
0.0
 10
-14.4196918488
 20
0.3165558527
 30
0.0
 10
-14.4143650284
 20
0.3070388667
 30
0.0
 10
-14.4094009082
 20
0.2967700641
 30
0.0
 10
-14.4048264091
 20
0.2858034805
 30
0.0
 10
-14.4006647931
 20
0.2741978638
 30
0.0
 10
-14.396939178
 20
0.2620147377
 30
0.0
 10
-14.3936684054
 20
0.2493192961
 30
0.0
 10
-14.3908711931
 20
0.2361792684
 30
0.0
 10
-14.3885612228
 20
0.2226654958
 30
0.0
 10
-14.3867519005
 20
0.2088496711
 30
0.0
 10
-14.3854521355
 20
0.19480463
 30
0.0
 10
-14.3846703096
 20
0.1806080362
 30
0.0
 10
-14.384495822
 20
0.1710987207
 30
0.0
 10
-14.384495822
 20
0.1663361806
 30
0.0
  0
SPLINE
  5
456
100
AcDbEntity
  8
0
100
AcDbSpline
 62
7
  6
CONTINUOUS
 70
0
 71
3
 72
19
 73
15
 74
0
 42
0.0000001
 43
0.0000001
 44
0.0000000001
 40
0.0
 40
0.0
 40
0.0
 40
0.0
 40
0.1334494394
 40
0.1999865618
 40
0.2660167757
 40
0.3314087946
 40
0.3960799347
 40
0.5228749087
 40
0.6462107213
 40
0.7662293391
 40
0.8252860104
 40
0.8838241482
 40
0.9420057744
 40
1.0
 40
1.0
 40
1.0
 40
1.0
 10
-8.9445570516
 20
1.6113361806
 30
0.0
 10
-8.9445570516
 20
1.6185095136
 30
0.0
 10
-8.9454807996
 20
1.6292883833
 30
0.0
 10
-8.9485012996
 20
1.6432771873
 30
0.0
 10
-8.951650865
 20
1.6534567697
 30
0.0
 10
-8.9556495236
 20
1.6632250466
 30
0.0
 10
-8.9620083566
 20
1.6754974586
 30
0.0
 10
-8.9718453875
 20
1.6893999003
 30
0.0
 10
-8.9863325577
 20
1.7032221934
 30
0.0
 10
-9.0002604464
 20
1.7118612292
 30
0.0
 10
-9.0120813056
 20
1.7167557606
 30
0.0
 10
-9.0211776845
 20
1.7193865177
 30
0.0
 10
-9.0304519277
 20
1.7209784407
 30
0.0
 10
-9.0367024714
 20
1.7213361806
 30
0.0
 10
-9.039819846
 20
1.7213361806
 30
0.0
  0
SPLINE
  5
457
100
AcDbEntity
  8
0
100
AcDbSpline
 62
7
  6
CONTINUOUS
 70
0
 71
3
 72
19
 73
15
 74
0
 42
0.0000001
 43
0.0000001
 44
0.0000000001
 40
0.0
 40
0.0
 40
0.0
 40
0.0
 40
0.1334494394
 40
0.1999865618
 40
0.2660167757
 40
0.3314087946
 40
0.3960799347
 40
0.5228749087
 40
0.6462107213
 40
0.7662293391
 40
0.8252860104
 40
0.8838241482
 40
0.9420057744
 40
1.0
 40
1.0
 40
1.0
 40
1.0
 10
-8.9445570516
 20
-1.0386638194
 30
0.0
 10
-8.9445570516
 20
-1.0314904864
 30
0.0
 10
-8.9454807996
 20
-1.0207116167
 30
0.0
 10
-8.9485012996
 20
-1.0067228127
 30
0.0
 10
-8.951650865
 20
-0.9965432303
 30
0.0
 10
-8.9556495236
 20
-0.9867749534
 30
0.0
 10
-8.9620083566
 20
-0.9745025414
 30
0.0
 10
-8.9718453875
 20
-0.9606000997
 30
0.0
 10
-8.9863325577
 20
-0.9467778066
 30
0.0
 10
-9.0002604464
 20
-0.9381387708
 30
0.0
 10
-9.0120813056
 20
-0.9332442394
 30
0.0
 10
-9.0211776845
 20
-0.9306134823
 30
0.0
 10
-9.0304519277
 20
-0.9290215593
 30
0.0
 10
-9.0367024714
 20
-0.9286638194
 30
0.0
 10
-9.039819846
 20
-0.9286638194
 30
0.0
  0
SPLINE
  5
458
100
AcDbEntity
  8
0
100
AcDbSpline
 62
7
  6
CONTINUOUS
 70
0
 71
3
 72
29
 73
25
 74
0
 42
0.0000001
 43
0.0000001
 44
0.0000000001
 40
0.0
 40
0.0
 40
0.0
 40
0.0
 40
0.0290012563
 40
0.0582075511
 40
0.1173700302
 40
0.1474783719
 40
0.1779606528
 40
0.2088244402
 40
0.2400631027
 40
0.3035551554
 40
0.3682818514
 40
0.4339052093
 40
0.5
 40
0.5660947907
 40
0.6317181486
 40
0.6964448446
 40
0.7599368973
 40
0.7911755598
 40
0.8220393472
 40
0.8525216281
 40
0.8826299698
 40
0.9417924489
 40
0.9709987437
 40
1.0
 40
1.0
 40
1.0
 40
1.0
 10
-9.021114044
 20
6.3290850288
 30
0.0
 10
-9.0185757034
 20
6.3284698577
 30
0.0
 10
-9.0135368862
 20
6.3269876438
 30
0.0
 10
-9.0037197471
 20
6.3230368672
 30
0.0
 10
-8.9944238671
 20
6.3176523145
 30
0.0
 10
-8.9858929315
 20
6.3110376
 30
0.0
 10
-8.9798474011
 20
6.305427512
 30
0.0
 10
-8.9742366016
 20
6.2992461642
 30
0.0
 10
-8.9673505626
 20
6.2902588598
 30
0.0
 10
-8.960061317
 20
6.2778073335
 30
0.0
 10
-8.9536674259
 20
6.2614912147
 30
0.0
 10
-8.9497668302
 20
6.2441667342
 30
0.0
 10
-8.9484457786
 20
6.2263361806
 30
0.0
 10
-8.9497668302
 20
6.2085056271
 30
0.0
 10
-8.9536674259
 20
6.1911811466
 30
0.0
 10
-8.960061317
 20
6.1748650278
 30
0.0
 10
-8.9673505626
 20
6.1624135015
 30
0.0
 10
-8.9742366016
 20
6.1534261971
 30
0.0
 10
-8.9798474011
 20
6.1472448493
 30
0.0
 10
-8.9858929315
 20
6.1416347613
 30
0.0
 10
-8.9944238671
 20
6.1350200468
 30
0.0
 10
-9.0037197471
 20
6.1296354941
 30
0.0
 10
-9.0135368862
 20
6.1256847175
 30
0.0
 10
-9.0185757034
 20
6.1242025036
 30
0.0
 10
-9.021114044
 20
6.1235873325
 30
0.0
  0
SPLINE
  5
459
100
AcDbEntity
  8
0
100
AcDbSpline
 62
7
  6
CONTINUOUS
 70
0
 71
3
 72
29
 73
25
 74
0
 42
0.0000001
 43
0.0000001
 44
0.0000000001
 40
0.0
 40
0.0
 40
0.0
 40
0.0
 40
0.0290012563
 40
0.0582075511
 40
0.1173700302
 40
0.1474783719
 40
0.1779606528
 40
0.2088244402
 40
0.2400631027
 40
0.3035551554
 40
0.3682818514
 40
0.4339052093
 40
0.5
 40
0.5660947907
 40
0.6317181486
 40
0.6964448446
 40
0.7599368973
 40
0.7911755598
 40
0.8220393472
 40
0.8525216281
 40
0.8826299698
 40
0.9417924489
 40
0.9709987437
 40
1.0
 40
1.0
 40
1.0
 40
1.0
 10
-9.021114044
 20
3.0790850288
 30
0.0
 10
-9.0185757034
 20
3.0784698577
 30
0.0
 10
-9.0135368862
 20
3.0769876438
 30
0.0
 10
-9.0037197471
 20
3.0730368672
 30
0.0
 10
-8.9944238671
 20
3.0676523145
 30
0.0
 10
-8.9858929315
 20
3.0610376
 30
0.0
 10
-8.9798474011
 20
3.055427512
 30
0.0
 10
-8.9742366016
 20
3.0492461642
 30
0.0
 10
-8.9673505626
 20
3.0402588598
 30
0.0
 10
-8.960061317
 20
3.0278073335
 30
0.0
 10
-8.9536674259
 20
3.0114912147
 30
0.0
 10
-8.9497668302
 20
2.9941667342
 30
0.0
 10
-8.9484457786
 20
2.9763361806
 30
0.0
 10
-8.9497668302
 20
2.9585056271
 30
0.0
 10
-8.9536674259
 20
2.9411811466
 30
0.0
 10
-8.960061317
 20
2.9248650278
 30
0.0
 10
-8.9673505626
 20
2.9124135015
 30
0.0
 10
-8.9742366016
 20
2.9034261971
 30
0.0
 10
-8.9798474011
 20
2.8972448493
 30
0.0
 10
-8.9858929315
 20
2.8916347613
 30
0.0
 10
-8.9944238671
 20
2.8850200468
 30
0.0
 10
-9.0037197471
 20
2.8796354941
 30
0.0
 10
-9.0135368862
 20
2.8756847175
 30
0.0
 10
-9.0185757034
 20
2.8742025036
 30
0.0
 10
-9.021114044
 20
2.8735873325
 30
0.0
  0
SPLINE
  5
45A
100
AcDbEntity
  8
0
100
AcDbSpline
 62
7
  6
CONTINUOUS
 70
0
 71
3
 72
17
 73
13
 74
0
 42
0.0000001
 43
0.0000001
 44
0.0000000001
 40
0.0
 40
0.0
 40
0.0
 40
0.0
 40
0.1335489369
 40
0.2659534072
 40
0.3959217756
 40
0.5227705207
 40
0.6461302935
 40
0.7066107316
 40
0.7663311126
 40
0.8254173297
 40
0.8840184526
 40
1.0
 40
1.0
 40
1.0
 40
1.0
 10
-6.842669396
 20
-1.6736638194
 30
0.0
 10
-6.842669396
 20
-1.6827978821
 30
0.0
 10
-6.8442186544
 20
-1.7010256432
 30
0.0
 10
-6.8510958885
 20
-1.7273503498
 30
0.0
 10
-6.8622956213
 20
-1.7516612624
 30
0.0
 10
-6.8773867004
 20
-1.7730198829
 30
0.0
 10
-6.8928868834
 20
-1.7877830234
 30
0.0
 10
-6.9065981611
 20
-1.7972893387
 30
0.0
 10
-6.9173775509
 20
-1.8031840428
 30
0.0
 10
-6.9286128006
 20
-1.8078355459
 30
0.0
 10
-6.943985478
 20
-1.8122850416
 30
0.0
 10
-6.9559804092
 20
-1.8136638194
 30
0.0
 10
-6.9639129525
 20
-1.8136638194
 30
0.0
  0
SPLINE
  5
45B
100
AcDbEntity
  8
0
100
AcDbSpline
 62
7
  6
CONTINUOUS
 70
0
 71
3
 72
15
 73
11
 74
0
 42
0.0000001
 43
0.0000001
 44
0.0000000001
 40
0.0
 40
0.0
 40
0.0
 40
0.0
 40
0.1120554008
 40
0.2297508381
 40
0.352154941
 40
0.4783573876
 40
0.6073842905
 40
0.7381661101
 40
0.8695275371
 40
1.0
 40
1.0
 40
1.0
 40
1.0
 10
-8.2846759061
 20
-1.6736638194
 30
0.0
 10
-8.2872390844
 20
-1.6777146389
 30
0.0
 10
-8.2929554025
 20
-1.6857346378
 30
0.0
 10
-8.3028430489
 20
-1.6971267218
 30
0.0
 10
-8.3141356978
 20
-1.7080187454
 30
0.0
 10
-8.326655598
 20
-1.7182550519
 30
0.0
 10
-8.340229252
 20
-1.7276876422
 30
0.0
 10
-8.3546620019
 20
-1.7361875528
 30
0.0
 10
-8.3697408471
 20
-1.7436181685
 30
0.0
 10
-8.380136473
 20
-1.7478218439
 30
0.0
 10
-8.3853872624
 20
-1.7497145889
 30
0.0
  0
SPLINE
  5
45C
100
AcDbEntity
  8
0
100
AcDbSpline
 62
7
  6
CONTINUOUS
 70
0
 71
3
 72
9
 73
5
 74
0
 42
0.0000001
 43
0.0000001
 44
0.0000000001
 40
0.0
 40
0.0
 40
0.0
 40
0.0
 40
0.4817521747
 40
1.0
 40
1.0
 40
1.0
 40
1.0
 10
-9.640909801
 20
-1.7709277924
 30
0.0
 10
-9.6429640631
 20
-1.7677153344
 30
0.0
 10
-9.646837532
 20
-1.760793311
 30
0.0
 10
-9.6500228144
 20
-1.7535349928
 30
0.0
 10
-9.6515164027
 20
-1.7497145889
 30
0.0
  0
SPLINE
  5
45D
100
AcDbEntity
  8
0
100
AcDbSpline
 62
7
  6
CONTINUOUS
 70
0
 71
3
 72
9
 73
5
 74
0
 42
0.0000001
 43
0.0000001
 44
0.0000000001
 40
0.0
 40
0.0
 40
0.0
 40
0.0
 40
0.4817508585
 40
1.0
 40
1.0
 40
1.0
 40
1.0
 10
-9.640909801
 20
6.9336001537
 30
0.0
 10
-9.6429640575
 20
6.9303877044
 30
0.0
 10
-9.6468375274
 20
6.9234656817
 30
0.0
 10
-9.6500228106
 20
6.9162073638
 30
0.0
 10
-9.6515164027
 20
6.9123869502
 30
0.0
  0
SPLINE
  5
45E
100
AcDbEntity
  8
0
100
AcDbSpline
 62
7
  6
CONTINUOUS
 70
0
 71
3
 72
17
 73
13
 74
0
 42
0.0000001
 43
0.0000001
 44
0.0000000001
 40
0.0
 40
0.0
 40
0.0
 40
0.0
 40
0.1159815474
 40
0.1745826703
 40
0.2336688874
 40
0.2933892684
 40
0.3538697065
 40
0.4772294793
 40
0.6040782244
 40
0.7340465928
 40
0.8664510631
 40
1.0
 40
1.0
 40
1.0
 40
1.0
 10
-7.4639129525
 20
6.9763361806
 30
0.0
 10
-7.4559804092
 20
6.9763361806
 30
0.0
 10
-7.443985478
 20
6.9749574029
 30
0.0
 10
-7.4286128006
 20
6.9705079072
 30
0.0
 10
-7.4173775509
 20
6.9658564041
 30
0.0
 10
-7.4065981611
 20
6.9599617
 30
0.0
 10
-7.3928868834
 20
6.9504553847
 30
0.0
 10
-7.3773867004
 20
6.9356922442
 30
0.0
 10
-7.3622956213
 20
6.9143336237
 30
0.0
 10
-7.3510958885
 20
6.8900227111
 30
0.0
 10
-7.3442186544
 20
6.8636980045
 30
0.0
 10
-7.342669396
 20
6.8454702434
 30
0.0
 10
-7.342669396
 20
6.8363361806
 30
0.0
  0
SPLINE
  5
45F
100
AcDbEntity
  8
0
100
AcDbSpline
 62
7
  6
CONTINUOUS
 70
0
 71
3
 72
9
 73
5
 74
0
 42
0.0000001
 43
0.0000001
 44
0.0000000001
 40
0.0
 40
0.0
 40
0.0
 40
0.0
 40
0.4952242541
 40
1.0
 40
1.0
 40
1.0
 40
1.0
 10
-9.0309195856
 20
6.1264752464
 30
0.0
 10
-9.0354822545
 20
6.1281851388
 30
0.0
 10
-9.0444014209
 20
6.1324705142
 30
0.0
 10
-9.0524644153
 20
6.1381966628
 30
0.0
 10
-9.0562687269
 20
6.1413893962
 30
0.0
  0
SPLINE
  5
460
100
AcDbEntity
  8
0
100
AcDbSpline
 62
7
  6
CONTINUOUS
 70
0
 71
3
 72
21
 73
17
 74
0
 42
0.0000001
 43
0.0000001
 44
0.0000000001
 40
0.0
 40
0.0
 40
0.0
 40
0.0
 40
0.1199237292
 40
0.1814888891
 40
0.2439692425
 40
0.3072348191
 40
0.3711249168
 40
0.4354530631
 40
0.5
 40
0.5645469369
 40
0.6288750832
 40
0.6927651809
 40
0.7560307575
 40
0.8185111109
 40
0.8800762708
 40
1.0
 40
1.0
 40
1.0
 40
1.0
 10
-9.0562687269
 20
6.1413893962
 30
0.0
 10
-9.0621307917
 20
6.1463090801
 30
0.0
 10
-9.0701094763
 20
6.1548969061
 30
0.0
 10
-9.0786458581
 20
6.1679404902
 30
0.0
 10
-9.0840565755
 20
6.1786284323
 30
0.0
 10
-9.0883481527
 20
6.189966966
 30
0.0
 10
-9.0914514422
 20
6.2018091336
 30
0.0
 10
-9.093329822
 20
6.2139877296
 30
0.0
 10
-9.0939642179
 20
6.2263361806
 30
0.0
 10
-9.093329822
 20
6.2386846317
 30
0.0
 10
-9.0914514422
 20
6.2508632277
 30
0.0
 10
-9.0883481527
 20
6.2627053953
 30
0.0
 10
-9.0840565755
 20
6.274043929
 30
0.0
 10
-9.0786458581
 20
6.2847318711
 30
0.0
 10
-9.0701094763
 20
6.2977754552
 30
0.0
 10
-9.0621307917
 20
6.3063632812
 30
0.0
 10
-9.0562687269
 20
6.3112829651
 30
0.0
  0
SPLINE
  5
461
100
AcDbEntity
  8
0
100
AcDbSpline
 62
7
  6
CONTINUOUS
 70
0
 71
3
 72
9
 73
5
 74
0
 42
0.0000001
 43
0.0000001
 44
0.0000000001
 40
0.0
 40
0.0
 40
0.0
 40
0.0
 40
0.5047757459
 40
1.0
 40
1.0
 40
1.0
 40
1.0
 10
-9.0562687269
 20
6.3112829651
 30
0.0
 10
-9.0524644153
 20
6.3144756985
 30
0.0
 10
-9.0444014209
 20
6.3202018471
 30
0.0
 10
-9.0354822545
 20
6.3244872225
 30
0.0
 10
-9.0309195856
 20
6.3261971149
 30
0.0
  0
SPLINE
  5
462
100
AcDbEntity
  8
0
100
AcDbSpline
 62
7
  6
CONTINUOUS
 70
0
 71
3
 72
19
 73
15
 74
0
 42
0.0000001
 43
0.0000001
 44
0.0000000001
 40
0.0
 40
0.0
 40
0.0
 40
0.0
 40
0.0579942256
 40
0.1161758518
 40
0.1747139896
 40
0.2337706609
 40
0.3537892787
 40
0.4771250913
 40
0.6039200653
 40
0.6685912054
 40
0.7339832243
 40
0.8000134382
 40
0.8665505606
 40
1.0
 40
1.0
 40
1.0
 40
1.0
 10
-9.039819846
 20
1.5013361806
 30
0.0
 10
-9.0367024714
 20
1.5013361806
 30
0.0
 10
-9.0304519277
 20
1.5016939206
 30
0.0
 10
-9.0211776845
 20
1.5032858436
 30
0.0
 10
-9.0120813056
 20
1.5059166007
 30
0.0
 10
-9.0002604464
 20
1.5108111321
 30
0.0
 10
-8.9863325577
 20
1.5194501679
 30
0.0
 10
-8.9718453875
 20
1.533272461
 30
0.0
 10
-8.9620083566
 20
1.5471749027
 30
0.0
 10
-8.9556495236
 20
1.5594473147
 30
0.0
 10
-8.951650865
 20
1.5692155916
 30
0.0
 10
-8.9485012996
 20
1.579395174
 30
0.0
 10
-8.9454807996
 20
1.593383978
 30
0.0
 10
-8.9445570516
 20
1.6041628477
 30
0.0
 10
-8.9445570516
 20
1.6113361806
 30
0.0
  0
SPLINE
  5
463
100
AcDbEntity
  8
0
100
AcDbSpline
 62
7
  6
CONTINUOUS
 70
0
 71
3
 72
9
 73
5
 74
0
 42
0.0000001
 43
0.0000001
 44
0.0000000001
 40
0.0
 40
0.0
 40
0.0
 40
0.0
 40
0.4952242541
 40
1.0
 40
1.0
 40
1.0
 40
1.0
 10
-9.0309195856
 20
2.8764752464
 30
0.0
 10
-9.0354822545
 20
2.8781851388
 30
0.0
 10
-9.0444014209
 20
2.8824705142
 30
0.0
 10
-9.0524644153
 20
2.8881966628
 30
0.0
 10
-9.0562687269
 20
2.8913893962
 30
0.0
  0
SPLINE
  5
464
100
AcDbEntity
  8
0
100
AcDbSpline
 62
7
  6
CONTINUOUS
 70
0
 71
3
 72
21
 73
17
 74
0
 42
0.0000001
 43
0.0000001
 44
0.0000000001
 40
0.0
 40
0.0
 40
0.0
 40
0.0
 40
0.1199237292
 40
0.1814888891
 40
0.2439692425
 40
0.3072348191
 40
0.3711249168
 40
0.4354530631
 40
0.5
 40
0.5645469369
 40
0.6288750832
 40
0.6927651809
 40
0.7560307575
 40
0.8185111109
 40
0.8800762708
 40
1.0
 40
1.0
 40
1.0
 40
1.0
 10
-9.0562687269
 20
2.8913893962
 30
0.0
 10
-9.0621307917
 20
2.8963090801
 30
0.0
 10
-9.0701094763
 20
2.9048969061
 30
0.0
 10
-9.0786458581
 20
2.9179404902
 30
0.0
 10
-9.0840565755
 20
2.9286284323
 30
0.0
 10
-9.0883481527
 20
2.939966966
 30
0.0
 10
-9.0914514422
 20
2.9518091336
 30
0.0
 10
-9.093329822
 20
2.9639877296
 30
0.0
 10
-9.0939642179
 20
2.9763361806
 30
0.0
 10
-9.093329822
 20
2.9886846317
 30
0.0
 10
-9.0914514422
 20
3.0008632277
 30
0.0
 10
-9.0883481527
 20
3.0127053953
 30
0.0
 10
-9.0840565755
 20
3.024043929
 30
0.0
 10
-9.0786458581
 20
3.0347318711
 30
0.0
 10
-9.0701094763
 20
3.0477754552
 30
0.0
 10
-9.0621307917
 20
3.0563632812
 30
0.0
 10
-9.0562687269
 20
3.0612829651
 30
0.0
  0
SPLINE
  5
465
100
AcDbEntity
  8
0
100
AcDbSpline
 62
7
  6
CONTINUOUS
 70
0
 71
3
 72
9
 73
5
 74
0
 42
0.0000001
 43
0.0000001
 44
0.0000000001
 40
0.0
 40
0.0
 40
0.0
 40
0.0
 40
0.5047757459
 40
1.0
 40
1.0
 40
1.0
 40
1.0
 10
-9.0562687269
 20
3.0612829651
 30
0.0
 10
-9.0524644153
 20
3.0644756985
 30
0.0
 10
-9.0444014209
 20
3.0702018471
 30
0.0
 10
-9.0354822545
 20
3.0744872225
 30
0.0
 10
-9.0309195856
 20
3.0761971149
 30
0.0
  0
SPLINE
  5
466
100
AcDbEntity
  8
0
100
AcDbSpline
 62
7
  6
CONTINUOUS
 70
0
 71
3
 72
15
 73
11
 74
0
 42
0.0000001
 43
0.0000001
 44
0.0000000001
 40
0.0
 40
0.0
 40
0.0
 40
0.0
 40
0.1176458723
 40
0.2376113676
 40
0.3599543815
 40
0.4846141082
 40
0.6114196323
 40
0.7400798941
 40
0.8699551882
 40
1.0
 40
1.0
 40
1.0
 40
1.0
 10
-8.9989149514
 20
1.7098701832
 30
0.0
 10
-9.0028953772
 20
1.7075911243
 30
0.0
 10
-9.0105929412
 20
1.7023643543
 30
0.0
 10
-9.0209741081
 20
1.6928557854
 30
0.0
 10
-9.030123694
 20
1.6817980686
 30
0.0
 10
-9.037843825
 20
1.6693876182
 30
0.0
 10
-9.044014429
 20
1.6558696008
 30
0.0
 10
-9.0484965738
 20
1.6414890539
 30
0.0
 10
-9.0512139858
 20
1.6265498368
 30
0.0
 10
-9.0518326404
 20
1.6164062923
 30
0.0
 10
-9.0518326404
 20
1.6113361806
 30
0.0
  0
SPLINE
  5
467
100
AcDbEntity
  8
0
100
AcDbSpline
 62
7
  6
CONTINUOUS
 70
0
 71
3
 72
19
 73
15
 74
0
 42
0.0000001
 43
0.0000001
 44
0.0000000001
 40
0.0
 40
0.0
 40
0.0
 40
0.0
 40
0.0579942256
 40
0.1161758518
 40
0.1747139896
 40
0.2337706609
 40
0.3537892787
 40
0.4771250913
 40
0.6039200653
 40
0.6685912054
 40
0.7339832243
 40
0.8000134382
 40
0.8665505606
 40
1.0
 40
1.0
 40
1.0
 40
1.0
 10
-9.039819846
 20
-1.1486638194
 30
0.0
 10
-9.0367024714
 20
-1.1486638194
 30
0.0
 10
-9.0304519277
 20
-1.1483060794
 30
0.0
 10
-9.0211776845
 20
-1.1467141564
 30
0.0
 10
-9.0120813056
 20
-1.1440833993
 30
0.0
 10
-9.0002604464
 20
-1.1391888679
 30
0.0
 10
-8.9863325577
 20
-1.1305498321
 30
0.0
 10
-8.9718453875
 20
-1.116727539
 30
0.0
 10
-8.9620083566
 20
-1.1028250973
 30
0.0
 10
-8.9556495236
 20
-1.0905526853
 30
0.0
 10
-8.951650865
 20
-1.0807844084
 30
0.0
 10
-8.9485012996
 20
-1.070604826
 30
0.0
 10
-8.9454807996
 20
-1.056616022
 30
0.0
 10
-8.9445570516
 20
-1.0458371523
 30
0.0
 10
-8.9445570516
 20
-1.0386638194
 30
0.0
  0
SPLINE
  5
468
100
AcDbEntity
  8
0
100
AcDbSpline
 62
7
  6
CONTINUOUS
 70
0
 71
3
 72
15
 73
11
 74
0
 42
0.0000001
 43
0.0000001
 44
0.0000000001
 40
0.0
 40
0.0
 40
0.0
 40
0.0
 40
0.1176458723
 40
0.2376113676
 40
0.3599543815
 40
0.4846141082
 40
0.6114196323
 40
0.7400798941
 40
0.8699551882
 40
1.0
 40
1.0
 40
1.0
 40
1.0
 10
-8.9989149514
 20
-0.9401298168
 30
0.0
 10
-9.0028953772
 20
-0.9424088757
 30
0.0
 10
-9.0105929412
 20
-0.9476356457
 30
0.0
 10
-9.0209741081
 20
-0.9571442146
 30
0.0
 10
-9.030123694
 20
-0.9682019314
 30
0.0
 10
-9.037843825
 20
-0.9806123818
 30
0.0
 10
-9.044014429
 20
-0.9941303992
 30
0.0
 10
-9.0484965738
 20
-1.0085109461
 30
0.0
 10
-9.0512139858
 20
-1.0234501632
 30
0.0
 10
-9.0518326404
 20
-1.0335937077
 30
0.0
 10
-9.0518326404
 20
-1.0386638194
 30
0.0
  0
SPLINE
  5
469
100
AcDbEntity
  8
0
100
AcDbSpline
 62
7
  6
CONTINUOUS
 70
0
 71
3
 72
9
 73
5
 74
0
 42
0.0000001
 43
0.0000001
 44
0.0000000001
 40
0.0
 40
0.0
 40
0.0
 40
0.0
 40
0.4982814458
 40
1.0
 40
1.0
 40
1.0
 40
1.0
 10
-9.6782769053
 20
6.8813966846
 30
0.0
 10
-9.6772085919
 20
6.8845389687
 30
0.0
 10
-9.6744611549
 20
6.8906569601
 30
0.0
 10
-9.6705968442
 20
6.8961368695
 30
0.0
 10
-9.6684287593
 20
6.8986799267
 30
0.0
  0
SPLINE
  5
46A
100
AcDbEntity
  8
0
100
AcDbSpline
 62
7
  6
CONTINUOUS
 70
0
 71
3
 72
9
 73
5
 74
0
 42
0.0000001
 43
0.0000001
 44
0.0000000001
 40
0.0
 40
0.0
 40
0.0
 40
0.0
 40
0.4923835855
 40
1.0
 40
1.0
 40
1.0
 40
1.0
 10
-9.6684287593
 20
6.8986799267
 30
0.0
 10
-9.6667350839
 20
6.9006665249
 30
0.0
 10
-9.6630025413
 20
6.9044587304
 30
0.0
 10
-9.6588028767
 20
6.9077210886
 30
0.0
 10
-9.6565812072
 20
6.909240132
 30
0.0
  0
SPLINE
  5
46B
100
AcDbEntity
  8
0
100
AcDbSpline
 62
7
  6
CONTINUOUS
 70
0
 71
3
 72
9
 73
5
 74
0
 42
0.0000001
 43
0.0000001
 44
0.0000000001
 40
0.0
 40
0.0
 40
0.0
 40
0.0
 40
0.2452672528
 40
1.0
 40
1.0
 40
1.0
 40
1.0
 10
-8.272669396
 20
6.8151229772
 30
0.0
 10
-8.2735564847
 20
6.8168971547
 30
0.0
 10
-8.2772684833
 20
6.8240829576
 30
0.0
 10
-8.2813516471
 20
6.8310759429
 30
0.0
 10
-8.2846140694
 20
6.8362348092
 30
0.0
  0
SPLINE
  5
46C
100
AcDbEntity
  8
0
100
AcDbSpline
 62
7
  6
CONTINUOUS
 70
0
 71
3
 72
15
 73
11
 74
0
 42
0.0000001
 43
0.0000001
 44
0.0000000001
 40
0.0
 40
0.0
 40
0.0
 40
0.0
 40
0.1304925913
 40
0.2618749293
 40
0.3926731018
 40
0.5217126368
 40
0.6479227383
 40
0.7703140872
 40
0.8879724516
 40
1.0
 40
1.0
 40
1.0
 40
1.0
 10
-8.3853872624
 20
6.9123869502
 30
0.0
 10
-8.3801308231
 20
6.9104921686
 30
0.0
 10
-8.3697241416
 20
6.9062835078
 30
0.0
 10
-8.3546300267
 20
6.8988431908
 30
0.0
 10
-8.340183886
 20
6.8903313086
 30
0.0
 10
-8.3265991136
 20
6.8808852316
 30
0.0
 10
-8.3140708572
 20
6.8706350469
 30
0.0
 10
-8.3027744152
 20
6.8597285323
 30
0.0
 10
-8.2928898034
 20
6.8483196271
 30
0.0
 10
-8.28717688
 20
6.8402896774
 30
0.0
 10
-8.2846140694
 20
6.8362348092
 30
0.0
  0
SPLINE
  5
46D
100
AcDbEntity
  8
0
100
AcDbSpline
 62
7
  6
CONTINUOUS
 70
0
 71
3
 72
15
 73
11
 74
0
 42
0.0000001
 43
0.0000001
 44
0.0000000001
 40
0.0
 40
0.0
 40
0.0
 40
0.0
 40
0.1300448118
 40
0.2599201059
 40
0.3885803677
 40
0.5153858918
 40
0.6400456185
 40
0.7623886324
 40
0.8823541277
 40
1.0
 40
1.0
 40
1.0
 40
1.0
 10
-9.0518326404
 20
1.6113361806
 30
0.0
 10
-9.0518326404
 20
1.606266069
 30
0.0
 10
-9.0512139858
 20
1.5961225245
 30
0.0
 10
-9.0484965738
 20
1.5811833074
 30
0.0
 10
-9.044014429
 20
1.5668027605
 30
0.0
 10
-9.037843825
 20
1.5532847431
 30
0.0
 10
-9.030123694
 20
1.5408742927
 30
0.0
 10
-9.0209741081
 20
1.5298165759
 30
0.0
 10
-9.0105929412
 20
1.520308007
 30
0.0
 10
-9.0028953772
 20
1.515081237
 30
0.0
 10
-8.9989149514
 20
1.5128021781
 30
0.0
  0
SPLINE
  5
46E
100
AcDbEntity
  8
0
100
AcDbSpline
 62
7
  6
CONTINUOUS
 70
0
 71
3
 72
9
 73
5
 74
0
 42
0.0000001
 43
0.0000001
 44
0.0000000001
 40
0.0
 40
0.0
 40
0.0
 40
0.0
 40
0.5076634364
 40
1.0
 40
1.0
 40
1.0
 40
1.0
 10
-9.6565548501
 20
-1.7465857761
 30
0.0
 10
-9.658793123
 20
-1.7450569538
 30
0.0
 10
-9.6630228128
 20
-1.7417717604
 30
0.0
 10
-9.6667784025
 20
-1.7379491918
 30
0.0
 10
-9.6684809145
 20
-1.7359462749
 30
0.0
  0
SPLINE
  5
46F
100
AcDbEntity
  8
0
100
AcDbSpline
 62
7
  6
CONTINUOUS
 70
0
 71
3
 72
9
 73
5
 74
0
 42
0.0000001
 43
0.0000001
 44
0.0000000001
 40
0.0
 40
0.0
 40
0.0
 40
0.0
 40
0.501694721
 40
1.0
 40
1.0
 40
1.0
 40
1.0
 10
-9.6684809145
 20
-1.7359462749
 30
0.0
 10
-9.6706318094
 20
-1.7334158586
 30
0.0
 10
-9.6744666666
 20
-1.7279664229
 30
0.0
 10
-9.6771983932
 20
-1.7218873812
 30
0.0
 10
-9.6782629061
 20
-1.7187652597
 30
0.0
  0
SPLINE
  5
470
100
AcDbEntity
  8
0
100
AcDbSpline
 62
7
  6
CONTINUOUS
 70
0
 71
3
 72
15
 73
11
 74
0
 42
0.0000001
 43
0.0000001
 44
0.0000000001
 40
0.0
 40
0.0
 40
0.0
 40
0.0
 40
0.1300448118
 40
0.2599201059
 40
0.3885803677
 40
0.5153858918
 40
0.6400456185
 40
0.7623886324
 40
0.8823541277
 40
1.0
 40
1.0
 40
1.0
 40
1.0
 10
-9.0518326404
 20
-1.0386638194
 30
0.0
 10
-9.0518326404
 20
-1.043733931
 30
0.0
 10
-9.0512139858
 20
-1.0538774755
 30
0.0
 10
-9.0484965738
 20
-1.0688166926
 30
0.0
 10
-9.044014429
 20
-1.0831972395
 30
0.0
 10
-9.037843825
 20
-1.0967152569
 30
0.0
 10
-9.030123694
 20
-1.1091257073
 30
0.0
 10
-9.0209741081
 20
-1.1201834241
 30
0.0
 10
-9.0105929412
 20
-1.129691993
 30
0.0
 10
-9.0028953772
 20
-1.134918763
 30
0.0
 10
-8.9989149514
 20
-1.1371978219
 30
0.0
  0
SPLINE
  5
471
100
AcDbEntity
  8
0
100
AcDbSpline
 62
7
  6
CONTINUOUS
 70
0
 71
3
 72
19
 73
15
 74
0
 42
0.0000001
 43
0.0000001
 44
0.0000000001
 40
0.0
 40
0.0
 40
0.0
 40
0.0
 40
0.1334494394
 40
0.1999865618
 40
0.2660167757
 40
0.3314087946
 40
0.3960799347
 40
0.5228749087
 40
0.6462107213
 40
0.7662293391
 40
0.8252860104
 40
0.8838241482
 40
0.9420057744
 40
1.0
 40
1.0
 40
1.0
 40
1.0
 10
-9.1350826404
 20
-1.0386638194
 30
0.0
 10
-9.1350826404
 20
-1.0458371523
 30
0.0
 10
-9.1341588924
 20
-1.056616022
 30
0.0
 10
-9.1311383924
 20
-1.070604826
 30
0.0
 10
-9.1279888271
 20
-1.0807844084
 30
0.0
 10
-9.1239901684
 20
-1.0905526853
 30
0.0
 10
-9.1176313354
 20
-1.1028250973
 30
0.0
 10
-9.1077943046
 20
-1.116727539
 30
0.0
 10
-9.0933071343
 20
-1.1305498321
 30
0.0
 10
-9.0793792456
 20
-1.1391888679
 30
0.0
 10
-9.0675583864
 20
-1.1440833993
 30
0.0
 10
-9.0584620075
 20
-1.1467141564
 30
0.0
 10
-9.0491877643
 20
-1.1483060794
 30
0.0
 10
-9.0429372206
 20
-1.1486638194
 30
0.0
 10
-9.039819846
 20
-1.1486638194
 30
0.0
  0
SPLINE
  5
472
100
AcDbEntity
  8
0
100
AcDbSpline
 62
7
  6
CONTINUOUS
 70
0
 71
3
 72
9
 73
5
 74
0
 42
0.0000001
 43
0.0000001
 44
0.0000000001
 40
0.0
 40
0.0
 40
0.0
 40
0.0
 40
0.4817508585
 40
1.0
 40
1.0
 40
1.0
 40
1.0
 10
-8.3747806606
 20
-1.7709277924
 30
0.0
 10
-8.3768349171
 20
-1.7677153431
 30
0.0
 10
-8.380708387
 20
-1.7607933204
 30
0.0
 10
-8.3838936703
 20
-1.7535350025
 30
0.0
 10
-8.3853872624
 20
-1.7497145889
 30
0.0
  0
SPLINE
  5
473
100
AcDbEntity
  8
0
100
AcDbSpline
 62
7
  6
CONTINUOUS
 70
0
 71
3
 72
15
 73
11
 74
0
 42
0.0000001
 43
0.0000001
 44
0.0000000001
 40
0.0
 40
0.0
 40
0.0
 40
0.0
 40
0.1304646148
 40
0.2618183611
 40
0.3925946462
 40
0.5216176856
 40
0.6478183266
 40
0.7702275066
 40
0.8879356866
 40
1.0
 40
1.0
 40
1.0
 40
1.0
 10
-8.3747806606
 20
-1.7709277924
 30
0.0
 10
-8.3695320705
 20
-1.7690358401
 30
0.0
 10
-8.3591407336
 20
-1.7648340863
 30
0.0
 10
-8.3440677812
 20
-1.7574072244
 30
0.0
 10
-8.3296401453
 20
-1.7489119413
 30
0.0
 10
-8.3160707198
 20
-1.7394845052
 30
0.0
 10
-8.303554116
 20
-1.7292533881
 30
0.0
 10
-8.292262929
 20
-1.718367064
 30
0.0
 10
-8.2823739231
 20
-1.706981889
 30
0.0
 10
-8.2766563671
 20
-1.6989658789
 30
0.0
 10
-8.2740931797
 20
-1.6949166489
 30
0.0
  0
SPLINE
  5
474
100
AcDbEntity
  8
0
100
AcDbSpline
 62
7
  6
CONTINUOUS
 70
0
 71
3
 72
29
 73
25
 74
0
 42
0.0000001
 43
0.0000001
 44
0.0000000001
 40
0.0
 40
0.0
 40
0.0
 40
0.0
 40
0.0579581517
 40
0.0872716806
 40
0.1168261292
 40
0.1768362181
 40
0.2385049461
 40
0.2700387917
 40
0.3019952353
 40
0.3669844192
 40
0.3999804314
 40
0.433208599
 40
0.5
 40
0.566791401
 40
0.6000195686
 40
0.6330155808
 40
0.6980047647
 40
0.7299612083
 40
0.7614950539
 40
0.8231637819
 40
0.8831738708
 40
0.9127283194
 40
0.9420418483
 40
1.0
 40
1.0
 40
1.0
 40
1.0
 10
-9.039819846
 20
6.1213361806
 30
0.0
 10
-9.045766458
 20
6.1213361806
 30
0.0
 10
-9.0547602009
 20
6.12237582
 30
0.0
 10
-9.0662921798
 20
6.1257071908
 30
0.0
 10
-9.0775847445
 20
6.1303781352
 30
0.0
 10
-9.090875019
 20
6.1386258352
 30
0.0
 10
-9.102326405
 20
6.149554528
 30
0.0
 10
-9.1102615296
 20
6.1596717897
 30
0.0
 10
-9.1173896497
 20
6.1707801019
 30
0.0
 10
-9.1229998688
 20
6.1829687976
 30
0.0
 10
-9.1269863307
 20
6.1958413149
 30
0.0
 10
-9.1298747934
 20
6.2091955736
 30
0.0
 10
-9.1313386402
 20
6.2263361806
 30
0.0
 10
-9.1298747934
 20
6.2434767877
 30
0.0
 10
-9.1269863307
 20
6.2568310464
 30
0.0
 10
-9.1229998688
 20
6.2697035637
 30
0.0
 10
-9.1173896497
 20
6.2818922594
 30
0.0
 10
-9.1102615296
 20
6.2930005716
 30
0.0
 10
-9.102326405
 20
6.3031178333
 30
0.0
 10
-9.090875019
 20
6.3140465261
 30
0.0
 10
-9.0775847445
 20
6.3222942261
 30
0.0
 10
-9.0662921798
 20
6.3269651704
 30
0.0
 10
-9.0547602009
 20
6.3302965413
 30
0.0
 10
-9.045766458
 20
6.3313361806
 30
0.0
 10
-9.039819846
 20
6.3313361806
 30
0.0
  0
SPLINE
  5
475
100
AcDbEntity
  8
0
100
AcDbSpline
 62
7
  6
CONTINUOUS
 70
0
 71
3
 72
9
 73
5
 74
0
 42
0.0000001
 43
0.0000001
 44
0.0000000001
 40
0.0
 40
0.0
 40
0.0
 40
0.0
 40
0.5119195942
 40
1.0
 40
1.0
 40
1.0
 40
1.0
 10
-9.640909801
 20
6.9336001537
 30
0.0
 10
-9.644476824
 20
6.9315896188
 30
0.0
 10
-9.6511265806
 20
6.9270546427
 30
0.0
 10
-9.6567722754
 20
6.9212970504
 30
0.0
 10
-9.6591856392
 20
6.9182284317
 30
0.0
  0
SPLINE
  5
476
100
AcDbEntity
  8
0
100
AcDbSpline
 62
7
  6
CONTINUOUS
 70
0
 71
3
 72
29
 73
25
 74
0
 42
0.0000001
 43
0.0000001
 44
0.0000000001
 40
0.0
 40
0.0
 40
0.0
 40
0.0
 40
0.0579581517
 40
0.0872716806
 40
0.1168261292
 40
0.1768362181
 40
0.2385049461
 40
0.2700387917
 40
0.3019952353
 40
0.3669844192
 40
0.3999804314
 40
0.433208599
 40
0.5
 40
0.566791401
 40
0.6000195686
 40
0.6330155808
 40
0.6980047647
 40
0.7299612083
 40
0.7614950539
 40
0.8231637819
 40
0.8831738708
 40
0.9127283194
 40
0.9420418483
 40
1.0
 40
1.0
 40
1.0
 40
1.0
 10
-9.039819846
 20
2.8713361806
 30
0.0
 10
-9.045766458
 20
2.8713361806
 30
0.0
 10
-9.0547602009
 20
2.87237582
 30
0.0
 10
-9.0662921798
 20
2.8757071908
 30
0.0
 10
-9.0775847445
 20
2.8803781352
 30
0.0
 10
-9.090875019
 20
2.8886258352
 30
0.0
 10
-9.102326405
 20
2.899554528
 30
0.0
 10
-9.1102615296
 20
2.9096717897
 30
0.0
 10
-9.1173896497
 20
2.9207801019
 30
0.0
 10
-9.1229998688
 20
2.9329687976
 30
0.0
 10
-9.1269863307
 20
2.9458413149
 30
0.0
 10
-9.1298747934
 20
2.9591955736
 30
0.0
 10
-9.1313386402
 20
2.9763361806
 30
0.0
 10
-9.1298747934
 20
2.9934767877
 30
0.0
 10
-9.1269863307
 20
3.0068310464
 30
0.0
 10
-9.1229998688
 20
3.0197035637
 30
0.0
 10
-9.1173896497
 20
3.0318922594
 30
0.0
 10
-9.1102615296
 20
3.0430005716
 30
0.0
 10
-9.102326405
 20
3.0531178333
 30
0.0
 10
-9.090875019
 20
3.0640465261
 30
0.0
 10
-9.0775847445
 20
3.0722942261
 30
0.0
 10
-9.0662921798
 20
3.0769651704
 30
0.0
 10
-9.0547602009
 20
3.0802965413
 30
0.0
 10
-9.045766458
 20
3.0813361806
 30
0.0
 10
-9.039819846
 20
3.0813361806
 30
0.0
  0
SPLINE
  5
477
100
AcDbEntity
  8
0
100
AcDbSpline
 62
7
  6
CONTINUOUS
 70
0
 71
3
 72
15
 73
11
 74
0
 42
0.0000001
 43
0.0000001
 44
0.0000000001
 40
0.0
 40
0.0
 40
0.0
 40
0.0
 40
0.1304925913
 40
0.2618749293
 40
0.3926731018
 40
0.5217126368
 40
0.6479227383
 40
0.7703140872
 40
0.8879724516
 40
1.0
 40
1.0
 40
1.0
 40
1.0
 10
-8.3747806606
 20
6.9336001537
 30
0.0
 10
-8.3695242214
 20
6.931705372
 30
0.0
 10
-8.3591175399
 20
6.9274967112
 30
0.0
 10
-8.344023425
 20
6.9200563942
 30
0.0
 10
-8.3295772843
 20
6.9115445121
 30
0.0
 10
-8.3159925119
 20
6.902098435
 30
0.0
 10
-8.3034642555
 20
6.8918482504
 30
0.0
 10
-8.2921678134
 20
6.8809417357
 30
0.0
 10
-8.2822832017
 20
6.8695328306
 30
0.0
 10
-8.2765702782
 20
6.8615028808
 30
0.0
 10
-8.2740074677
 20
6.8574480127
 30
0.0
  0
SPLINE
  5
478
100
AcDbEntity
  8
0
100
AcDbSpline
 62
7
  6
CONTINUOUS
 70
0
 71
3
 72
9
 73
5
 74
0
 42
0.0000001
 43
0.0000001
 44
0.0000000001
 40
0.0
 40
0.0
 40
0.0
 40
0.0
 40
0.2452672528
 40
1.0
 40
1.0
 40
1.0
 40
1.0
 10
-8.2620627942
 20
6.8363361806
 30
0.0
 10
-8.262949883
 20
6.8381103581
 30
0.0
 10
-8.2666618816
 20
6.8452961611
 30
0.0
 10
-8.2707450453
 20
6.8522891464
 30
0.0
 10
-8.2740074677
 20
6.8574480127
 30
0.0
  0
SPLINE
  5
479
100
AcDbEntity
  8
0
100
AcDbSpline
 62
7
  6
CONTINUOUS
 70
0
 71
3
 72
9
 73
5
 74
0
 42
0.0000001
 43
0.0000001
 44
0.0000000001
 40
0.0
 40
0.0
 40
0.0
 40
0.0
 40
0.2452502026
 40
1.0
 40
1.0
 40
1.0
 40
1.0
 10
-8.2620627942
 20
-1.6736638194
 30
0.0
 10
-8.2629558539
 20
-1.6754499386
 30
0.0
 10
-8.2666937507
 20
-1.6826842842
 30
0.0
 10
-8.2708067481
 20
-1.6897236862
 30
0.0
 10
-8.2740931797
 20
-1.6949166489
 30
0.0
  0
SPLINE
  5
47A
100
AcDbEntity
  8
0
100
AcDbSpline
 62
7
  6
CONTINUOUS
 70
0
 71
3
 72
19
 73
15
 74
0
 42
0.0000001
 43
0.0000001
 44
0.0000000001
 40
0.0
 40
0.0
 40
0.0
 40
0.0
 40
0.1334494394
 40
0.1999865618
 40
0.2660167757
 40
0.3314087946
 40
0.3960799347
 40
0.5228749087
 40
0.6462107213
 40
0.7662293391
 40
0.8252860104
 40
0.8838241482
 40
0.9420057744
 40
1.0
 40
1.0
 40
1.0
 40
1.0
 10
-9.1350826404
 20
1.6113361806
 30
0.0
 10
-9.1350826404
 20
1.6041628477
 30
0.0
 10
-9.1341588924
 20
1.593383978
 30
0.0
 10
-9.1311383924
 20
1.579395174
 30
0.0
 10
-9.1279888271
 20
1.5692155916
 30
0.0
 10
-9.1239901684
 20
1.5594473147
 30
0.0
 10
-9.1176313354
 20
1.5471749027
 30
0.0
 10
-9.1077943046
 20
1.533272461
 30
0.0
 10
-9.0933071343
 20
1.5194501679
 30
0.0
 10
-9.0793792456
 20
1.5108111321
 30
0.0
 10
-9.0675583864
 20
1.5059166007
 30
0.0
 10
-9.0584620075
 20
1.5032858436
 30
0.0
 10
-9.0491877643
 20
1.5016939206
 30
0.0
 10
-9.0429372206
 20
1.5013361806
 30
0.0
 10
-9.039819846
 20
1.5013361806
 30
0.0
  0
SPLINE
  5
47B
100
AcDbEntity
  8
0
100
AcDbSpline
 62
7
  6
CONTINUOUS
 70
0
 71
3
 72
9
 73
5
 74
0
 42
0.0000001
 43
0.0000001
 44
0.0000000001
 40
0.0
 40
0.0
 40
0.0
 40
0.0
 40
0.4817521747
 40
1.0
 40
1.0
 40
1.0
 40
1.0
 10
-8.3747806606
 20
6.9336001537
 30
0.0
 10
-8.3768349227
 20
6.9303876957
 30
0.0
 10
-8.3807083916
 20
6.9234656723
 30
0.0
 10
-8.3838936741
 20
6.9162073541
 30
0.0
 10
-8.3853872624
 20
6.9123869502
 30
0.0
  0
SPLINE
  5
47C
100
AcDbEntity
  8
0
100
AcDbSpline
 62
7
  6
CONTINUOUS
 70
0
 71
3
 72
19
 73
15
 74
0
 42
0.0000001
 43
0.0000001
 44
0.0000000001
 40
0.0
 40
0.0
 40
0.0
 40
0.0
 40
0.0579942256
 40
0.1161758518
 40
0.1747139896
 40
0.2337706609
 40
0.3537892787
 40
0.4771250913
 40
0.6039200653
 40
0.6685912054
 40
0.7339832243
 40
0.8000134382
 40
0.8665505606
 40
1.0
 40
1.0
 40
1.0
 40
1.0
 10
-9.039819846
 20
1.7213361806
 30
0.0
 10
-9.0429372206
 20
1.7213361806
 30
0.0
 10
-9.0491877643
 20
1.7209784407
 30
0.0
 10
-9.0584620075
 20
1.7193865177
 30
0.0
 10
-9.0675583864
 20
1.7167557606
 30
0.0
 10
-9.0793792456
 20
1.7118612292
 30
0.0
 10
-9.0933071343
 20
1.7032221934
 30
0.0
 10
-9.1077943046
 20
1.6893999003
 30
0.0
 10
-9.1176313354
 20
1.6754974586
 30
0.0
 10
-9.1239901684
 20
1.6632250466
 30
0.0
 10
-9.1279888271
 20
1.6534567697
 30
0.0
 10
-9.1311383924
 20
1.6432771873
 30
0.0
 10
-9.1341588924
 20
1.6292883833
 30
0.0
 10
-9.1350826404
 20
1.6185095136
 30
0.0
 10
-9.1350826404
 20
1.6113361806
 30
0.0
  0
SPLINE
  5
47D
100
AcDbEntity
  8
0
100
AcDbSpline
 62
7
  6
CONTINUOUS
 70
0
 71
3
 72
9
 73
5
 74
0
 42
0.0000001
 43
0.0000001
 44
0.0000000001
 40
0.0
 40
0.0
 40
0.0
 40
0.0
 40
0.5119191418
 40
1.0
 40
1.0
 40
1.0
 40
1.0
 10
-9.640909801
 20
-1.7709277924
 30
0.0
 10
-9.644477471
 20
-1.7689168928
 30
0.0
 10
-9.6511283673
 20
-1.7643809621
 30
0.0
 10
-9.6567748283
 20
-1.7586220053
 30
0.0
 10
-9.6591883249
 20
-1.7555525812
 30
0.0
  0
SPLINE
  5
47E
100
AcDbEntity
  8
0
100
AcDbSpline
 62
7
  6
CONTINUOUS
 70
0
 71
3
 72
19
 73
15
 74
0
 42
0.0000001
 43
0.0000001
 44
0.0000000001
 40
0.0
 40
0.0
 40
0.0
 40
0.0
 40
0.0579942256
 40
0.1161758518
 40
0.1747139896
 40
0.2337706609
 40
0.3537892787
 40
0.4771250913
 40
0.6039200653
 40
0.6685912054
 40
0.7339832243
 40
0.8000134382
 40
0.8665505606
 40
1.0
 40
1.0
 40
1.0
 40
1.0
 10
-9.039819846
 20
-0.9286638194
 30
0.0
 10
-9.0429372206
 20
-0.9286638194
 30
0.0
 10
-9.0491877643
 20
-0.9290215593
 30
0.0
 10
-9.0584620075
 20
-0.9306134823
 30
0.0
 10
-9.0675583864
 20
-0.9332442394
 30
0.0
 10
-9.0793792456
 20
-0.9381387708
 30
0.0
 10
-9.0933071343
 20
-0.9467778066
 30
0.0
 10
-9.1077943046
 20
-0.9606000997
 30
0.0
 10
-9.1176313354
 20
-0.9745025414
 30
0.0
 10
-9.1239901684
 20
-0.9867749534
 30
0.0
 10
-9.1279888271
 20
-0.9965432303
 30
0.0
 10
-9.1311383924
 20
-1.0067228127
 30
0.0
 10
-9.1341588924
 20
-1.0207116167
 30
0.0
 10
-9.1350826404
 20
-1.0314904864
 30
0.0
 10
-9.1350826404
 20
-1.0386638194
 30
0.0
  0
SPLINE
  5
47F
100
AcDbEntity
  8
0
100
AcDbSpline
 62
7
  6
CONTINUOUS
 70
0
 71
3
 72
9
 73
5
 74
0
 42
0.0000001
 43
0.0000001
 44
0.0000000001
 40
0.0
 40
0.0
 40
0.0
 40
0.0
 40
0.4952242541
 40
1.0
 40
1.0
 40
1.0
 40
1.0
 10
5.7012798936
 20
3.0761971149
 30
0.0
 10
5.7058425625
 20
3.0744872225
 30
0.0
 10
5.7147617289
 20
3.0702018471
 30
0.0
 10
5.7228247233
 20
3.0644756985
 30
0.0
 10
5.7266290348
 20
3.0612829651
 30
0.0
  0
SPLINE
  5
480
100
AcDbEntity
  8
0
100
AcDbSpline
 62
7
  6
CONTINUOUS
 70
0
 71
3
 72
21
 73
17
 74
0
 42
0.0000001
 43
0.0000001
 44
0.0000000001
 40
0.0
 40
0.0
 40
0.0
 40
0.0
 40
0.1199237292
 40
0.1814888891
 40
0.2439692425
 40
0.3072348191
 40
0.3711249168
 40
0.4354530631
 40
0.5
 40
0.5645469369
 40
0.6288750832
 40
0.6927651809
 40
0.7560307575
 40
0.8185111109
 40
0.8800762708
 40
1.0
 40
1.0
 40
1.0
 40
1.0
 10
5.7266290348
 20
3.0612829651
 30
0.0
 10
5.7324910997
 20
3.0563632812
 30
0.0
 10
5.7404697843
 20
3.0477754552
 30
0.0
 10
5.7490061661
 20
3.0347318711
 30
0.0
 10
5.7544168835
 20
3.024043929
 30
0.0
 10
5.7587084607
 20
3.0127053953
 30
0.0
 10
5.7618117501
 20
3.0008632277
 30
0.0
 10
5.7636901299
 20
2.9886846317
 30
0.0
 10
5.7643245259
 20
2.9763361806
 30
0.0
 10
5.7636901299
 20
2.9639877296
 30
0.0
 10
5.7618117501
 20
2.9518091336
 30
0.0
 10
5.7587084607
 20
2.939966966
 30
0.0
 10
5.7544168835
 20
2.9286284323
 30
0.0
 10
5.7490061661
 20
2.9179404902
 30
0.0
 10
5.7404697843
 20
2.9048969061
 30
0.0
 10
5.7324910997
 20
2.8963090801
 30
0.0
 10
5.7266290348
 20
2.8913893962
 30
0.0
  0
SPLINE
  5
481
100
AcDbEntity
  8
0
100
AcDbSpline
 62
7
  6
CONTINUOUS
 70
0
 71
3
 72
9
 73
5
 74
0
 42
0.0000001
 43
0.0000001
 44
0.0000000001
 40
0.0
 40
0.0
 40
0.0
 40
0.0
 40
0.5047757459
 40
1.0
 40
1.0
 40
1.0
 40
1.0
 10
5.7266290348
 20
2.8913893962
 30
0.0
 10
5.7228247233
 20
2.8881966628
 30
0.0
 10
5.7147617289
 20
2.8824705142
 30
0.0
 10
5.7058425625
 20
2.8781851388
 30
0.0
 10
5.7012798936
 20
2.8764752464
 30
0.0
  0
SPLINE
  5
482
100
AcDbEntity
  8
0
100
AcDbSpline
 62
7
  6
CONTINUOUS
 70
0
 71
3
 72
9
 73
5
 74
0
 42
0.0000001
 43
0.0000001
 44
0.0000000001
 40
0.0
 40
0.0
 40
0.0
 40
0.0
 40
0.4952242541
 40
1.0
 40
1.0
 40
1.0
 40
1.0
 10
5.7012798936
 20
6.3261971149
 30
0.0
 10
5.7058425625
 20
6.3244872225
 30
0.0
 10
5.7147617289
 20
6.3202018471
 30
0.0
 10
5.7228247233
 20
6.3144756985
 30
0.0
 10
5.7266290348
 20
6.3112829651
 30
0.0
  0
SPLINE
  5
483
100
AcDbEntity
  8
0
100
AcDbSpline
 62
7
  6
CONTINUOUS
 70
0
 71
3
 72
21
 73
17
 74
0
 42
0.0000001
 43
0.0000001
 44
0.0000000001
 40
0.0
 40
0.0
 40
0.0
 40
0.0
 40
0.1199237292
 40
0.1814888891
 40
0.2439692425
 40
0.3072348191
 40
0.3711249168
 40
0.4354530631
 40
0.5
 40
0.5645469369
 40
0.6288750832
 40
0.6927651809
 40
0.7560307575
 40
0.8185111109
 40
0.8800762708
 40
1.0
 40
1.0
 40
1.0
 40
1.0
 10
5.7266290348
 20
6.3112829651
 30
0.0
 10
5.7324910997
 20
6.3063632812
 30
0.0
 10
5.7404697843
 20
6.2977754552
 30
0.0
 10
5.7490061661
 20
6.2847318711
 30
0.0
 10
5.7544168835
 20
6.274043929
 30
0.0
 10
5.7587084607
 20
6.2627053953
 30
0.0
 10
5.7618117501
 20
6.2508632277
 30
0.0
 10
5.7636901299
 20
6.2386846317
 30
0.0
 10
5.7643245259
 20
6.2263361806
 30
0.0
 10
5.7636901299
 20
6.2139877296
 30
0.0
 10
5.7618117501
 20
6.2018091336
 30
0.0
 10
5.7587084607
 20
6.189966966
 30
0.0
 10
5.7544168835
 20
6.1786284323
 30
0.0
 10
5.7490061661
 20
6.1679404902
 30
0.0
 10
5.7404697843
 20
6.1548969061
 30
0.0
 10
5.7324910997
 20
6.1463090801
 30
0.0
 10
5.7266290348
 20
6.1413893962
 30
0.0
  0
SPLINE
  5
484
100
AcDbEntity
  8
0
100
AcDbSpline
 62
7
  6
CONTINUOUS
 70
0
 71
3
 72
9
 73
5
 74
0
 42
0.0000001
 43
0.0000001
 44
0.0000000001
 40
0.0
 40
0.0
 40
0.0
 40
0.0
 40
0.5047757459
 40
1.0
 40
1.0
 40
1.0
 40
1.0
 10
5.7266290348
 20
6.1413893962
 30
0.0
 10
5.7228247233
 20
6.1381966628
 30
0.0
 10
5.7147617289
 20
6.1324705142
 30
0.0
 10
5.7058425625
 20
6.1281851388
 30
0.0
 10
5.7012798936
 20
6.1264752464
 30
0.0
  0
SPLINE
  5
485
100
AcDbEntity
  8
0
100
AcDbSpline
 62
7
  6
CONTINUOUS
 70
0
 71
3
 72
19
 73
15
 74
0
 42
0.0000001
 43
0.0000001
 44
0.0000000001
 40
0.0
 40
0.0
 40
0.0
 40
0.0
 40
0.1334494394
 40
0.1999865618
 40
0.2660167757
 40
0.3314087946
 40
0.3960799347
 40
0.5228749087
 40
0.6462107213
 40
0.7662293391
 40
0.8252860104
 40
0.8838241482
 40
0.9420057744
 40
1.0
 40
1.0
 40
1.0
 40
1.0
 10
5.6149173596
 20
1.6113361806
 30
0.0
 10
5.6149173596
 20
1.6041628477
 30
0.0
 10
5.6158411076
 20
1.593383978
 30
0.0
 10
5.6188616076
 20
1.579395174
 30
0.0
 10
5.6220111729
 20
1.5692155916
 30
0.0
 10
5.6260098316
 20
1.5594473147
 30
0.0
 10
5.6323686646
 20
1.5471749027
 30
0.0
 10
5.6422056954
 20
1.533272461
 30
0.0
 10
5.6566928657
 20
1.5194501679
 30
0.0
 10
5.6706207544
 20
1.5108111321
 30
0.0
 10
5.6824416136
 20
1.5059166007
 30
0.0
 10
5.6915379925
 20
1.5032858436
 30
0.0
 10
5.7008122357
 20
1.5016939206
 30
0.0
 10
5.7070627794
 20
1.5013361806
 30
0.0
 10
5.710180154
 20
1.5013361806
 30
0.0
  0
SPLINE
  5
486
100
AcDbEntity
  8
0
100
AcDbSpline
 62
7
  6
CONTINUOUS
 70
0
 71
3
 72
19
 73
15
 74
0
 42
0.0000001
 43
0.0000001
 44
0.0000000001
 40
0.0
 40
0.0
 40
0.0
 40
0.0
 40
0.1334494394
 40
0.1999865618
 40
0.2660167757
 40
0.3314087946
 40
0.3960799347
 40
0.5228749087
 40
0.6462107213
 40
0.7662293391
 40
0.8252860104
 40
0.8838241482
 40
0.9420057744
 40
1.0
 40
1.0
 40
1.0
 40
1.0
 10
5.6149173596
 20
-1.0386638194
 30
0.0
 10
5.6149173596
 20
-1.0458371523
 30
0.0
 10
5.6158411076
 20
-1.056616022
 30
0.0
 10
5.6188616076
 20
-1.070604826
 30
0.0
 10
5.6220111729
 20
-1.0807844084
 30
0.0
 10
5.6260098316
 20
-1.0905526853
 30
0.0
 10
5.6323686646
 20
-1.1028250973
 30
0.0
 10
5.6422056954
 20
-1.116727539
 30
0.0
 10
5.6566928657
 20
-1.1305498321
 30
0.0
 10
5.6706207544
 20
-1.1391888679
 30
0.0
 10
5.6824416136
 20
-1.1440833993
 30
0.0
 10
5.6915379925
 20
-1.1467141564
 30
0.0
 10
5.7008122357
 20
-1.1483060794
 30
0.0
 10
5.7070627794
 20
-1.1486638194
 30
0.0
 10
5.710180154
 20
-1.1486638194
 30
0.0
  0
SPLINE
  5
487
100
AcDbEntity
  8
0
100
AcDbSpline
 62
7
  6
CONTINUOUS
 70
0
 71
3
 72
29
 73
25
 74
0
 42
0.0000001
 43
0.0000001
 44
0.0000000001
 40
0.0
 40
0.0
 40
0.0
 40
0.0
 40
0.0290012563
 40
0.0582075511
 40
0.1173700302
 40
0.1474783719
 40
0.1779606528
 40
0.2088244402
 40
0.2400631027
 40
0.3035551554
 40
0.3682818514
 40
0.4339052093
 40
0.5
 40
0.5660947907
 40
0.6317181486
 40
0.6964448446
 40
0.7599368973
 40
0.7911755598
 40
0.8220393472
 40
0.8525216281
 40
0.8826299698
 40
0.9417924489
 40
0.9709987437
 40
1.0
 40
1.0
 40
1.0
 40
1.0
 10
5.6914743519
 20
6.1235873325
 30
0.0
 10
5.6889360114
 20
6.1242025036
 30
0.0
 10
5.6838971942
 20
6.1256847175
 30
0.0
 10
5.674080055
 20
6.1296354941
 30
0.0
 10
5.6647841751
 20
6.1350200468
 30
0.0
 10
5.6562532395
 20
6.1416347613
 30
0.0
 10
5.6502077091
 20
6.1472448493
 30
0.0
 10
5.6445969096
 20
6.1534261971
 30
0.0
 10
5.6377108706
 20
6.1624135015
 30
0.0
 10
5.6304216249
 20
6.1748650278
 30
0.0
 10
5.6240277339
 20
6.1911811466
 30
0.0
 10
5.6201271382
 20
6.2085056271
 30
0.0
 10
5.6188060866
 20
6.2263361806
 30
0.0
 10
5.6201271382
 20
6.2441667342
 30
0.0
 10
5.6240277339
 20
6.2614912147
 30
0.0
 10
5.6304216249
 20
6.2778073335
 30
0.0
 10
5.6377108706
 20
6.2902588598
 30
0.0
 10
5.6445969096
 20
6.2992461642
 30
0.0
 10
5.6502077091
 20
6.305427512
 30
0.0
 10
5.6562532395
 20
6.3110376
 30
0.0
 10
5.6647841751
 20
6.3176523145
 30
0.0
 10
5.674080055
 20
6.3230368672
 30
0.0
 10
5.6838971942
 20
6.3269876438
 30
0.0
 10
5.6889360114
 20
6.3284698577
 30
0.0
 10
5.6914743519
 20
6.3290850288
 30
0.0
  0
SPLINE
  5
488
100
AcDbEntity
  8
0
100
AcDbSpline
 62
7
  6
CONTINUOUS
 70
0
 71
3
 72
29
 73
25
 74
0
 42
0.0000001
 43
0.0000001
 44
0.0000000001
 40
0.0
 40
0.0
 40
0.0
 40
0.0
 40
0.0290012563
 40
0.0582075511
 40
0.1173700302
 40
0.1474783719
 40
0.1779606528
 40
0.2088244402
 40
0.2400631027
 40
0.3035551554
 40
0.3682818514
 40
0.4339052093
 40
0.5
 40
0.5660947907
 40
0.6317181486
 40
0.6964448446
 40
0.7599368973
 40
0.7911755598
 40
0.8220393472
 40
0.8525216281
 40
0.8826299698
 40
0.9417924489
 40
0.9709987437
 40
1.0
 40
1.0
 40
1.0
 40
1.0
 10
5.6914743519
 20
2.8735873325
 30
0.0
 10
5.6889360114
 20
2.8742025036
 30
0.0
 10
5.6838971942
 20
2.8756847175
 30
0.0
 10
5.674080055
 20
2.8796354941
 30
0.0
 10
5.6647841751
 20
2.8850200468
 30
0.0
 10
5.6562532395
 20
2.8916347613
 30
0.0
 10
5.6502077091
 20
2.8972448493
 30
0.0
 10
5.6445969096
 20
2.9034261971
 30
0.0
 10
5.6377108706
 20
2.9124135015
 30
0.0
 10
5.6304216249
 20
2.9248650278
 30
0.0
 10
5.6240277339
 20
2.9411811466
 30
0.0
 10
5.6201271382
 20
2.9585056271
 30
0.0
 10
5.6188060866
 20
2.9763361806
 30
0.0
 10
5.6201271382
 20
2.9941667342
 30
0.0
 10
5.6240277339
 20
3.0114912147
 30
0.0
 10
5.6304216249
 20
3.0278073335
 30
0.0
 10
5.6377108706
 20
3.0402588598
 30
0.0
 10
5.6445969096
 20
3.0492461642
 30
0.0
 10
5.6502077091
 20
3.055427512
 30
0.0
 10
5.6562532395
 20
3.0610376
 30
0.0
 10
5.6647841751
 20
3.0676523145
 30
0.0
 10
5.674080055
 20
3.0730368672
 30
0.0
 10
5.6838971942
 20
3.0769876438
 30
0.0
 10
5.6889360114
 20
3.0784698577
 30
0.0
 10
5.6914743519
 20
3.0790850288
 30
0.0
  0
SPLINE
  5
489
100
AcDbEntity
  8
0
100
AcDbSpline
 62
7
  6
CONTINUOUS
 70
0
 71
3
 72
9
 73
5
 74
0
 42
0.0000001
 43
0.0000001
 44
0.0000000001
 40
0.0
 40
0.0
 40
0.0
 40
0.0
 40
0.4817508585
 40
1.0
 40
1.0
 40
1.0
 40
1.0
 10
6.3112701089
 20
-1.7709277924
 30
0.0
 10
6.3133243654
 20
-1.7677153431
 30
0.0
 10
6.3171978353
 20
-1.7607933204
 30
0.0
 10
6.3203831186
 20
-1.7535350025
 30
0.0
 10
6.3218767107
 20
-1.7497145889
 30
0.0
  0
SPLINE
  5
48A
100
AcDbEntity
  8
0
100
AcDbSpline
 62
7
  6
CONTINUOUS
 70
0
 71
3
 72
17
 73
13
 74
0
 42
0.0000001
 43
0.0000001
 44
0.0000000001
 40
0.0
 40
0.0
 40
0.0
 40
0.0
 40
0.1159815474
 40
0.1745826703
 40
0.2336688874
 40
0.2933892684
 40
0.3538697065
 40
0.4772294793
 40
0.6040782244
 40
0.7340465928
 40
0.8664510631
 40
1.0
 40
1.0
 40
1.0
 40
1.0
 10
3.6342732605
 20
-1.8136638194
 30
0.0
 10
3.6263407172
 20
-1.8136638194
 30
0.0
 10
3.614345786
 20
-1.8122850416
 30
0.0
 10
3.5989731086
 20
-1.8078355459
 30
0.0
 10
3.5877378589
 20
-1.8031840428
 30
0.0
 10
3.5769584691
 20
-1.7972893387
 30
0.0
 10
3.5632471913
 20
-1.7877830234
 30
0.0
 10
3.5477470084
 20
-1.7730198829
 30
0.0
 10
3.5326559292
 20
-1.7516612624
 30
0.0
 10
3.5214561965
 20
-1.7273503498
 30
0.0
 10
3.5145789624
 20
-1.7010256432
 30
0.0
 10
3.5130297039
 20
-1.6827978821
 30
0.0
 10
3.5130297039
 20
-1.6736638194
 30
0.0
  0
SPLINE
  5
48B
100
AcDbEntity
  8
0
100
AcDbSpline
 62
7
  6
CONTINUOUS
 70
0
 71
3
 72
15
 73
11
 74
0
 42
0.0000001
 43
0.0000001
 44
0.0000000001
 40
0.0
 40
0.0
 40
0.0
 40
0.0
 40
0.1120554008
 40
0.2297508381
 40
0.352154941
 40
0.4783573876
 40
0.6073842905
 40
0.7381661101
 40
0.8695275371
 40
1.0
 40
1.0
 40
1.0
 40
1.0
 10
4.955036214
 20
6.8363361806
 30
0.0
 10
4.9575993924
 20
6.8403870002
 30
0.0
 10
4.9633157105
 20
6.8484069991
 30
0.0
 10
4.9732033569
 20
6.8597990831
 30
0.0
 10
4.9844960058
 20
6.8706911067
 30
0.0
 10
4.997015906
 20
6.8809274132
 30
0.0
 10
5.01058956
 20
6.8903600035
 30
0.0
 10
5.0250223099
 20
6.8988599141
 30
0.0
 10
5.0401011551
 20
6.9062905298
 30
0.0
 10
5.050496781
 20
6.9104942052
 30
0.0
 10
5.0557475703
 20
6.9123869502
 30
0.0
  0
SPLINE
  5
48C
100
AcDbEntity
  8
0
100
AcDbSpline
 62
7
  6
CONTINUOUS
 70
0
 71
3
 72
17
 73
13
 74
0
 42
0.0000001
 43
0.0000001
 44
0.0000000001
 40
0.0
 40
0.0
 40
0.0
 40
0.0
 40
0.1335489369
 40
0.2659534072
 40
0.3959217756
 40
0.5227705207
 40
0.6461302935
 40
0.7066107316
 40
0.7663311126
 40
0.8254173297
 40
0.8840184526
 40
1.0
 40
1.0
 40
1.0
 40
1.0
 10
4.0130297039
 20
6.8363361806
 30
0.0
 10
4.0130297039
 20
6.8454702434
 30
0.0
 10
4.0145789624
 20
6.8636980045
 30
0.0
 10
4.0214561965
 20
6.8900227111
 30
0.0
 10
4.0326559292
 20
6.9143336237
 30
0.0
 10
4.0477470084
 20
6.9356922442
 30
0.0
 10
4.0632471913
 20
6.9504553847
 30
0.0
 10
4.0769584691
 20
6.9599617
 30
0.0
 10
4.0877378589
 20
6.9658564041
 30
0.0
 10
4.0989731086
 20
6.9705079072
 30
0.0
 10
4.114345786
 20
6.9749574029
 30
0.0
 10
4.1263407172
 20
6.9763361806
 30
0.0
 10
4.1342732605
 20
6.9763361806
 30
0.0
  0
SPLINE
  5
48D
100
AcDbEntity
  8
0
100
AcDbSpline
 62
7
  6
CONTINUOUS
 70
0
 71
3
 72
9
 73
5
 74
0
 42
0.0000001
 43
0.0000001
 44
0.0000000001
 40
0.0
 40
0.0
 40
0.0
 40
0.0
 40
0.4817521747
 40
1.0
 40
1.0
 40
1.0
 40
1.0
 10
6.3112701089
 20
6.9336001537
 30
0.0
 10
6.3133243711
 20
6.9303876957
 30
0.0
 10
6.31719784
 20
6.9234656723
 30
0.0
 10
6.3203831224
 20
6.9162073541
 30
0.0
 10
6.3218767107
 20
6.9123869502
 30
0.0
  0
SPLINE
  5
48E
100
AcDbEntity
  8
0
100
AcDbSpline
 62
7
  6
CONTINUOUS
 70
0
 71
3
 72
15
 73
11
 74
0
 42
0.0000001
 43
0.0000001
 44
0.0000000001
 40
0.0
 40
0.0
 40
0.0
 40
0.0
 40
0.1176458723
 40
0.2376113676
 40
0.3599543815
 40
0.4846141082
 40
0.6114196323
 40
0.7400798941
 40
0.8699551882
 40
1.0
 40
1.0
 40
1.0
 40
1.0
 10
5.6692752594
 20
1.5128021781
 30
0.0
 10
5.6732556852
 20
1.515081237
 30
0.0
 10
5.6809532492
 20
1.520308007
 30
0.0
 10
5.6913344161
 20
1.5298165759
 30
0.0
 10
5.700484002
 20
1.5408742927
 30
0.0
 10
5.708204133
 20
1.5532847431
 30
0.0
 10
5.714374737
 20
1.5668027605
 30
0.0
 10
5.7188568817
 20
1.5811833074
 30
0.0
 10
5.7215742938
 20
1.5961225245
 30
0.0
 10
5.7221929484
 20
1.606266069
 30
0.0
 10
5.7221929484
 20
1.6113361806
 30
0.0
  0
SPLINE
  5
48F
100
AcDbEntity
  8
0
100
AcDbSpline
 62
7
  6
CONTINUOUS
 70
0
 71
3
 72
19
 73
15
 74
0
 42
0.0000001
 43
0.0000001
 44
0.0000000001
 40
0.0
 40
0.0
 40
0.0
 40
0.0
 40
0.0579942256
 40
0.1161758518
 40
0.1747139896
 40
0.2337706609
 40
0.3537892787
 40
0.4771250913
 40
0.6039200653
 40
0.6685912054
 40
0.7339832243
 40
0.8000134382
 40
0.8665505606
 40
1.0
 40
1.0
 40
1.0
 40
1.0
 10
5.710180154
 20
1.7213361806
 30
0.0
 10
5.7070627794
 20
1.7213361806
 30
0.0
 10
5.7008122357
 20
1.7209784407
 30
0.0
 10
5.6915379925
 20
1.7193865177
 30
0.0
 10
5.6824416136
 20
1.7167557606
 30
0.0
 10
5.6706207544
 20
1.7118612292
 30
0.0
 10
5.6566928657
 20
1.7032221934
 30
0.0
 10
5.6422056954
 20
1.6893999003
 30
0.0
 10
5.6323686646
 20
1.6754974586
 30
0.0
 10
5.6260098316
 20
1.6632250466
 30
0.0
 10
5.6220111729
 20
1.6534567697
 30
0.0
 10
5.6188616076
 20
1.6432771873
 30
0.0
 10
5.6158411076
 20
1.6292883833
 30
0.0
 10
5.6149173596
 20
1.6185095136
 30
0.0
 10
5.6149173596
 20
1.6113361806
 30
0.0
  0
SPLINE
  5
490
100
AcDbEntity
  8
0
100
AcDbSpline
 62
7
  6
CONTINUOUS
 70
0
 71
3
 72
15
 73
11
 74
0
 42
0.0000001
 43
0.0000001
 44
0.0000000001
 40
0.0
 40
0.0
 40
0.0
 40
0.0
 40
0.1176458723
 40
0.2376113676
 40
0.3599543815
 40
0.4846141082
 40
0.6114196323
 40
0.7400798941
 40
0.8699551882
 40
1.0
 40
1.0
 40
1.0
 40
1.0
 10
5.6692752594
 20
-1.1371978219
 30
0.0
 10
5.6732556852
 20
-1.134918763
 30
0.0
 10
5.6809532492
 20
-1.129691993
 30
0.0
 10
5.6913344161
 20
-1.1201834241
 30
0.0
 10
5.700484002
 20
-1.1091257073
 30
0.0
 10
5.708204133
 20
-1.0967152569
 30
0.0
 10
5.714374737
 20
-1.0831972395
 30
0.0
 10
5.7188568817
 20
-1.0688166926
 30
0.0
 10
5.7215742938
 20
-1.0538774755
 30
0.0
 10
5.7221929484
 20
-1.043733931
 30
0.0
 10
5.7221929484
 20
-1.0386638194
 30
0.0
  0
SPLINE
  5
491
100
AcDbEntity
  8
0
100
AcDbSpline
 62
7
  6
CONTINUOUS
 70
0
 71
3
 72
19
 73
15
 74
0
 42
0.0000001
 43
0.0000001
 44
0.0000000001
 40
0.0
 40
0.0
 40
0.0
 40
0.0
 40
0.0579942256
 40
0.1161758518
 40
0.1747139896
 40
0.2337706609
 40
0.3537892787
 40
0.4771250913
 40
0.6039200653
 40
0.6685912054
 40
0.7339832243
 40
0.8000134382
 40
0.8665505606
 40
1.0
 40
1.0
 40
1.0
 40
1.0
 10
5.710180154
 20
-0.9286638194
 30
0.0
 10
5.7070627794
 20
-0.9286638194
 30
0.0
 10
5.7008122357
 20
-0.9290215593
 30
0.0
 10
5.6915379925
 20
-0.9306134823
 30
0.0
 10
5.6824416136
 20
-0.9332442394
 30
0.0
 10
5.6706207544
 20
-0.9381387708
 30
0.0
 10
5.6566928657
 20
-0.9467778066
 30
0.0
 10
5.6422056954
 20
-0.9606000997
 30
0.0
 10
5.6323686646
 20
-0.9745025414
 30
0.0
 10
5.6260098316
 20
-0.9867749534
 30
0.0
 10
5.6220111729
 20
-0.9965432303
 30
0.0
 10
5.6188616076
 20
-1.0067228127
 30
0.0
 10
5.6158411076
 20
-1.0207116167
 30
0.0
 10
5.6149173596
 20
-1.0314904864
 30
0.0
 10
5.6149173596
 20
-1.0386638194
 30
0.0
  0
SPLINE
  5
492
100
AcDbEntity
  8
0
100
AcDbSpline
 62
7
  6
CONTINUOUS
 70
0
 71
3
 72
9
 73
5
 74
0
 42
0.0000001
 43
0.0000001
 44
0.0000000001
 40
0.0
 40
0.0
 40
0.0
 40
0.0
 40
0.4982814458
 40
1.0
 40
1.0
 40
1.0
 40
1.0
 10
6.3486372133
 20
-1.7187243233
 30
0.0
 10
6.3475688999
 20
-1.7218666074
 30
0.0
 10
6.3448214629
 20
-1.7279845988
 30
0.0
 10
6.3409571521
 20
-1.7334645082
 30
0.0
 10
6.3387890673
 20
-1.7360075654
 30
0.0
  0
SPLINE
  5
493
100
AcDbEntity
  8
0
100
AcDbSpline
 62
7
  6
CONTINUOUS
 70
0
 71
3
 72
9
 73
5
 74
0
 42
0.0000001
 43
0.0000001
 44
0.0000000001
 40
0.0
 40
0.0
 40
0.0
 40
0.0
 40
0.4923835855
 40
1.0
 40
1.0
 40
1.0
 40
1.0
 10
6.3387890673
 20
-1.7360075654
 30
0.0
 10
6.3370953919
 20
-1.7379941636
 30
0.0
 10
6.3333628493
 20
-1.7417863691
 30
0.0
 10
6.3291631847
 20
-1.7450487273
 30
0.0
 10
6.3269415152
 20
-1.7465677707
 30
0.0
  0
SPLINE
  5
494
100
AcDbEntity
  8
0
100
AcDbSpline
 62
7
  6
CONTINUOUS
 70
0
 71
3
 72
9
 73
5
 74
0
 42
0.0000001
 43
0.0000001
 44
0.0000000001
 40
0.0
 40
0.0
 40
0.0
 40
0.0
 40
0.5076634364
 40
1.0
 40
1.0
 40
1.0
 40
1.0
 10
6.3269151581
 20
6.9092581374
 30
0.0
 10
6.329153431
 20
6.9077293151
 30
0.0
 10
6.3333831208
 20
6.9044441217
 30
0.0
 10
6.3371387105
 20
6.9006215531
 30
0.0
 10
6.3388412224
 20
6.8986186362
 30
0.0
  0
SPLINE
  5
495
100
AcDbEntity
  8
0
100
AcDbSpline
 62
7
  6
CONTINUOUS
 70
0
 71
3
 72
9
 73
5
 74
0
 42
0.0000001
 43
0.0000001
 44
0.0000000001
 40
0.0
 40
0.0
 40
0.0
 40
0.0
 40
0.501694721
 40
1.0
 40
1.0
 40
1.0
 40
1.0
 10
6.3388412224
 20
6.8986186362
 30
0.0
 10
6.3409921173
 20
6.8960882199
 30
0.0
 10
6.3448269746
 20
6.8906387842
 30
0.0
 10
6.3475587012
 20
6.8845597425
 30
0.0
 10
6.3486232141
 20
6.881437621
 30
0.0
  0
SPLINE
  5
496
100
AcDbEntity
  8
0
100
AcDbSpline
 62
7
  6
CONTINUOUS
 70
0
 71
3
 72
9
 73
5
 74
0
 42
0.0000001
 43
0.0000001
 44
0.0000000001
 40
0.0
 40
0.0
 40
0.0
 40
0.0
 40
0.2452672528
 40
1.0
 40
1.0
 40
1.0
 40
1.0
 10
4.9430297039
 20
-1.6524506159
 30
0.0
 10
4.9439167927
 20
-1.6542247934
 30
0.0
 10
4.9476287913
 20
-1.6614105963
 30
0.0
 10
4.951711955
 20
-1.6684035816
 30
0.0
 10
4.9549743774
 20
-1.673562448
 30
0.0
  0
SPLINE
  5
497
100
AcDbEntity
  8
0
100
AcDbSpline
 62
7
  6
CONTINUOUS
 70
0
 71
3
 72
15
 73
11
 74
0
 42
0.0000001
 43
0.0000001
 44
0.0000000001
 40
0.0
 40
0.0
 40
0.0
 40
0.0
 40
0.1304925913
 40
0.2618749293
 40
0.3926731018
 40
0.5217126368
 40
0.6479227383
 40
0.7703140872
 40
0.8879724516
 40
1.0
 40
1.0
 40
1.0
 40
1.0
 10
5.0557475703
 20
-1.7497145889
 30
0.0
 10
5.0504911311
 20
-1.7478198073
 30
0.0
 10
5.0400844496
 20
-1.7436111465
 30
0.0
 10
5.0249903347
 20
-1.7361708295
 30
0.0
 10
5.010544194
 20
-1.7276589473
 30
0.0
 10
4.9969594216
 20
-1.7182128703
 30
0.0
 10
4.9844311652
 20
-1.7079626856
 30
0.0
 10
4.9731347231
 20
-1.697056171
 30
0.0
 10
4.9632501113
 20
-1.6856472658
 30
0.0
 10
4.9575371879
 20
-1.6776173161
 30
0.0
 10
4.9549743774
 20
-1.673562448
 30
0.0
  0
SPLINE
  5
498
100
AcDbEntity
  8
0
100
AcDbSpline
 62
7
  6
CONTINUOUS
 70
0
 71
3
 72
15
 73
11
 74
0
 42
0.0000001
 43
0.0000001
 44
0.0000000001
 40
0.0
 40
0.0
 40
0.0
 40
0.0
 40
0.1300448118
 40
0.2599201059
 40
0.3885803677
 40
0.5153858918
 40
0.6400456185
 40
0.7623886324
 40
0.8823541277
 40
1.0
 40
1.0
 40
1.0
 40
1.0
 10
5.7221929484
 20
1.6113361806
 30
0.0
 10
5.7221929484
 20
1.6164062923
 30
0.0
 10
5.7215742938
 20
1.6265498368
 30
0.0
 10
5.7188568817
 20
1.6414890539
 30
0.0
 10
5.714374737
 20
1.6558696008
 30
0.0
 10
5.708204133
 20
1.6693876182
 30
0.0
 10
5.700484002
 20
1.6817980686
 30
0.0
 10
5.6913344161
 20
1.6928557854
 30
0.0
 10
5.6809532492
 20
1.7023643543
 30
0.0
 10
5.6732556852
 20
1.7075911243
 30
0.0
 10
5.6692752594
 20
1.7098701832
 30
0.0
  0
SPLINE
  5
499
100
AcDbEntity
  8
0
100
AcDbSpline
 62
7
  6
CONTINUOUS
 70
0
 71
3
 72
15
 73
11
 74
0
 42
0.0000001
 43
0.0000001
 44
0.0000000001
 40
0.0
 40
0.0
 40
0.0
 40
0.0
 40
0.1300448118
 40
0.2599201059
 40
0.3885803677
 40
0.5153858918
 40
0.6400456185
 40
0.7623886324
 40
0.8823541277
 40
1.0
 40
1.0
 40
1.0
 40
1.0
 10
5.7221929484
 20
-1.0386638194
 30
0.0
 10
5.7221929484
 20
-1.0335937077
 30
0.0
 10
5.7215742938
 20
-1.0234501632
 30
0.0
 10
5.7188568817
 20
-1.0085109461
 30
0.0
 10
5.714374737
 20
-0.9941303992
 30
0.0
 10
5.708204133
 20
-0.9806123818
 30
0.0
 10
5.700484002
 20
-0.9682019314
 30
0.0
 10
5.6913344161
 20
-0.9571442146
 30
0.0
 10
5.6809532492
 20
-0.9476356457
 30
0.0
 10
5.6732556852
 20
-0.9424088757
 30
0.0
 10
5.6692752594
 20
-0.9401298168
 30
0.0
  0
SPLINE
  5
49A
100
AcDbEntity
  8
0
100
AcDbSpline
 62
7
  6
CONTINUOUS
 70
0
 71
3
 72
9
 73
5
 74
0
 42
0.0000001
 43
0.0000001
 44
0.0000000001
 40
0.0
 40
0.0
 40
0.0
 40
0.0
 40
0.4817508585
 40
1.0
 40
1.0
 40
1.0
 40
1.0
 10
5.0451409686
 20
6.9336001537
 30
0.0
 10
5.0471952251
 20
6.9303877044
 30
0.0
 10
5.051068695
 20
6.9234656817
 30
0.0
 10
5.0542539783
 20
6.9162073638
 30
0.0
 10
5.0557475703
 20
6.9123869502
 30
0.0
  0
SPLINE
  5
49B
100
AcDbEntity
  8
0
100
AcDbSpline
 62
7
  6
CONTINUOUS
 70
0
 71
3
 72
15
 73
11
 74
0
 42
0.0000001
 43
0.0000001
 44
0.0000000001
 40
0.0
 40
0.0
 40
0.0
 40
0.0
 40
0.1304646148
 40
0.2618183611
 40
0.3925946462
 40
0.5216176856
 40
0.6478183266
 40
0.7702275066
 40
0.8879356866
 40
1.0
 40
1.0
 40
1.0
 40
1.0
 10
5.0451409686
 20
6.9336001537
 30
0.0
 10
5.0398923785
 20
6.9317082014
 30
0.0
 10
5.0295010416
 20
6.9275064476
 30
0.0
 10
5.0144280892
 20
6.9200795857
 30
0.0
 10
5.0000004533
 20
6.9115843026
 30
0.0
 10
4.9864310278
 20
6.9021568665
 30
0.0
 10
4.973914424
 20
6.8919257494
 30
0.0
 10
4.962623237
 20
6.8810394253
 30
0.0
 10
4.9527342311
 20
6.8696542503
 30
0.0
 10
4.9470166751
 20
6.8616382402
 30
0.0
 10
4.9444534877
 20
6.8575890102
 30
0.0
  0
SPLINE
  5
49C
100
AcDbEntity
  8
0
100
AcDbSpline
 62
7
  6
CONTINUOUS
 70
0
 71
3
 72
29
 73
25
 74
0
 42
0.0000001
 43
0.0000001
 44
0.0000000001
 40
0.0
 40
0.0
 40
0.0
 40
0.0
 40
0.0579581517
 40
0.0872716806
 40
0.1168261292
 40
0.1768362181
 40
0.2385049461
 40
0.2700387917
 40
0.3019952353
 40
0.3669844192
 40
0.3999804314
 40
0.433208599
 40
0.5
 40
0.566791401
 40
0.6000195686
 40
0.6330155808
 40
0.6980047647
 40
0.7299612083
 40
0.7614950539
 40
0.8231637819
 40
0.8831738708
 40
0.9127283194
 40
0.9420418483
 40
1.0
 40
1.0
 40
1.0
 40
1.0
 10
5.710180154
 20
6.3313361806
 30
0.0
 10
5.7161267659
 20
6.3313361806
 30
0.0
 10
5.7251205088
 20
6.3302965413
 30
0.0
 10
5.7366524878
 20
6.3269651704
 30
0.0
 10
5.7479450525
 20
6.3222942261
 30
0.0
 10
5.761235327
 20
6.3140465261
 30
0.0
 10
5.772686713
 20
6.3031178333
 30
0.0
 10
5.7806218376
 20
6.2930005716
 30
0.0
 10
5.7877499577
 20
6.2818922594
 30
0.0
 10
5.7933601768
 20
6.2697035637
 30
0.0
 10
5.7973466387
 20
6.2568310464
 30
0.0
 10
5.8002351014
 20
6.2434767877
 30
0.0
 10
5.8016989482
 20
6.2263361806
 30
0.0
 10
5.8002351014
 20
6.2091955736
 30
0.0
 10
5.7973466387
 20
6.1958413149
 30
0.0
 10
5.7933601768
 20
6.1829687976
 30
0.0
 10
5.7877499577
 20
6.1707801019
 30
0.0
 10
5.7806218376
 20
6.1596717897
 30
0.0
 10
5.772686713
 20
6.149554528
 30
0.0
 10
5.761235327
 20
6.1386258352
 30
0.0
 10
5.7479450525
 20
6.1303781352
 30
0.0
 10
5.7366524878
 20
6.1257071908
 30
0.0
 10
5.7251205088
 20
6.12237582
 30
0.0
 10
5.7161267659
 20
6.1213361806
 30
0.0
 10
5.710180154
 20
6.1213361806
 30
0.0
  0
SPLINE
  5
49D
100
AcDbEntity
  8
0
100
AcDbSpline
 62
7
  6
CONTINUOUS
 70
0
 71
3
 72
19
 73
15
 74
0
 42
0.0000001
 43
0.0000001
 44
0.0000000001
 40
0.0
 40
0.0
 40
0.0
 40
0.0
 40
0.1334494394
 40
0.1999865618
 40
0.2660167757
 40
0.3314087946
 40
0.3960799347
 40
0.5228749087
 40
0.6462107213
 40
0.7662293391
 40
0.8252860104
 40
0.8838241482
 40
0.9420057744
 40
1.0
 40
1.0
 40
1.0
 40
1.0
 10
5.8054429484
 20
1.6113361806
 30
0.0
 10
5.8054429484
 20
1.6185095136
 30
0.0
 10
5.8045192004
 20
1.6292883833
 30
0.0
 10
5.8014987004
 20
1.6432771873
 30
0.0
 10
5.798349135
 20
1.6534567697
 30
0.0
 10
5.7943504764
 20
1.6632250466
 30
0.0
 10
5.7879916434
 20
1.6754974586
 30
0.0
 10
5.7781546125
 20
1.6893999003
 30
0.0
 10
5.7636674423
 20
1.7032221934
 30
0.0
 10
5.7497395536
 20
1.7118612292
 30
0.0
 10
5.7379186944
 20
1.7167557606
 30
0.0
 10
5.7288223155
 20
1.7193865177
 30
0.0
 10
5.7195480723
 20
1.7209784407
 30
0.0
 10
5.7132975286
 20
1.7213361806
 30
0.0
 10
5.710180154
 20
1.7213361806
 30
0.0
  0
SPLINE
  5
49E
100
AcDbEntity
  8
0
100
AcDbSpline
 62
7
  6
CONTINUOUS
 70
0
 71
3
 72
9
 73
5
 74
0
 42
0.0000001
 43
0.0000001
 44
0.0000000001
 40
0.0
 40
0.0
 40
0.0
 40
0.0
 40
0.5119195942
 40
1.0
 40
1.0
 40
1.0
 40
1.0
 10
6.3112701089
 20
-1.7709277924
 30
0.0
 10
6.314837132
 20
-1.7689172575
 30
0.0
 10
6.3214868885
 20
-1.7643822814
 30
0.0
 10
6.3271325834
 20
-1.7586246891
 30
0.0
 10
6.3295459471
 20
-1.7555560704
 30
0.0
  0
SPLINE
  5
49F
100
AcDbEntity
  8
0
100
AcDbSpline
 62
7
  6
CONTINUOUS
 70
0
 71
3
 72
9
 73
5
 74
0
 42
0.0000001
 43
0.0000001
 44
0.0000000001
 40
0.0
 40
0.0
 40
0.0
 40
0.0
 40
0.5119191418
 40
1.0
 40
1.0
 40
1.0
 40
1.0
 10
6.3112701089
 20
6.9336001537
 30
0.0
 10
6.314837779
 20
6.9315892541
 30
0.0
 10
6.3214886753
 20
6.9270533234
 30
0.0
 10
6.3271351363
 20
6.9212943666
 30
0.0
 10
6.3295486329
 20
6.9182249425
 30
0.0
  0
SPLINE
  5
4A0
100
AcDbEntity
  8
0
100
AcDbSpline
 62
7
  6
CONTINUOUS
 70
0
 71
3
 72
19
 73
15
 74
0
 42
0.0000001
 43
0.0000001
 44
0.0000000001
 40
0.0
 40
0.0
 40
0.0
 40
0.0
 40
0.1334494394
 40
0.1999865618
 40
0.2660167757
 40
0.3314087946
 40
0.3960799347
 40
0.5228749087
 40
0.6462107213
 40
0.7662293391
 40
0.8252860104
 40
0.8838241482
 40
0.9420057744
 40
1.0
 40
1.0
 40
1.0
 40
1.0
 10
5.8054429484
 20
-1.0386638194
 30
0.0
 10
5.8054429484
 20
-1.0314904864
 30
0.0
 10
5.8045192004
 20
-1.0207116167
 30
0.0
 10
5.8014987004
 20
-1.0067228127
 30
0.0
 10
5.798349135
 20
-0.9965432303
 30
0.0
 10
5.7943504764
 20
-0.9867749534
 30
0.0
 10
5.7879916434
 20
-0.9745025414
 30
0.0
 10
5.7781546125
 20
-0.9606000997
 30
0.0
 10
5.7636674423
 20
-0.9467778066
 30
0.0
 10
5.7497395536
 20
-0.9381387708
 30
0.0
 10
5.7379186944
 20
-0.9332442394
 30
0.0
 10
5.7288223155
 20
-0.9306134823
 30
0.0
 10
5.7195480723
 20
-0.9290215593
 30
0.0
 10
5.7132975286
 20
-0.9286638194
 30
0.0
 10
5.710180154
 20
-0.9286638194
 30
0.0
  0
SPLINE
  5
4A1
100
AcDbEntity
  8
0
100
AcDbSpline
 62
7
  6
CONTINUOUS
 70
0
 71
3
 72
9
 73
5
 74
0
 42
0.0000001
 43
0.0000001
 44
0.0000000001
 40
0.0
 40
0.0
 40
0.0
 40
0.0
 40
0.2452502026
 40
1.0
 40
1.0
 40
1.0
 40
1.0
 10
4.9324231022
 20
6.8363361806
 30
0.0
 10
4.9333161618
 20
6.8381222999
 30
0.0
 10
4.9370540587
 20
6.8453566455
 30
0.0
 10
4.9411670561
 20
6.8523960475
 30
0.0
 10
4.9444534877
 20
6.8575890102
 30
0.0
  0
SPLINE
  5
4A2
100
AcDbEntity
  8
0
100
AcDbSpline
 62
7
  6
CONTINUOUS
 70
0
 71
3
 72
19
 73
15
 74
0
 42
0.0000001
 43
0.0000001
 44
0.0000000001
 40
0.0
 40
0.0
 40
0.0
 40
0.0
 40
0.0579942256
 40
0.1161758518
 40
0.1747139896
 40
0.2337706609
 40
0.3537892787
 40
0.4771250913
 40
0.6039200653
 40
0.6685912054
 40
0.7339832243
 40
0.8000134382
 40
0.8665505606
 40
1.0
 40
1.0
 40
1.0
 40
1.0
 10
5.710180154
 20
1.5013361806
 30
0.0
 10
5.7132975286
 20
1.5013361806
 30
0.0
 10
5.7195480723
 20
1.5016939206
 30
0.0
 10
5.7288223155
 20
1.5032858436
 30
0.0
 10
5.7379186944
 20
1.5059166007
 30
0.0
 10
5.7497395536
 20
1.5108111321
 30
0.0
 10
5.7636674423
 20
1.5194501679
 30
0.0
 10
5.7781546125
 20
1.533272461
 30
0.0
 10
5.7879916434
 20
1.5471749027
 30
0.0
 10
5.7943504764
 20
1.5594473147
 30
0.0
 10
5.798349135
 20
1.5692155916
 30
0.0
 10
5.8014987004
 20
1.579395174
 30
0.0
 10
5.8045192004
 20
1.593383978
 30
0.0
 10
5.8054429484
 20
1.6041628477
 30
0.0
 10
5.8054429484
 20
1.6113361806
 30
0.0
  0
SPLINE
  5
4A3
100
AcDbEntity
  8
0
100
AcDbSpline
 62
7
  6
CONTINUOUS
 70
0
 71
3
 72
9
 73
5
 74
0
 42
0.0000001
 43
0.0000001
 44
0.0000000001
 40
0.0
 40
0.0
 40
0.0
 40
0.0
 40
0.4817521747
 40
1.0
 40
1.0
 40
1.0
 40
1.0
 10
5.0451409686
 20
-1.7709277924
 30
0.0
 10
5.0471952307
 20
-1.7677153344
 30
0.0
 10
5.0510686996
 20
-1.760793311
 30
0.0
 10
5.0542539821
 20
-1.7535349928
 30
0.0
 10
5.0557475703
 20
-1.7497145889
 30
0.0
  0
SPLINE
  5
4A4
100
AcDbEntity
  8
0
100
AcDbSpline
 62
7
  6
CONTINUOUS
 70
0
 71
3
 72
15
 73
11
 74
0
 42
0.0000001
 43
0.0000001
 44
0.0000000001
 40
0.0
 40
0.0
 40
0.0
 40
0.0
 40
0.1304925913
 40
0.2618749293
 40
0.3926731018
 40
0.5217126368
 40
0.6479227383
 40
0.7703140872
 40
0.8879724516
 40
1.0
 40
1.0
 40
1.0
 40
1.0
 10
5.0451409686
 20
-1.7709277924
 30
0.0
 10
5.0398845294
 20
-1.7690330107
 30
0.0
 10
5.0294778478
 20
-1.7648243499
 30
0.0
 10
5.0143837329
 20
-1.7573840329
 30
0.0
 10
4.9999375922
 20
-1.7488721508
 30
0.0
 10
4.9863528198
 20
-1.7394260737
 30
0.0
 10
4.9738245634
 20
-1.7291758891
 30
0.0
 10
4.9625281214
 20
-1.7182693744
 30
0.0
 10
4.9526435096
 20
-1.7068604693
 30
0.0
 10
4.9469305862
 20
-1.6988305195
 30
0.0
 10
4.9443677757
 20
-1.6947756514
 30
0.0
  0
SPLINE
  5
4A5
100
AcDbEntity
  8
0
100
AcDbSpline
 62
7
  6
CONTINUOUS
 70
0
 71
3
 72
9
 73
5
 74
0
 42
0.0000001
 43
0.0000001
 44
0.0000000001
 40
0.0
 40
0.0
 40
0.0
 40
0.0
 40
0.2452672528
 40
1.0
 40
1.0
 40
1.0
 40
1.0
 10
4.9324231022
 20
-1.6736638194
 30
0.0
 10
4.933310191
 20
-1.6754379968
 30
0.0
 10
4.9370221896
 20
-1.6826237998
 30
0.0
 10
4.9411053533
 20
-1.6896167851
 30
0.0
 10
4.9443677757
 20
-1.6947756514
 30
0.0
  0
SPLINE
  5
4A6
100
AcDbEntity
  8
0
100
AcDbSpline
 62
7
  6
CONTINUOUS
 70
0
 71
3
 72
19
 73
15
 74
0
 42
0.0000001
 43
0.0000001
 44
0.0000000001
 40
0.0
 40
0.0
 40
0.0
 40
0.0
 40
0.0579942256
 40
0.1161758518
 40
0.1747139896
 40
0.2337706609
 40
0.3537892787
 40
0.4771250913
 40
0.6039200653
 40
0.6685912054
 40
0.7339832243
 40
0.8000134382
 40
0.8665505606
 40
1.0
 40
1.0
 40
1.0
 40
1.0
 10
5.710180154
 20
-1.1486638194
 30
0.0
 10
5.7132975286
 20
-1.1486638194
 30
0.0
 10
5.7195480723
 20
-1.1483060794
 30
0.0
 10
5.7288223155
 20
-1.1467141564
 30
0.0
 10
5.7379186944
 20
-1.1440833993
 30
0.0
 10
5.7497395536
 20
-1.1391888679
 30
0.0
 10
5.7636674423
 20
-1.1305498321
 30
0.0
 10
5.7781546125
 20
-1.116727539
 30
0.0
 10
5.7879916434
 20
-1.1028250973
 30
0.0
 10
5.7943504764
 20
-1.0905526853
 30
0.0
 10
5.798349135
 20
-1.0807844084
 30
0.0
 10
5.8014987004
 20
-1.070604826
 30
0.0
 10
5.8045192004
 20
-1.056616022
 30
0.0
 10
5.8054429484
 20
-1.0458371523
 30
0.0
 10
5.8054429484
 20
-1.0386638194
 30
0.0
  0
SPLINE
  5
4A7
100
AcDbEntity
  8
0
100
AcDbSpline
 62
7
  6
CONTINUOUS
 70
0
 71
3
 72
29
 73
25
 74
0
 42
0.0000001
 43
0.0000001
 44
0.0000000001
 40
0.0
 40
0.0
 40
0.0
 40
0.0
 40
0.0579581517
 40
0.0872716806
 40
0.1168261292
 40
0.1768362181
 40
0.2385049461
 40
0.2700387917
 40
0.3019952353
 40
0.3669844192
 40
0.3999804314
 40
0.433208599
 40
0.5
 40
0.566791401
 40
0.6000195686
 40
0.6330155808
 40
0.6980047647
 40
0.7299612083
 40
0.7614950539
 40
0.8231637819
 40
0.8831738708
 40
0.9127283194
 40
0.9420418483
 40
1.0
 40
1.0
 40
1.0
 40
1.0
 10
5.710180154
 20
3.0813361806
 30
0.0
 10
5.7161267659
 20
3.0813361806
 30
0.0
 10
5.7251205088
 20
3.0802965413
 30
0.0
 10
5.7366524878
 20
3.0769651704
 30
0.0
 10
5.7479450525
 20
3.0722942261
 30
0.0
 10
5.761235327
 20
3.0640465261
 30
0.0
 10
5.772686713
 20
3.0531178333
 30
0.0
 10
5.7806218376
 20
3.0430005716
 30
0.0
 10
5.7877499577
 20
3.0318922594
 30
0.0
 10
5.7933601768
 20
3.0197035637
 30
0.0
 10
5.7973466387
 20
3.0068310464
 30
0.0
 10
5.8002351014
 20
2.9934767877
 30
0.0
 10
5.8016989482
 20
2.9763361806
 30
0.0
 10
5.8002351014
 20
2.9591955736
 30
0.0
 10
5.7973466387
 20
2.9458413149
 30
0.0
 10
5.7933601768
 20
2.9329687976
 30
0.0
 10
5.7877499577
 20
2.9207801019
 30
0.0
 10
5.7806218376
 20
2.9096717897
 30
0.0
 10
5.772686713
 20
2.899554528
 30
0.0
 10
5.761235327
 20
2.8886258352
 30
0.0
 10
5.7479450525
 20
2.8803781352
 30
0.0
 10
5.7366524878
 20
2.8757071908
 30
0.0
 10
5.7251205088
 20
2.87237582
 30
0.0
 10
5.7161267659
 20
2.8713361806
 30
0.0
 10
5.710180154
 20
2.8713361806
 30
0.0
  0
SPLINE
  5
4A8
100
AcDbEntity
  8
0
100
AcDbSpline
 62
7
  6
CONTINUOUS
 70
0
 71
3
 72
27
 73
23
 74
0
 42
0.0000001
 43
0.0000001
 44
0.0000000001
 40
0.0
 40
0.0
 40
0.0
 40
0.0
 40
0.0288924103
 40
0.0580400975
 40
0.1172227286
 40
0.1778273754
 40
0.2399447199
 40
0.3034948759
 40
0.3357577157
 40
0.3682862957
 40
0.4339185235
 40
0.5
 40
0.5660814765
 40
0.6317137043
 40
0.6642422843
 40
0.6965051241
 40
0.7600552801
 40
0.8221726246
 40
0.8827772714
 40
0.9419599025
 40
0.9711075897
 40
1.0
 40
1.0
 40
1.0
 40
1.0
 10
2.7792320855
 20
2.7263294973
 30
0.0
 10
2.7814229363
 20
2.7270761829
 30
0.0
 10
2.7857583118
 20
2.7287782874
 30
0.0
 10
2.7941615449
 20
2.7329933798
 30
0.0
 10
2.8040736103
 20
2.7397501616
 30
0.0
 10
2.8146292984
 20
2.7498894719
 30
0.0
 10
2.8236239687
 20
2.7618723619
 30
0.0
 10
2.8296312124
 20
2.7730632914
 30
0.0
 10
2.8334878402
 20
2.7826023183
 30
0.0
 10
2.8366948335
 20
2.7925547704
 30
0.0
 10
2.8393924666
 20
2.8054794772
 30
0.0
 10
2.8404897922
 20
2.8213361806
 30
0.0
 10
2.8393924666
 20
2.8371928841
 30
0.0
 10
2.8366948335
 20
2.8501175909
 30
0.0
 10
2.8334878402
 20
2.860070043
 30
0.0
 10
2.8296312124
 20
2.8696090699
 30
0.0
 10
2.8236239687
 20
2.8807999994
 30
0.0
 10
2.8146292984
 20
2.8927828894
 30
0.0
 10
2.8040736103
 20
2.9029221997
 30
0.0
 10
2.7941615449
 20
2.9096789815
 30
0.0
 10
2.7857583118
 20
2.9138940739
 30
0.0
 10
2.7814229363
 20
2.9155961784
 30
0.0
 10
2.7792320855
 20
2.916342864
 30
0.0
  0
SPLINE
  5
4A9
100
AcDbEntity
  8
0
100
AcDbSpline
 62
7
  6
CONTINUOUS
 70
0
 71
3
 72
27
 73
23
 74
0
 42
0.0000001
 43
0.0000001
 44
0.0000000001
 40
0.0
 40
0.0
 40
0.0
 40
0.0
 40
0.0288912984
 40
0.0580380031
 40
0.1172191253
 40
0.1778229427
 40
0.2399401579
 40
0.3034908235
 40
0.3357541227
 40
0.3682832773
 40
0.433916918
 40
0.5
 40
0.566083082
 40
0.6317167227
 40
0.6642458773
 40
0.6965091765
 40
0.7600598421
 40
0.8221770573
 40
0.8827808747
 40
0.9419619969
 40
0.9711087016
 40
1.0
 40
1.0
 40
1.0
 40
1.0
 10
2.7800897384
 20
0.0763294973
 30
0.0
 10
2.7822804344
 20
0.0770761844
 30
0.0
 10
2.7866155048
 20
0.0787782942
 30
0.0
 10
2.7950181492
 20
0.0829934015
 30
0.0
 10
2.8049295155
 20
0.0897502159
 30
0.0
 10
2.8154844179
 20
0.0998895369
 30
0.0
 10
2.8244784088
 20
0.111872427
 30
0.0
 10
2.8304851821
 20
0.1230633255
 30
0.0
 10
2.8343415143
 20
0.1326023308
 30
0.0
 10
2.8375482719
 20
0.1425547932
 30
0.0
 10
2.8402457007
 20
0.155479499
 30
0.0
 10
2.8413429419
 20
0.1713361806
 30
0.0
 10
2.8402457007
 20
0.1871928623
 30
0.0
 10
2.8375482719
 20
0.2001175681
 30
0.0
 10
2.8343415143
 20
0.2100700305
 30
0.0
 10
2.8304851821
 20
0.2196090358
 30
0.0
 10
2.8244784088
 20
0.2307999343
 30
0.0
 10
2.8154844179
 20
0.2427828244
 30
0.0
 10
2.8049295155
 20
0.2529221454
 30
0.0
 10
2.7950181492
 20
0.2596789598
 30
0.0
 10
2.7866155048
 20
0.2638940671
 30
0.0
 10
2.7822804344
 20
0.2655961769
 30
0.0
 10
2.7800897384
 20
0.266342864
 30
0.0
  0
SPLINE
  5
4AA
100
AcDbEntity
  8
0
100
AcDbSpline
 62
7
  6
CONTINUOUS
 70
0
 71
3
 72
25
 73
21
 74
0
 42
0.0000001
 43
0.0000001
 44
0.0000000001
 40
0.0
 40
0.0
 40
0.0
 40
0.0
 40
0.0585270245
 40
0.1182669356
 40
0.1486383008
 40
0.1793388266
 40
0.2416570547
 40
0.3051158847
 40
0.3695159361
 40
0.4345898974
 40
0.5
 40
0.5654101026
 40
0.6304840639
 40
0.6948841153
 40
0.7583429453
 40
0.8206611734
 40
0.8513616992
 40
0.8817330644
 40
0.9414729755
 40
1.0
 40
1.0
 40
1.0
 40
1.0
 10
2.7677787648
 20
0.0821119487
 30
0.0
 10
2.7713862336
 20
0.0841375663
 30
0.0
 10
2.7783667967
 20
0.0888044867
 30
0.0
 10
2.7861817264
 20
0.0958832149
 30
0.0
 10
2.7918747222
 20
0.1022573644
 30
0.0
 10
2.7972196203
 20
0.1091581552
 30
0.0
 10
2.8030872636
 20
0.1185761916
 30
0.0
 10
2.8086864391
 20
0.1308373758
 30
0.0
 10
2.8127494191
 20
0.1438938266
 30
0.0
 10
2.8152194334
 20
0.1574803628
 30
0.0
 10
2.8160583154
 20
0.1713361806
 30
0.0
 10
2.8152194334
 20
0.1851919985
 30
0.0
 10
2.8127494191
 20
0.1987785347
 30
0.0
 10
2.8086864391
 20
0.2118349854
 30
0.0
 10
2.8030872636
 20
0.2240961697
 30
0.0
 10
2.7972196203
 20
0.2335142061
 30
0.0
 10
2.7918747222
 20
0.2404149969
 30
0.0
 10
2.7861817264
 20
0.2467891464
 30
0.0
 10
2.7783667967
 20
0.2538678746
 30
0.0
 10
2.7713862336
 20
0.258534795
 30
0.0
 10
2.7677787648
 20
0.2605604126
 30
0.0
  0
SPLINE
  5
4AB
100
AcDbEntity
  8
0
100
AcDbSpline
 62
7
  6
CONTINUOUS
 70
0
 71
3
 72
25
 73
21
 74
0
 42
0.0000001
 43
0.0000001
 44
0.0000000001
 40
0.0
 40
0.0
 40
0.0
 40
0.0
 40
0.0585287332
 40
0.1182698078
 40
0.1486415414
 40
0.1793422941
 40
0.2416605741
 40
0.3051189806
 40
0.3695182234
 40
0.4345911094
 40
0.5
 40
0.5654088906
 40
0.6304817766
 40
0.6948810194
 40
0.7583394259
 40
0.8206577059
 40
0.8513584586
 40
0.8817301922
 40
0.9414712668
 40
1.0
 40
1.0
 40
1.0
 40
1.0
 10
2.766921582
 20
2.7321119487
 30
0.0
 10
2.7705292838
 20
2.734137557
 30
0.0
 10
2.7775102984
 20
2.7388044487
 30
0.0
 10
2.7853257949
 20
2.7458831883
 30
0.0
 10
2.7910192022
 20
2.7522573526
 30
0.0
 10
2.7963644628
 20
2.759158128
 30
0.0
 10
2.8022325124
 20
2.7685761472
 30
0.0
 10
2.8078320892
 20
2.7808373383
 30
0.0
 10
2.8118953618
 20
2.7938938
 30
0.0
 10
2.8143655541
 20
2.807480349
 30
0.0
 10
2.8152044968
 20
2.8213361806
 30
0.0
 10
2.8143655541
 20
2.8351920123
 30
0.0
 10
2.8118953618
 20
2.8487785613
 30
0.0
 10
2.8078320892
 20
2.861835023
 30
0.0
 10
2.8022325124
 20
2.8740962141
 30
0.0
 10
2.7963644628
 20
2.8835142333
 30
0.0
 10
2.7910192022
 20
2.8904150087
 30
0.0
 10
2.7853257949
 20
2.896789173
 30
0.0
 10
2.7775102984
 20
2.9038679125
 30
0.0
 10
2.7705292838
 20
2.9085348043
 30
0.0
 10
2.766921582
 20
2.9105604126
 30
0.0
  0
SPLINE
  5
4AC
100
AcDbEntity
  8
0
100
AcDbSpline
 62
7
  6
CONTINUOUS
 70
0
 71
3
 72
25
 73
21
 74
0
 42
0.0000001
 43
0.0000001
 44
0.0000000001
 40
0.0
 40
0.0
 40
0.0
 40
0.0
 40
0.0585325636
 40
0.1182762463
 40
0.1486488058
 40
0.1793500671
 40
0.2416684635
 40
0.3051259209
 40
0.3695233511
 40
0.4345938263
 40
0.5
 40
0.5654061737
 40
0.6304766489
 40
0.6948740791
 40
0.7583315365
 40
0.8206499329
 40
0.8513511942
 40
0.8817237537
 40
0.9414674364
 40
1.0
 40
1.0
 40
1.0
 40
1.0
 10
2.7649991599
 20
0.2605604126
 30
0.0
 10
2.7686073837
 20
0.2585348252
 30
0.0
 10
2.7755894105
 20
0.2538679976
 30
0.0
 10
2.7834061776
 20
0.2467892327
 30
0.0
 10
2.7891005074
 20
0.2404150352
 30
0.0
 10
2.7944465808
 20
0.2335142942
 30
0.0
 10
2.800315541
 20
0.2240963137
 30
0.0
 10
2.8059160176
 20
0.2118351073
 30
0.0
 10
2.809979946
 20
0.198778621
 30
0.0
 10
2.8124505377
 20
0.1851920434
 30
0.0
 10
2.8132896162
 20
0.1713361806
 30
0.0
 10
2.8124505377
 20
0.1574803179
 30
0.0
 10
2.809979946
 20
0.1438937403
 30
0.0
 10
2.8059160176
 20
0.130837254
 30
0.0
 10
2.800315541
 20
0.1185760476
 30
0.0
 10
2.7944465808
 20
0.1091580671
 30
0.0
 10
2.7891005074
 20
0.1022573261
 30
0.0
 10
2.7834061776
 20
0.0958831286
 30
0.0
 10
2.7755894105
 20
0.0888043637
 30
0.0
 10
2.7686073837
 20
0.0841375361
 30
0.0
 10
2.7649991599
 20
0.0821119487
 30
0.0
  0
SPLINE
  5
4AD
100
AcDbEntity
  8
0
100
AcDbSpline
 62
3
  6
CONTINUOUS
 70
0
 71
3
 72
9
 73
5
 74
0
 42
0.0000001
 43
0.0000001
 44
0.0000000001
 40
0.0
 40
0.0
 40
0.0
 40
0.0
 40
0.4982660464
 40
1.0
 40
1.0
 40
1.0
 40
1.0
 10
2.6154571939
 20
0.2703361806
 30
0.0
 10
2.6113625678
 20
0.2703361806
 30
0.0
 10
2.603131811
 20
0.2696579594
 30
0.0
 10
2.5951175829
 20
0.2676729507
 30
0.0
 10
2.5912050832
 20
0.2663719887
 30
0.0
  0
SPLINE
  5
4AE
100
AcDbEntity
  8
0
100
AcDbSpline
 62
3
  6
CONTINUOUS
 70
0
 71
3
 72
27
 73
23
 74
0
 42
0.0000001
 43
0.0000001
 44
0.0000000001
 40
0.0
 40
0.0
 40
0.0
 40
0.0
 40
0.0291814166
 40
0.0586039694
 40
0.1182548379
 40
0.1791612845
 40
0.2413705397
 40
0.3047950853
 40
0.3369195245
 40
0.369265002
 40
0.4344263796
 40
0.4999596384
 40
0.5654948103
 40
0.6306622503
 40
0.6630121416
 40
0.6951416537
 40
0.7585782298
 40
0.8208014055
 40
0.8817217533
 40
0.9413856382
 40
0.9708138638
 40
1.0
 40
1.0
 40
1.0
 40
1.0
 10
2.5912050832
 20
0.2663719887
 30
0.0
 10
2.5889675706
 20
0.2656279839
 30
0.0
 10
2.5845381503
 20
0.2639316057
 30
0.0
 10
2.575945168
 20
0.2597292791
 30
0.0
 10
2.5657945903
 20
0.2529925502
 30
0.0
 10
2.5549531588
 20
0.2428702624
 30
0.0
 10
2.5456933563
 20
0.2308987641
 30
0.0
 10
2.5394914605
 20
0.2197032163
 30
0.0
 10
2.5355069811
 20
0.2101592273
 30
0.0
 10
2.5321949266
 20
0.2002131133
 30
0.0
 10
2.5294014913
 20
0.1872891177
 30
0.0
 10
2.5282554528
 20
0.1714220654
 30
0.0
 10
2.5293772671
 20
0.155552772
 30
0.0
 10
2.5321512644
 20
0.1426235895
 30
0.0
 10
2.5354479615
 20
0.132671062
 30
0.0
 10
2.5394178639
 20
0.1231191114
 30
0.0
 10
2.5456030241
 20
0.1119114791
 30
0.0
 10
2.5548444078
 20
0.099921766
 30
0.0
 10
2.5656704255
 20
0.0897781889
 30
0.0
 10
2.5758109128
 20
0.0830216386
 30
0.0
 10
2.5843975396
 20
0.0788020725
 30
0.0
 10
2.5888244805
 20
0.077096893
 30
0.0
 10
2.5910609191
 20
0.0763484633
 30
0.0
  0
SPLINE
  5
4AF
100
AcDbEntity
  8
0
100
AcDbSpline
 62
3
  6
CONTINUOUS
 70
0
 71
3
 72
9
 73
5
 74
0
 42
0.0000001
 43
0.0000001
 44
0.0000000001
 40
0.0
 40
0.0
 40
0.0
 40
0.0
 40
0.5017526717
 40
1.0
 40
1.0
 40
1.0
 40
1.0
 10
2.5910609191
 20
0.0763484633
 30
0.0
 10
2.5949950814
 20
0.0750318861
 30
0.0
 10
2.6030560738
 20
0.0730227638
 30
0.0
 10
2.6113375617
 20
0.0723361806
 30
0.0
 10
2.6154571939
 20
0.0723361806
 30
0.0
  0
SPLINE
  5
4B0
100
AcDbEntity
  8
0
100
AcDbSpline
 62
3
  6
CONTINUOUS
 70
0
 71
3
 72
9
 73
5
 74
0
 42
0.0000001
 43
0.0000001
 44
0.0000000001
 40
0.0
 40
0.0
 40
0.0
 40
0.0
 40
0.4982648718
 40
1.0
 40
1.0
 40
1.0
 40
1.0
 10
2.6163312172
 20
2.9203361806
 30
0.0
 10
2.6122365458
 20
2.9203361806
 30
0.0
 10
2.6040056748
 20
2.9196578484
 30
0.0
 10
2.595991399
 20
2.9176725274
 30
0.0
 10
2.5920788966
 20
2.9163713676
 30
0.0
  0
SPLINE
  5
4B1
100
AcDbEntity
  8
0
100
AcDbSpline
 62
3
  6
CONTINUOUS
 70
0
 71
3
 72
27
 73
23
 74
0
 42
0.0000001
 43
0.0000001
 44
0.0000000001
 40
0.0
 40
0.0
 40
0.0
 40
0.0
 40
0.0291804079
 40
0.0586020864
 40
0.1182516532
 40
0.1791574365
 40
0.2413666729
 40
0.3047917688
 40
0.3369166623
 40
0.3692626944
 40
0.4344254033
 40
0.4999601412
 40
0.5654967685
 40
0.630665464
 40
0.6630158548
 40
0.695145758
 40
0.7585827343
 40
0.8208057176
 40
0.8817252291
 40
0.9413876504
 40
0.9708149311
 40
1.0
 40
1.0
 40
1.0
 40
1.0
 10
2.5920788966
 20
2.9163713676
 30
0.0
 10
2.5898415654
 20
2.9156273105
 30
0.0
 10
2.5854125063
 20
2.9139308301
 30
0.0
 10
2.5768202374
 20
2.9097283138
 30
0.0
 10
2.5666705287
 20
2.9029913818
 30
0.0
 10
2.5558301002
 20
2.8928689403
 30
0.0
 10
2.546571202
 20
2.8808973621
 30
0.0
 10
2.5403699562
 20
2.8697018284
 30
0.0
 10
2.5363859145
 20
2.8601578731
 30
0.0
 10
2.5330742357
 20
2.8502117829
 30
0.0
 10
2.5302811648
 20
2.8372878614
 30
0.0
 10
2.5291353822
 20
2.8214209528
 30
0.0
 10
2.5302572562
 20
2.8055518323
 30
0.0
 10
2.5330311424
 20
2.7926227912
 30
0.0
 10
2.5363276638
 20
2.7826703707
 30
0.0
 10
2.5402973185
 20
2.7731185571
 30
0.0
 10
2.5464820466
 20
2.7619110956
 30
0.0
 10
2.5557227658
 20
2.749921539
 30
0.0
 10
2.5665479811
 20
2.7397780843
 30
0.0
 10
2.5766877308
 20
2.733021588
 30
0.0
 10
2.5852737269
 20
2.7288020556
 30
0.0
 10
2.5897003387
 20
2.7270968879
 30
0.0
 10
2.5919366099
 20
2.7263484633
 30
0.0
  0
SPLINE
  5
4B2
100
AcDbEntity
  8
0
100
AcDbSpline
 62
3
  6
CONTINUOUS
 70
0
 71
3
 72
9
 73
5
 74
0
 42
0.0000001
 43
0.0000001
 44
0.0000000001
 40
0.0
 40
0.0
 40
0.0
 40
0.0
 40
0.5017536149
 40
1.0
 40
1.0
 40
1.0
 40
1.0
 10
2.5919366099
 20
2.7263484633
 30
0.0
 10
2.5958704925
 20
2.7250318901
 30
0.0
 10
2.6039309233
 20
2.7230227669
 30
0.0
 10
2.6122118653
 20
2.7223361806
 30
0.0
 10
2.6163312172
 20
2.7223361806
 30
0.0
  0
SPLINE
  5
4B3
100
AcDbEntity
  8
0
100
AcDbSpline
 62
3
  6
CONTINUOUS
 70
0
 71
3
 72
57
 73
53
 74
0
 42
0.0000001
 43
0.0000001
 44
0.0000000001
 40
0.0
 40
0.0
 40
0.0
 40
0.0
 40
0.0002094611
 40
0.000688419
 40
0.0014610277
 40
0.0025305195
 40
0.0038970649
 40
0.0055599596
 40
0.0075181566
 40
0.0097704478
 40
0.0151520638
 40
0.0216939984
 40
0.029385044
 40
0.0382138304
 40
0.0481653255
 40
0.0592101438
 40
0.0713152936
 40
0.0844477641
 40
0.1136625558
 40
0.1465902778
 40
0.1829447426
 40
0.2223522312
 40
0.2644171345
 40
0.3087438499
 40
0.3549249652
 40
0.4025057499
 40
0.5
 40
0.5974942501
 40
0.6450750348
 40
0.6912561501
 40
0.7355828655
 40
0.7776477688
 40
0.8170552574
 40
0.8534097222
 40
0.8863374442
 40
0.9155522359
 40
0.9286847064
 40
0.9407898562
 40
0.9518346745
 40
0.9617861696
 40
0.970614956
 40
0.9783060016
 40
0.9848479362
 40
0.9902295522
 40
0.9924818434
 40
0.9944400404
 40
0.9961029351
 40
0.9974694805
 40
0.9985389723
 40
0.999311581
 40
0.9997905389
 40
1.0
 40
1.0
 40
1.0
 40
1.0
 10
-10.3342412999
 20
0.0723361806
 30
0.0
 10
-10.3342274691
 20
0.0723361806
 30
0.0
 10
-10.3342009098
 20
0.0723874921
 30
0.0
 10
-10.3341787658
 20
0.0724718892
 30
0.0
 10
-10.3341485701
 20
0.0726273108
 30
0.0
 10
-10.334119976
 20
0.0728351223
 30
0.0
 10
-10.3340891859
 20
0.0731048645
 30
0.0
 10
-10.3340580998
 20
0.0734324476
 30
0.0
 10
-10.3340261839
 20
0.0738190608
 30
0.0
 10
-10.3339801424
 20
0.0744507203
 30
0.0
 10
-10.3339226619
 20
0.0753850415
 30
0.0
 10
-10.3338550494
 20
0.0766784342
 30
0.0
 10
-10.3337857816
 20
0.0781996485
 30
0.0
 10
-10.3337151493
 20
0.079946137
 30
0.0
 10
-10.3336435015
 20
0.081914201
 30
0.0
 10
-10.3335711739
 20
0.0840987095
 30
0.0
 10
-10.3334985494
 20
0.0864933546
 30
0.0
 10
-10.3333982319
 20
0.0900874716
 30
0.0
 10
-10.3332758583
 20
0.0950564153
 30
0.0
 10
-10.3331383768
 20
0.1015587663
 30
0.0
 10
-10.333008701
 20
0.1087344262
 30
0.0
 10
-10.3328893061
 20
0.1165136717
 30
0.0
 10
-10.3327828853
 20
0.1248195623
 30
0.0
 10
-10.3326921249
 20
0.1335729293
 30
0.0
 10
-10.3326196801
 20
0.1426906952
 30
0.0
 10
-10.3325483183
 20
0.1553192198
 30
0.0
 10
-10.3325116202
 20
0.1713361806
 30
0.0
 10
-10.3325483183
 20
0.1873531414
 30
0.0
 10
-10.3326196801
 20
0.1999816661
 30
0.0
 10
-10.3326921249
 20
0.209099432
 30
0.0
 10
-10.3327828853
 20
0.217852799
 30
0.0
 10
-10.3328893061
 20
0.2261586896
 30
0.0
 10
-10.333008701
 20
0.2339379351
 30
0.0
 10
-10.3331383768
 20
0.241113595
 30
0.0
 10
-10.3332758583
 20
0.247615946
 30
0.0
 10
-10.3333982319
 20
0.2525848897
 30
0.0
 10
-10.3334985494
 20
0.2561790067
 30
0.0
 10
-10.3335711739
 20
0.2585736518
 30
0.0
 10
-10.3336435015
 20
0.2607581603
 30
0.0
 10
-10.3337151493
 20
0.2627262243
 30
0.0
 10
-10.3337857816
 20
0.2644727128
 30
0.0
 10
-10.3338550494
 20
0.2659939271
 30
0.0
 10
-10.3339226619
 20
0.2672873198
 30
0.0
 10
-10.3339801424
 20
0.268221641
 30
0.0
 10
-10.3340261839
 20
0.2688533005
 30
0.0
 10
-10.3340580998
 20
0.2692399137
 30
0.0
 10
-10.3340891859
 20
0.2695674968
 30
0.0
 10
-10.334119976
 20
0.269837239
 30
0.0
 10
-10.3341485701
 20
0.2700450505
 30
0.0
 10
-10.3341787658
 20
0.2702004721
 30
0.0
 10
-10.3342009098
 20
0.2702848692
 30
0.0
 10
-10.3342274691
 20
0.2703361806
 30
0.0
 10
-10.3342412999
 20
0.2703361806
 30
0.0
  0
SPLINE
  5
4B4
100
AcDbEntity
  8
0
100
AcDbSpline
 62
3
  6
CONTINUOUS
 70
0
 71
3
 72
57
 73
53
 74
0
 42
0.0000001
 43
0.0000001
 44
0.0000000001
 40
0.0
 40
0.0
 40
0.0
 40
0.0
 40
0.0002084884
 40
0.0006870144
 40
0.0014593533
 40
0.00252865
 40
0.0038950439
 40
0.005557816
 40
0.0075159114
 40
0.0097681172
 40
0.0151495996
 40
0.021691438
 40
0.0293824168
 40
0.0382111608
 40
0.0481626344
 40
0.05920745
 40
0.071312614
 40
0.0844451142
 40
0.1136600081
 40
0.1465878834
 40
0.1829425469
 40
0.2223502738
 40
0.2644154495
 40
0.3087424663
 40
0.3549239067
 40
0.4025050341
 40
0.5
 40
0.5974949659
 40
0.6450760933
 40
0.6912575337
 40
0.7355845505
 40
0.7776497262
 40
0.8170574531
 40
0.8534121166
 40
0.8863399919
 40
0.9155548858
 40
0.928687386
 40
0.94079255
 40
0.9518373656
 40
0.9617888392
 40
0.9706175832
 40
0.978308562
 40
0.9848504004
 40
0.9902318828
 40
0.9924840886
 40
0.994442184
 40
0.9961049561
 40
0.99747135
 40
0.9985406467
 40
0.9993129856
 40
0.9997915116
 40
1.0
 40
1.0
 40
1.0
 40
1.0
 10
-10.3342528252
 20
2.7223361806
 30
0.0
 10
-10.3342390587
 20
2.7223361806
 30
0.0
 10
-10.3342128372
 20
2.7223876632
 30
0.0
 10
-10.3341908828
 20
2.722471854
 30
0.0
 10
-10.3341609929
 20
2.7226273528
 30
0.0
 10
-10.3341326541
 20
2.722835119
 30
0.0
 10
-10.3341021444
 20
2.723104874
 30
0.0
 10
-10.334071331
 20
2.7234324499
 30
0.0
 10
-10.334039691
 20
2.7238190641
 30
0.0
 10
-10.3339940386
 20
2.724450725
 30
0.0
 10
-10.3339370291
 20
2.7253850473
 30
0.0
 10
-10.3338699509
 20
2.7266784383
 30
0.0
 10
-10.3338012116
 20
2.7281996516
 30
0.0
 10
-10.3337310999
 20
2.7299461395
 30
0.0
 10
-10.3336599626
 20
2.7319142029
 30
0.0
 10
-10.3335881347
 20
2.7340987111
 30
0.0
 10
-10.3335159974
 20
2.736493356
 30
0.0
 10
-10.3334163348
 20
2.7400874743
 30
0.0
 10
-10.3332947281
 20
2.7450564188
 30
0.0
 10
-10.3331580707
 20
2.751558769
 30
0.0
 10
-10.3330291414
 20
2.7587344284
 30
0.0
 10
-10.3329104101
 20
2.7665136735
 30
0.0
 10
-10.3328045631
 20
2.7748195637
 30
0.0
 10
-10.3327142806
 20
2.7835729304
 30
0.0
 10
-10.3326422113
 20
2.792690696
 30
0.0
 10
-10.3325712136
 20
2.8053192209
 30
0.0
 10
-10.3325346964
 20
2.8213361806
 30
0.0
 10
-10.3325712136
 20
2.8373531404
 30
0.0
 10
-10.3326422113
 20
2.8499816653
 30
0.0
 10
-10.3327142806
 20
2.8590994309
 30
0.0
 10
-10.3328045631
 20
2.8678527976
 30
0.0
 10
-10.3329104101
 20
2.8761586878
 30
0.0
 10
-10.3330291414
 20
2.8839379329
 30
0.0
 10
-10.3331580707
 20
2.8911135923
 30
0.0
 10
-10.3332947281
 20
2.8976159425
 30
0.0
 10
-10.3334163348
 20
2.902584887
 30
0.0
 10
-10.3335159974
 20
2.9061790053
 30
0.0
 10
-10.3335881347
 20
2.9085736502
 30
0.0
 10
-10.3336599626
 20
2.9107581584
 30
0.0
 10
-10.3337310999
 20
2.9127262218
 30
0.0
 10
-10.3338012116
 20
2.9144727097
 30
0.0
 10
-10.3338699509
 20
2.915993923
 30
0.0
 10
-10.3339370291
 20
2.917287314
 30
0.0
 10
-10.3339940386
 20
2.9182216363
 30
0.0
 10
-10.334039691
 20
2.9188532972
 30
0.0
 10
-10.334071331
 20
2.9192399114
 30
0.0
 10
-10.3341021444
 20
2.9195674873
 30
0.0
 10
-10.3341326541
 20
2.9198372423
 30
0.0
 10
-10.3341609929
 20
2.9200450085
 30
0.0
 10
-10.3341908828
 20
2.9202005073
 30
0.0
 10
-10.3342128372
 20
2.9202846981
 30
0.0
 10
-10.3342390587
 20
2.9203361806
 30
0.0
 10
-10.3342528252
 20
2.9203361806
 30
0.0
  0
SPLINE
  5
4B5
100
AcDbEntity
  8
0
100
AcDbSpline
 62
3
  6
CONTINUOUS
 70
0
 71
3
 72
27
 73
23
 74
0
 42
0.0000001
 43
0.0000001
 44
0.0000000001
 40
0.0
 40
0.0
 40
0.0
 40
0.0
 40
0.0289720547
 40
0.0581978831
 40
0.1175160928
 40
0.1782084194
 40
0.2403551327
 40
0.3038708993
 40
0.3360945857
 40
0.3685717641
 40
0.4340724124
 40
0.5
 40
0.5659275876
 40
0.6314282359
 40
0.6639054143
 40
0.6961291007
 40
0.7596448673
 40
0.8217915806
 40
0.8824839072
 40
0.9418021169
 40
0.9710279453
 40
1.0
 40
1.0
 40
1.0
 40
1.0
 10
2.7734351306
 20
0.0767413532
 30
0.0
 10
2.7756011291
 20
0.0775160322
 30
0.0
 10
2.7798848398
 20
0.0792689494
 30
0.0
 10
2.7881793296
 20
0.0835640034
 30
0.0
 10
2.797951966
 20
0.0903738225
 30
0.0
 10
2.8083483043
 20
0.1005174232
 30
0.0
 10
2.8171985056
 20
0.112448299
 30
0.0
 10
2.8231080643
 20
0.1235583853
 30
0.0
 10
2.826899243
 20
0.1330144398
 30
0.0
 10
2.8300498123
 20
0.1428687645
 30
0.0
 10
2.8327004088
 20
0.1556553571
 30
0.0
 10
2.8337784988
 20
0.1713361806
 30
0.0
 10
2.8327004088
 20
0.1870170042
 30
0.0
 10
2.8300498123
 20
0.1998035968
 30
0.0
 10
2.826899243
 20
0.2096579215
 30
0.0
 10
2.8231080643
 20
0.219113976
 30
0.0
 10
2.8171985056
 20
0.2302240623
 30
0.0
 10
2.8083483043
 20
0.2421549381
 30
0.0
 10
2.797951966
 20
0.2522985388
 30
0.0
 10
2.7881793296
 20
0.2591083579
 30
0.0
 10
2.7798848398
 20
0.2634034119
 30
0.0
 10
2.7756011291
 20
0.2651563291
 30
0.0
 10
2.7734351306
 20
0.2659310081
 30
0.0
  0
SPLINE
  5
4B6
100
AcDbEntity
  8
0
100
AcDbSpline
 62
3
  6
CONTINUOUS
 70
0
 71
3
 72
27
 73
23
 74
0
 42
0.0000001
 43
0.0000001
 44
0.0000000001
 40
0.0
 40
0.0
 40
0.0
 40
0.0
 40
0.0289730992
 40
0.058199848
 40
0.1175194664
 40
0.178212563
 40
0.2403593925
 40
0.3038746804
 40
0.3360979372
 40
0.3685745791
 40
0.4340739093
 40
0.5
 40
0.5659260907
 40
0.6314254209
 40
0.6639020628
 40
0.6961253196
 40
0.7596406075
 40
0.821787437
 40
0.8824805336
 40
0.941800152
 40
0.9710269008
 40
1.0
 40
1.0
 40
1.0
 40
1.0
 10
2.772573759
 20
2.7267413532
 30
0.0
 10
2.7747399023
 20
2.7275160306
 30
0.0
 10
2.7790238984
 20
2.7292689428
 30
0.0
 10
2.7873189387
 20
2.7335639827
 30
0.0
 10
2.7970922279
 20
2.7403737715
 30
0.0
 10
2.8074892986
 20
2.7505173627
 30
0.0
 10
2.8163401322
 20
2.7624482388
 30
0.0
 10
2.8222501281
 20
2.7735583538
 30
0.0
 10
2.8260415816
 20
2.7830144282
 30
0.0
 10
2.8291923697
 20
2.7928687434
 30
0.0
 10
2.831843156
 20
2.805655337
 30
0.0
 10
2.8329213244
 20
2.8213361806
 30
0.0
 10
2.831843156
 20
2.8370170243
 30
0.0
 10
2.8291923697
 20
2.8498036179
 30
0.0
 10
2.8260415816
 20
2.8596579331
 30
0.0
 10
2.8222501281
 20
2.8691140075
 30
0.0
 10
2.8163401322
 20
2.8802241225
 30
0.0
 10
2.8074892986
 20
2.8921549985
 30
0.0
 10
2.7970922279
 20
2.9022985898
 30
0.0
 10
2.7873189387
 20
2.9091083786
 30
0.0
 10
2.7790238984
 20
2.9134034185
 30
0.0
 10
2.7747399023
 20
2.9151563307
 30
0.0
 10
2.772573759
 20
2.9159310081
 30
0.0
  0
SPLINE
  5
4B7
100
AcDbEntity
  8
0
100
AcDbSpline
 62
3
  6
CONTINUOUS
 70
0
 71
3
 72
27
 73
23
 74
0
 42
0.0000001
 43
0.0000001
 44
0.0000000001
 40
0.0
 40
0.0
 40
0.0
 40
0.0
 40
0.0289762996
 40
0.0580295154
 40
0.0872487039
 40
0.1167165054
 40
0.1766153882
 40
0.2382092968
 40
0.3016275028
 40
0.3666943739
 40
0.4330138693
 40
0.5
 40
0.5669861307
 40
0.6333056261
 40
0.6983724972
 40
0.7617907032
 40
0.8233846118
 40
0.8832834946
 40
0.9127512961
 40
0.9419704846
 40
0.9710237004
 40
1.0
 40
1.0
 40
1.0
 40
1.0
 10
2.7735285153
 20
0.0723361806
 30
0.0
 10
2.7763231852
 20
0.0723361806
 30
0.0
 10
2.7819251134
 20
0.0726593164
 30
0.0
 10
2.7902336167
 20
0.0740947996
 30
0.0
 10
2.7983768269
 20
0.0764628048
 30
0.0
 10
2.8089575259
 20
0.0808585836
 30
0.0
 10
2.821397143
 20
0.0886536182
 30
0.0
 10
2.8343496088
 20
0.1010813231
 30
0.0
 10
2.844913917
 20
0.1161982247
 30
0.0
 10
2.8527619479
 20
0.1333784714
 30
0.0
 10
2.8575593853
 20
0.1519970159
 30
0.0
 10
2.8591985679
 20
0.1713361806
 30
0.0
 10
2.8575593853
 20
0.1906753454
 30
0.0
 10
2.8527619479
 20
0.2092938899
 30
0.0
 10
2.844913917
 20
0.2264741366
 30
0.0
 10
2.8343496088
 20
0.2415910382
 30
0.0
 10
2.821397143
 20
0.2540187431
 30
0.0
 10
2.8089575259
 20
0.2618137777
 30
0.0
 10
2.7983768269
 20
0.2662095565
 30
0.0
 10
2.7902336167
 20
0.2685775617
 30
0.0
 10
2.7819251134
 20
0.2700130449
 30
0.0
 10
2.7763231852
 20
0.2703361806
 30
0.0
 10
2.7735285153
 20
0.2703361806
 30
0.0
  0
SPLINE
  5
4B8
100
AcDbEntity
  8
0
100
AcDbSpline
 62
3
  6
CONTINUOUS
 70
0
 71
3
 72
27
 73
23
 74
0
 42
0.0000001
 43
0.0000001
 44
0.0000000001
 40
0.0
 40
0.0
 40
0.0
 40
0.0
 40
0.0289774503
 40
0.0580317717
 40
0.0872519734
 40
0.116720653
 40
0.1766207566
 40
0.2382150391
 40
0.3016327418
 40
0.3666983433
 40
0.4330160023
 40
0.5
 40
0.5669839977
 40
0.6333016567
 40
0.6983672582
 40
0.7617849609
 40
0.8233792434
 40
0.883279347
 40
0.9127480266
 40
0.9419682283
 40
0.9710225497
 40
1.0
 40
1.0
 40
1.0
 40
1.0
 10
2.7726655613
 20
2.7223361806
 30
0.0
 10
2.7754604327
 20
2.7223361806
 30
0.0
 10
2.7810627593
 20
2.7226593158
 30
0.0
 10
2.7893718583
 20
2.7240947965
 30
0.0
 10
2.7975156548
 20
2.7264627981
 30
0.0
 10
2.8080970866
 20
2.730858557
 30
0.0
 10
2.8205375707
 20
2.7386535394
 30
0.0
 10
2.8334910073
 20
2.7510812247
 30
0.0
 10
2.8440561254
 20
2.7661981298
 30
0.0
 10
2.8519047652
 20
2.783378397
 30
0.0
 10
2.8567025778
 20
2.801996976
 30
0.0
 10
2.858341889
 20
2.8213361806
 30
0.0
 10
2.8567025778
 20
2.8406753853
 30
0.0
 10
2.8519047652
 20
2.8592939643
 30
0.0
 10
2.8440561254
 20
2.8764742315
 30
0.0
 10
2.8334910073
 20
2.8915911366
 30
0.0
 10
2.8205375707
 20
2.9040188219
 30
0.0
 10
2.8080970866
 20
2.9118138043
 30
0.0
 10
2.7975156548
 20
2.9162095632
 30
0.0
 10
2.7893718583
 20
2.9185775648
 30
0.0
 10
2.7810627593
 20
2.9200130455
 30
0.0
 10
2.7754604327
 20
2.9203361806
 30
0.0
 10
2.7726655613
 20
2.9203361806
 30
0.0
  0
SPLINE
  5
4B9
100
AcDbEntity
  8
0
100
AcDbSpline
 62
7
  6
CONTINUOUS
 70
0
 71
3
 72
28
 73
24
 74
0
 42
0.0000001
 43
0.0000001
 44
0.0000000001
 40
0.0
 40
0.0
 40
0.0
 40
0.0
 40
0.0202877696
 40
0.0407212365
 40
0.0614410531
 40
0.0825803778
 40
0.1265503263
 40
0.1734715902
 40
0.1982361688
 40
0.2239263189
 40
0.2781916848
 40
0.3068187944
 40
0.3364387145
 40
0.3670446691
 40
0.398618862
 40
0.4645534343
 40
0.5339885155
 40
0.6065660192
 40
0.6818598826
 40
0.7593796862
 40
0.8386186356
 40
0.9190461709
 40
1.0
 40
1.0
 40
1.0
 40
1.0
 10
47.5796531264
 20
4.9263361806
 30
0.0
 10
47.5788752866
 20
4.9263361806
 30
0.0
 10
47.5773129479
 20
4.9264133264
 30
0.0
 10
47.5749792674
 20
4.9267589679
 30
0.0
 10
47.5726573102
 20
4.9273334929
 30
0.0
 10
47.569545741
 20
4.9284167712
 30
0.0
 10
47.5656952378
 20
4.9303694411
 30
0.0
 10
47.5620895867
 20
4.932978037
 30
0.0
 10
47.5592975087
 20
4.9354595778
 30
0.0
 10
47.5564693953
 20
4.9383127912
 30
0.0
 10
47.5538090992
 20
4.9415279496
 30
0.0
 10
47.5513142684
 20
4.9450483062
 30
0.0
 10
47.5494778058
 20
4.9479191745
 30
0.0
 10
47.5477144164
 20
4.950966453
 30
0.0
 10
47.5454329128
 20
4.9553177576
 30
0.0
 10
47.5427999532
 20
4.9611589807
 30
0.0
 10
47.5400381559
 20
4.9686441145
 30
0.0
 10
47.5376545961
 20
4.9766329352
 30
0.0
 10
47.5356728238
 20
4.9850489334
 30
0.0
 10
47.5341110569
 20
4.993812049
 30
0.0
 10
47.532984453
 20
5.0028398606
 30
0.0
 10
47.532305026
 20
5.0120438997
 30
0.0
 10
47.5321531264
 20
5.0182323838
 30
0.0
 10
47.5321531264
 20
5.0213361806
 30
0.0
  0
SPLINE
  5
4BA
100
AcDbEntity
  8
0
100
AcDbSpline
 62
7
  6
CONTINUOUS
 70
0
 71
3
 72
28
 73
24
 74
0
 42
0.0000001
 43
0.0000001
 44
0.0000000001
 40
0.0
 40
0.0
 40
0.0
 40
0.0
 40
0.0202877696
 40
0.0407212365
 40
0.0614410531
 40
0.0825803778
 40
0.1265503263
 40
0.1734715902
 40
0.1982361688
 40
0.2239263189
 40
0.2781916848
 40
0.3068187944
 40
0.3364387145
 40
0.3670446691
 40
0.398618862
 40
0.4645534343
 40
0.5339885155
 40
0.6065660192
 40
0.6818598826
 40
0.7593796862
 40
0.8386186356
 40
0.9190461709
 40
1.0
 40
1.0
 40
1.0
 40
1.0
 10
47.5796531264
 20
5.1163361806
 30
0.0
 10
47.5788752866
 20
5.1163361806
 30
0.0
 10
47.5773129479
 20
5.1162590349
 30
0.0
 10
47.5749792674
 20
5.1159133934
 30
0.0
 10
47.5726573102
 20
5.1153388684
 30
0.0
 10
47.569545741
 20
5.1142555901
 30
0.0
 10
47.5656952378
 20
5.1123029202
 30
0.0
 10
47.5620895867
 20
5.1096943243
 30
0.0
 10
47.5592975087
 20
5.1072127835
 30
0.0
 10
47.5564693953
 20
5.1043595701
 30
0.0
 10
47.5538090992
 20
5.1011444117
 30
0.0
 10
47.5513142684
 20
5.0976240551
 30
0.0
 10
47.5494778058
 20
5.0947531868
 30
0.0
 10
47.5477144164
 20
5.0917059083
 30
0.0
 10
47.5454329128
 20
5.0873546037
 30
0.0
 10
47.5427999532
 20
5.0815133806
 30
0.0
 10
47.5400381559
 20
5.0740282468
 30
0.0
 10
47.5376545961
 20
5.0660394261
 30
0.0
 10
47.5356728238
 20
5.0576234279
 30
0.0
 10
47.5341110569
 20
5.0488603123
 30
0.0
 10
47.532984453
 20
5.0398325007
 30
0.0
 10
47.532305026
 20
5.0306284616
 30
0.0
 10
47.5321531264
 20
5.0244399775
 30
0.0
 10
47.5321531264
 20
5.0213361806
 30
0.0
  0
SPLINE
  5
4BB
100
AcDbEntity
  8
0
100
AcDbSpline
 62
7
  6
CONTINUOUS
 70
0
 71
3
 72
38
 73
34
 74
0
 42
0.0000001
 43
0.0000001
 44
0.0000000001
 40
0.0
 40
0.0
 40
0.0
 40
0.0
 40
0.0371780679
 40
0.0730019723
 40
0.1074514559
 40
0.1405205382
 40
0.1722226225
 40
0.2025931633
 40
0.231688707
 40
0.2595944
 40
0.2864211026
 40
0.3123094696
 40
0.3374293096
 40
0.3619756959
 40
0.3861666379
 40
0.4102336382
 40
0.4344139147
 40
0.45893941
 40
0.484028944
 40
0.5098787445
 40
0.5366597783
 40
0.5645141477
 40
0.5935538986
 40
0.6238654325
 40
0.6555064661
 40
0.6885133203
 40
0.7229004751
 40
0.7586626027
 40
0.7957802083
 40
0.8342161899
 40
0.8739227655
 40
0.9148398186
 40
1.0
 40
1.0
 40
1.0
 40
1.0
 10
48.0982888645
 20
4.8821816625
 30
0.0
 10
48.0969812287
 20
4.8796142667
 30
0.0
 10
48.0942984526
 20
4.8746304054
 30
0.0
 10
48.0899890089
 20
4.8675008015
 30
0.0
 10
48.0854819557
 20
4.8608754799
 30
0.0
 10
48.0807913926
 20
4.8547764783
 30
0.0
 10
48.0759319935
 20
4.8492239751
 30
0.0
 10
48.0709198998
 20
4.844235581
 30
0.0
 10
48.0657697898
 20
4.8398289311
 30
0.0
 10
48.0604987429
 20
4.8360180798
 30
0.0
 10
48.0551228368
 20
4.8328168761
 30
0.0
 10
48.0496591918
 20
4.8302374292
 30
0.0
 10
48.0441261185
 20
4.8282887099
 30
0.0
 10
48.0385418313
 20
4.8269805114
 30
0.0
 10
48.0329264935
 20
4.82631707
 30
0.0
 10
48.0273002453
 20
4.8263023806
 30
0.0
 10
48.0216839763
 20
4.8269366178
 30
0.0
 10
48.016097848
 20
4.8282157469
 30
0.0
 10
48.0105620525
 20
4.8301357248
 30
0.0
 10
48.0050948875
 20
4.8326868846
 30
0.0
 10
47.9997146215
 20
4.8358602171
 30
0.0
 10
47.9944385065
 20
4.8396438444
 30
0.0
 10
47.9892825531
 20
4.8440238566
 30
0.0
 10
47.9842639012
 20
4.8489863435
 30
0.0
 10
47.9793972735
 20
4.8545137411
 30
0.0
 10
47.9746987325
 20
4.8605884698
 30
0.0
 10
47.970183123
 20
4.867190459
 30
0.0
 10
47.9658643548
 20
4.874297877
 30
0.0
 10
47.9617573267
 20
4.881888035
 30
0.0
 10
47.9578742894
 20
4.8899355743
 30
0.0
 10
47.9542284984
 20
4.8984147533
 30
0.0
 10
47.9496387586
 20
4.9104175828
 30
0.0
 10
47.946684367
 20
4.9197432361
 30
0.0
 10
47.944905823
 20
4.9260988037
 30
0.0
  0
SPLINE
  5
4BC
100
AcDbEntity
  8
0
100
AcDbSpline
 62
7
  6
CONTINUOUS
 70
0
 71
3
 72
38
 73
34
 74
0
 42
0.0000001
 43
0.0000001
 44
0.0000000001
 40
0.0
 40
0.0
 40
0.0
 40
0.0
 40
0.0371780679
 40
0.0730019723
 40
0.1074514559
 40
0.1405205382
 40
0.1722226225
 40
0.2025931633
 40
0.231688707
 40
0.2595944
 40
0.2864211026
 40
0.3123094696
 40
0.3374293096
 40
0.3619756959
 40
0.3861666379
 40
0.4102336382
 40
0.4344139147
 40
0.45893941
 40
0.484028944
 40
0.5098787445
 40
0.5366597783
 40
0.5645141477
 40
0.5935538986
 40
0.6238654325
 40
0.6555064661
 40
0.6885133203
 40
0.7229004751
 40
0.7586626027
 40
0.7957802083
 40
0.8342161899
 40
0.8739227655
 40
0.9148398186
 40
1.0
 40
1.0
 40
1.0
 40
1.0
 10
48.0982888645
 20
5.1604906988
 30
0.0
 10
48.0969812287
 20
5.1630580946
 30
0.0
 10
48.0942984526
 20
5.1680419559
 30
0.0
 10
48.0899890089
 20
5.1751715598
 30
0.0
 10
48.0854819557
 20
5.1817968814
 30
0.0
 10
48.0807913926
 20
5.187895883
 30
0.0
 10
48.0759319935
 20
5.1934483862
 30
0.0
 10
48.0709198998
 20
5.1984367803
 30
0.0
 10
48.0657697898
 20
5.2028434302
 30
0.0
 10
48.0604987429
 20
5.2066542815
 30
0.0
 10
48.0551228368
 20
5.2098554852
 30
0.0
 10
48.0496591918
 20
5.212434932
 30
0.0
 10
48.0441261185
 20
5.2143836514
 30
0.0
 10
48.0385418313
 20
5.2156918499
 30
0.0
 10
48.0329264935
 20
5.2163552913
 30
0.0
 10
48.0273002453
 20
5.2163699807
 30
0.0
 10
48.0216839763
 20
5.2157357435
 30
0.0
 10
48.016097848
 20
5.2144566144
 30
0.0
 10
48.0105620525
 20
5.2125366365
 30
0.0
 10
48.0050948875
 20
5.2099854767
 30
0.0
 10
47.9997146215
 20
5.2068121442
 30
0.0
 10
47.9944385065
 20
5.2030285169
 30
0.0
 10
47.9892825531
 20
5.1986485047
 30
0.0
 10
47.9842639012
 20
5.1936860178
 30
0.0
 10
47.9793972735
 20
5.1881586202
 30
0.0
 10
47.9746987325
 20
5.1820838915
 30
0.0
 10
47.970183123
 20
5.1754819023
 30
0.0
 10
47.9658643548
 20
5.1683744843
 30
0.0
 10
47.9617573267
 20
5.1607843263
 30
0.0
 10
47.9578742894
 20
5.152736787
 30
0.0
 10
47.9542284984
 20
5.144257608
 30
0.0
 10
47.9496387586
 20
5.1322547785
 30
0.0
 10
47.946684367
 20
5.1229291252
 30
0.0
 10
47.944905823
 20
5.1165735576
 30
0.0
  0
SPLINE
  5
4BD
100
AcDbEntity
  8
0
100
AcDbSpline
 62
7
  6
CONTINUOUS
 70
0
 71
3
 72
28
 73
24
 74
0
 42
0.0000001
 43
0.0000001
 44
0.0000000001
 40
0.0
 40
0.0
 40
0.0
 40
0.0
 40
0.0809538291
 40
0.1613813644
 40
0.2406203138
 40
0.3181401174
 40
0.3934339808
 40
0.4660114845
 40
0.5354465657
 40
0.601381138
 40
0.6329553309
 40
0.6635612855
 40
0.6931812056
 40
0.7218083152
 40
0.7760736811
 40
0.8017638312
 40
0.8265284098
 40
0.8734496737
 40
0.9174196222
 40
0.9385589469
 40
0.9592787635
 40
0.9797122304
 40
1.0
 40
1.0
 40
1.0
 40
1.0
 10
47.6271531264
 20
5.0213361806
 30
0.0
 10
47.6271531264
 20
5.0244399775
 30
0.0
 10
47.6270012268
 20
5.0306284616
 30
0.0
 10
47.6263217999
 20
5.0398325007
 30
0.0
 10
47.6251951959
 20
5.0488603123
 30
0.0
 10
47.623633429
 20
5.0576234279
 30
0.0
 10
47.6216516568
 20
5.0660394261
 30
0.0
 10
47.619268097
 20
5.0740282468
 30
0.0
 10
47.6165062997
 20
5.0815133806
 30
0.0
 10
47.61387334
 20
5.0873546037
 30
0.0
 10
47.6115918364
 20
5.0917059083
 30
0.0
 10
47.609828447
 20
5.0947531868
 30
0.0
 10
47.6079919844
 20
5.0976240551
 30
0.0
 10
47.6054971536
 20
5.1011444117
 30
0.0
 10
47.6028368575
 20
5.1043595701
 30
0.0
 10
47.6000087441
 20
5.1072127835
 30
0.0
 10
47.5972166661
 20
5.1096943243
 30
0.0
 10
47.593611015
 20
5.1123029202
 30
0.0
 10
47.5897605119
 20
5.1142555901
 30
0.0
 10
47.5866489427
 20
5.1153388684
 30
0.0
 10
47.5843269855
 20
5.1159133934
 30
0.0
 10
47.5819933049
 20
5.1162590349
 30
0.0
 10
47.5804309663
 20
5.1163361806
 30
0.0
 10
47.5796531264
 20
5.1163361806
 30
0.0
  0
SPLINE
  5
4BE
100
AcDbEntity
  8
0
100
AcDbSpline
 62
7
  6
CONTINUOUS
 70
0
 71
3
 72
28
 73
24
 74
0
 42
0.0000001
 43
0.0000001
 44
0.0000000001
 40
0.0
 40
0.0
 40
0.0
 40
0.0
 40
0.0809538291
 40
0.1613813644
 40
0.2406203138
 40
0.3181401174
 40
0.3934339808
 40
0.4660114845
 40
0.5354465657
 40
0.601381138
 40
0.6329553309
 40
0.6635612855
 40
0.6931812056
 40
0.7218083152
 40
0.7760736811
 40
0.8017638312
 40
0.8265284098
 40
0.8734496737
 40
0.9174196222
 40
0.9385589469
 40
0.9592787635
 40
0.9797122304
 40
1.0
 40
1.0
 40
1.0
 40
1.0
 10
47.6271531264
 20
5.0213361806
 30
0.0
 10
47.6271531264
 20
5.0182323838
 30
0.0
 10
47.6270012268
 20
5.0120438997
 30
0.0
 10
47.6263217999
 20
5.0028398606
 30
0.0
 10
47.6251951959
 20
4.993812049
 30
0.0
 10
47.623633429
 20
4.9850489334
 30
0.0
 10
47.6216516568
 20
4.9766329352
 30
0.0
 10
47.619268097
 20
4.9686441145
 30
0.0
 10
47.6165062997
 20
4.9611589807
 30
0.0
 10
47.61387334
 20
4.9553177576
 30
0.0
 10
47.6115918364
 20
4.950966453
 30
0.0
 10
47.609828447
 20
4.9479191745
 30
0.0
 10
47.6079919844
 20
4.9450483062
 30
0.0
 10
47.6054971536
 20
4.9415279496
 30
0.0
 10
47.6028368575
 20
4.9383127912
 30
0.0
 10
47.6000087441
 20
4.9354595778
 30
0.0
 10
47.5972166661
 20
4.932978037
 30
0.0
 10
47.593611015
 20
4.9303694411
 30
0.0
 10
47.5897605119
 20
4.9284167712
 30
0.0
 10
47.5866489427
 20
4.9273334929
 30
0.0
 10
47.5843269855
 20
4.9267589679
 30
0.0
 10
47.5819933049
 20
4.9264133264
 30
0.0
 10
47.5804309663
 20
4.9263361806
 30
0.0
 10
47.5796531264
 20
4.9263361806
 30
0.0
  0
SPLINE
  5
4BF
100
AcDbEntity
  8
0
100
AcDbSpline
 62
7
  6
CONTINUOUS
 70
0
 71
3
 72
30
 73
26
 74
0
 42
0.0000001
 43
0.0000001
 44
0.0000000001
 40
0.0
 40
0.0
 40
0.0
 40
0.0
 40
0.0202864952
 40
0.0407184475
 40
0.0614374209
 40
0.0825755309
 40
0.1042537402
 40
0.1265804465
 40
0.1496471832
 40
0.1735302532
 40
0.2239571241
 40
0.2506065534
 40
0.2782383341
 40
0.3068642419
 40
0.336483111
 40
0.3986445593
 40
0.4311601501
 40
0.4645873861
 40
0.5340176952
 40
0.6065898247
 40
0.6818797521
 40
0.7593967695
 40
0.8386281668
 40
0.9190459734
 40
1.0
 40
1.0
 40
1.0
 40
1.0
 10
48.0299863364
 20
5.1163359945
 30
0.0
 10
48.0307641762
 20
5.1163359945
 30
0.0
 10
48.0323265064
 20
5.1162591542
 30
0.0
 10
48.0346602704
 20
5.1159136955
 30
0.0
 10
48.0369820471
 20
5.1153387194
 30
0.0
 10
48.0392858144
 20
5.1145366166
 30
0.0
 10
48.041566022
 20
5.1135095353
 30
0.0
 10
48.043816847
 20
5.1122597934
 30
0.0
 10
48.0460333067
 20
5.1107911722
 30
0.0
 10
48.0489888916
 20
5.1085053383
 30
0.0
 10
48.0517975828
 20
5.1058232853
 30
0.0
 10
48.0544521079
 20
5.1028096925
 30
0.0
 10
48.0564208238
 20
5.1003116759
 30
0.0
 10
48.0583252794
 20
5.0976239521
 30
0.0
 10
48.060813578
 20
5.0937335565
 30
0.0
 10
48.063108073
 20
5.0895488182
 30
0.0
 10
48.0652171645
 20
5.085111988
 30
0.0
 10
48.0672710897
 20
5.0803438587
 30
0.0
 10
48.0696013328
 20
5.0740280624
 30
0.0
 10
48.0719849589
 20
5.0660395474
 30
0.0
 10
48.0739665929
 20
5.0576233596
 30
0.0
 10
48.0755284472
 20
5.0488602708
 30
0.0
 10
48.0766549449
 20
5.0398326409
 30
0.0
 10
48.0773345335
 20
5.0306286917
 30
0.0
 10
48.0774863364
 20
5.0244401799
 30
0.0
 10
48.0774863364
 20
5.0213361806
 30
0.0
  0
SPLINE
  5
4C0
100
AcDbEntity
  8
0
100
AcDbSpline
 62
7
  6
CONTINUOUS
 70
0
 71
3
 72
18
 73
14
 74
0
 42
0.0000001
 43
0.0000001
 44
0.0000000001
 40
0.0
 40
0.0
 40
0.0
 40
0.0
 40
0.1348648195
 40
0.2687755879
 40
0.4006804234
 40
0.4656047309
 40
0.5296887618
 40
0.6548803308
 40
0.7754490777
 40
0.8337788092
 40
0.8906936047
 40
0.9461208763
 40
1.0
 40
1.0
 40
1.0
 40
1.0
 10
48.1274863364
 20
5.0213361806
 30
0.0
 10
48.1274863364
 20
5.0277832159
 30
0.0
 10
48.1271678321
 20
5.0406340326
 30
0.0
 10
48.1257395155
 20
5.0597421872
 30
0.0
 10
48.1237575739
 20
5.075436017
 30
0.0
 10
48.121701528
 20
5.0877393436
 30
0.0
 10
48.1193737722
 20
5.099667313
 30
0.0
 10
48.1159333364
 20
5.1140825969
 30
0.0
 10
48.1117202429
 20
5.1280060078
 30
0.0
 10
48.1079282116
 20
5.1386237415
 30
0.0
 10
48.104923834
 20
5.1462110348
 30
0.0
 10
48.1017347904
 20
5.1534908257
 30
0.0
 10
48.0994578043
 20
5.1581956168
 30
0.0
 10
48.0982888645
 20
5.1604906988
 30
0.0
  0
SPLINE
  5
4C1
100
AcDbEntity
  8
0
100
AcDbSpline
 62
7
  6
CONTINUOUS
 70
0
 71
3
 72
18
 73
14
 74
0
 42
0.0000001
 43
0.0000001
 44
0.0000000001
 40
0.0
 40
0.0
 40
0.0
 40
0.0
 40
0.1348648195
 40
0.2687755879
 40
0.4006804234
 40
0.4656047309
 40
0.5296887618
 40
0.6548803308
 40
0.7754490777
 40
0.8337788092
 40
0.8906936047
 40
0.9461208763
 40
1.0
 40
1.0
 40
1.0
 40
1.0
 10
48.1274863364
 20
5.0213361806
 30
0.0
 10
48.1274863364
 20
5.0148891454
 30
0.0
 10
48.1271678321
 20
5.0020383287
 30
0.0
 10
48.1257395155
 20
4.9829301741
 30
0.0
 10
48.1237575739
 20
4.9672363443
 30
0.0
 10
48.121701528
 20
4.9549330177
 30
0.0
 10
48.1193737722
 20
4.9430050483
 30
0.0
 10
48.1159333364
 20
4.9285897644
 30
0.0
 10
48.1117202429
 20
4.9146663535
 30
0.0
 10
48.1079282116
 20
4.9040486198
 30
0.0
 10
48.104923834
 20
4.8964613265
 30
0.0
 10
48.1017347904
 20
4.8891815356
 30
0.0
 10
48.0994578043
 20
4.8844767445
 30
0.0
 10
48.0982888645
 20
4.8821816625
 30
0.0
  0
SPLINE
  5
4C2
100
AcDbEntity
  8
0
100
AcDbSpline
 62
7
  6
CONTINUOUS
 70
0
 71
3
 72
30
 73
26
 74
0
 42
0.0000001
 43
0.0000001
 44
0.0000000001
 40
0.0
 40
0.0
 40
0.0
 40
0.0
 40
0.0809540266
 40
0.1613718332
 40
0.2406032305
 40
0.3181202479
 40
0.3934101753
 40
0.4659823048
 40
0.5354126139
 40
0.5688398499
 40
0.6013554407
 40
0.663516889
 40
0.6931357581
 40
0.7217616659
 40
0.7493934466
 40
0.7760428759
 40
0.8264697468
 40
0.8503528168
 40
0.8734195535
 40
0.8957462598
 40
0.9174244691
 40
0.9385625791
 40
0.9592815525
 40
0.9797135048
 40
1.0
 40
1.0
 40
1.0
 40
1.0
 10
48.0774863364
 20
5.0213361806
 30
0.0
 10
48.0774863364
 20
5.0182321814
 30
0.0
 10
48.0773345335
 20
5.0120436696
 30
0.0
 10
48.0766549449
 20
5.0028397204
 30
0.0
 10
48.0755284472
 20
4.9938120905
 30
0.0
 10
48.0739665929
 20
4.9850490017
 30
0.0
 10
48.0719849589
 20
4.9766328139
 30
0.0
 10
48.0696013328
 20
4.9686442989
 30
0.0
 10
48.0672710897
 20
4.9623285026
 30
0.0
 10
48.0652171645
 20
4.9575603733
 30
0.0
 10
48.063108073
 20
4.9531235431
 30
0.0
 10
48.060813578
 20
4.9489388048
 30
0.0
 10
48.0583252794
 20
4.9450484092
 30
0.0
 10
48.0564208238
 20
4.9423606854
 30
0.0
 10
48.0544521079
 20
4.9398626688
 30
0.0
 10
48.0517975828
 20
4.936849076
 30
0.0
 10
48.0489888916
 20
4.934167023
 30
0.0
 10
48.0460333067
 20
4.9318811891
 30
0.0
 10
48.043816847
 20
4.9304125679
 30
0.0
 10
48.041566022
 20
4.929162826
 30
0.0
 10
48.0392858144
 20
4.9281357447
 30
0.0
 10
48.0369820471
 20
4.9273336419
 30
0.0
 10
48.0346602704
 20
4.9267586658
 30
0.0
 10
48.0323265064
 20
4.9264132071
 30
0.0
 10
48.0307641762
 20
4.9263363668
 30
0.0
 10
48.0299863364
 20
4.9263363668
 30
0.0
  0
SPLINE
  5
4C3
100
AcDbEntity
  8
0
100
AcDbSpline
 62
7
  6
CONTINUOUS
 70
0
 71
3
 72
28
 73
24
 74
0
 42
0.0000001
 43
0.0000001
 44
0.0000000001
 40
0.0
 40
0.0
 40
0.0
 40
0.0
 40
0.0202877696
 40
0.0407212365
 40
0.0614410531
 40
0.0825803778
 40
0.1265503263
 40
0.1734715902
 40
0.1982361688
 40
0.2239263189
 40
0.2781916848
 40
0.3068187944
 40
0.3364387145
 40
0.3670446691
 40
0.398618862
 40
0.4645534343
 40
0.5339885155
 40
0.6065660192
 40
0.6818598826
 40
0.7593796862
 40
0.8386186356
 40
0.9190461709
 40
1.0
 40
1.0
 40
1.0
 40
1.0
 10
47.5796531264
 20
1.8763361806
 30
0.0
 10
47.5788752866
 20
1.8763361806
 30
0.0
 10
47.5773129479
 20
1.8764133264
 30
0.0
 10
47.5749792674
 20
1.8767589679
 30
0.0
 10
47.5726573102
 20
1.8773334929
 30
0.0
 10
47.569545741
 20
1.8784167712
 30
0.0
 10
47.5656952378
 20
1.8803694411
 30
0.0
 10
47.5620895867
 20
1.882978037
 30
0.0
 10
47.5592975087
 20
1.8854595778
 30
0.0
 10
47.5564693953
 20
1.8883127912
 30
0.0
 10
47.5538090992
 20
1.8915279496
 30
0.0
 10
47.5513142684
 20
1.8950483062
 30
0.0
 10
47.5494778058
 20
1.8979191745
 30
0.0
 10
47.5477144164
 20
1.900966453
 30
0.0
 10
47.5454329128
 20
1.9053177576
 30
0.0
 10
47.5427999532
 20
1.9111589807
 30
0.0
 10
47.5400381559
 20
1.9186441145
 30
0.0
 10
47.5376545961
 20
1.9266329352
 30
0.0
 10
47.5356728238
 20
1.9350489334
 30
0.0
 10
47.5341110569
 20
1.943812049
 30
0.0
 10
47.532984453
 20
1.9528398606
 30
0.0
 10
47.532305026
 20
1.9620438997
 30
0.0
 10
47.5321531264
 20
1.9682323838
 30
0.0
 10
47.5321531264
 20
1.9713361806
 30
0.0
  0
SPLINE
  5
4C4
100
AcDbEntity
  8
0
100
AcDbSpline
 62
7
  6
CONTINUOUS
 70
0
 71
3
 72
28
 73
24
 74
0
 42
0.0000001
 43
0.0000001
 44
0.0000000001
 40
0.0
 40
0.0
 40
0.0
 40
0.0
 40
0.0202877696
 40
0.0407212365
 40
0.0614410531
 40
0.0825803778
 40
0.1265503263
 40
0.1734715902
 40
0.1982361688
 40
0.2239263189
 40
0.2781916848
 40
0.3068187944
 40
0.3364387145
 40
0.3670446691
 40
0.398618862
 40
0.4645534343
 40
0.5339885155
 40
0.6065660192
 40
0.6818598826
 40
0.7593796862
 40
0.8386186356
 40
0.9190461709
 40
1.0
 40
1.0
 40
1.0
 40
1.0
 10
47.5796531264
 20
2.0663361806
 30
0.0
 10
47.5788752866
 20
2.0663361806
 30
0.0
 10
47.5773129479
 20
2.0662590349
 30
0.0
 10
47.5749792674
 20
2.0659133934
 30
0.0
 10
47.5726573102
 20
2.0653388684
 30
0.0
 10
47.569545741
 20
2.0642555901
 30
0.0
 10
47.5656952378
 20
2.0623029202
 30
0.0
 10
47.5620895867
 20
2.0596943243
 30
0.0
 10
47.5592975087
 20
2.0572127835
 30
0.0
 10
47.5564693953
 20
2.0543595701
 30
0.0
 10
47.5538090992
 20
2.0511444117
 30
0.0
 10
47.5513142684
 20
2.0476240551
 30
0.0
 10
47.5494778058
 20
2.0447531868
 30
0.0
 10
47.5477144164
 20
2.0417059083
 30
0.0
 10
47.5454329128
 20
2.0373546037
 30
0.0
 10
47.5427999532
 20
2.0315133806
 30
0.0
 10
47.5400381559
 20
2.0240282468
 30
0.0
 10
47.5376545961
 20
2.0160394261
 30
0.0
 10
47.5356728238
 20
2.0076234279
 30
0.0
 10
47.5341110569
 20
1.9988603123
 30
0.0
 10
47.532984453
 20
1.9898325007
 30
0.0
 10
47.532305026
 20
1.9806284616
 30
0.0
 10
47.5321531264
 20
1.9744399775
 30
0.0
 10
47.5321531264
 20
1.9713361806
 30
0.0
  0
SPLINE
  5
4C5
100
AcDbEntity
  8
0
100
AcDbSpline
 62
7
  6
CONTINUOUS
 70
0
 71
3
 72
38
 73
34
 74
0
 42
0.0000001
 43
0.0000001
 44
0.0000000001
 40
0.0
 40
0.0
 40
0.0
 40
0.0
 40
0.0371780679
 40
0.0730019723
 40
0.1074514559
 40
0.1405205382
 40
0.1722226225
 40
0.2025931633
 40
0.231688707
 40
0.2595944
 40
0.2864211026
 40
0.3123094696
 40
0.3374293096
 40
0.3619756959
 40
0.3861666379
 40
0.4102336382
 40
0.4344139147
 40
0.45893941
 40
0.484028944
 40
0.5098787445
 40
0.5366597783
 40
0.5645141477
 40
0.5935538986
 40
0.6238654325
 40
0.6555064661
 40
0.6885133203
 40
0.7229004751
 40
0.7586626027
 40
0.7957802083
 40
0.8342161899
 40
0.8739227655
 40
0.9148398186
 40
1.0
 40
1.0
 40
1.0
 40
1.0
 10
48.0982888645
 20
1.8321816625
 30
0.0
 10
48.0969812287
 20
1.8296142667
 30
0.0
 10
48.0942984526
 20
1.8246304054
 30
0.0
 10
48.0899890089
 20
1.8175008015
 30
0.0
 10
48.0854819557
 20
1.8108754799
 30
0.0
 10
48.0807913926
 20
1.8047764783
 30
0.0
 10
48.0759319935
 20
1.7992239751
 30
0.0
 10
48.0709198998
 20
1.794235581
 30
0.0
 10
48.0657697898
 20
1.7898289311
 30
0.0
 10
48.0604987429
 20
1.7860180798
 30
0.0
 10
48.0551228368
 20
1.7828168761
 30
0.0
 10
48.0496591918
 20
1.7802374292
 30
0.0
 10
48.0441261185
 20
1.7782887099
 30
0.0
 10
48.0385418313
 20
1.7769805114
 30
0.0
 10
48.0329264935
 20
1.77631707
 30
0.0
 10
48.0273002453
 20
1.7763023806
 30
0.0
 10
48.0216839763
 20
1.7769366178
 30
0.0
 10
48.016097848
 20
1.7782157469
 30
0.0
 10
48.0105620525
 20
1.7801357248
 30
0.0
 10
48.0050948875
 20
1.7826868846
 30
0.0
 10
47.9997146215
 20
1.7858602171
 30
0.0
 10
47.9944385065
 20
1.7896438444
 30
0.0
 10
47.9892825531
 20
1.7940238566
 30
0.0
 10
47.9842639012
 20
1.7989863435
 30
0.0
 10
47.9793972735
 20
1.8045137411
 30
0.0
 10
47.9746987325
 20
1.8105884698
 30
0.0
 10
47.970183123
 20
1.817190459
 30
0.0
 10
47.9658643548
 20
1.824297877
 30
0.0
 10
47.9617573267
 20
1.831888035
 30
0.0
 10
47.9578742894
 20
1.8399355743
 30
0.0
 10
47.9542284984
 20
1.8484147533
 30
0.0
 10
47.9496387586
 20
1.8604175828
 30
0.0
 10
47.946684367
 20
1.8697432361
 30
0.0
 10
47.944905823
 20
1.8760988037
 30
0.0
  0
SPLINE
  5
4C6
100
AcDbEntity
  8
0
100
AcDbSpline
 62
7
  6
CONTINUOUS
 70
0
 71
3
 72
38
 73
34
 74
0
 42
0.0000001
 43
0.0000001
 44
0.0000000001
 40
0.0
 40
0.0
 40
0.0
 40
0.0
 40
0.0371780679
 40
0.0730019723
 40
0.1074514559
 40
0.1405205382
 40
0.1722226225
 40
0.2025931633
 40
0.231688707
 40
0.2595944
 40
0.2864211026
 40
0.3123094696
 40
0.3374293096
 40
0.3619756959
 40
0.3861666379
 40
0.4102336382
 40
0.4344139147
 40
0.45893941
 40
0.484028944
 40
0.5098787445
 40
0.5366597783
 40
0.5645141477
 40
0.5935538986
 40
0.6238654325
 40
0.6555064661
 40
0.6885133203
 40
0.7229004751
 40
0.7586626027
 40
0.7957802083
 40
0.8342161899
 40
0.8739227655
 40
0.9148398186
 40
1.0
 40
1.0
 40
1.0
 40
1.0
 10
48.0982888645
 20
2.1104906988
 30
0.0
 10
48.0969812287
 20
2.1130580946
 30
0.0
 10
48.0942984526
 20
2.1180419559
 30
0.0
 10
48.0899890089
 20
2.1251715598
 30
0.0
 10
48.0854819557
 20
2.1317968814
 30
0.0
 10
48.0807913926
 20
2.137895883
 30
0.0
 10
48.0759319935
 20
2.1434483862
 30
0.0
 10
48.0709198998
 20
2.1484367803
 30
0.0
 10
48.0657697898
 20
2.1528434302
 30
0.0
 10
48.0604987429
 20
2.1566542815
 30
0.0
 10
48.0551228368
 20
2.1598554852
 30
0.0
 10
48.0496591918
 20
2.162434932
 30
0.0
 10
48.0441261185
 20
2.1643836514
 30
0.0
 10
48.0385418313
 20
2.1656918499
 30
0.0
 10
48.0329264935
 20
2.1663552913
 30
0.0
 10
48.0273002453
 20
2.1663699807
 30
0.0
 10
48.0216839763
 20
2.1657357435
 30
0.0
 10
48.016097848
 20
2.1644566144
 30
0.0
 10
48.0105620525
 20
2.1625366365
 30
0.0
 10
48.0050948875
 20
2.1599854767
 30
0.0
 10
47.9997146215
 20
2.1568121442
 30
0.0
 10
47.9944385065
 20
2.1530285169
 30
0.0
 10
47.9892825531
 20
2.1486485047
 30
0.0
 10
47.9842639012
 20
2.1436860178
 30
0.0
 10
47.9793972735
 20
2.1381586202
 30
0.0
 10
47.9746987325
 20
2.1320838915
 30
0.0
 10
47.970183123
 20
2.1254819023
 30
0.0
 10
47.9658643548
 20
2.1183744843
 30
0.0
 10
47.9617573267
 20
2.1107843263
 30
0.0
 10
47.9578742894
 20
2.102736787
 30
0.0
 10
47.9542284984
 20
2.094257608
 30
0.0
 10
47.9496387586
 20
2.0822547785
 30
0.0
 10
47.946684367
 20
2.0729291252
 30
0.0
 10
47.944905823
 20
2.0665735576
 30
0.0
  0
SPLINE
  5
4C7
100
AcDbEntity
  8
0
100
AcDbSpline
 62
7
  6
CONTINUOUS
 70
0
 71
3
 72
28
 73
24
 74
0
 42
0.0000001
 43
0.0000001
 44
0.0000000001
 40
0.0
 40
0.0
 40
0.0
 40
0.0
 40
0.0809538291
 40
0.1613813644
 40
0.2406203138
 40
0.3181401174
 40
0.3934339808
 40
0.4660114845
 40
0.5354465657
 40
0.601381138
 40
0.6329553309
 40
0.6635612855
 40
0.6931812056
 40
0.7218083152
 40
0.7760736811
 40
0.8017638312
 40
0.8265284098
 40
0.8734496737
 40
0.9174196222
 40
0.9385589469
 40
0.9592787635
 40
0.9797122304
 40
1.0
 40
1.0
 40
1.0
 40
1.0
 10
47.6271531264
 20
1.9713361806
 30
0.0
 10
47.6271531264
 20
1.9744399775
 30
0.0
 10
47.6270012268
 20
1.9806284616
 30
0.0
 10
47.6263217999
 20
1.9898325007
 30
0.0
 10
47.6251951959
 20
1.9988603123
 30
0.0
 10
47.623633429
 20
2.0076234279
 30
0.0
 10
47.6216516568
 20
2.0160394261
 30
0.0
 10
47.619268097
 20
2.0240282468
 30
0.0
 10
47.6165062997
 20
2.0315133806
 30
0.0
 10
47.61387334
 20
2.0373546037
 30
0.0
 10
47.6115918364
 20
2.0417059083
 30
0.0
 10
47.609828447
 20
2.0447531868
 30
0.0
 10
47.6079919844
 20
2.0476240551
 30
0.0
 10
47.6054971536
 20
2.0511444117
 30
0.0
 10
47.6028368575
 20
2.0543595701
 30
0.0
 10
47.6000087441
 20
2.0572127835
 30
0.0
 10
47.5972166661
 20
2.0596943243
 30
0.0
 10
47.593611015
 20
2.0623029202
 30
0.0
 10
47.5897605119
 20
2.0642555901
 30
0.0
 10
47.5866489427
 20
2.0653388684
 30
0.0
 10
47.5843269855
 20
2.0659133934
 30
0.0
 10
47.5819933049
 20
2.0662590349
 30
0.0
 10
47.5804309663
 20
2.0663361806
 30
0.0
 10
47.5796531264
 20
2.0663361806
 30
0.0
  0
SPLINE
  5
4C8
100
AcDbEntity
  8
0
100
AcDbSpline
 62
7
  6
CONTINUOUS
 70
0
 71
3
 72
28
 73
24
 74
0
 42
0.0000001
 43
0.0000001
 44
0.0000000001
 40
0.0
 40
0.0
 40
0.0
 40
0.0
 40
0.0809538291
 40
0.1613813644
 40
0.2406203138
 40
0.3181401174
 40
0.3934339808
 40
0.4660114845
 40
0.5354465657
 40
0.601381138
 40
0.6329553309
 40
0.6635612855
 40
0.6931812056
 40
0.7218083152
 40
0.7760736811
 40
0.8017638312
 40
0.8265284098
 40
0.8734496737
 40
0.9174196222
 40
0.9385589469
 40
0.9592787635
 40
0.9797122304
 40
1.0
 40
1.0
 40
1.0
 40
1.0
 10
47.6271531264
 20
1.9713361806
 30
0.0
 10
47.6271531264
 20
1.9682323838
 30
0.0
 10
47.6270012268
 20
1.9620438997
 30
0.0
 10
47.6263217999
 20
1.9528398606
 30
0.0
 10
47.6251951959
 20
1.943812049
 30
0.0
 10
47.623633429
 20
1.9350489334
 30
0.0
 10
47.6216516568
 20
1.9266329352
 30
0.0
 10
47.619268097
 20
1.9186441145
 30
0.0
 10
47.6165062997
 20
1.9111589807
 30
0.0
 10
47.61387334
 20
1.9053177576
 30
0.0
 10
47.6115918364
 20
1.900966453
 30
0.0
 10
47.609828447
 20
1.8979191745
 30
0.0
 10
47.6079919844
 20
1.8950483062
 30
0.0
 10
47.6054971536
 20
1.8915279496
 30
0.0
 10
47.6028368575
 20
1.8883127912
 30
0.0
 10
47.6000087441
 20
1.8854595778
 30
0.0
 10
47.5972166661
 20
1.882978037
 30
0.0
 10
47.593611015
 20
1.8803694411
 30
0.0
 10
47.5897605119
 20
1.8784167712
 30
0.0
 10
47.5866489427
 20
1.8773334929
 30
0.0
 10
47.5843269855
 20
1.8767589679
 30
0.0
 10
47.5819933049
 20
1.8764133264
 30
0.0
 10
47.5804309663
 20
1.8763361806
 30
0.0
 10
47.5796531264
 20
1.8763361806
 30
0.0
  0
SPLINE
  5
4C9
100
AcDbEntity
  8
0
100
AcDbSpline
 62
7
  6
CONTINUOUS
 70
0
 71
3
 72
30
 73
26
 74
0
 42
0.0000001
 43
0.0000001
 44
0.0000000001
 40
0.0
 40
0.0
 40
0.0
 40
0.0
 40
0.0202864952
 40
0.0407184475
 40
0.0614374209
 40
0.0825755309
 40
0.1042537402
 40
0.1265804465
 40
0.1496471832
 40
0.1735302532
 40
0.2239571241
 40
0.2506065534
 40
0.2782383341
 40
0.3068642419
 40
0.336483111
 40
0.3986445593
 40
0.4311601501
 40
0.4645873861
 40
0.5340176952
 40
0.6065898247
 40
0.6818797521
 40
0.7593967695
 40
0.8386281668
 40
0.9190459734
 40
1.0
 40
1.0
 40
1.0
 40
1.0
 10
48.0299863364
 20
2.0663359945
 30
0.0
 10
48.0307641762
 20
2.0663359945
 30
0.0
 10
48.0323265064
 20
2.0662591542
 30
0.0
 10
48.0346602704
 20
2.0659136955
 30
0.0
 10
48.0369820471
 20
2.0653387194
 30
0.0
 10
48.0392858144
 20
2.0645366166
 30
0.0
 10
48.041566022
 20
2.0635095353
 30
0.0
 10
48.043816847
 20
2.0622597934
 30
0.0
 10
48.0460333067
 20
2.0607911722
 30
0.0
 10
48.0489888916
 20
2.0585053383
 30
0.0
 10
48.0517975828
 20
2.0558232853
 30
0.0
 10
48.0544521079
 20
2.0528096925
 30
0.0
 10
48.0564208238
 20
2.0503116759
 30
0.0
 10
48.0583252794
 20
2.0476239521
 30
0.0
 10
48.060813578
 20
2.0437335565
 30
0.0
 10
48.063108073
 20
2.0395488182
 30
0.0
 10
48.0652171645
 20
2.035111988
 30
0.0
 10
48.0672710897
 20
2.0303438587
 30
0.0
 10
48.0696013328
 20
2.0240280624
 30
0.0
 10
48.0719849589
 20
2.0160395474
 30
0.0
 10
48.0739665929
 20
2.0076233596
 30
0.0
 10
48.0755284472
 20
1.9988602708
 30
0.0
 10
48.0766549449
 20
1.9898326409
 30
0.0
 10
48.0773345335
 20
1.9806286917
 30
0.0
 10
48.0774863364
 20
1.9744401799
 30
0.0
 10
48.0774863364
 20
1.9713361806
 30
0.0
  0
SPLINE
  5
4CA
100
AcDbEntity
  8
0
100
AcDbSpline
 62
7
  6
CONTINUOUS
 70
0
 71
3
 72
18
 73
14
 74
0
 42
0.0000001
 43
0.0000001
 44
0.0000000001
 40
0.0
 40
0.0
 40
0.0
 40
0.0
 40
0.1348648195
 40
0.2687755879
 40
0.4006804234
 40
0.4656047309
 40
0.5296887618
 40
0.6548803308
 40
0.7754490777
 40
0.8337788092
 40
0.8906936047
 40
0.9461208763
 40
1.0
 40
1.0
 40
1.0
 40
1.0
 10
48.1274863364
 20
1.9713361806
 30
0.0
 10
48.1274863364
 20
1.9777832159
 30
0.0
 10
48.1271678321
 20
1.9906340326
 30
0.0
 10
48.1257395155
 20
2.0097421872
 30
0.0
 10
48.1237575739
 20
2.025436017
 30
0.0
 10
48.121701528
 20
2.0377393436
 30
0.0
 10
48.1193737722
 20
2.049667313
 30
0.0
 10
48.1159333364
 20
2.0640825969
 30
0.0
 10
48.1117202429
 20
2.0780060078
 30
0.0
 10
48.1079282116
 20
2.0886237415
 30
0.0
 10
48.104923834
 20
2.0962110348
 30
0.0
 10
48.1017347904
 20
2.1034908257
 30
0.0
 10
48.0994578043
 20
2.1081956168
 30
0.0
 10
48.0982888645
 20
2.1104906988
 30
0.0
  0
SPLINE
  5
4CB
100
AcDbEntity
  8
0
100
AcDbSpline
 62
7
  6
CONTINUOUS
 70
0
 71
3
 72
18
 73
14
 74
0
 42
0.0000001
 43
0.0000001
 44
0.0000000001
 40
0.0
 40
0.0
 40
0.0
 40
0.0
 40
0.1348648195
 40
0.2687755879
 40
0.4006804234
 40
0.4656047309
 40
0.5296887618
 40
0.6548803308
 40
0.7754490777
 40
0.8337788092
 40
0.8906936047
 40
0.9461208763
 40
1.0
 40
1.0
 40
1.0
 40
1.0
 10
48.1274863364
 20
1.9713361806
 30
0.0
 10
48.1274863364
 20
1.9648891454
 30
0.0
 10
48.1271678321
 20
1.9520383287
 30
0.0
 10
48.1257395155
 20
1.9329301741
 30
0.0
 10
48.1237575739
 20
1.9172363443
 30
0.0
 10
48.121701528
 20
1.9049330177
 30
0.0
 10
48.1193737722
 20
1.8930050483
 30
0.0
 10
48.1159333364
 20
1.8785897644
 30
0.0
 10
48.1117202429
 20
1.8646663535
 30
0.0
 10
48.1079282116
 20
1.8540486198
 30
0.0
 10
48.104923834
 20
1.8464613265
 30
0.0
 10
48.1017347904
 20
1.8391815356
 30
0.0
 10
48.0994578043
 20
1.8344767445
 30
0.0
 10
48.0982888645
 20
1.8321816625
 30
0.0
  0
SPLINE
  5
4CC
100
AcDbEntity
  8
0
100
AcDbSpline
 62
7
  6
CONTINUOUS
 70
0
 71
3
 72
30
 73
26
 74
0
 42
0.0000001
 43
0.0000001
 44
0.0000000001
 40
0.0
 40
0.0
 40
0.0
 40
0.0
 40
0.0809540266
 40
0.1613718332
 40
0.2406032305
 40
0.3181202479
 40
0.3934101753
 40
0.4659823048
 40
0.5354126139
 40
0.5688398499
 40
0.6013554407
 40
0.663516889
 40
0.6931357581
 40
0.7217616659
 40
0.7493934466
 40
0.7760428759
 40
0.8264697468
 40
0.8503528168
 40
0.8734195535
 40
0.8957462598
 40
0.9174244691
 40
0.9385625791
 40
0.9592815525
 40
0.9797135048
 40
1.0
 40
1.0
 40
1.0
 40
1.0
 10
48.0774863364
 20
1.9713361806
 30
0.0
 10
48.0774863364
 20
1.9682321814
 30
0.0
 10
48.0773345335
 20
1.9620436696
 30
0.0
 10
48.0766549449
 20
1.9528397204
 30
0.0
 10
48.0755284472
 20
1.9438120905
 30
0.0
 10
48.0739665929
 20
1.9350490017
 30
0.0
 10
48.0719849589
 20
1.9266328139
 30
0.0
 10
48.0696013328
 20
1.9186442989
 30
0.0
 10
48.0672710897
 20
1.9123285026
 30
0.0
 10
48.0652171645
 20
1.9075603733
 30
0.0
 10
48.063108073
 20
1.9031235431
 30
0.0
 10
48.060813578
 20
1.8989388048
 30
0.0
 10
48.0583252794
 20
1.8950484092
 30
0.0
 10
48.0564208238
 20
1.8923606854
 30
0.0
 10
48.0544521079
 20
1.8898626688
 30
0.0
 10
48.0517975828
 20
1.886849076
 30
0.0
 10
48.0489888916
 20
1.884167023
 30
0.0
 10
48.0460333067
 20
1.8818811891
 30
0.0
 10
48.043816847
 20
1.8804125679
 30
0.0
 10
48.041566022
 20
1.879162826
 30
0.0
 10
48.0392858144
 20
1.8781357447
 30
0.0
 10
48.0369820471
 20
1.8773336419
 30
0.0
 10
48.0346602704
 20
1.8767586658
 30
0.0
 10
48.0323265064
 20
1.8764132071
 30
0.0
 10
48.0307641762
 20
1.8763363668
 30
0.0
 10
48.0299863364
 20
1.8763363668
 30
0.0
  0
SPLINE
  5
4CD
100
AcDbEntity
  8
0
100
AcDbSpline
 62
7
  6
CONTINUOUS
 70
0
 71
3
 72
28
 73
24
 74
0
 42
0.0000001
 43
0.0000001
 44
0.0000000001
 40
0.0
 40
0.0
 40
0.0
 40
0.0
 40
0.0202877696
 40
0.0407212365
 40
0.0614410531
 40
0.0825803778
 40
0.1265503263
 40
0.1734715902
 40
0.1982361688
 40
0.2239263189
 40
0.2781916848
 40
0.3068187944
 40
0.3364387145
 40
0.3670446691
 40
0.398618862
 40
0.4645534343
 40
0.5339885155
 40
0.6065660192
 40
0.6818598826
 40
0.7593796862
 40
0.8386186356
 40
0.9190461709
 40
1.0
 40
1.0
 40
1.0
 40
1.0
 10
47.5796531264
 20
0.0713361806
 30
0.0
 10
47.5788752866
 20
0.0713361806
 30
0.0
 10
47.5773129479
 20
0.0714133264
 30
0.0
 10
47.5749792674
 20
0.0717589679
 30
0.0
 10
47.5726573102
 20
0.0723334929
 30
0.0
 10
47.569545741
 20
0.0734167712
 30
0.0
 10
47.5656952378
 20
0.0753694411
 30
0.0
 10
47.5620895867
 20
0.077978037
 30
0.0
 10
47.5592975087
 20
0.0804595778
 30
0.0
 10
47.5564693953
 20
0.0833127912
 30
0.0
 10
47.5538090992
 20
0.0865279496
 30
0.0
 10
47.5513142684
 20
0.0900483062
 30
0.0
 10
47.5494778058
 20
0.0929191745
 30
0.0
 10
47.5477144164
 20
0.095966453
 30
0.0
 10
47.5454329128
 20
0.1003177576
 30
0.0
 10
47.5427999532
 20
0.1061589807
 30
0.0
 10
47.5400381559
 20
0.1136441145
 30
0.0
 10
47.5376545961
 20
0.1216329352
 30
0.0
 10
47.5356728238
 20
0.1300489334
 30
0.0
 10
47.5341110569
 20
0.138812049
 30
0.0
 10
47.532984453
 20
0.1478398606
 30
0.0
 10
47.532305026
 20
0.1570438997
 30
0.0
 10
47.5321531264
 20
0.1632323838
 30
0.0
 10
47.5321531264
 20
0.1663361806
 30
0.0
  0
SPLINE
  5
4CE
100
AcDbEntity
  8
0
100
AcDbSpline
 62
7
  6
CONTINUOUS
 70
0
 71
3
 72
28
 73
24
 74
0
 42
0.0000001
 43
0.0000001
 44
0.0000000001
 40
0.0
 40
0.0
 40
0.0
 40
0.0
 40
0.0202877696
 40
0.0407212365
 40
0.0614410531
 40
0.0825803778
 40
0.1265503263
 40
0.1734715902
 40
0.1982361688
 40
0.2239263189
 40
0.2781916848
 40
0.3068187944
 40
0.3364387145
 40
0.3670446691
 40
0.398618862
 40
0.4645534343
 40
0.5339885155
 40
0.6065660192
 40
0.6818598826
 40
0.7593796862
 40
0.8386186356
 40
0.9190461709
 40
1.0
 40
1.0
 40
1.0
 40
1.0
 10
47.5796531264
 20
0.2613361806
 30
0.0
 10
47.5788752866
 20
0.2613361806
 30
0.0
 10
47.5773129479
 20
0.2612590349
 30
0.0
 10
47.5749792674
 20
0.2609133934
 30
0.0
 10
47.5726573102
 20
0.2603388684
 30
0.0
 10
47.569545741
 20
0.2592555901
 30
0.0
 10
47.5656952378
 20
0.2573029202
 30
0.0
 10
47.5620895867
 20
0.2546943243
 30
0.0
 10
47.5592975087
 20
0.2522127835
 30
0.0
 10
47.5564693953
 20
0.2493595701
 30
0.0
 10
47.5538090992
 20
0.2461444117
 30
0.0
 10
47.5513142684
 20
0.2426240551
 30
0.0
 10
47.5494778058
 20
0.2397531868
 30
0.0
 10
47.5477144164
 20
0.2367059083
 30
0.0
 10
47.5454329128
 20
0.2323546037
 30
0.0
 10
47.5427999532
 20
0.2265133806
 30
0.0
 10
47.5400381559
 20
0.2190282468
 30
0.0
 10
47.5376545961
 20
0.2110394261
 30
0.0
 10
47.5356728238
 20
0.2026234279
 30
0.0
 10
47.5341110569
 20
0.1938603123
 30
0.0
 10
47.532984453
 20
0.1848325007
 30
0.0
 10
47.532305026
 20
0.1756284616
 30
0.0
 10
47.5321531264
 20
0.1694399775
 30
0.0
 10
47.5321531264
 20
0.1663361806
 30
0.0
  0
SPLINE
  5
4CF
100
AcDbEntity
  8
0
100
AcDbSpline
 62
7
  6
CONTINUOUS
 70
0
 71
3
 72
38
 73
34
 74
0
 42
0.0000001
 43
0.0000001
 44
0.0000000001
 40
0.0
 40
0.0
 40
0.0
 40
0.0
 40
0.0371780679
 40
0.0730019723
 40
0.1074514559
 40
0.1405205382
 40
0.1722226225
 40
0.2025931633
 40
0.231688707
 40
0.2595944
 40
0.2864211026
 40
0.3123094696
 40
0.3374293096
 40
0.3619756959
 40
0.3861666379
 40
0.4102336382
 40
0.4344139147
 40
0.45893941
 40
0.484028944
 40
0.5098787445
 40
0.5366597783
 40
0.5645141477
 40
0.5935538986
 40
0.6238654325
 40
0.6555064661
 40
0.6885133203
 40
0.7229004751
 40
0.7586626027
 40
0.7957802083
 40
0.8342161899
 40
0.8739227655
 40
0.9148398186
 40
1.0
 40
1.0
 40
1.0
 40
1.0
 10
48.0982888645
 20
0.0271816625
 30
0.0
 10
48.0969812287
 20
0.0246142667
 30
0.0
 10
48.0942984526
 20
0.0196304054
 30
0.0
 10
48.0899890089
 20
0.0125008015
 30
0.0
 10
48.0854819557
 20
0.0058754799
 30
0.0
 10
48.0807913926
 20
-0.0002235217
 30
0.0
 10
48.0759319935
 20
-0.0057760249
 30
0.0
 10
48.0709198998
 20
-0.010764419
 30
0.0
 10
48.0657697898
 20
-0.0151710689
 30
0.0
 10
48.0604987429
 20
-0.0189819202
 30
0.0
 10
48.0551228368
 20
-0.0221831239
 30
0.0
 10
48.0496591918
 20
-0.0247625708
 30
0.0
 10
48.0441261185
 20
-0.0267112901
 30
0.0
 10
48.0385418313
 20
-0.0280194886
 30
0.0
 10
48.0329264935
 20
-0.02868293
 30
0.0
 10
48.0273002453
 20
-0.0286976194
 30
0.0
 10
48.0216839763
 20
-0.0280633822
 30
0.0
 10
48.016097848
 20
-0.0267842531
 30
0.0
 10
48.0105620525
 20
-0.0248642752
 30
0.0
 10
48.0050948875
 20
-0.0223131154
 30
0.0
 10
47.9997146215
 20
-0.0191397829
 30
0.0
 10
47.9944385065
 20
-0.0153561556
 30
0.0
 10
47.9892825531
 20
-0.0109761434
 30
0.0
 10
47.9842639012
 20
-0.0060136565
 30
0.0
 10
47.9793972735
 20
-0.0004862589
 30
0.0
 10
47.9746987325
 20
0.0055884698
 30
0.0
 10
47.970183123
 20
0.012190459
 30
0.0
 10
47.9658643548
 20
0.019297877
 30
0.0
 10
47.9617573267
 20
0.026888035
 30
0.0
 10
47.9578742894
 20
0.0349355743
 30
0.0
 10
47.9542284984
 20
0.0434147533
 30
0.0
 10
47.9496387586
 20
0.0554175828
 30
0.0
 10
47.946684367
 20
0.0647432361
 30
0.0
 10
47.944905823
 20
0.0710988037
 30
0.0
  0
SPLINE
  5
4D0
100
AcDbEntity
  8
0
100
AcDbSpline
 62
7
  6
CONTINUOUS
 70
0
 71
3
 72
38
 73
34
 74
0
 42
0.0000001
 43
0.0000001
 44
0.0000000001
 40
0.0
 40
0.0
 40
0.0
 40
0.0
 40
0.0371780679
 40
0.0730019723
 40
0.1074514559
 40
0.1405205382
 40
0.1722226225
 40
0.2025931633
 40
0.231688707
 40
0.2595944
 40
0.2864211026
 40
0.3123094696
 40
0.3374293096
 40
0.3619756959
 40
0.3861666379
 40
0.4102336382
 40
0.4344139147
 40
0.45893941
 40
0.484028944
 40
0.5098787445
 40
0.5366597783
 40
0.5645141477
 40
0.5935538986
 40
0.6238654325
 40
0.6555064661
 40
0.6885133203
 40
0.7229004751
 40
0.7586626027
 40
0.7957802083
 40
0.8342161899
 40
0.8739227655
 40
0.9148398186
 40
1.0
 40
1.0
 40
1.0
 40
1.0
 10
48.0982888645
 20
0.3054906988
 30
0.0
 10
48.0969812287
 20
0.3080580946
 30
0.0
 10
48.0942984526
 20
0.3130419559
 30
0.0
 10
48.0899890089
 20
0.3201715598
 30
0.0
 10
48.0854819557
 20
0.3267968814
 30
0.0
 10
48.0807913926
 20
0.332895883
 30
0.0
 10
48.0759319935
 20
0.3384483862
 30
0.0
 10
48.0709198998
 20
0.3434367803
 30
0.0
 10
48.0657697898
 20
0.3478434302
 30
0.0
 10
48.0604987429
 20
0.3516542815
 30
0.0
 10
48.0551228368
 20
0.3548554852
 30
0.0
 10
48.0496591918
 20
0.357434932
 30
0.0
 10
48.0441261185
 20
0.3593836514
 30
0.0
 10
48.0385418313
 20
0.3606918499
 30
0.0
 10
48.0329264935
 20
0.3613552913
 30
0.0
 10
48.0273002453
 20
0.3613699807
 30
0.0
 10
48.0216839763
 20
0.3607357435
 30
0.0
 10
48.016097848
 20
0.3594566144
 30
0.0
 10
48.0105620525
 20
0.3575366365
 30
0.0
 10
48.0050948875
 20
0.3549854767
 30
0.0
 10
47.9997146215
 20
0.3518121442
 30
0.0
 10
47.9944385065
 20
0.3480285169
 30
0.0
 10
47.9892825531
 20
0.3436485047
 30
0.0
 10
47.9842639012
 20
0.3386860178
 30
0.0
 10
47.9793972735
 20
0.3331586202
 30
0.0
 10
47.9746987325
 20
0.3270838915
 30
0.0
 10
47.970183123
 20
0.3204819023
 30
0.0
 10
47.9658643548
 20
0.3133744843
 30
0.0
 10
47.9617573267
 20
0.3057843263
 30
0.0
 10
47.9578742894
 20
0.297736787
 30
0.0
 10
47.9542284984
 20
0.289257608
 30
0.0
 10
47.9496387586
 20
0.2772547785
 30
0.0
 10
47.946684367
 20
0.2679291252
 30
0.0
 10
47.944905823
 20
0.2615735576
 30
0.0
  0
SPLINE
  5
4D1
100
AcDbEntity
  8
0
100
AcDbSpline
 62
7
  6
CONTINUOUS
 70
0
 71
3
 72
28
 73
24
 74
0
 42
0.0000001
 43
0.0000001
 44
0.0000000001
 40
0.0
 40
0.0
 40
0.0
 40
0.0
 40
0.0809538291
 40
0.1613813644
 40
0.2406203138
 40
0.3181401174
 40
0.3934339808
 40
0.4660114845
 40
0.5354465657
 40
0.601381138
 40
0.6329553309
 40
0.6635612855
 40
0.6931812056
 40
0.7218083152
 40
0.7760736811
 40
0.8017638312
 40
0.8265284098
 40
0.8734496737
 40
0.9174196222
 40
0.9385589469
 40
0.9592787635
 40
0.9797122304
 40
1.0
 40
1.0
 40
1.0
 40
1.0
 10
47.6271531264
 20
0.1663361806
 30
0.0
 10
47.6271531264
 20
0.1694399775
 30
0.0
 10
47.6270012268
 20
0.1756284616
 30
0.0
 10
47.6263217999
 20
0.1848325007
 30
0.0
 10
47.6251951959
 20
0.1938603123
 30
0.0
 10
47.623633429
 20
0.2026234279
 30
0.0
 10
47.6216516568
 20
0.2110394261
 30
0.0
 10
47.619268097
 20
0.2190282468
 30
0.0
 10
47.6165062997
 20
0.2265133806
 30
0.0
 10
47.61387334
 20
0.2323546037
 30
0.0
 10
47.6115918364
 20
0.2367059083
 30
0.0
 10
47.609828447
 20
0.2397531868
 30
0.0
 10
47.6079919844
 20
0.2426240551
 30
0.0
 10
47.6054971536
 20
0.2461444117
 30
0.0
 10
47.6028368575
 20
0.2493595701
 30
0.0
 10
47.6000087441
 20
0.2522127835
 30
0.0
 10
47.5972166661
 20
0.2546943243
 30
0.0
 10
47.593611015
 20
0.2573029202
 30
0.0
 10
47.5897605119
 20
0.2592555901
 30
0.0
 10
47.5866489427
 20
0.2603388684
 30
0.0
 10
47.5843269855
 20
0.2609133934
 30
0.0
 10
47.5819933049
 20
0.2612590349
 30
0.0
 10
47.5804309663
 20
0.2613361806
 30
0.0
 10
47.5796531264
 20
0.2613361806
 30
0.0
  0
SPLINE
  5
4D2
100
AcDbEntity
  8
0
100
AcDbSpline
 62
7
  6
CONTINUOUS
 70
0
 71
3
 72
28
 73
24
 74
0
 42
0.0000001
 43
0.0000001
 44
0.0000000001
 40
0.0
 40
0.0
 40
0.0
 40
0.0
 40
0.0809538291
 40
0.1613813644
 40
0.2406203138
 40
0.3181401174
 40
0.3934339808
 40
0.4660114845
 40
0.5354465657
 40
0.601381138
 40
0.6329553309
 40
0.6635612855
 40
0.6931812056
 40
0.7218083152
 40
0.7760736811
 40
0.8017638312
 40
0.8265284098
 40
0.8734496737
 40
0.9174196222
 40
0.9385589469
 40
0.9592787635
 40
0.9797122304
 40
1.0
 40
1.0
 40
1.0
 40
1.0
 10
47.6271531264
 20
0.1663361806
 30
0.0
 10
47.6271531264
 20
0.1632323838
 30
0.0
 10
47.6270012268
 20
0.1570438997
 30
0.0
 10
47.6263217999
 20
0.1478398606
 30
0.0
 10
47.6251951959
 20
0.138812049
 30
0.0
 10
47.623633429
 20
0.1300489334
 30
0.0
 10
47.6216516568
 20
0.1216329352
 30
0.0
 10
47.619268097
 20
0.1136441145
 30
0.0
 10
47.6165062997
 20
0.1061589807
 30
0.0
 10
47.61387334
 20
0.1003177576
 30
0.0
 10
47.6115918364
 20
0.095966453
 30
0.0
 10
47.609828447
 20
0.0929191745
 30
0.0
 10
47.6079919844
 20
0.0900483062
 30
0.0
 10
47.6054971536
 20
0.0865279496
 30
0.0
 10
47.6028368575
 20
0.0833127912
 30
0.0
 10
47.6000087441
 20
0.0804595778
 30
0.0
 10
47.5972166661
 20
0.077978037
 30
0.0
 10
47.593611015
 20
0.0753694411
 30
0.0
 10
47.5897605119
 20
0.0734167712
 30
0.0
 10
47.5866489427
 20
0.0723334929
 30
0.0
 10
47.5843269855
 20
0.0717589679
 30
0.0
 10
47.5819933049
 20
0.0714133264
 30
0.0
 10
47.5804309663
 20
0.0713361806
 30
0.0
 10
47.5796531264
 20
0.0713361806
 30
0.0
  0
SPLINE
  5
4D3
100
AcDbEntity
  8
0
100
AcDbSpline
 62
7
  6
CONTINUOUS
 70
0
 71
3
 72
30
 73
26
 74
0
 42
0.0000001
 43
0.0000001
 44
0.0000000001
 40
0.0
 40
0.0
 40
0.0
 40
0.0
 40
0.0202864952
 40
0.0407184475
 40
0.0614374209
 40
0.0825755309
 40
0.1042537402
 40
0.1265804465
 40
0.1496471832
 40
0.1735302532
 40
0.2239571241
 40
0.2506065534
 40
0.2782383341
 40
0.3068642419
 40
0.336483111
 40
0.3986445593
 40
0.4311601501
 40
0.4645873861
 40
0.5340176952
 40
0.6065898247
 40
0.6818797521
 40
0.7593967695
 40
0.8386281668
 40
0.9190459734
 40
1.0
 40
1.0
 40
1.0
 40
1.0
 10
48.0299863364
 20
0.2613359945
 30
0.0
 10
48.0307641762
 20
0.2613359945
 30
0.0
 10
48.0323265064
 20
0.2612591542
 30
0.0
 10
48.0346602704
 20
0.2609136955
 30
0.0
 10
48.0369820471
 20
0.2603387194
 30
0.0
 10
48.0392858144
 20
0.2595366166
 30
0.0
 10
48.041566022
 20
0.2585095353
 30
0.0
 10
48.043816847
 20
0.2572597934
 30
0.0
 10
48.0460333067
 20
0.2557911722
 30
0.0
 10
48.0489888916
 20
0.2535053383
 30
0.0
 10
48.0517975828
 20
0.2508232853
 30
0.0
 10
48.0544521079
 20
0.2478096925
 30
0.0
 10
48.0564208238
 20
0.2453116759
 30
0.0
 10
48.0583252794
 20
0.2426239521
 30
0.0
 10
48.060813578
 20
0.2387335565
 30
0.0
 10
48.063108073
 20
0.2345488182
 30
0.0
 10
48.0652171645
 20
0.230111988
 30
0.0
 10
48.0672710897
 20
0.2253438587
 30
0.0
 10
48.0696013328
 20
0.2190280624
 30
0.0
 10
48.0719849589
 20
0.2110395474
 30
0.0
 10
48.0739665929
 20
0.2026233596
 30
0.0
 10
48.0755284472
 20
0.1938602708
 30
0.0
 10
48.0766549449
 20
0.1848326409
 30
0.0
 10
48.0773345335
 20
0.1756286917
 30
0.0
 10
48.0774863364
 20
0.1694401799
 30
0.0
 10
48.0774863364
 20
0.1663361806
 30
0.0
  0
SPLINE
  5
4D4
100
AcDbEntity
  8
0
100
AcDbSpline
 62
7
  6
CONTINUOUS
 70
0
 71
3
 72
18
 73
14
 74
0
 42
0.0000001
 43
0.0000001
 44
0.0000000001
 40
0.0
 40
0.0
 40
0.0
 40
0.0
 40
0.1348648195
 40
0.2687755879
 40
0.4006804234
 40
0.4656047309
 40
0.5296887618
 40
0.6548803308
 40
0.7754490777
 40
0.8337788092
 40
0.8906936047
 40
0.9461208763
 40
1.0
 40
1.0
 40
1.0
 40
1.0
 10
48.1274863364
 20
0.1663361806
 30
0.0
 10
48.1274863364
 20
0.1727832159
 30
0.0
 10
48.1271678321
 20
0.1856340326
 30
0.0
 10
48.1257395155
 20
0.2047421872
 30
0.0
 10
48.1237575739
 20
0.220436017
 30
0.0
 10
48.121701528
 20
0.2327393436
 30
0.0
 10
48.1193737722
 20
0.244667313
 30
0.0
 10
48.1159333364
 20
0.2590825969
 30
0.0
 10
48.1117202429
 20
0.2730060078
 30
0.0
 10
48.1079282116
 20
0.2836237415
 30
0.0
 10
48.104923834
 20
0.2912110348
 30
0.0
 10
48.1017347904
 20
0.2984908257
 30
0.0
 10
48.0994578043
 20
0.3031956168
 30
0.0
 10
48.0982888645
 20
0.3054906988
 30
0.0
  0
SPLINE
  5
4D5
100
AcDbEntity
  8
0
100
AcDbSpline
 62
7
  6
CONTINUOUS
 70
0
 71
3
 72
18
 73
14
 74
0
 42
0.0000001
 43
0.0000001
 44
0.0000000001
 40
0.0
 40
0.0
 40
0.0
 40
0.0
 40
0.1348648195
 40
0.2687755879
 40
0.4006804234
 40
0.4656047309
 40
0.5296887618
 40
0.6548803308
 40
0.7754490777
 40
0.8337788092
 40
0.8906936047
 40
0.9461208763
 40
1.0
 40
1.0
 40
1.0
 40
1.0
 10
48.1274863364
 20
0.1663361806
 30
0.0
 10
48.1274863364
 20
0.1598891454
 30
0.0
 10
48.1271678321
 20
0.1470383287
 30
0.0
 10
48.1257395155
 20
0.1279301741
 30
0.0
 10
48.1237575739
 20
0.1122363443
 30
0.0
 10
48.121701528
 20
0.0999330177
 30
0.0
 10
48.1193737722
 20
0.0880050483
 30
0.0
 10
48.1159333364
 20
0.0735897644
 30
0.0
 10
48.1117202429
 20
0.0596663535
 30
0.0
 10
48.1079282116
 20
0.0490486198
 30
0.0
 10
48.104923834
 20
0.0414613265
 30
0.0
 10
48.1017347904
 20
0.0341815356
 30
0.0
 10
48.0994578043
 20
0.0294767445
 30
0.0
 10
48.0982888645
 20
0.0271816625
 30
0.0
  0
SPLINE
  5
4D6
100
AcDbEntity
  8
0
100
AcDbSpline
 62
7
  6
CONTINUOUS
 70
0
 71
3
 72
30
 73
26
 74
0
 42
0.0000001
 43
0.0000001
 44
0.0000000001
 40
0.0
 40
0.0
 40
0.0
 40
0.0
 40
0.0809540266
 40
0.1613718332
 40
0.2406032305
 40
0.3181202479
 40
0.3934101753
 40
0.4659823048
 40
0.5354126139
 40
0.5688398499
 40
0.6013554407
 40
0.663516889
 40
0.6931357581
 40
0.7217616659
 40
0.7493934466
 40
0.7760428759
 40
0.8264697468
 40
0.8503528168
 40
0.8734195535
 40
0.8957462598
 40
0.9174244691
 40
0.9385625791
 40
0.9592815525
 40
0.9797135048
 40
1.0
 40
1.0
 40
1.0
 40
1.0
 10
48.0774863364
 20
0.1663361806
 30
0.0
 10
48.0774863364
 20
0.1632321814
 30
0.0
 10
48.0773345335
 20
0.1570436696
 30
0.0
 10
48.0766549449
 20
0.1478397204
 30
0.0
 10
48.0755284472
 20
0.1388120905
 30
0.0
 10
48.0739665929
 20
0.1300490017
 30
0.0
 10
48.0719849589
 20
0.1216328139
 30
0.0
 10
48.0696013328
 20
0.1136442989
 30
0.0
 10
48.0672710897
 20
0.1073285026
 30
0.0
 10
48.0652171645
 20
0.1025603733
 30
0.0
 10
48.063108073
 20
0.0981235431
 30
0.0
 10
48.060813578
 20
0.0939388048
 30
0.0
 10
48.0583252794
 20
0.0900484092
 30
0.0
 10
48.0564208238
 20
0.0873606854
 30
0.0
 10
48.0544521079
 20
0.0848626688
 30
0.0
 10
48.0517975828
 20
0.081849076
 30
0.0
 10
48.0489888916
 20
0.079167023
 30
0.0
 10
48.0460333067
 20
0.0768811891
 30
0.0
 10
48.043816847
 20
0.0754125679
 30
0.0
 10
48.041566022
 20
0.074162826
 30
0.0
 10
48.0392858144
 20
0.0731357447
 30
0.0
 10
48.0369820471
 20
0.0723336419
 30
0.0
 10
48.0346602704
 20
0.0717586658
 30
0.0
 10
48.0323265064
 20
0.0714132071
 30
0.0
 10
48.0307641762
 20
0.0713363668
 30
0.0
 10
48.0299863364
 20
0.0713363668
 30
0.0
  0
SPLINE
  5
4D7
100
AcDbEntity
  8
0
100
AcDbSpline
 62
7
  6
CONTINUOUS
 70
0
 71
3
 72
48
 73
44
 74
0
 42
0.0000001
 43
0.0000001
 44
0.0000000001
 40
0.0
 40
0.0
 40
0.0
 40
0.0
 40
0.0334179923
 40
0.0652649576
 40
0.0955198217
 40
0.1100548361
 40
0.1241993503
 40
0.1379608929
 40
0.1513493687
 40
0.1643781899
 40
0.1770642332
 40
0.2014794699
 40
0.2248025374
 40
0.2361382423
 40
0.2472999614
 40
0.2583268681
 40
0.2692602216
 40
0.280142678
 40
0.2910178729
 40
0.3019296266
 40
0.3129209701
 40
0.3240336671
 40
0.3353077171
 40
0.3584733844
 40
0.3826928299
 40
0.4081742117
 40
0.4350713894
 40
0.44908838
 40
0.4634936212
 40
0.4934852627
 40
0.5250698598
 40
0.5582309524
 40
0.5929218775
 40
0.6290721128
 40
0.6665885028
 40
0.7053610256
 40
0.7452636781
 40
0.7861587047
 40
0.8278940323
 40
0.8703105866
 40
0.9132510557
 40
0.9565494392
 40
1.0
 40
1.0
 40
1.0
 40
1.0
 10
22.2840305861
 20
1.8321816625
 30
0.0
 10
22.2856929798
 20
1.8289177394
 30
0.0
 10
22.2891249426
 20
1.8226349759
 30
0.0
 10
22.294733781
 20
1.8137855437
 30
0.0
 10
22.2997319103
 20
1.80702309
 30
0.0
 10
22.3038802769
 20
1.8020693685
 30
0.0
 10
22.3070154489
 20
1.798630672
 30
0.0
 10
22.3102117338
 20
1.7954236911
 30
0.0
 10
22.3134651492
 20
1.7924530425
 30
0.0
 10
22.316771565
 20
1.7897226746
 30
0.0
 10
22.3211874105
 20
1.786449455
 30
0.0
 10
22.3268256257
 20
1.7829452798
 30
0.0
 10
22.3327184648
 20
1.7802159507
 30
0.0
 10
22.3374675369
 20
1.7785716817
 30
0.0
 10
22.3410171635
 20
1.7776099242
 30
0.0
 10
22.3445825302
 20
1.7769095692
 30
0.0
 10
22.3481587715
 20
1.7764712931
 30
0.0
 10
22.3517408988
 20
1.7762958899
 30
0.0
 10
22.3553238718
 20
1.7763841904
 30
0.0
 10
22.3589026118
 20
1.7767356692
 30
0.0
 10
22.3624721069
 20
1.7773494894
 30
0.0
 10
22.3660275435
 20
1.7782249323
 30
0.0
 10
22.3707844012
 20
1.7797531137
 30
0.0
 10
22.3766928126
 20
1.7823387022
 30
0.0
 10
22.3835722838
 20
1.78643133
 30
0.0
 10
22.390273396
 20
1.7915156362
 30
0.0
 10
22.3956062372
 20
1.7964849812
 30
0.0
 10
22.3997566589
 20
1.8009073794
 30
0.0
 10
22.4039352615
 20
1.8057608287
 30
0.0
 10
22.4089748014
 20
1.8124026572
 30
0.0
 10
22.4146370874
 20
1.8211165086
 30
0.0
 10
22.4199639078
 20
1.8306334946
 30
0.0
 10
22.424928028
 20
1.8409022972
 30
0.0
 10
22.4295025271
 20
1.8518688808
 30
0.0
 10
22.4336641431
 20
1.8634744975
 30
0.0
 10
22.4373897582
 20
1.8756576236
 30
0.0
 10
22.4406605308
 20
1.8883530652
 30
0.0
 10
22.4434577431
 20
1.9014930929
 30
0.0
 10
22.4457677134
 20
1.9150068655
 30
0.0
 10
22.4475770357
 20
1.9288226902
 30
0.0
 10
22.4488768007
 20
1.9428677312
 30
0.0
 10
22.4496586266
 20
1.9570643251
 30
0.0
 10
22.4498331142
 20
1.9665736406
 30
0.0
 10
22.4498331142
 20
1.9713361806
 30
0.0
  0
SPLINE
  5
4D8
100
AcDbEntity
  8
0
100
AcDbSpline
 62
7
  6
CONTINUOUS
 70
0
 71
3
 72
48
 73
44
 74
0
 42
0.0000001
 43
0.0000001
 44
0.0000000001
 40
0.0
 40
0.0
 40
0.0
 40
0.0
 40
0.0334179923
 40
0.0652649576
 40
0.0955198217
 40
0.1100548361
 40
0.1241993503
 40
0.1379608929
 40
0.1513493687
 40
0.1643781899
 40
0.1770642332
 40
0.2014794699
 40
0.2248025374
 40
0.2361382423
 40
0.2472999614
 40
0.2583268681
 40
0.2692602216
 40
0.280142678
 40
0.2910178729
 40
0.3019296266
 40
0.3129209701
 40
0.3240336671
 40
0.3353077171
 40
0.3584733844
 40
0.3826928299
 40
0.4081742117
 40
0.4350713894
 40
0.44908838
 40
0.4634936212
 40
0.4934852627
 40
0.5250698598
 40
0.5582309524
 40
0.5929218775
 40
0.6290721128
 40
0.6665885028
 40
0.7053610256
 40
0.7452636781
 40
0.7861587047
 40
0.8278940323
 40
0.8703105866
 40
0.9132510557
 40
0.9565494392
 40
1.0
 40
1.0
 40
1.0
 40
1.0
 10
22.2840305861
 20
2.1104906988
 30
0.0
 10
22.2856929798
 20
2.1137546219
 30
0.0
 10
22.2891249426
 20
2.1200373854
 30
0.0
 10
22.294733781
 20
2.1288868176
 30
0.0
 10
22.2997319103
 20
2.1356492713
 30
0.0
 10
22.3038802769
 20
2.1406029928
 30
0.0
 10
22.3070154489
 20
2.1440416893
 30
0.0
 10
22.3102117338
 20
2.1472486702
 30
0.0
 10
22.3134651492
 20
2.1502193188
 30
0.0
 10
22.316771565
 20
2.1529496867
 30
0.0
 10
22.3211874105
 20
2.1562229063
 30
0.0
 10
22.3268256257
 20
2.1597270815
 30
0.0
 10
22.3327184648
 20
2.1624564106
 30
0.0
 10
22.3374675369
 20
2.1641006796
 30
0.0
 10
22.3410171635
 20
2.1650624371
 30
0.0
 10
22.3445825302
 20
2.1657627921
 30
0.0
 10
22.3481587715
 20
2.1662010682
 30
0.0
 10
22.3517408988
 20
2.1663764714
 30
0.0
 10
22.3553238718
 20
2.1662881709
 30
0.0
 10
22.3589026118
 20
2.1659366921
 30
0.0
 10
22.3624721069
 20
2.1653228719
 30
0.0
 10
22.3660275435
 20
2.164447429
 30
0.0
 10
22.3707844012
 20
2.1629192476
 30
0.0
 10
22.3766928126
 20
2.1603336591
 30
0.0
 10
22.3835722838
 20
2.1562410313
 30
0.0
 10
22.390273396
 20
2.1511567251
 30
0.0
 10
22.3956062372
 20
2.1461873801
 30
0.0
 10
22.3997566589
 20
2.1417649819
 30
0.0
 10
22.4039352615
 20
2.1369115326
 30
0.0
 10
22.4089748014
 20
2.1302697041
 30
0.0
 10
22.4146370874
 20
2.1215558527
 30
0.0
 10
22.4199639078
 20
2.1120388667
 30
0.0
 10
22.424928028
 20
2.1017700641
 30
0.0
 10
22.4295025271
 20
2.0908034805
 30
0.0
 10
22.4336641431
 20
2.0791978638
 30
0.0
 10
22.4373897582
 20
2.0670147377
 30
0.0
 10
22.4406605308
 20
2.0543192961
 30
0.0
 10
22.4434577431
 20
2.0411792684
 30
0.0
 10
22.4457677134
 20
2.0276654958
 30
0.0
 10
22.4475770357
 20
2.0138496711
 30
0.0
 10
22.4488768007
 20
1.99980463
 30
0.0
 10
22.4496586266
 20
1.9856080362
 30
0.0
 10
22.4498331142
 20
1.9760987207
 30
0.0
 10
22.4498331142
 20
1.9713361806
 30
0.0
  0
SPLINE
  5
4D9
100
AcDbEntity
  8
0
100
AcDbSpline
 62
7
  6
CONTINUOUS
 70
0
 71
3
 72
48
 73
44
 74
0
 42
0.0000001
 43
0.0000001
 44
0.0000000001
 40
0.0
 40
0.0
 40
0.0
 40
0.0
 40
0.0334179923
 40
0.0652649576
 40
0.0955198217
 40
0.1100548361
 40
0.1241993503
 40
0.1379608929
 40
0.1513493687
 40
0.1643781899
 40
0.1770642332
 40
0.2014794699
 40
0.2248025374
 40
0.2361382423
 40
0.2472999614
 40
0.2583268681
 40
0.2692602216
 40
0.280142678
 40
0.2910178729
 40
0.3019296266
 40
0.3129209701
 40
0.3240336671
 40
0.3353077171
 40
0.3584733844
 40
0.3826928299
 40
0.4081742117
 40
0.4350713894
 40
0.44908838
 40
0.4634936212
 40
0.4934852627
 40
0.5250698598
 40
0.5582309524
 40
0.5929218775
 40
0.6290721128
 40
0.6665885028
 40
0.7053610256
 40
0.7452636781
 40
0.7861587047
 40
0.8278940323
 40
0.8703105866
 40
0.9132510557
 40
0.9565494392
 40
1.0
 40
1.0
 40
1.0
 40
1.0
 10
22.2840305861
 20
0.0271816625
 30
0.0
 10
22.2856929798
 20
0.0239177394
 30
0.0
 10
22.2891249426
 20
0.0176349759
 30
0.0
 10
22.294733781
 20
0.0087855437
 30
0.0
 10
22.2997319103
 20
0.00202309
 30
0.0
 10
22.3038802769
 20
-0.0029306315
 30
0.0
 10
22.3070154489
 20
-0.006369328
 30
0.0
 10
22.3102117338
 20
-0.0095763089
 30
0.0
 10
22.3134651492
 20
-0.0125469575
 30
0.0
 10
22.316771565
 20
-0.0152773254
 30
0.0
 10
22.3211874105
 20
-0.018550545
 30
0.0
 10
22.3268256257
 20
-0.0220547202
 30
0.0
 10
22.3327184648
 20
-0.0247840493
 30
0.0
 10
22.3374675369
 20
-0.0264283183
 30
0.0
 10
22.3410171635
 20
-0.0273900758
 30
0.0
 10
22.3445825302
 20
-0.0280904308
 30
0.0
 10
22.3481587715
 20
-0.0285287069
 30
0.0
 10
22.3517408988
 20
-0.0287041101
 30
0.0
 10
22.3553238718
 20
-0.0286158096
 30
0.0
 10
22.3589026118
 20
-0.0282643308
 30
0.0
 10
22.3624721069
 20
-0.0276505106
 30
0.0
 10
22.3660275435
 20
-0.0267750677
 30
0.0
 10
22.3707844012
 20
-0.0252468863
 30
0.0
 10
22.3766928126
 20
-0.0226612978
 30
0.0
 10
22.3835722838
 20
-0.01856867
 30
0.0
 10
22.390273396
 20
-0.0134843638
 30
0.0
 10
22.3956062372
 20
-0.0085150188
 30
0.0
 10
22.3997566589
 20
-0.0040926206
 30
0.0
 10
22.4039352615
 20
0.0007608287
 30
0.0
 10
22.4089748014
 20
0.0074026572
 30
0.0
 10
22.4146370874
 20
0.0161165086
 30
0.0
 10
22.4199639078
 20
0.0256334946
 30
0.0
 10
22.424928028
 20
0.0359022972
 30
0.0
 10
22.4295025271
 20
0.0468688808
 30
0.0
 10
22.4336641431
 20
0.0584744975
 30
0.0
 10
22.4373897582
 20
0.0706576236
 30
0.0
 10
22.4406605308
 20
0.0833530652
 30
0.0
 10
22.4434577431
 20
0.0964930929
 30
0.0
 10
22.4457677134
 20
0.1100068655
 30
0.0
 10
22.4475770357
 20
0.1238226902
 30
0.0
 10
22.4488768007
 20
0.1378677312
 30
0.0
 10
22.4496586266
 20
0.1520643251
 30
0.0
 10
22.4498331142
 20
0.1615736406
 30
0.0
 10
22.4498331142
 20
0.1663361806
 30
0.0
  0
SPLINE
  5
4DA
100
AcDbEntity
  8
0
100
AcDbSpline
 62
7
  6
CONTINUOUS
 70
0
 71
3
 72
48
 73
44
 74
0
 42
0.0000001
 43
0.0000001
 44
0.0000000001
 40
0.0
 40
0.0
 40
0.0
 40
0.0
 40
0.0334179923
 40
0.0652649576
 40
0.0955198217
 40
0.1100548361
 40
0.1241993503
 40
0.1379608929
 40
0.1513493687
 40
0.1643781899
 40
0.1770642332
 40
0.2014794699
 40
0.2248025374
 40
0.2361382423
 40
0.2472999614
 40
0.2583268681
 40
0.2692602216
 40
0.280142678
 40
0.2910178729
 40
0.3019296266
 40
0.3129209701
 40
0.3240336671
 40
0.3353077171
 40
0.3584733844
 40
0.3826928299
 40
0.4081742117
 40
0.4350713894
 40
0.44908838
 40
0.4634936212
 40
0.4934852627
 40
0.5250698598
 40
0.5582309524
 40
0.5929218775
 40
0.6290721128
 40
0.6665885028
 40
0.7053610256
 40
0.7452636781
 40
0.7861587047
 40
0.8278940323
 40
0.8703105866
 40
0.9132510557
 40
0.9565494392
 40
1.0
 40
1.0
 40
1.0
 40
1.0
 10
22.2840305861
 20
0.3054906988
 30
0.0
 10
22.2856929798
 20
0.3087546219
 30
0.0
 10
22.2891249426
 20
0.3150373854
 30
0.0
 10
22.294733781
 20
0.3238868176
 30
0.0
 10
22.2997319103
 20
0.3306492713
 30
0.0
 10
22.3038802769
 20
0.3356029928
 30
0.0
 10
22.3070154489
 20
0.3390416893
 30
0.0
 10
22.3102117338
 20
0.3422486702
 30
0.0
 10
22.3134651492
 20
0.3452193188
 30
0.0
 10
22.316771565
 20
0.3479496867
 30
0.0
 10
22.3211874105
 20
0.3512229063
 30
0.0
 10
22.3268256257
 20
0.3547270815
 30
0.0
 10
22.3327184648
 20
0.3574564106
 30
0.0
 10
22.3374675369
 20
0.3591006796
 30
0.0
 10
22.3410171635
 20
0.3600624371
 30
0.0
 10
22.3445825302
 20
0.3607627921
 30
0.0
 10
22.3481587715
 20
0.3612010682
 30
0.0
 10
22.3517408988
 20
0.3613764714
 30
0.0
 10
22.3553238718
 20
0.3612881709
 30
0.0
 10
22.3589026118
 20
0.3609366921
 30
0.0
 10
22.3624721069
 20
0.3603228719
 30
0.0
 10
22.3660275435
 20
0.359447429
 30
0.0
 10
22.3707844012
 20
0.3579192476
 30
0.0
 10
22.3766928126
 20
0.3553336591
 30
0.0
 10
22.3835722838
 20
0.3512410313
 30
0.0
 10
22.390273396
 20
0.3461567251
 30
0.0
 10
22.3956062372
 20
0.3411873801
 30
0.0
 10
22.3997566589
 20
0.3367649819
 30
0.0
 10
22.4039352615
 20
0.3319115326
 30
0.0
 10
22.4089748014
 20
0.3252697041
 30
0.0
 10
22.4146370874
 20
0.3165558527
 30
0.0
 10
22.4199639078
 20
0.3070388667
 30
0.0
 10
22.424928028
 20
0.2967700641
 30
0.0
 10
22.4295025271
 20
0.2858034805
 30
0.0
 10
22.4336641431
 20
0.2741978638
 30
0.0
 10
22.4373897582
 20
0.2620147377
 30
0.0
 10
22.4406605308
 20
0.2493192961
 30
0.0
 10
22.4434577431
 20
0.2361792684
 30
0.0
 10
22.4457677134
 20
0.2226654958
 30
0.0
 10
22.4475770357
 20
0.2088496711
 30
0.0
 10
22.4488768007
 20
0.19480463
 30
0.0
 10
22.4496586266
 20
0.1806080362
 30
0.0
 10
22.4498331142
 20
0.1710987207
 30
0.0
 10
22.4498331142
 20
0.1663361806
 30
0.0
  0
SPLINE
  5
4DB
100
AcDbEntity
  8
0
100
AcDbSpline
 62
7
  6
CONTINUOUS
 70
0
 71
3
 72
48
 73
44
 74
0
 42
0.0000001
 43
0.0000001
 44
0.0000000001
 40
0.0
 40
0.0
 40
0.0
 40
0.0
 40
0.0334179923
 40
0.0652649576
 40
0.0955198217
 40
0.1100548361
 40
0.1241993503
 40
0.1379608929
 40
0.1513493687
 40
0.1643781899
 40
0.1770642332
 40
0.2014794699
 40
0.2248025374
 40
0.2361382423
 40
0.2472999614
 40
0.2583268681
 40
0.2692602216
 40
0.280142678
 40
0.2910178729
 40
0.3019296266
 40
0.3129209701
 40
0.3240336671
 40
0.3353077171
 40
0.3584733844
 40
0.3826928299
 40
0.4081742117
 40
0.4350713894
 40
0.44908838
 40
0.4634936212
 40
0.4934852627
 40
0.5250698598
 40
0.5582309524
 40
0.5929218775
 40
0.6290721128
 40
0.6665885028
 40
0.7053610256
 40
0.7452636781
 40
0.7861587047
 40
0.8278940323
 40
0.8703105866
 40
0.9132510557
 40
0.9565494392
 40
1.0
 40
1.0
 40
1.0
 40
1.0
 10
22.2840305861
 20
4.8821816625
 30
0.0
 10
22.2856929798
 20
4.8789177394
 30
0.0
 10
22.2891249426
 20
4.8726349759
 30
0.0
 10
22.294733781
 20
4.8637855437
 30
0.0
 10
22.2997319103
 20
4.85702309
 30
0.0
 10
22.3038802769
 20
4.8520693685
 30
0.0
 10
22.3070154489
 20
4.848630672
 30
0.0
 10
22.3102117338
 20
4.8454236911
 30
0.0
 10
22.3134651492
 20
4.8424530425
 30
0.0
 10
22.316771565
 20
4.8397226746
 30
0.0
 10
22.3211874105
 20
4.836449455
 30
0.0
 10
22.3268256257
 20
4.8329452798
 30
0.0
 10
22.3327184648
 20
4.8302159507
 30
0.0
 10
22.3374675369
 20
4.8285716817
 30
0.0
 10
22.3410171635
 20
4.8276099242
 30
0.0
 10
22.3445825302
 20
4.8269095692
 30
0.0
 10
22.3481587715
 20
4.8264712931
 30
0.0
 10
22.3517408988
 20
4.8262958899
 30
0.0
 10
22.3553238718
 20
4.8263841904
 30
0.0
 10
22.3589026118
 20
4.8267356692
 30
0.0
 10
22.3624721069
 20
4.8273494894
 30
0.0
 10
22.3660275435
 20
4.8282249323
 30
0.0
 10
22.3707844012
 20
4.8297531137
 30
0.0
 10
22.3766928126
 20
4.8323387022
 30
0.0
 10
22.3835722838
 20
4.83643133
 30
0.0
 10
22.390273396
 20
4.8415156362
 30
0.0
 10
22.3956062372
 20
4.8464849812
 30
0.0
 10
22.3997566589
 20
4.8509073794
 30
0.0
 10
22.4039352615
 20
4.8557608287
 30
0.0
 10
22.4089748014
 20
4.8624026572
 30
0.0
 10
22.4146370874
 20
4.8711165086
 30
0.0
 10
22.4199639078
 20
4.8806334946
 30
0.0
 10
22.424928028
 20
4.8909022972
 30
0.0
 10
22.4295025271
 20
4.9018688808
 30
0.0
 10
22.4336641431
 20
4.9134744975
 30
0.0
 10
22.4373897582
 20
4.9256576236
 30
0.0
 10
22.4406605308
 20
4.9383530652
 30
0.0
 10
22.4434577431
 20
4.9514930929
 30
0.0
 10
22.4457677134
 20
4.9650068655
 30
0.0
 10
22.4475770357
 20
4.9788226902
 30
0.0
 10
22.4488768007
 20
4.9928677312
 30
0.0
 10
22.4496586266
 20
5.0070643251
 30
0.0
 10
22.4498331142
 20
5.0165736406
 30
0.0
 10
22.4498331142
 20
5.0213361806
 30
0.0
  0
SPLINE
  5
4DC
100
AcDbEntity
  8
0
100
AcDbSpline
 62
7
  6
CONTINUOUS
 70
0
 71
3
 72
48
 73
44
 74
0
 42
0.0000001
 43
0.0000001
 44
0.0000000001
 40
0.0
 40
0.0
 40
0.0
 40
0.0
 40
0.0334179923
 40
0.0652649576
 40
0.0955198217
 40
0.1100548361
 40
0.1241993503
 40
0.1379608929
 40
0.1513493687
 40
0.1643781899
 40
0.1770642332
 40
0.2014794699
 40
0.2248025374
 40
0.2361382423
 40
0.2472999614
 40
0.2583268681
 40
0.2692602216
 40
0.280142678
 40
0.2910178729
 40
0.3019296266
 40
0.3129209701
 40
0.3240336671
 40
0.3353077171
 40
0.3584733844
 40
0.3826928299
 40
0.4081742117
 40
0.4350713894
 40
0.44908838
 40
0.4634936212
 40
0.4934852627
 40
0.5250698598
 40
0.5582309524
 40
0.5929218775
 40
0.6290721128
 40
0.6665885028
 40
0.7053610256
 40
0.7452636781
 40
0.7861587047
 40
0.8278940323
 40
0.8703105866
 40
0.9132510557
 40
0.9565494392
 40
1.0
 40
1.0
 40
1.0
 40
1.0
 10
22.2840305861
 20
5.1604906988
 30
0.0
 10
22.2856929798
 20
5.1637546219
 30
0.0
 10
22.2891249426
 20
5.1700373854
 30
0.0
 10
22.294733781
 20
5.1788868176
 30
0.0
 10
22.2997319103
 20
5.1856492713
 30
0.0
 10
22.3038802769
 20
5.1906029928
 30
0.0
 10
22.3070154489
 20
5.1940416893
 30
0.0
 10
22.3102117338
 20
5.1972486702
 30
0.0
 10
22.3134651492
 20
5.2002193188
 30
0.0
 10
22.316771565
 20
5.2029496867
 30
0.0
 10
22.3211874105
 20
5.2062229063
 30
0.0
 10
22.3268256257
 20
5.2097270815
 30
0.0
 10
22.3327184648
 20
5.2124564106
 30
0.0
 10
22.3374675369
 20
5.2141006796
 30
0.0
 10
22.3410171635
 20
5.2150624371
 30
0.0
 10
22.3445825302
 20
5.2157627921
 30
0.0
 10
22.3481587715
 20
5.2162010682
 30
0.0
 10
22.3517408988
 20
5.2163764714
 30
0.0
 10
22.3553238718
 20
5.2162881709
 30
0.0
 10
22.3589026118
 20
5.2159366921
 30
0.0
 10
22.3624721069
 20
5.2153228719
 30
0.0
 10
22.3660275435
 20
5.214447429
 30
0.0
 10
22.3707844012
 20
5.2129192476
 30
0.0
 10
22.3766928126
 20
5.2103336591
 30
0.0
 10
22.3835722838
 20
5.2062410313
 30
0.0
 10
22.390273396
 20
5.2011567251
 30
0.0
 10
22.3956062372
 20
5.1961873801
 30
0.0
 10
22.3997566589
 20
5.1917649819
 30
0.0
 10
22.4039352615
 20
5.1869115326
 30
0.0
 10
22.4089748014
 20
5.1802697041
 30
0.0
 10
22.4146370874
 20
5.1715558527
 30
0.0
 10
22.4199639078
 20
5.1620388667
 30
0.0
 10
22.424928028
 20
5.1517700641
 30
0.0
 10
22.4295025271
 20
5.1408034805
 30
0.0
 10
22.4336641431
 20
5.1291978638
 30
0.0
 10
22.4373897582
 20
5.1170147377
 30
0.0
 10
22.4406605308
 20
5.1043192961
 30
0.0
 10
22.4434577431
 20
5.0911792684
 30
0.0
 10
22.4457677134
 20
5.0776654958
 30
0.0
 10
22.4475770357
 20
5.0638496711
 30
0.0
 10
22.4488768007
 20
5.04980463
 30
0.0
 10
22.4496586266
 20
5.0356080362
 30
0.0
 10
22.4498331142
 20
5.0260987207
 30
0.0
 10
22.4498331142
 20
5.0213361806
 30
0.0
  0
SPLINE
  5
4DD
100
AcDbEntity
  8
0
100
AcDbSpline
 62
7
  6
CONTINUOUS
 70
0
 71
3
 72
21
 73
17
 74
0
 42
0.0000001
 43
0.0000001
 44
0.0000000001
 40
0.0
 40
0.0
 40
0.0
 40
0.0
 40
0.161234686
 40
0.318158167
 40
0.3934666656
 40
0.466039937
 40
0.535468351
 40
0.6014139702
 40
0.6636093949
 40
0.7218606425
 40
0.7761326288
 40
0.8265791509
 40
0.8735144044
 40
0.9174888109
 40
0.9593165281
 40
1.0
 40
1.0
 40
1.0
 40
1.0
 10
22.4939356546
 20
1.6113361806
 30
0.0
 10
22.4939356546
 20
1.6184921523
 30
0.0
 10
22.4932443797
 20
1.6326213134
 30
0.0
 10
22.4906683617
 20
1.6499274613
 30
0.0
 10
22.4875641268
 20
1.6631012215
 30
0.0
 10
22.4848059087
 20
1.6723494826
 30
0.0
 10
22.4816070377
 20
1.6810138655
 30
0.0
 10
22.4779987607
 20
1.6890142795
 30
0.0
 10
22.4740192933
 20
1.6962774371
 30
0.0
 10
22.4697002211
 20
1.7027317117
 30
0.0
 10
22.4650776444
 20
1.708313286
 30
0.0
 10
22.4601976757
 20
1.7129744182
 30
0.0
 10
22.4550979762
 20
1.7166668886
 30
0.0
 10
22.4498172345
 20
1.7193408578
 30
0.0
 10
22.4444127679
 20
1.7209676872
 30
0.0
 10
22.440741282
 20
1.7213361806
 30
0.0
 10
22.4389356546
 20
1.7213361806
 30
0.0
  0
SPLINE
  5
4DE
100
AcDbEntity
  8
0
100
AcDbSpline
 62
7
  6
CONTINUOUS
 70
0
 71
3
 72
21
 73
17
 74
0
 42
0.0000001
 43
0.0000001
 44
0.0000000001
 40
0.0
 40
0.0
 40
0.0
 40
0.0
 40
0.161234686
 40
0.318158167
 40
0.3934666656
 40
0.466039937
 40
0.535468351
 40
0.6014139702
 40
0.6636093949
 40
0.7218606425
 40
0.7761326288
 40
0.8265791509
 40
0.8735144044
 40
0.9174888109
 40
0.9593165281
 40
1.0
 40
1.0
 40
1.0
 40
1.0
 10
22.4939356546
 20
-1.0386638194
 30
0.0
 10
22.4939356546
 20
-1.0315078477
 30
0.0
 10
22.4932443797
 20
-1.0173786866
 30
0.0
 10
22.4906683617
 20
-1.0000725387
 30
0.0
 10
22.4875641268
 20
-0.9868987785
 30
0.0
 10
22.4848059087
 20
-0.9776505174
 30
0.0
 10
22.4816070377
 20
-0.9689861345
 30
0.0
 10
22.4779987607
 20
-0.9609857205
 30
0.0
 10
22.4740192933
 20
-0.9537225629
 30
0.0
 10
22.4697002211
 20
-0.9472682883
 30
0.0
 10
22.4650776444
 20
-0.941686714
 30
0.0
 10
22.4601976757
 20
-0.9370255818
 30
0.0
 10
22.4550979762
 20
-0.9333331114
 30
0.0
 10
22.4498172345
 20
-0.9306591422
 30
0.0
 10
22.4444127679
 20
-0.9290323128
 30
0.0
 10
22.440741282
 20
-0.9286638194
 30
0.0
 10
22.4389356546
 20
-0.9286638194
 30
0.0
  0
SPLINE
  5
4DF
100
AcDbEntity
  8
0
100
AcDbSpline
 62
7
  6
CONTINUOUS
 70
0
 71
3
 72
32
 73
28
 74
0
 42
0.0000001
 43
0.0000001
 44
0.0000000001
 40
0.0
 40
0.0
 40
0.0
 40
0.0
 40
0.0203008828
 40
0.0412270036
 40
0.0632426228
 40
0.0867264354
 40
0.1119529751
 40
0.1390870682
 40
0.1682106222
 40
0.1993087544
 40
0.2494286863
 40
0.3032971977
 40
0.3602115662
 40
0.419350671
 40
0.4797915154
 40
0.540558308
 40
0.6006730394
 40
0.6591673889
 40
0.7151541747
 40
0.7678402545
 40
0.8165952305
 40
0.8610062374
 40
0.9009571922
 40
0.9367862492
 40
0.9693244566
 40
0.984802322
 40
1.0
 40
1.0
 40
1.0
 40
1.0
 10
22.4389356546
 20
6.3313361806
 30
0.0
 10
22.4406555328
 20
6.3313361806
 30
0.0
 10
22.4441570982
 20
6.3309829203
 30
0.0
 10
22.4493151238
 20
6.3294307955
 30
0.0
 10
22.4543613798
 20
6.326880236
 30
0.0
 10
22.459233455
 20
6.3233554262
 30
0.0
 10
22.4638917821
 20
6.3189052101
 30
0.0
 10
22.4683023087
 20
6.3135769856
 30
0.0
 10
22.4724239622
 20
6.3074167512
 30
0.0
 10
22.4769207985
 20
6.2992098606
 30
0.0
 10
22.4814214742
 20
6.2886612463
 30
0.0
 10
22.485499566
 20
6.2756342671
 30
0.0
 10
22.4885942911
 20
6.261557987
 30
0.0
 10
22.4906253619
 20
6.246729086
 30
0.0
 10
22.4915616214
 20
6.2314650018
 30
0.0
 10
22.4913725559
 20
6.2160908602
 30
0.0
 10
22.490069621
 20
6.200936042
 30
0.0
 10
22.4876768175
 20
6.1863235986
 30
0.0
 10
22.4842466409
 20
6.1725650983
 30
0.0
 10
22.479853042
 20
6.1599501319
 30
0.0
 10
22.4745819941
 20
6.148745632
 30
0.0
 10
22.4685495965
 20
6.1391762762
 30
0.0
 10
22.4618498707
 20
6.1314448053
 30
0.0
 10
22.4546014365
 20
6.1257107481
 30
0.0
 10
22.4480671795
 20
6.1227059587
 30
0.0
 10
22.4428260591
 20
6.1215321354
 30
0.0
 10
22.4402231925
 20
6.1213361806
 30
0.0
 10
22.4389356546
 20
6.1213361806
 30
0.0
  0
SPLINE
  5
4E0
100
AcDbEntity
  8
0
100
AcDbSpline
 62
7
  6
CONTINUOUS
 70
0
 71
3
 72
32
 73
28
 74
0
 42
0.0000001
 43
0.0000001
 44
0.0000000001
 40
0.0
 40
0.0
 40
0.0
 40
0.0
 40
0.0203008828
 40
0.0412270036
 40
0.0632426228
 40
0.0867264354
 40
0.1119529751
 40
0.1390870682
 40
0.1682106222
 40
0.1993087544
 40
0.2494286863
 40
0.3032971977
 40
0.3602115662
 40
0.419350671
 40
0.4797915154
 40
0.540558308
 40
0.6006730394
 40
0.6591673889
 40
0.7151541747
 40
0.7678402545
 40
0.8165952305
 40
0.8610062374
 40
0.9009571922
 40
0.9367862492
 40
0.9693244566
 40
0.984802322
 40
1.0
 40
1.0
 40
1.0
 40
1.0
 10
22.4389356546
 20
3.0813361806
 30
0.0
 10
22.4406555328
 20
3.0813361806
 30
0.0
 10
22.4441570982
 20
3.0809829203
 30
0.0
 10
22.4493151238
 20
3.0794307955
 30
0.0
 10
22.4543613798
 20
3.076880236
 30
0.0
 10
22.459233455
 20
3.0733554262
 30
0.0
 10
22.4638917821
 20
3.0689052101
 30
0.0
 10
22.4683023087
 20
3.0635769856
 30
0.0
 10
22.4724239622
 20
3.0574167512
 30
0.0
 10
22.4769207985
 20
3.0492098606
 30
0.0
 10
22.4814214742
 20
3.0386612463
 30
0.0
 10
22.485499566
 20
3.0256342671
 30
0.0
 10
22.4885942911
 20
3.011557987
 30
0.0
 10
22.4906253619
 20
2.996729086
 30
0.0
 10
22.4915616214
 20
2.9814650018
 30
0.0
 10
22.4913725559
 20
2.9660908602
 30
0.0
 10
22.490069621
 20
2.950936042
 30
0.0
 10
22.4876768175
 20
2.9363235986
 30
0.0
 10
22.4842466409
 20
2.9225650983
 30
0.0
 10
22.479853042
 20
2.9099501319
 30
0.0
 10
22.4745819941
 20
2.898745632
 30
0.0
 10
22.4685495965
 20
2.8891762762
 30
0.0
 10
22.4618498707
 20
2.8814448053
 30
0.0
 10
22.4546014365
 20
2.8757107481
 30
0.0
 10
22.4480671795
 20
2.8727059587
 30
0.0
 10
22.4428260591
 20
2.8715321354
 30
0.0
 10
22.4402231925
 20
2.8713361806
 30
0.0
 10
22.4389356546
 20
2.8713361806
 30
0.0
  0
SPLINE
  5
4E1
100
AcDbEntity
  8
0
100
AcDbSpline
 62
7
  6
CONTINUOUS
 70
0
 71
3
 72
15
 73
11
 74
0
 42
0.0000001
 43
0.0000001
 44
0.0000000001
 40
0.0
 40
0.0
 40
0.0
 40
0.0
 40
0.1287918863
 40
0.2599758006
 40
0.3916131756
 40
0.5220234587
 40
0.6496071683
 40
0.7728225547
 40
0.8901456088
 40
1.0
 40
1.0
 40
1.0
 40
1.0
 10
22.9434998005
 20
-1.6736638194
 30
0.0
 10
22.9397311772
 20
-1.6776616298
 30
0.0
 10
22.9319350236
 20
-1.6855552582
 30
0.0
 10
22.9196898634
 20
-1.696926177
 30
0.0
 10
22.9069158273
 20
-1.7078068701
 30
0.0
 10
22.8938096297
 20
-1.718037369
 30
0.0
 10
22.8805561921
 20
-1.7274699632
 30
0.0
 10
22.8673465385
 20
-1.7359733869
 30
0.0
 10
22.8543759839
 20
-1.7434152069
 30
0.0
 10
22.8457052847
 20
-1.7477599703
 30
0.0
 10
22.8414461396
 20
-1.7497145889
 30
0.0
  0
SPLINE
  5
4E2
100
AcDbEntity
  8
0
100
AcDbSpline
 62
7
  6
CONTINUOUS
 70
0
 71
3
 72
20
 73
16
 74
0
 42
0.0000001
 43
0.0000001
 44
0.0000000001
 40
0.0
 40
0.0
 40
0.0
 40
0.0
 40
0.0406333091
 40
0.0824846659
 40
0.1264970102
 40
0.1734449861
 40
0.2238833445
 40
0.2781620429
 40
0.3364121474
 40
0.3985924744
 40
0.4645538782
 40
0.5340083135
 40
0.6818367622
 40
0.838677624
 40
1.0
 40
1.0
 40
1.0
 40
1.0
 10
24.5034864621
 20
6.9763361806
 30
0.0
 10
24.5057815655
 20
6.9763361806
 30
0.0
 10
24.5104523636
 20
6.9758670251
 30
0.0
 10
24.5173321143
 20
6.9738000373
 30
0.0
 10
24.5240562214
 20
6.9703942116
 30
0.0
 10
24.5305483364
 20
6.9656939859
 30
0.0
 10
24.536761428
 20
6.9597634915
 30
0.0
 10
24.5426399262
 20
6.9526564718
 30
0.0
 10
24.5481373706
 20
6.9444439818
 30
0.0
 10
24.5532067882
 20
6.9352030994
 30
0.0
 10
24.5577949803
 20
6.925017558
 30
0.0
 10
24.5633373694
 20
6.9099984455
 30
0.0
 10
24.5687193947
 20
6.8895064826
 30
0.0
 10
24.5726118893
 20
6.8634325959
 30
0.0
 10
24.5734864621
 20
6.8454482008
 30
0.0
 10
24.5734864621
 20
6.8363361806
 30
0.0
  0
SPLINE
  5
4E3
100
AcDbEntity
  8
0
100
AcDbSpline
 62
7
  6
CONTINUOUS
 70
0
 71
3
 72
21
 73
17
 74
0
 42
0.0000001
 43
0.0000001
 44
0.0000000001
 40
0.0
 40
0.0
 40
0.0
 40
0.0
 40
0.0406834719
 40
0.0825111891
 40
0.1264855956
 40
0.1734208491
 40
0.2238673712
 40
0.2781393575
 40
0.3363906051
 40
0.3985860298
 40
0.464531649
 40
0.533960063
 40
0.6065333344
 40
0.681841833
 40
0.838765314
 40
1.0
 40
1.0
 40
1.0
 40
1.0
 10
22.4389356546
 20
1.5013361806
 30
0.0
 10
22.440741282
 20
1.5013361806
 30
0.0
 10
22.4444127679
 20
1.5017046741
 30
0.0
 10
22.4498172345
 20
1.5033315035
 30
0.0
 10
22.4550979762
 20
1.5060054727
 30
0.0
 10
22.4601976757
 20
1.5096979431
 30
0.0
 10
22.4650776444
 20
1.5143590753
 30
0.0
 10
22.4697002211
 20
1.5199406496
 30
0.0
 10
22.4740192933
 20
1.5263949242
 30
0.0
 10
22.4779987607
 20
1.5336580818
 30
0.0
 10
22.4816070377
 20
1.5416584958
 30
0.0
 10
22.4848059087
 20
1.5503228787
 30
0.0
 10
22.4875641268
 20
1.5595711398
 30
0.0
 10
22.4906683617
 20
1.5727449
 30
0.0
 10
22.4932443797
 20
1.5900510479
 30
0.0
 10
22.4939356546
 20
1.604180209
 30
0.0
 10
22.4939356546
 20
1.6113361806
 30
0.0
  0
SPLINE
  5
4E4
100
AcDbEntity
  8
0
100
AcDbSpline
 62
7
  6
CONTINUOUS
 70
0
 71
3
 72
21
 73
17
 74
0
 42
0.0000001
 43
0.0000001
 44
0.0000000001
 40
0.0
 40
0.0
 40
0.0
 40
0.0
 40
0.0406834719
 40
0.0825111891
 40
0.1264855956
 40
0.1734208491
 40
0.2238673712
 40
0.2781393575
 40
0.3363906051
 40
0.3985860298
 40
0.464531649
 40
0.533960063
 40
0.6065333344
 40
0.681841833
 40
0.838765314
 40
1.0
 40
1.0
 40
1.0
 40
1.0
 10
22.4389356546
 20
-1.1486638194
 30
0.0
 10
22.440741282
 20
-1.1486638194
 30
0.0
 10
22.4444127679
 20
-1.1482953259
 30
0.0
 10
22.4498172345
 20
-1.1466684965
 30
0.0
 10
22.4550979762
 20
-1.1439945273
 30
0.0
 10
22.4601976757
 20
-1.1403020569
 30
0.0
 10
22.4650776444
 20
-1.1356409247
 30
0.0
 10
22.4697002211
 20
-1.1300593504
 30
0.0
 10
22.4740192933
 20
-1.1236050758
 30
0.0
 10
22.4779987607
 20
-1.1163419182
 30
0.0
 10
22.4816070377
 20
-1.1083415042
 30
0.0
 10
22.4848059087
 20
-1.0996771213
 30
0.0
 10
22.4875641268
 20
-1.0904288602
 30
0.0
 10
22.4906683617
 20
-1.0772551
 30
0.0
 10
22.4932443797
 20
-1.0599489521
 30
0.0
 10
22.4939356546
 20
-1.045819791
 30
0.0
 10
22.4939356546
 20
-1.0386638194
 30
0.0
  0
SPLINE
  5
4E5
100
AcDbEntity
  8
0
100
AcDbSpline
 62
7
  6
CONTINUOUS
 70
0
 71
3
 72
21
 73
17
 74
0
 42
0.0000001
 43
0.0000001
 44
0.0000000001
 40
0.0
 40
0.0
 40
0.0
 40
0.0
 40
0.0523538137
 40
0.1084506258
 40
0.167994025
 40
0.2305690899
 40
0.3626215151
 40
0.4309785103
 40
0.5
 40
0.5690214897
 40
0.6373784849
 40
0.7694309101
 40
0.832005975
 40
0.8915493742
 40
0.9476461863
 40
1.0
 40
1.0
 40
1.0
 40
1.0
 10
22.4708342259
 20
6.1433860146
 30
0.0
 10
22.4692008983
 20
6.1459228071
 30
0.0
 10
22.4661063331
 20
6.1513669522
 30
0.0
 10
22.4621025596
 20
6.1601934608
 30
0.0
 10
22.4586260088
 20
6.1698689684
 30
0.0
 10
22.4546826738
 20
6.1839859535
 30
0.0
 10
22.4520750753
 20
6.1989636142
 30
0.0
 10
22.4507477837
 20
6.2144393324
 30
0.0
 10
22.4504078627
 20
6.2263361806
 30
0.0
 10
22.4507477837
 20
6.2382330289
 30
0.0
 10
22.4520750753
 20
6.2537087471
 30
0.0
 10
22.4546826738
 20
6.2686864078
 30
0.0
 10
22.4586260088
 20
6.2828033929
 30
0.0
 10
22.4621025596
 20
6.2924789005
 30
0.0
 10
22.4661063331
 20
6.3013054091
 30
0.0
 10
22.4692008983
 20
6.3067495542
 30
0.0
 10
22.4708342259
 20
6.3092863467
 30
0.0
  0
SPLINE
  5
4E6
100
AcDbEntity
  8
0
100
AcDbSpline
 62
7
  6
CONTINUOUS
 70
0
 71
3
 72
21
 73
17
 74
0
 42
0.0000001
 43
0.0000001
 44
0.0000000001
 40
0.0
 40
0.0
 40
0.0
 40
0.0
 40
0.0523538137
 40
0.1084506258
 40
0.167994025
 40
0.2305690899
 40
0.3626215151
 40
0.4309785103
 40
0.5
 40
0.5690214897
 40
0.6373784849
 40
0.7694309101
 40
0.832005975
 40
0.8915493742
 40
0.9476461863
 40
1.0
 40
1.0
 40
1.0
 40
1.0
 10
22.4708342259
 20
2.8933860146
 30
0.0
 10
22.4692008983
 20
2.8959228071
 30
0.0
 10
22.4661063331
 20
2.9013669522
 30
0.0
 10
22.4621025596
 20
2.9101934608
 30
0.0
 10
22.4586260088
 20
2.9198689684
 30
0.0
 10
22.4546826738
 20
2.9339859535
 30
0.0
 10
22.4520750753
 20
2.9489636142
 30
0.0
 10
22.4507477837
 20
2.9644393324
 30
0.0
 10
22.4504078627
 20
2.9763361806
 30
0.0
 10
22.4507477837
 20
2.9882330289
 30
0.0
 10
22.4520750753
 20
3.0037087471
 30
0.0
 10
22.4546826738
 20
3.0186864078
 30
0.0
 10
22.4586260088
 20
3.0328033929
 30
0.0
 10
22.4621025596
 20
3.0424789005
 30
0.0
 10
22.4661063331
 20
3.0513054091
 30
0.0
 10
22.4692008983
 20
3.0567495542
 30
0.0
 10
22.4708342259
 20
3.0592863467
 30
0.0
  0
SPLINE
  5
4E7
100
AcDbEntity
  8
0
100
AcDbSpline
 62
7
  6
CONTINUOUS
 70
0
 71
3
 72
15
 73
11
 74
0
 42
0.0000001
 43
0.0000001
 44
0.0000000001
 40
0.0
 40
0.0
 40
0.0
 40
0.0
 40
0.1098575977
 40
0.2271912975
 40
0.3504198611
 40
0.4780174532
 40
0.6084392962
 40
0.7400735123
 40
0.8712339924
 40
1.0
 40
1.0
 40
1.0
 40
1.0
 10
22.8414461396
 20
6.9123869502
 30
0.0
 10
22.8457100115
 20
6.9104301623
 30
0.0
 10
22.854390455
 20
6.9060800993
 30
0.0
 10
22.867375387
 20
6.898628523
 30
0.0
 10
22.8805994906
 20
6.8901131857
 30
0.0
 10
22.8938669862
 20
6.8806671772
 30
0.0
 10
22.9069862136
 20
6.8704226157
 30
0.0
 10
22.9197708186
 20
6.8595273077
 30
0.0
 10
22.9320228693
 20
6.8481405282
 30
0.0
 10
22.9398229752
 20
6.8402369687
 30
0.0
 10
22.9435940287
 20
6.8362348092
 30
0.0
  0
SPLINE
  5
4E8
100
AcDbEntity
  8
0
100
AcDbSpline
 62
7
  6
CONTINUOUS
 70
0
 71
3
 72
15
 73
11
 74
0
 42
0.0000001
 43
0.0000001
 44
0.0000000001
 40
0.0
 40
0.0
 40
0.0
 40
0.0
 40
0.1098532752
 40
0.2271726801
 40
0.3503837624
 40
0.4779634147
 40
0.6083710345
 40
0.740009606
 40
0.8712000453
 40
1.0
 40
1.0
 40
1.0
 40
1.0
 10
22.8598173127
 20
-1.7709277924
 30
0.0
 10
22.8640746196
 20
-1.7689740173
 30
0.0
 10
22.8727415394
 20
-1.7646313004
 30
0.0
 10
22.8857065425
 20
-1.7571932551
 30
0.0
 10
22.8989106645
 20
-1.748694425
 30
0.0
 10
22.9121587509
 20
-1.7392669459
 30
0.0
 10
22.9252599065
 20
-1.7290417615
 30
0.0
 10
22.9380298132
 20
-1.718166818
 30
0.0
 10
22.9502722656
 20
-1.7068023587
 30
0.0
 10
22.9580667337
 20
-1.6989127364
 30
0.0
 10
22.961834311
 20
-1.6949166489
 30
0.0
  0
SPLINE
  5
4E9
100
AcDbEntity
  8
0
100
AcDbSpline
 62
7
  6
CONTINUOUS
 70
0
 71
3
 72
32
 73
28
 74
0
 42
0.0000001
 43
0.0000001
 44
0.0000000001
 40
0.0
 40
0.0
 40
0.0
 40
0.0
 40
0.0203008828
 40
0.0412270036
 40
0.0632426228
 40
0.0867264354
 40
0.1119529751
 40
0.1390870682
 40
0.1682106222
 40
0.1993087544
 40
0.2494286863
 40
0.3032971977
 40
0.3602115662
 40
0.419350671
 40
0.4797915154
 40
0.540558308
 40
0.6006730394
 40
0.6591673889
 40
0.7151541747
 40
0.7678402545
 40
0.8165952305
 40
0.8610062374
 40
0.9009571922
 40
0.9367862492
 40
0.9693244566
 40
0.984802322
 40
1.0
 40
1.0
 40
1.0
 40
1.0
 10
22.4389356546
 20
6.1213361806
 30
0.0
 10
22.4372157763
 20
6.1213361806
 30
0.0
 10
22.4337142109
 20
6.121689441
 30
0.0
 10
22.4285561853
 20
6.1232415658
 30
0.0
 10
22.4235099293
 20
6.1257921253
 30
0.0
 10
22.4186378541
 20
6.1293169351
 30
0.0
 10
22.4139795271
 20
6.1337671512
 30
0.0
 10
22.4095690004
 20
6.1390953757
 30
0.0
 10
22.4054473469
 20
6.1452556101
 30
0.0
 10
22.4009505106
 20
6.1534625007
 30
0.0
 10
22.396449835
 20
6.164011115
 30
0.0
 10
22.3923717431
 20
6.1770380942
 30
0.0
 10
22.3892770181
 20
6.1911143743
 30
0.0
 10
22.3872459472
 20
6.2059432753
 30
0.0
 10
22.3863096878
 20
6.2212073595
 30
0.0
 10
22.3864987533
 20
6.2365815011
 30
0.0
 10
22.3878016882
 20
6.2517363193
 30
0.0
 10
22.3901944917
 20
6.2663487627
 30
0.0
 10
22.3936246683
 20
6.280107263
 30
0.0
 10
22.3980182671
 20
6.2927222294
 30
0.0
 10
22.403289315
 20
6.3039267293
 30
0.0
 10
22.4093217126
 20
6.3134960851
 30
0.0
 10
22.4160214384
 20
6.321227556
 30
0.0
 10
22.4232698727
 20
6.3269616132
 30
0.0
 10
22.4298041297
 20
6.3299664026
 30
0.0
 10
22.43504525
 20
6.3311402259
 30
0.0
 10
22.4376481167
 20
6.3313361806
 30
0.0
 10
22.4389356546
 20
6.3313361806
 30
0.0
  0
SPLINE
  5
4EA
100
AcDbEntity
  8
0
100
AcDbSpline
 62
7
  6
CONTINUOUS
 70
0
 71
3
 72
32
 73
28
 74
0
 42
0.0000001
 43
0.0000001
 44
0.0000000001
 40
0.0
 40
0.0
 40
0.0
 40
0.0
 40
0.0203008828
 40
0.0412270036
 40
0.0632426228
 40
0.0867264354
 40
0.1119529751
 40
0.1390870682
 40
0.1682106222
 40
0.1993087544
 40
0.2494286863
 40
0.3032971977
 40
0.3602115662
 40
0.419350671
 40
0.4797915154
 40
0.540558308
 40
0.6006730394
 40
0.6591673889
 40
0.7151541747
 40
0.7678402545
 40
0.8165952305
 40
0.8610062374
 40
0.9009571922
 40
0.9367862492
 40
0.9693244566
 40
0.984802322
 40
1.0
 40
1.0
 40
1.0
 40
1.0
 10
22.4389356546
 20
2.8713361806
 30
0.0
 10
22.4372157763
 20
2.8713361806
 30
0.0
 10
22.4337142109
 20
2.871689441
 30
0.0
 10
22.4285561853
 20
2.8732415658
 30
0.0
 10
22.4235099293
 20
2.8757921253
 30
0.0
 10
22.4186378541
 20
2.8793169351
 30
0.0
 10
22.4139795271
 20
2.8837671512
 30
0.0
 10
22.4095690004
 20
2.8890953757
 30
0.0
 10
22.4054473469
 20
2.8952556101
 30
0.0
 10
22.4009505106
 20
2.9034625007
 30
0.0
 10
22.396449835
 20
2.914011115
 30
0.0
 10
22.3923717431
 20
2.9270380942
 30
0.0
 10
22.3892770181
 20
2.9411143743
 30
0.0
 10
22.3872459472
 20
2.9559432753
 30
0.0
 10
22.3863096878
 20
2.9712073595
 30
0.0
 10
22.3864987533
 20
2.9865815011
 30
0.0
 10
22.3878016882
 20
3.0017363193
 30
0.0
 10
22.3901944917
 20
3.0163487627
 30
0.0
 10
22.3936246683
 20
3.030107263
 30
0.0
 10
22.3980182671
 20
3.0427222294
 30
0.0
 10
22.403289315
 20
3.0539267293
 30
0.0
 10
22.4093217126
 20
3.0634960851
 30
0.0
 10
22.4160214384
 20
3.071227556
 30
0.0
 10
22.4232698727
 20
3.0769616132
 30
0.0
 10
22.4298041297
 20
3.0799664026
 30
0.0
 10
22.43504525
 20
3.0811402259
 30
0.0
 10
22.4376481167
 20
3.0813361806
 30
0.0
 10
22.4389356546
 20
3.0813361806
 30
0.0
  0
SPLINE
  5
4EB
100
AcDbEntity
  8
0
100
AcDbSpline
 62
7
  6
CONTINUOUS
 70
0
 71
3
 72
21
 73
17
 74
0
 42
0.0000001
 43
0.0000001
 44
0.0000000001
 40
0.0
 40
0.0
 40
0.0
 40
0.0
 40
0.0406834719
 40
0.0825111891
 40
0.1264855956
 40
0.1734208491
 40
0.2238673712
 40
0.2781393575
 40
0.3363906051
 40
0.3985860298
 40
0.464531649
 40
0.533960063
 40
0.6065333344
 40
0.681841833
 40
0.838765314
 40
1.0
 40
1.0
 40
1.0
 40
1.0
 10
22.4389356546
 20
1.7213361806
 30
0.0
 10
22.4371300271
 20
1.7213361806
 30
0.0
 10
22.4334585413
 20
1.7209676872
 30
0.0
 10
22.4280540746
 20
1.7193408578
 30
0.0
 10
22.422773333
 20
1.7166668886
 30
0.0
 10
22.4176736334
 20
1.7129744182
 30
0.0
 10
22.4127936648
 20
1.708313286
 30
0.0
 10
22.408171088
 20
1.7027317117
 30
0.0
 10
22.4038520158
 20
1.6962774371
 30
0.0
 10
22.3998725485
 20
1.6890142795
 30
0.0
 10
22.3962642714
 20
1.6810138655
 30
0.0
 10
22.3930654005
 20
1.6723494826
 30
0.0
 10
22.3903071824
 20
1.6631012215
 30
0.0
 10
22.3872029474
 20
1.6499274613
 30
0.0
 10
22.3846269294
 20
1.6326213134
 30
0.0
 10
22.3839356546
 20
1.6184921523
 30
0.0
 10
22.3839356546
 20
1.6113361806
 30
0.0
  0
SPLINE
  5
4EC
100
AcDbEntity
  8
0
100
AcDbSpline
 62
7
  6
CONTINUOUS
 70
0
 71
3
 72
21
 73
17
 74
0
 42
0.0000001
 43
0.0000001
 44
0.0000000001
 40
0.0
 40
0.0
 40
0.0
 40
0.0
 40
0.161234686
 40
0.318158167
 40
0.3934666656
 40
0.466039937
 40
0.535468351
 40
0.6014139702
 40
0.6636093949
 40
0.7218606425
 40
0.7761326288
 40
0.8265791509
 40
0.8735144044
 40
0.9174888109
 40
0.9593165281
 40
1.0
 40
1.0
 40
1.0
 40
1.0
 10
22.3839356546
 20
1.6113361806
 30
0.0
 10
22.3839356546
 20
1.604180209
 30
0.0
 10
22.3846269294
 20
1.5900510479
 30
0.0
 10
22.3872029474
 20
1.5727449
 30
0.0
 10
22.3903071824
 20
1.5595711398
 30
0.0
 10
22.3930654005
 20
1.5503228787
 30
0.0
 10
22.3962642714
 20
1.5416584958
 30
0.0
 10
22.3998725485
 20
1.5336580818
 30
0.0
 10
22.4038520158
 20
1.5263949242
 30
0.0
 10
22.408171088
 20
1.5199406496
 30
0.0
 10
22.4127936648
 20
1.5143590753
 30
0.0
 10
22.4176736334
 20
1.5096979431
 30
0.0
 10
22.422773333
 20
1.5060054727
 30
0.0
 10
22.4280540746
 20
1.5033315035
 30
0.0
 10
22.4334585413
 20
1.5017046741
 30
0.0
 10
22.4371300271
 20
1.5013361806
 30
0.0
 10
22.4389356546
 20
1.5013361806
 30
0.0
  0
SPLINE
  5
4ED
100
AcDbEntity
  8
0
100
AcDbSpline
 62
7
  6
CONTINUOUS
 70
0
 71
3
 72
9
 73
5
 74
0
 42
0.0000001
 43
0.0000001
 44
0.0000000001
 40
0.0
 40
0.0
 40
0.0
 40
0.0
 40
0.4956607321
 40
1.0
 40
1.0
 40
1.0
 40
1.0
 10
22.8598173127
 20
6.9336001537
 30
0.0
 10
22.8563696825
 20
6.9304874222
 30
0.0
 10
22.8498038977
 20
6.9237634914
 30
0.0
 10
22.8440961115
 20
6.9163003934
 30
0.0
 10
22.8414461396
 20
6.9123869502
 30
0.0
  0
SPLINE
  5
4EE
100
AcDbEntity
  8
0
100
AcDbSpline
 62
7
  6
CONTINUOUS
 70
0
 71
3
 72
21
 73
17
 74
0
 42
0.0000001
 43
0.0000001
 44
0.0000000001
 40
0.0
 40
0.0
 40
0.0
 40
0.0
 40
0.0406834719
 40
0.0825111891
 40
0.1264855956
 40
0.1734208491
 40
0.2238673712
 40
0.2781393575
 40
0.3363906051
 40
0.3985860298
 40
0.464531649
 40
0.533960063
 40
0.6065333344
 40
0.681841833
 40
0.838765314
 40
1.0
 40
1.0
 40
1.0
 40
1.0
 10
22.4389356546
 20
-0.9286638194
 30
0.0
 10
22.4371300271
 20
-0.9286638194
 30
0.0
 10
22.4334585413
 20
-0.9290323128
 30
0.0
 10
22.4280540746
 20
-0.9306591422
 30
0.0
 10
22.422773333
 20
-0.9333331114
 30
0.0
 10
22.4176736334
 20
-0.9370255818
 30
0.0
 10
22.4127936648
 20
-0.941686714
 30
0.0
 10
22.408171088
 20
-0.9472682883
 30
0.0
 10
22.4038520158
 20
-0.9537225629
 30
0.0
 10
22.3998725485
 20
-0.9609857205
 30
0.0
 10
22.3962642714
 20
-0.9689861345
 30
0.0
 10
22.3930654005
 20
-0.9776505174
 30
0.0
 10
22.3903071824
 20
-0.9868987785
 30
0.0
 10
22.3872029474
 20
-1.0000725387
 30
0.0
 10
22.3846269294
 20
-1.0173786866
 30
0.0
 10
22.3839356546
 20
-1.0315078477
 30
0.0
 10
22.3839356546
 20
-1.0386638194
 30
0.0
  0
SPLINE
  5
4EF
100
AcDbEntity
  8
0
100
AcDbSpline
 62
7
  6
CONTINUOUS
 70
0
 71
3
 72
21
 73
17
 74
0
 42
0.0000001
 43
0.0000001
 44
0.0000000001
 40
0.0
 40
0.0
 40
0.0
 40
0.0
 40
0.161234686
 40
0.318158167
 40
0.3934666656
 40
0.466039937
 40
0.535468351
 40
0.6014139702
 40
0.6636093949
 40
0.7218606425
 40
0.7761326288
 40
0.8265791509
 40
0.8735144044
 40
0.9174888109
 40
0.9593165281
 40
1.0
 40
1.0
 40
1.0
 40
1.0
 10
22.3839356546
 20
-1.0386638194
 30
0.0
 10
22.3839356546
 20
-1.045819791
 30
0.0
 10
22.3846269294
 20
-1.0599489521
 30
0.0
 10
22.3872029474
 20
-1.0772551
 30
0.0
 10
22.3903071824
 20
-1.0904288602
 30
0.0
 10
22.3930654005
 20
-1.0996771213
 30
0.0
 10
22.3962642714
 20
-1.1083415042
 30
0.0
 10
22.3998725485
 20
-1.1163419182
 30
0.0
 10
22.4038520158
 20
-1.1236050758
 30
0.0
 10
22.408171088
 20
-1.1300593504
 30
0.0
 10
22.4127936648
 20
-1.1356409247
 30
0.0
 10
22.4176736334
 20
-1.1403020569
 30
0.0
 10
22.422773333
 20
-1.1439945273
 30
0.0
 10
22.4280540746
 20
-1.1466684965
 30
0.0
 10
22.4334585413
 20
-1.1482953259
 30
0.0
 10
22.4371300271
 20
-1.1486638194
 30
0.0
 10
22.4389356546
 20
-1.1486638194
 30
0.0
  0
SPLINE
  5
4F0
100
AcDbEntity
  8
0
100
AcDbSpline
 62
7
  6
CONTINUOUS
 70
0
 71
3
 72
15
 73
11
 74
0
 42
0.0000001
 43
0.0000001
 44
0.0000000001
 40
0.0
 40
0.0
 40
0.0
 40
0.0
 40
0.1098575977
 40
0.2271912975
 40
0.3504198611
 40
0.4780174532
 40
0.6084392962
 40
0.7400735123
 40
0.8712339924
 40
1.0
 40
1.0
 40
1.0
 40
1.0
 10
22.8598173127
 20
6.9336001537
 30
0.0
 10
22.8640811846
 20
6.9316433658
 30
0.0
 10
22.8727616281
 20
6.9272933027
 30
0.0
 10
22.88574656
 20
6.9198417264
 30
0.0
 10
22.8989706636
 20
6.9113263892
 30
0.0
 10
22.9122381592
 20
6.9018803806
 30
0.0
 10
22.9253573866
 20
6.8916358192
 30
0.0
 10
22.9381419917
 20
6.8807405112
 30
0.0
 10
22.9503940424
 20
6.8693537316
 30
0.0
 10
22.9581941483
 20
6.8614501721
 30
0.0
 10
22.9619652018
 20
6.8574480127
 30
0.0
  0
SPLINE
  5
4F1
100
AcDbEntity
  8
0
100
AcDbSpline
 62
7
  6
CONTINUOUS
 70
0
 71
3
 72
9
 73
5
 74
0
 42
0.0000001
 43
0.0000001
 44
0.0000000001
 40
0.0
 40
0.0
 40
0.0
 40
0.0
 40
0.4956594169
 40
1.0
 40
1.0
 40
1.0
 40
1.0
 10
22.8598173127
 20
-1.7709277924
 30
0.0
 10
22.8563696916
 20
-1.7678150692
 30
0.0
 10
22.8498039059
 20
-1.7610911395
 30
0.0
 10
22.8440961184
 20
-1.7536280423
 30
0.0
 10
22.8414461396
 20
-1.7497145889
 30
0.0
  0
SPLINE
  5
4F2
100
AcDbEntity
  8
0
100
AcDbSpline
 62
7
  6
CONTINUOUS
 70
0
 71
3
 72
11
 73
7
 74
0
 42
0.0000001
 43
0.0000001
 44
0.0000000001
 40
0.0
 40
0.0
 40
0.0
 40
0.0
 40
0.2319054201
 40
0.4714624577
 40
0.7256709114
 40
1.0
 40
1.0
 40
1.0
 40
1.0
 10
27.6445560514
 20
2.9203361806
 30
0.0
 10
27.6428243111
 20
2.9203361806
 30
0.0
 10
27.6392925872
 20
2.919939502
 30
0.0
 10
27.634124557
 20
2.9181949574
 30
0.0
 10
27.6291132386
 20
2.9153427645
 30
0.0
 10
27.6260435823
 20
2.9128327812
 30
0.0
 10
27.6245504984
 20
2.9114302112
 30
0.0
  0
SPLINE
  5
4F3
100
AcDbEntity
  8
0
100
AcDbSpline
 62
7
  6
CONTINUOUS
 70
0
 71
3
 72
25
 73
21
 74
0
 42
0.0000001
 43
0.0000001
 44
0.0000000001
 40
0.0
 40
0.0
 40
0.0
 40
0.0
 40
0.0469007384
 40
0.0723484455
 40
0.0991270478
 40
0.156579465
 40
0.2188790858
 40
0.2852980711
 40
0.3549861197
 40
0.4269267175
 40
0.5
 40
0.5730732825
 40
0.6450138803
 40
0.7147019289
 40
0.7811209142
 40
0.843420535
 40
0.9008729522
 40
0.9276515545
 40
0.9530992616
 40
1.0
 40
1.0
 40
1.0
 40
1.0
 10
27.6245504984
 20
2.9114302112
 30
0.0
 10
27.6223505211
 20
2.9093636014
 30
0.0
 10
27.619271653
 20
2.9058317269
 30
0.0
 10
27.6156285174
 20
2.9005924247
 30
0.0
 10
27.6119989098
 20
2.8945319909
 30
0.0
 10
27.6079321878
 20
2.885998905
 30
0.0
 10
27.6039048532
 20
2.8746969306
 30
0.0
 10
27.600680832
 20
2.8623263595
 30
0.0
 10
27.5983413575
 20
2.8491299399
 30
0.0
 10
27.596918779
 20
2.8353744092
 30
0.0
 10
27.5964357785
 20
2.8213361806
 30
0.0
 10
27.596918779
 20
2.8072979521
 30
0.0
 10
27.5983413575
 20
2.7935424214
 30
0.0
 10
27.600680832
 20
2.7803460018
 30
0.0
 10
27.6039048532
 20
2.7679754307
 30
0.0
 10
27.6079321878
 20
2.7566734563
 30
0.0
 10
27.6119989098
 20
2.7481403704
 30
0.0
 10
27.6156285174
 20
2.7420799366
 30
0.0
 10
27.619271653
 20
2.7368406344
 30
0.0
 10
27.6223505211
 20
2.7333087599
 30
0.0
 10
27.6245504984
 20
2.7312421501
 30
0.0
  0
SPLINE
  5
4F4
100
AcDbEntity
  8
0
100
AcDbSpline
 62
7
  6
CONTINUOUS
 70
0
 71
3
 72
11
 73
7
 74
0
 42
0.0000001
 43
0.0000001
 44
0.0000000001
 40
0.0
 40
0.0
 40
0.0
 40
0.0
 40
0.2743290886
 40
0.5285375423
 40
0.7680945799
 40
1.0
 40
1.0
 40
1.0
 40
1.0
 10
27.6245504984
 20
2.7312421501
 30
0.0
 10
27.6260435823
 20
2.7298395801
 30
0.0
 10
27.6291132386
 20
2.7273295968
 30
0.0
 10
27.634124557
 20
2.7244774039
 30
0.0
 10
27.6392925872
 20
2.7227328593
 30
0.0
 10
27.6428243111
 20
2.7223361806
 30
0.0
 10
27.6445560514
 20
2.7223361806
 30
0.0
  0
SPLINE
  5
4F5
100
AcDbEntity
  8
0
100
AcDbSpline
 62
7
  6
CONTINUOUS
 70
0
 71
3
 72
11
 73
7
 74
0
 42
0.0000001
 43
0.0000001
 44
0.0000000001
 40
0.0
 40
0.0
 40
0.0
 40
0.0
 40
0.2318963291
 40
0.4714483712
 40
0.7256591786
 40
1.0
 40
1.0
 40
1.0
 40
1.0
 10
27.6440664079
 20
0.2703361806
 30
0.0
 10
27.6423350392
 20
0.2703361806
 30
0.0
 10
27.6388040359
 20
0.269939493
 30
0.0
 10
27.6336371038
 20
0.2681949229
 30
0.0
 10
27.6286268755
 20
0.2653427072
 30
0.0
 10
27.6255579508
 20
0.2628327587
 30
0.0
 10
27.6240652184
 20
0.2614302112
 30
0.0
  0
SPLINE
  5
4F6
100
AcDbEntity
  8
0
100
AcDbSpline
 62
7
  6
CONTINUOUS
 70
0
 71
3
 72
25
 73
21
 74
0
 42
0.0000001
 43
0.0000001
 44
0.0000000001
 40
0.0
 40
0.0
 40
0.0
 40
0.0
 40
0.0468974628
 40
0.0723440234
 40
0.0991217844
 40
0.1565733578
 40
0.2188730809
 40
0.2852929154
 40
0.3549823743
 40
0.4269247527
 40
0.5
 40
0.5730752473
 40
0.6450176257
 40
0.7147070846
 40
0.7811269191
 40
0.8434266422
 40
0.9008782156
 40
0.9276559766
 40
0.9531025372
 40
1.0
 40
1.0
 40
1.0
 40
1.0
 10
27.6240652184
 20
0.2614302112
 30
0.0
 10
27.6218656808
 20
0.2593635609
 30
0.0
 10
27.6187874807
 20
0.2558316546
 30
0.0
 10
27.6151451815
 20
0.2505923959
 30
0.0
 10
27.6115163592
 20
0.244531929
 30
0.0
 10
27.6074505371
 20
0.2359988184
 30
0.0
 10
27.6034241112
 20
0.224696865
 30
0.0
 10
27.6002008166
 20
0.2123263119
 30
0.0
 10
27.5978618692
 20
0.1991299097
 30
0.0
 10
27.5964396111
 20
0.1853743943
 30
0.0
 10
27.5959567195
 20
0.1713361806
 30
0.0
 10
27.5964396111
 20
0.157297967
 30
0.0
 10
27.5978618692
 20
0.1435424516
 30
0.0
 10
27.6002008166
 20
0.1303460494
 30
0.0
 10
27.6034241112
 20
0.1179754963
 30
0.0
 10
27.6074505371
 20
0.1066735429
 30
0.0
 10
27.6115163592
 20
0.0981404323
 30
0.0
 10
27.6151451815
 20
0.0920799654
 30
0.0
 10
27.6187874807
 20
0.0868407067
 30
0.0
 10
27.6218656808
 20
0.0833088004
 30
0.0
 10
27.6240652184
 20
0.0812421501
 30
0.0
  0
SPLINE
  5
4F7
100
AcDbEntity
  8
0
100
AcDbSpline
 62
7
  6
CONTINUOUS
 70
0
 71
3
 72
11
 73
7
 74
0
 42
0.0000001
 43
0.0000001
 44
0.0000000001
 40
0.0
 40
0.0
 40
0.0
 40
0.0
 40
0.2743408214
 40
0.5285516288
 40
0.7681036709
 40
1.0
 40
1.0
 40
1.0
 40
1.0
 10
27.6240652184
 20
0.0812421501
 30
0.0
 10
27.6255579508
 20
0.0798396026
 30
0.0
 10
27.6286268755
 20
0.0773296541
 30
0.0
 10
27.6336371038
 20
0.0744774384
 30
0.0
 10
27.6388040359
 20
0.0727328683
 30
0.0
 10
27.6423350392
 20
0.0723361806
 30
0.0
 10
27.6440664079
 20
0.0723361806
 30
0.0
  0
SPLINE
  5
4F8
100
AcDbEntity
  8
0
100
AcDbSpline
 62
7
  6
CONTINUOUS
 70
0
 71
3
 72
11
 73
7
 74
0
 42
0.0000001
 43
0.0000001
 44
0.0000000001
 40
0.0
 40
0.0
 40
0.0
 40
0.0
 40
0.2304101704
 40
0.46917379
 40
0.7237898228
 40
1.0
 40
1.0
 40
1.0
 40
1.0
 10
27.6883935137
 20
0.2703361806
 30
0.0
 10
27.6865754022
 20
0.2703361806
 30
0.0
 10
27.6828605897
 20
0.2698983922
 30
0.0
 10
27.6774390097
 20
0.2679774905
 30
0.0
 10
27.67219811
 20
0.2648426037
 30
0.0
 10
27.6690104285
 20
0.2620943092
 30
0.0
 10
27.6674620688
 20
0.2605604126
 30
0.0
  0
SPLINE
  5
4F9
100
AcDbEntity
  8
0
100
AcDbSpline
 62
7
  6
CONTINUOUS
 70
0
 71
3
 72
23
 73
19
 74
0
 42
0.0000001
 43
0.0000001
 44
0.0000000001
 40
0.0
 40
0.0
 40
0.0
 40
0.0
 40
0.0473855289
 40
0.0999499032
 40
0.1576193988
 40
0.2199618558
 40
0.2862658097
 40
0.3557099649
 40
0.4273125922
 40
0.5
 40
0.5726874078
 40
0.6442900351
 40
0.7137341903
 40
0.7800381442
 40
0.8423806012
 40
0.9000500968
 40
0.9526144711
 40
1.0
 40
1.0
 40
1.0
 40
1.0
 10
27.6674620688
 20
0.2605604126
 30
0.0
 10
27.6653233074
 20
0.2584416291
 30
0.0
 10
27.6612321757
 20
0.2535415616
 30
0.0
 10
27.6559587491
 20
0.2449993317
 30
0.0
 10
27.6513327452
 20
0.2350340159
 30
0.0
 10
27.6474307191
 20
0.2238413076
 30
0.0
 10
27.6443101976
 20
0.2116346134
 30
0.0
 10
27.6420478454
 20
0.1986442659
 30
0.0
 10
27.6406720735
 20
0.1851241275
 30
0.0
 10
27.640205173
 20
0.1713361806
 30
0.0
 10
27.6406720735
 20
0.1575482338
 30
0.0
 10
27.6420478454
 20
0.1440280954
 30
0.0
 10
27.6443101976
 20
0.1310377479
 30
0.0
 10
27.6474307191
 20
0.1188310537
 30
0.0
 10
27.6513327452
 20
0.1076383454
 30
0.0
 10
27.6559587491
 20
0.0976730296
 30
0.0
 10
27.6612321757
 20
0.0891307997
 30
0.0
 10
27.6653233074
 20
0.0842307322
 30
0.0
 10
27.6674620688
 20
0.0821119487
 30
0.0
  0
SPLINE
  5
4FA
100
AcDbEntity
  8
0
100
AcDbSpline
 62
7
  6
CONTINUOUS
 70
0
 71
3
 72
11
 73
7
 74
0
 42
0.0000001
 43
0.0000001
 44
0.0000000001
 40
0.0
 40
0.0
 40
0.0
 40
0.0
 40
0.2762101772
 40
0.53082621
 40
0.7695898296
 40
1.0
 40
1.0
 40
1.0
 40
1.0
 10
27.6674620688
 20
0.0821119487
 30
0.0
 10
27.6690104285
 20
0.0805780521
 30
0.0
 10
27.67219811
 20
0.0778297576
 30
0.0
 10
27.6774390097
 20
0.0746948708
 30
0.0
 10
27.6828605897
 20
0.0727739691
 30
0.0
 10
27.6865754022
 20
0.0723361806
 30
0.0
 10
27.6883935137
 20
0.0723361806
 30
0.0
  0
SPLINE
  5
4FB
100
AcDbEntity
  8
0
100
AcDbSpline
 62
7
  6
CONTINUOUS
 70
0
 71
3
 72
11
 73
7
 74
0
 42
0.0000001
 43
0.0000001
 44
0.0000000001
 40
0.0
 40
0.0
 40
0.0
 40
0.0
 40
0.2304193607
 40
0.4691879854
 40
0.7238015982
 40
1.0
 40
1.0
 40
1.0
 40
1.0
 10
27.6888837272
 20
2.9203361806
 30
0.0
 10
27.6870652468
 20
2.9203361806
 30
0.0
 10
27.6833497208
 20
2.9198984026
 30
0.0
 10
27.6779270507
 20
2.9179775291
 30
0.0
 10
27.6726850696
 20
2.9148426661
 30
0.0
 10
27.6694966654
 20
2.9120943331
 30
0.0
 10
27.6679479599
 20
2.9105604126
 30
0.0
  0
SPLINE
  5
4FC
100
AcDbEntity
  8
0
100
AcDbSpline
 62
7
  6
CONTINUOUS
 70
0
 71
3
 72
23
 73
19
 74
0
 42
0.0000001
 43
0.0000001
 44
0.0000000001
 40
0.0
 40
0.0
 40
0.0
 40
0.0
 40
0.0473884961
 40
0.099954662
 40
0.1576249189
 40
0.2199672833
 40
0.2862704696
 40
0.35571335
 40
0.427314368
 40
0.5
 40
0.572685632
 40
0.64428665
 40
0.7137295304
 40
0.7800327167
 40
0.8423750811
 40
0.900045338
 40
0.9526115039
 40
1.0
 40
1.0
 40
1.0
 40
1.0
 10
27.6679479599
 20
2.9105604126
 30
0.0
 10
27.6658087918
 20
2.9084416663
 30
0.0
 10
27.6617168487
 20
2.9035416726
 30
0.0
 10
27.6564422941
 20
2.8949994282
 30
0.0
 10
27.6518153016
 20
2.8850340934
 30
0.0
 10
27.6479124434
 20
2.8738413663
 30
0.0
 10
27.6447912573
 20
2.8616346561
 30
0.0
 10
27.6425284233
 20
2.8486442931
 30
0.0
 10
27.6411523586
 20
2.8351241408
 30
0.0
 10
27.6406853586
 20
2.8213361806
 30
0.0
 10
27.6411523586
 20
2.8075482205
 30
0.0
 10
27.6425284233
 20
2.7940280682
 30
0.0
 10
27.6447912573
 20
2.7810377052
 30
0.0
 10
27.6479124434
 20
2.768830995
 30
0.0
 10
27.6518153016
 20
2.7576382679
 30
0.0
 10
27.6564422941
 20
2.7476729331
 30
0.0
 10
27.6617168487
 20
2.7391306887
 30
0.0
 10
27.6658087918
 20
2.734230695
 30
0.0
 10
27.6679479599
 20
2.7321119487
 30
0.0
  0
SPLINE
  5
4FD
100
AcDbEntity
  8
0
100
AcDbSpline
 62
7
  6
CONTINUOUS
 70
0
 71
3
 72
11
 73
7
 74
0
 42
0.0000001
 43
0.0000001
 44
0.0000000001
 40
0.0
 40
0.0
 40
0.0
 40
0.0
 40
0.2761984018
 40
0.5308120146
 40
0.7695806393
 40
1.0
 40
1.0
 40
1.0
 40
1.0
 10
27.6679479599
 20
2.7321119487
 30
0.0
 10
27.6694966654
 20
2.7305780282
 30
0.0
 10
27.6726850696
 20
2.7278296952
 30
0.0
 10
27.6779270507
 20
2.7246948322
 30
0.0
 10
27.6833497208
 20
2.7227739587
 30
0.0
 10
27.6870652468
 20
2.7223361806
 30
0.0
 10
27.6888837272
 20
2.7223361806
 30
0.0
  0
SPLINE
  5
4FE
100
AcDbEntity
  8
0
100
AcDbSpline
 62
7
  6
CONTINUOUS
 70
0
 71
3
 72
11
 73
7
 74
0
 42
0.0000001
 43
0.0000001
 44
0.0000000001
 40
0.0
 40
0.0
 40
0.0
 40
0.0
 40
0.2303803375
 40
0.4691277116
 40
0.7237516013
 40
1.0
 40
1.0
 40
1.0
 40
1.0
 10
42.7388160176
 20
0.0723361806
 30
0.0
 10
42.7406329327
 20
0.0723361806
 30
0.0
 10
42.7443454314
 20
0.0727740028
 30
0.0
 10
42.7497634762
 20
0.0746949959
 30
0.0
 10
42.7550008688
 20
0.07782996
 30
0.0
 10
42.7581862066
 20
0.0805781295
 30
0.0
 10
42.7597334452
 20
0.0821119487
 30
0.0
  0
SPLINE
  5
4FF
100
AcDbEntity
  8
0
100
AcDbSpline
 62
7
  6
CONTINUOUS
 70
0
 71
3
 72
23
 73
19
 74
0
 42
0.0000001
 43
0.0000001
 44
0.0000000001
 40
0.0
 40
0.0
 40
0.0
 40
0.0
 40
0.0473759078
 40
0.0999344731
 40
0.1576015006
 40
0.2199442584
 40
0.286250701
 40
0.3556989898
 40
0.427306835
 40
0.5
 40
0.572693165
 40
0.6443010102
 40
0.713749299
 40
0.7800557416
 40
0.8423984994
 40
0.9000655269
 40
0.9526240922
 40
1.0
 40
1.0
 40
1.0
 40
1.0
 10
42.7597334452
 20
0.0821119487
 30
0.0
 10
42.7618708876
 20
0.0842308528
 30
0.0
 10
42.7659593879
 20
0.0891311599
 30
0.0
 10
42.7712291564
 20
0.0976733423
 30
0.0
 10
42.7758519547
 20
0.1076385963
 30
0.0
 10
42.7797512822
 20
0.1188312441
 30
0.0
 10
42.7828696484
 20
0.1310378862
 30
0.0
 10
42.7851304384
 20
0.1440281834
 30
0.0
 10
42.7865052607
 20
0.157548277
 30
0.0
 10
42.7869718386
 20
0.1713361806
 30
0.0
 10
42.7865052607
 20
0.1851240843
 30
0.0
 10
42.7851304384
 20
0.1986441779
 30
0.0
 10
42.7828696484
 20
0.2116344751
 30
0.0
 10
42.7797512822
 20
0.2238411172
 30
0.0
 10
42.7758519547
 20
0.235033765
 30
0.0
 10
42.7712291564
 20
0.244999019
 30
0.0
 10
42.7659593879
 20
0.2535412014
 30
0.0
 10
42.7618708876
 20
0.2584415085
 30
0.0
 10
42.7597334452
 20
0.2605604126
 30
0.0
  0
SPLINE
  5
500
100
AcDbEntity
  8
0
100
AcDbSpline
 62
7
  6
CONTINUOUS
 70
0
 71
3
 72
11
 73
7
 74
0
 42
0.0000001
 43
0.0000001
 44
0.0000000001
 40
0.0
 40
0.0
 40
0.0
 40
0.0
 40
0.2762483987
 40
0.5308722884
 40
0.7696196625
 40
1.0
 40
1.0
 40
1.0
 40
1.0
 10
42.7597334452
 20
0.2605604126
 30
0.0
 10
42.7581862066
 20
0.2620942318
 30
0.0
 10
42.7550008688
 20
0.2648424013
 30
0.0
 10
42.7497634762
 20
0.2679773654
 30
0.0
 10
42.7443454314
 20
0.2698983585
 30
0.0
 10
42.7406329327
 20
0.2703361806
 30
0.0
 10
42.7388160176
 20
0.2703361806
 30
0.0
  0
SPLINE
  5
501
100
AcDbEntity
  8
0
100
AcDbSpline
 62
7
  6
CONTINUOUS
 70
0
 71
3
 72
11
 73
7
 74
0
 42
0.0000001
 43
0.0000001
 44
0.0000000001
 40
0.0
 40
0.0
 40
0.0
 40
0.0
 40
0.2303895436
 40
0.4691419307
 40
0.7237633956
 40
1.0
 40
1.0
 40
1.0
 40
1.0
 10
42.7383261304
 20
2.7223361806
 30
0.0
 10
42.7401434145
 20
2.7223361806
 30
0.0
 10
42.7438566268
 20
2.7227739924
 30
0.0
 10
42.749275762
 20
2.7246949573
 30
0.0
 10
42.7545142363
 20
2.7278298976
 30
0.0
 10
42.7577002969
 20
2.7305781056
 30
0.0
 10
42.7592478814
 20
2.7321119487
 30
0.0
  0
SPLINE
  5
502
100
AcDbEntity
  8
0
100
AcDbSpline
 62
7
  6
CONTINUOUS
 70
0
 71
3
 72
23
 73
19
 74
0
 42
0.0000001
 43
0.0000001
 44
0.0000000001
 40
0.0
 40
0.0
 40
0.0
 40
0.0
 40
0.047378875
 40
0.0999392318
 40
0.1576070204
 40
0.2199496854
 40
0.2862553605
 40
0.3557023744
 40
0.4273086105
 40
0.5
 40
0.5726913895
 40
0.6442976256
 40
0.7137446395
 40
0.7800503146
 40
0.8423929796
 40
0.9000607682
 40
0.952621125
 40
1.0
 40
1.0
 40
1.0
 40
1.0
 10
42.7592478814
 20
2.7321119487
 30
0.0
 10
42.7613857306
 20
2.7342308156
 30
0.0
 10
42.7654750425
 20
2.7391310488
 30
0.0
 10
42.7707459393
 20
2.7476732458
 30
0.0
 10
42.7753697263
 20
2.7576385189
 30
0.0
 10
42.7792698861
 20
2.7688311854
 30
0.0
 10
42.782388917
 20
2.7810378435
 30
0.0
 10
42.7846501889
 20
2.7940281563
 30
0.0
 10
42.786025304
 20
2.8075482637
 30
0.0
 10
42.7864919814
 20
2.8213361806
 30
0.0
 10
42.786025304
 20
2.8351240976
 30
0.0
 10
42.7846501889
 20
2.848644205
 30
0.0
 10
42.782388917
 20
2.8616345178
 30
0.0
 10
42.7792698861
 20
2.8738411759
 30
0.0
 10
42.7753697263
 20
2.8850338424
 30
0.0
 10
42.7707459393
 20
2.8949991155
 30
0.0
 10
42.7654750425
 20
2.9035413125
 30
0.0
 10
42.7613857306
 20
2.9084415457
 30
0.0
 10
42.7592478814
 20
2.9105604126
 30
0.0
  0
SPLINE
  5
503
100
AcDbEntity
  8
0
100
AcDbSpline
 62
7
  6
CONTINUOUS
 70
0
 71
3
 72
11
 73
7
 74
0
 42
0.0000001
 43
0.0000001
 44
0.0000000001
 40
0.0
 40
0.0
 40
0.0
 40
0.0
 40
0.2762366044
 40
0.5308580693
 40
0.7696104564
 40
1.0
 40
1.0
 40
1.0
 40
1.0
 10
42.7592478814
 20
2.9105604126
 30
0.0
 10
42.7577002969
 20
2.9120942557
 30
0.0
 10
42.7545142363
 20
2.9148424637
 30
0.0
 10
42.749275762
 20
2.917977404
 30
0.0
 10
42.7438566268
 20
2.9198983689
 30
0.0
 10
42.7401434145
 20
2.9203361806
 30
0.0
 10
42.7383261304
 20
2.9203361806
 30
0.0
  0
SPLINE
  5
504
100
AcDbEntity
  8
0
100
AcDbSpline
 62
3
  6
CONTINUOUS
 70
0
 71
3
 72
37
 73
33
 74
0
 42
0.0000001
 43
0.0000001
 44
0.0000000001
 40
0.0
 40
0.0
 40
0.0
 40
0.0
 40
0.0206423717
 40
0.0418719208
 40
0.0641582544
 40
0.0878802158
 40
0.1133188441
 40
0.1406175569
 40
0.169823355
 40
0.2009247904
 40
0.2338600459
 40
0.2684866378
 40
0.3046205193
 40
0.3420591307
 40
0.3805829635
 40
0.4199352594
 40
0.5
 40
0.5800647406
 40
0.6194170365
 40
0.6579408693
 40
0.6953794807
 40
0.7315133622
 40
0.7661399541
 40
0.7990752096
 40
0.830176645
 40
0.8593824431
 40
0.8866811559
 40
0.9121197842
 40
0.9358417456
 40
0.9581280792
 40
0.9793576283
 40
1.0
 40
1.0
 40
1.0
 40
1.0
 10
27.7056665808
 20
0.0723361806
 30
0.0
 10
27.7073285215
 20
0.0723361806
 30
0.0
 10
27.7107078974
 20
0.0726696561
 30
0.0
 10
27.7156887224
 20
0.074135092
 30
0.0
 10
27.7205661341
 20
0.0765390602
 30
0.0
 10
27.7252912488
 20
0.0798545914
 30
0.0
 10
27.729816484
 20
0.0840518306
 30
0.0
 10
27.7341095414
 20
0.0890779511
 30
0.0
 10
27.7381338187
 20
0.0948832337
 30
0.0
 10
27.7418494314
 20
0.1014165419
 30
0.0
 10
27.7452137962
 20
0.1086207206
 30
0.0
 10
27.7482023907
 20
0.1164229028
 30
0.0
 10
27.7507874035
 20
0.1247476607
 30
0.0
 10
27.752940209
 20
0.1335174772
 30
0.0
 10
27.7546320676
 20
0.1426512356
 30
0.0
 10
27.7562693089
 20
0.1552664209
 30
0.0
 10
27.7570909579
 20
0.1713361806
 30
0.0
 10
27.7562693089
 20
0.1874059404
 30
0.0
 10
27.7546320676
 20
0.2000211257
 30
0.0
 10
27.752940209
 20
0.2091548841
 30
0.0
 10
27.7507874035
 20
0.2179247006
 30
0.0
 10
27.7482023907
 20
0.2262494585
 30
0.0
 10
27.7452137962
 20
0.2340516407
 30
0.0
 10
27.7418494314
 20
0.2412558194
 30
0.0
 10
27.7381338187
 20
0.2477891276
 30
0.0
 10
27.7341095414
 20
0.2535944102
 30
0.0
 10
27.729816484
 20
0.2586205307
 30
0.0
 10
27.7252912488
 20
0.2628177699
 30
0.0
 10
27.7205661341
 20
0.2661333011
 30
0.0
 10
27.7156887224
 20
0.2685372693
 30
0.0
 10
27.7107078974
 20
0.2700027052
 30
0.0
 10
27.7073285215
 20
0.2703361806
 30
0.0
 10
27.7056665808
 20
0.2703361806
 30
0.0
  0
SPLINE
  5
505
100
AcDbEntity
  8
0
100
AcDbSpline
 62
3
  6
CONTINUOUS
 70
0
 71
3
 72
37
 73
33
 74
0
 42
0.0000001
 43
0.0000001
 44
0.0000000001
 40
0.0
 40
0.0
 40
0.0
 40
0.0
 40
0.0206392964
 40
0.041865992
 40
0.0641498625
 40
0.0878698597
 40
0.1133070749
 40
0.1406049259
 40
0.1698103891
 40
0.2009119816
 40
0.2338478434
 40
0.2684754357
 40
0.3046106568
 40
0.342050893
 40
0.3805765819
 40
0.4199309064
 40
0.5
 40
0.5800690936
 40
0.6194234181
 40
0.657949107
 40
0.6953893432
 40
0.7315245643
 40
0.7661521566
 40
0.7990880184
 40
0.8301896109
 40
0.8593950741
 40
0.8866929251
 40
0.9121301403
 40
0.9358501375
 40
0.958134008
 40
0.9793607036
 40
1.0
 40
1.0
 40
1.0
 40
1.0
 10
27.705155725
 20
2.7223361806
 30
0.0
 10
27.706817327
 20
2.7223361806
 30
0.0
 10
27.7101960419
 20
2.7226696621
 30
0.0
 10
27.7151758666
 20
2.7241351149
 30
0.0
 10
27.7200522874
 20
2.7265391001
 30
0.0
 10
27.7247764333
 20
2.7298546431
 30
0.0
 10
27.7293007365
 20
2.7340518862
 30
0.0
 10
27.7335929107
 20
2.7390780056
 30
0.0
 10
27.7376163625
 20
2.7448832847
 30
0.0
 10
27.7413312153
 20
2.7514165878
 30
0.0
 10
27.7446948939
 20
2.7586207598
 30
0.0
 10
27.7476828808
 20
2.7664229357
 30
0.0
 10
27.7502673695
 20
2.7747476877
 30
0.0
 10
27.7524197394
 20
2.7835174986
 30
0.0
 10
27.7541112562
 20
2.7926512512
 30
0.0
 10
27.7557481686
 20
2.805266442
 30
0.0
 10
27.7565696499
 20
2.8213361806
 30
0.0
 10
27.7557481686
 20
2.8374059193
 30
0.0
 10
27.7541112562
 20
2.8500211101
 30
0.0
 10
27.7524197394
 20
2.8591548627
 30
0.0
 10
27.7502673695
 20
2.8679246736
 30
0.0
 10
27.7476828808
 20
2.8762494256
 30
0.0
 10
27.7446948939
 20
2.8840516015
 30
0.0
 10
27.7413312153
 20
2.8912557734
 30
0.0
 10
27.7376163625
 20
2.8977890766
 30
0.0
 10
27.7335929107
 20
2.9035943557
 30
0.0
 10
27.7293007365
 20
2.9086204751
 30
0.0
 10
27.7247764333
 20
2.9128177182
 30
0.0
 10
27.7200522874
 20
2.9161332612
 30
0.0
 10
27.7151758666
 20
2.9185372464
 30
0.0
 10
27.7101960419
 20
2.9200026992
 30
0.0
 10
27.706817327
 20
2.9203361806
 30
0.0
 10
27.705155725
 20
2.9203361806
 30
0.0
  0
SPLINE
  5
506
100
AcDbEntity
  8
0
100
AcDbSpline
 62
3
  6
CONTINUOUS
 70
0
 71
3
 72
37
 73
33
 74
0
 42
0.0000001
 43
0.0000001
 44
0.0000000001
 40
0.0
 40
0.0
 40
0.0
 40
0.0
 40
0.0206183096
 40
0.0418237013
 40
0.0640876525
 40
0.0877904262
 40
0.1132140045
 40
0.1405023133
 40
0.1697025444
 40
0.2008032372
 40
0.2337423948
 40
0.268377153
 40
0.3045230136
 40
0.341976926
 40
0.3805188233
 40
0.419891278
 40
0.5
 40
0.580108722
 40
0.6194811767
 40
0.658023074
 40
0.6954769864
 40
0.731622847
 40
0.7662576052
 40
0.7991967628
 40
0.8302974556
 40
0.8594976867
 40
0.8867859955
 40
0.9122095738
 40
0.9359123475
 40
0.9581762987
 40
0.9793816904
 40
1.0
 40
1.0
 40
1.0
 40
1.0
 10
42.6772776637
 20
0.2703361806
 30
0.0
 10
42.6756185834
 20
0.2703361806
 30
0.0
 10
42.6722449449
 20
0.2700027035
 30
0.0
 10
42.6672730222
 20
0.2685371445
 30
0.0
 10
42.6624049064
 20
0.2661330206
 30
0.0
 10
42.6576893458
 20
0.2628173582
 30
0.0
 10
42.6531737586
 20
0.2586200422
 30
0.0
 10
42.6488902521
 20
0.2535938927
 30
0.0
 10
42.6448752545
 20
0.2477886124
 30
0.0
 10
42.6411684843
 20
0.2412553293
 30
0.0
 10
42.6378123588
 20
0.2340512007
 30
0.0
 10
42.6348312617
 20
0.226249073
 30
0.0
 10
42.6322528703
 20
0.2179243709
 30
0.0
 10
42.6301056735
 20
0.2091546138
 30
0.0
 10
42.6284182729
 20
0.200020926
 30
0.0
 10
42.626785372
 20
0.187405663
 30
0.0
 10
42.6259659966
 20
0.1713361806
 30
0.0
 10
42.626785372
 20
0.1552666983
 30
0.0
 10
42.6284182729
 20
0.1426514353
 30
0.0
 10
42.6301056735
 20
0.1335177475
 30
0.0
 10
42.6322528703
 20
0.1247479904
 30
0.0
 10
42.6348312617
 20
0.1164232883
 30
0.0
 10
42.6378123588
 20
0.1086211606
 30
0.0
 10
42.6411684843
 20
0.101417032
 30
0.0
 10
42.6448752545
 20
0.0948837489
 30
0.0
 10
42.6488902521
 20
0.0890784686
 30
0.0
 10
42.6531737586
 20
0.0840523191
 30
0.0
 10
42.6576893458
 20
0.0798550031
 30
0.0
 10
42.6624049064
 20
0.0765393407
 30
0.0
 10
42.6672730222
 20
0.0741352168
 30
0.0
 10
42.6722449449
 20
0.0726696578
 30
0.0
 10
42.6756185834
 20
0.0723361806
 30
0.0
 10
42.6772776637
 20
0.0723361806
 30
0.0
  0
SPLINE
  5
507
100
AcDbEntity
  8
0
100
AcDbSpline
 62
3
  6
CONTINUOUS
 70
0
 71
3
 72
37
 73
33
 74
0
 42
0.0000001
 43
0.0000001
 44
0.0000000001
 40
0.0
 40
0.0
 40
0.0
 40
0.0
 40
0.0206153896
 40
0.0418180721
 40
0.0640796851
 40
0.0877805948
 40
0.1132028326
 40
0.1404903246
 40
0.169690239
 40
0.2007910819
 40
0.2337308155
 40
0.2683665238
 40
0.3045136559
 40
0.3419691103
 40
0.3805127688
 40
0.4198871481
 40
0.5
 40
0.5801128519
 40
0.6194872312
 40
0.6580308897
 40
0.6954863441
 40
0.7316334762
 40
0.7662691845
 40
0.7992089181
 40
0.830309761
 40
0.8595096754
 40
0.8867971674
 40
0.9122194052
 40
0.9359203149
 40
0.9581819279
 40
0.9793846104
 40
1.0
 40
1.0
 40
1.0
 40
1.0
 10
42.6777876609
 20
2.9203361806
 30
0.0
 10
42.6761289018
 20
2.9203361806
 30
0.0
 10
42.6727558901
 20
2.9200026977
 30
0.0
 10
42.6677849161
 20
2.9185371227
 30
0.0
 10
42.6629177402
 20
2.9161329826
 30
0.0
 10
42.6582030984
 20
2.912817309
 30
0.0
 10
42.6536883952
 20
2.9086199894
 30
0.0
 10
42.6494057266
 20
2.903593841
 30
0.0
 10
42.645391512
 20
2.897788564
 30
0.0
 10
42.6416854625
 20
2.8912552857
 30
0.0
 10
42.638329988
 20
2.8840511635
 30
0.0
 10
42.6353494673
 20
2.8762490418
 30
0.0
 10
42.6327715729
 20
2.8679243453
 30
0.0
 10
42.6306247894
 20
2.8591545935
 30
0.0
 10
42.6289377131
 20
2.8500209113
 30
0.0
 10
42.6273051242
 20
2.8374056431
 30
0.0
 10
42.6264859079
 20
2.8213361806
 30
0.0
 10
42.6273051242
 20
2.8052667182
 30
0.0
 10
42.6289377131
 20
2.79265145
 30
0.0
 10
42.6306247894
 20
2.7835177678
 30
0.0
 10
42.6327715729
 20
2.774748016
 30
0.0
 10
42.6353494673
 20
2.7664233195
 30
0.0
 10
42.638329988
 20
2.7586211978
 30
0.0
 10
42.6416854625
 20
2.7514170756
 30
0.0
 10
42.645391512
 20
2.7448837973
 30
0.0
 10
42.6494057266
 20
2.7390785203
 30
0.0
 10
42.6536883952
 20
2.7340523719
 30
0.0
 10
42.6582030984
 20
2.7298550523
 30
0.0
 10
42.6629177402
 20
2.7265393787
 30
0.0
 10
42.6677849161
 20
2.7241352386
 30
0.0
 10
42.6727558901
 20
2.7226696636
 30
0.0
 10
42.6761289018
 20
2.7223361806
 30
0.0
 10
42.6777876609
 20
2.7223361806
 30
0.0
  0
SPLINE
  5
508
100
AcDbEntity
  8
0
100
AcDbSpline
 62
3
  6
CONTINUOUS
 70
0
 71
3
 72
37
 73
33
 74
0
 42
0.0000001
 43
0.0000001
 44
0.0000000001
 40
0.0
 40
0.0
 40
0.0
 40
0.0
 40
0.0201144942
 40
0.0407850161
 40
0.0625319659
 40
0.0857748672
 40
0.1108238184
 40
0.1378408581
 40
0.1668825094
 40
0.1979404747
 40
0.2309508798
 40
0.2657633143
 40
0.3021833307
 40
0.3399964235
 40
0.3789688333
 40
0.4188261007
 40
0.5
 40
0.5811738993
 40
0.6210311667
 40
0.6600035765
 40
0.6978166693
 40
0.7342366857
 40
0.7690491202
 40
0.8020595253
 40
0.8331174906
 40
0.8621591419
 40
0.8891761816
 40
0.9142251328
 40
0.9374680341
 40
0.9592149839
 40
0.9798855058
 40
1.0
 40
1.0
 40
1.0
 40
1.0
 10
42.7684459612
 20
0.0723361806
 30
0.0
 10
42.770042965
 20
0.0723361806
 30
0.0
 10
42.7732898374
 20
0.0726689441
 30
0.0
 10
42.7780616915
 20
0.0741370576
 30
0.0
 10
42.7827138691
 20
0.0765449272
 30
0.0
 10
42.7872010168
 20
0.0798639928
 30
0.0
 10
42.7914800027
 20
0.0840635905
 30
0.0
 10
42.7955242462
 20
0.0890908194
 30
0.0
 10
42.799302622
 20
0.0948963314
 30
0.0
 10
42.8027804963
 20
0.1014292081
 30
0.0
 10
42.8059205279
 20
0.1086322487
 30
0.0
 10
42.8087027906
 20
0.1164331225
 30
0.0
 10
42.8111039576
 20
0.1247564902
 30
0.0
 10
42.8130999476
 20
0.1335247727
 30
0.0
 10
42.8146666019
 20
0.1426566444
 30
0.0
 10
42.8161813453
 20
0.1552739723
 30
0.0
 10
42.8169383455
 20
0.1713361806
 30
0.0
 10
42.8161813453
 20
0.187398389
 30
0.0
 10
42.8146666019
 20
0.2000157169
 30
0.0
 10
42.8130999476
 20
0.2091475886
 30
0.0
 10
42.8111039576
 20
0.2179158711
 30
0.0
 10
42.8087027906
 20
0.2262392388
 30
0.0
 10
42.8059205279
 20
0.2340401126
 30
0.0
 10
42.8027804963
 20
0.2412431532
 30
0.0
 10
42.799302622
 20
0.2477760299
 30
0.0
 10
42.7955242462
 20
0.2535815419
 30
0.0
 10
42.7914800027
 20
0.2586087708
 30
0.0
 10
42.7872010168
 20
0.2628083685
 30
0.0
 10
42.7827138691
 20
0.2661274341
 30
0.0
 10
42.7780616915
 20
0.2685353037
 30
0.0
 10
42.7732898374
 20
0.2700034172
 30
0.0
 10
42.770042965
 20
0.2703361806
 30
0.0
 10
42.7684459612
 20
0.2703361806
 30
0.0
  0
SPLINE
  5
509
100
AcDbEntity
  8
0
100
AcDbSpline
 62
3
  6
CONTINUOUS
 70
0
 71
3
 72
37
 73
33
 74
0
 42
0.0000001
 43
0.0000001
 44
0.0000000001
 40
0.0
 40
0.0
 40
0.0
 40
0.0
 40
0.0201175362
 40
0.0407908793
 40
0.062540254
 40
0.0857850748
 40
0.1108353916
 40
0.1378532487
 40
0.166895199
 40
0.1979529838
 40
0.2309627742
 40
0.2657742154
 40
0.3021929148
 40
0.3400044195
 40
0.3789750223
 40
0.4188303196
 40
0.5
 40
0.5811696804
 40
0.6210249777
 40
0.6599955805
 40
0.6978070852
 40
0.7342257846
 40
0.7690372258
 40
0.8020470162
 40
0.833104801
 40
0.8621467513
 40
0.8891646084
 40
0.9142149252
 40
0.937459746
 40
0.9592091207
 40
0.9798824638
 40
1.0
 40
1.0
 40
1.0
 40
1.0
 10
42.7679541453
 20
2.7223361806
 30
0.0
 10
42.7695514744
 20
2.7223361806
 30
0.0
 10
42.7727989806
 20
2.722668938
 30
0.0
 10
42.7775717965
 20
2.7241370336
 30
0.0
 10
42.7822249295
 20
2.7265448855
 30
0.0
 10
42.7867130129
 20
2.7298639395
 30
0.0
 10
42.7909928999
 20
2.7340635343
 30
0.0
 10
42.7950379976
 20
2.7390907653
 30
0.0
 10
42.7988171722
 20
2.7448962818
 30
0.0
 10
42.8022957822
 20
2.7514291641
 30
0.0
 10
42.8054364786
 20
2.7586322117
 30
0.0
 10
42.8082193303
 20
2.7664330918
 30
0.0
 10
42.8106210058
 20
2.7747564653
 30
0.0
 10
42.8126174186
 20
2.7835247532
 30
0.0
 10
42.8141844049
 20
2.7926566303
 30
0.0
 10
42.8156994681
 20
2.8052739533
 30
0.0
 10
42.8164566309
 20
2.8213361806
 30
0.0
 10
42.8156994681
 20
2.837398408
 30
0.0
 10
42.8141844049
 20
2.850015731
 30
0.0
 10
42.8126174186
 20
2.8591476081
 30
0.0
 10
42.8106210058
 20
2.867915896
 30
0.0
 10
42.8082193303
 20
2.8762392695
 30
0.0
 10
42.8054364786
 20
2.8840401496
 30
0.0
 10
42.8022957822
 20
2.8912431972
 30
0.0
 10
42.7988171722
 20
2.8977760795
 30
0.0
 10
42.7950379976
 20
2.903581596
 30
0.0
 10
42.7909928999
 20
2.908608827
 30
0.0
 10
42.7867130129
 20
2.9128084218
 30
0.0
 10
42.7822249295
 20
2.9161274758
 30
0.0
 10
42.7775717965
 20
2.9185353277
 30
0.0
 10
42.7727989806
 20
2.9200034233
 30
0.0
 10
42.7695514744
 20
2.9203361806
 30
0.0
 10
42.7679541453
 20
2.9203361806
 30
0.0
  0
SPLINE
  5
50A
100
AcDbEntity
  8
0
100
AcDbSpline
 62
3
  6
CONTINUOUS
 70
0
 71
3
 72
11
 73
7
 74
0
 42
0.0000001
 43
0.0000001
 44
0.0000000001
 40
0.0
 40
0.0
 40
0.0
 40
0.0
 40
0.2405356676
 40
0.4849007873
 40
0.736943445
 40
1.0
 40
1.0
 40
1.0
 40
1.0
 10
27.6587698253
 20
0.2703361806
 30
0.0
 10
27.6575532176
 20
0.2703361806
 30
0.0
 10
27.6550966841
 20
0.270145558
 30
0.0
 10
27.6514536328
 20
0.2692982674
 30
0.0
 10
27.6478628877
 20
0.2679006469
 30
0.0
 10
27.6455736488
 20
0.2666400513
 30
0.0
 10
27.6444478018
 20
0.2659310081
 30
0.0
  0
SPLINE
  5
50B
100
AcDbEntity
  8
0
100
AcDbSpline
 62
3
  6
CONTINUOUS
 70
0
 71
3
 72
9
 73
5
 74
0
 42
0.0000001
 43
0.0000001
 44
0.0000000001
 40
0.0
 40
0.0
 40
0.0
 40
0.0
 40
0.2398367459
 40
1.0
 40
1.0
 40
1.0
 40
1.0
 10
27.6444478018
 20
0.2659310081
 30
0.0
 10
27.6438628207
 20
0.2655625949
 30
0.0
 10
27.6414706598
 20
0.2639522677
 30
0.0
 10
27.639272909
 20
0.2620609736
 30
0.0
 10
27.6377151158
 20
0.2605200466
 30
0.0
  0
SPLINE
  5
50C
100
AcDbEntity
  8
0
100
AcDbSpline
 62
3
  6
CONTINUOUS
 70
0
 71
3
 72
23
 73
19
 74
0
 42
0.0000001
 43
0.0000001
 44
0.0000000001
 40
0.0
 40
0.0
 40
0.0
 40
0.0
 40
0.0474626047
 40
0.1000765855
 40
0.1577695769
 40
0.2201118338
 40
0.2863960685
 40
0.3558054183
 40
0.4273629091
 40
0.5
 40
0.5726370909
 40
0.6441945817
 40
0.7136039315
 40
0.7798881662
 40
0.8422304231
 40
0.8999234145
 40
0.9525373953
 40
1.0
 40
1.0
 40
1.0
 40
1.0
 10
27.6377151158
 20
0.2605200466
 30
0.0
 10
27.635571574
 20
0.2583997128
 30
0.0
 10
27.6314709677
 20
0.2534982955
 30
0.0
 10
27.6261838439
 20
0.2449548591
 30
0.0
 10
27.6215462729
 20
0.2349914039
 30
0.0
 10
27.6176346442
 20
0.2238034478
 30
0.0
 10
27.6145066547
 20
0.2116039524
 30
0.0
 10
27.6122389952
 20
0.1986227107
 30
0.0
 10
27.610860005
 20
0.1851130125
 30
0.0
 10
27.6103920237
 20
0.1713361806
 30
0.0
 10
27.610860005
 20
0.1575593487
 30
0.0
 10
27.6122389952
 20
0.1440496506
 30
0.0
 10
27.6145066547
 20
0.1310684089
 30
0.0
 10
27.6176346442
 20
0.1188689135
 30
0.0
 10
27.6215462729
 20
0.1076809574
 30
0.0
 10
27.6261838439
 20
0.0977175022
 30
0.0
 10
27.6314709677
 20
0.0891740658
 30
0.0
 10
27.635571574
 20
0.0842726485
 30
0.0
 10
27.6377151158
 20
0.0821523147
 30
0.0
  0
SPLINE
  5
50D
100
AcDbEntity
  8
0
100
AcDbSpline
 62
3
  6
CONTINUOUS
 70
0
 71
3
 72
9
 73
5
 74
0
 42
0.0000001
 43
0.0000001
 44
0.0000000001
 40
0.0
 40
0.0
 40
0.0
 40
0.0
 40
0.5165787033
 40
1.0
 40
1.0
 40
1.0
 40
1.0
 10
27.6377151158
 20
0.0821523147
 30
0.0
 10
27.6389659768
 20
0.0809149968
 30
0.0
 10
27.6415237952
 20
0.0786517362
 30
0.0
 10
27.6443626785
 20
0.0767461943
 30
0.0
 10
27.6457960297
 20
0.0759359635
 30
0.0
  0
SPLINE
  5
50E
100
AcDbEntity
  8
0
100
AcDbSpline
 62
3
  6
CONTINUOUS
 70
0
 71
3
 72
11
 73
7
 74
0
 42
0.0000001
 43
0.0000001
 44
0.0000000001
 40
0.0
 40
0.0
 40
0.0
 40
0.0
 40
0.2608459227
 40
0.5125011783
 40
0.7578133841
 40
1.0
 40
1.0
 40
1.0
 40
1.0
 10
27.6457960297
 20
0.0759359635
 30
0.0
 10
27.6468259193
 20
0.0753537976
 30
0.0
 10
27.6489150169
 20
0.0743205889
 30
0.0
 10
27.6521670541
 20
0.0731809588
 30
0.0
 10
27.6554574764
 20
0.0724911033
 30
0.0
 10
27.6576714103
 20
0.0723361806
 30
0.0
 10
27.6587698253
 20
0.0723361806
 30
0.0
  0
SPLINE
  5
50F
100
AcDbEntity
  8
0
100
AcDbSpline
 62
3
  6
CONTINUOUS
 70
0
 71
3
 72
37
 73
33
 74
0
 42
0.0000001
 43
0.0000001
 44
0.0000000001
 40
0.0
 40
0.0
 40
0.0
 40
0.0
 40
0.0201144644
 40
0.0407830708
 40
0.0625268047
 40
0.0857657947
 40
0.1108106979
 40
0.1378240677
 40
0.1668628043
 40
0.1979188583
 40
0.2309284965
 40
0.2657413442
 40
0.3021629248
 40
0.3399786534
 40
0.3789546337
 40
0.4188161975
 40
0.5
 40
0.5811838025
 40
0.6210453663
 40
0.6600213466
 40
0.6978370752
 40
0.7342586558
 40
0.7690715035
 40
0.8020811417
 40
0.8331371957
 40
0.8621759323
 40
0.8891893021
 40
0.9142342053
 40
0.9374731953
 40
0.9592169292
 40
0.9798855356
 40
1.0
 40
1.0
 40
1.0
 40
1.0
 10
27.6149240673
 20
2.9203361806
 30
0.0
 10
27.6133272651
 20
2.9203361806
 30
0.0
 10
27.6100809443
 20
2.9200034657
 30
0.0
 10
27.6053101471
 20
2.9185353605
 30
0.0
 10
27.6006595046
 20
2.9161274646
 30
0.0
 10
27.5961743371
 20
2.9128083562
 30
0.0
 10
27.5918977245
 20
2.9086087102
 30
0.0
 10
27.587856149
 20
2.9035814448
 30
0.0
 10
27.5840806278
 20
2.8977759093
 30
0.0
 10
27.5806056894
 20
2.8912430209
 30
0.0
 10
27.57746857
 20
2.8840399806
 30
0.0
 10
27.5746890949
 20
2.8762391133
 30
0.0
 10
27.5722904912
 20
2.8679157565
 30
0.0
 10
27.5702967404
 20
2.8591474899
 30
0.0
 10
27.5687319011
 20
2.8500156423
 30
0.0
 10
27.5672189599
 20
2.8373982823
 30
0.0
 10
27.5664629376
 20
2.8213361806
 30
0.0
 10
27.5672189599
 20
2.805274079
 30
0.0
 10
27.5687319011
 20
2.792656719
 30
0.0
 10
27.5702967404
 20
2.7835248714
 30
0.0
 10
27.5722904912
 20
2.7747566048
 30
0.0
 10
27.5746890949
 20
2.766433248
 30
0.0
 10
27.57746857
 20
2.7586323807
 30
0.0
 10
27.5806056894
 20
2.7514293404
 30
0.0
 10
27.5840806278
 20
2.7448964519
 30
0.0
 10
27.587856149
 20
2.7390909165
 30
0.0
 10
27.5918977245
 20
2.7340636511
 30
0.0
 10
27.5961743371
 20
2.7298640051
 30
0.0
 10
27.6006595046
 20
2.7265448967
 30
0.0
 10
27.6053101471
 20
2.7241370008
 30
0.0
 10
27.6100809443
 20
2.7226688956
 30
0.0
 10
27.6133272651
 20
2.7223361806
 30
0.0
 10
27.6149240673
 20
2.7223361806
 30
0.0
  0
SPLINE
  5
510
100
AcDbEntity
  8
0
100
AcDbSpline
 62
3
  6
CONTINUOUS
 70
0
 71
3
 72
37
 73
33
 74
0
 42
0.0000001
 43
0.0000001
 44
0.0000000001
 40
0.0
 40
0.0
 40
0.0
 40
0.0
 40
0.0201112533
 40
0.0407768817
 40
0.0625180559
 40
0.0857550201
 40
0.1107984819
 40
0.1378109892
 40
0.1668494106
 40
0.1979056555
 40
0.2309159429
 40
0.2657298392
 40
0.3021528098
 40
0.3399702148
 40
0.3789481022
 40
0.4188117452
 40
0.5
 40
0.5811882548
 40
0.6210518978
 40
0.6600297852
 40
0.6978471902
 40
0.7342701608
 40
0.7690840571
 40
0.8020943445
 40
0.8331505894
 40
0.8621890108
 40
0.8892015181
 40
0.9142449799
 40
0.9374819441
 40
0.9592231183
 40
0.9798887467
 40
1.0
 40
1.0
 40
1.0
 40
1.0
 10
27.6144323901
 20
0.2703361806
 30
0.0
 10
27.6128359311
 20
0.2703361806
 30
0.0
 10
27.6095902792
 20
0.2700034593
 30
0.0
 10
27.6048204968
 20
0.2685353351
 30
0.0
 10
27.6001708626
 20
0.2661274205
 30
0.0
 10
27.5956866826
 20
0.2628083
 30
0.0
 10
27.5914110209
 20
0.2586086509
 30
0.0
 10
27.5873703469
 20
0.2535813877
 30
0.0
 10
27.5835956688
 20
0.2477758569
 30
0.0
 10
27.5801215069
 20
0.2412429744
 30
0.0
 10
27.5769850892
 20
0.2340399415
 30
0.0
 10
27.5742062357
 20
0.226239081
 30
0.0
 10
27.5718081687
 20
0.2179157303
 30
0.0
 10
27.5698148642
 20
0.2091474693
 30
0.0
 10
27.5682503754
 20
0.2000156275
 30
0.0
 10
27.5667377716
 20
0.1873982623
 30
0.0
 10
27.565981921
 20
0.1713361806
 30
0.0
 10
27.5667377716
 20
0.155274099
 30
0.0
 10
27.5682503754
 20
0.1426567338
 30
0.0
 10
27.5698148642
 20
0.133524892
 30
0.0
 10
27.5718081687
 20
0.124756631
 30
0.0
 10
27.5742062357
 20
0.1164332803
 30
0.0
 10
27.5769850892
 20
0.1086324198
 30
0.0
 10
27.5801215069
 20
0.1014293869
 30
0.0
 10
27.5835956688
 20
0.0948965044
 30
0.0
 10
27.5873703469
 20
0.0890909736
 30
0.0
 10
27.5914110209
 20
0.0840637104
 30
0.0
 10
27.5956866826
 20
0.0798640613
 30
0.0
 10
27.6001708626
 20
0.0765449408
 30
0.0
 10
27.6048204968
 20
0.0741370262
 30
0.0
 10
27.6095902792
 20
0.072668902
 30
0.0
 10
27.6128359311
 20
0.0723361806
 30
0.0
 10
27.6144323901
 20
0.0723361806
 30
0.0
  0
SPLINE
  5
511
100
AcDbEntity
  8
0
100
AcDbSpline
 62
3
  6
CONTINUOUS
 70
0
 71
3
 72
11
 73
7
 74
0
 42
0.0000001
 43
0.0000001
 44
0.0000000001
 40
0.0
 40
0.0
 40
0.0
 40
0.0
 40
0.2405405415
 40
0.4849084704
 40
0.7369499945
 40
1.0
 40
1.0
 40
1.0
 40
1.0
 10
27.6592619688
 20
2.9203361806
 30
0.0
 10
27.6580451125
 20
2.9203361806
 30
0.0
 10
27.6555880895
 20
2.92014556
 30
0.0
 10
27.6519443007
 20
2.9192982761
 30
0.0
 10
27.648352822
 20
2.9179006639
 30
0.0
 10
27.6460630855
 20
2.9166400591
 30
0.0
 10
27.6449369932
 20
2.9159310081
 30
0.0
  0
SPLINE
  5
512
100
AcDbEntity
  8
0
100
AcDbSpline
 62
3
  6
CONTINUOUS
 70
0
 71
3
 72
9
 73
5
 74
0
 42
0.0000001
 43
0.0000001
 44
0.0000000001
 40
0.0
 40
0.0
 40
0.0
 40
0.0
 40
0.2398407635
 40
1.0
 40
1.0
 40
1.0
 40
1.0
 10
27.6449369932
 20
2.9159310081
 30
0.0
 10
27.6443518943
 20
2.915562597
 30
0.0
 10
27.6419592776
 20
2.9139522976
 30
0.0
 10
27.6397610524
 20
2.9120609976
 30
0.0
 10
27.6382029114
 20
2.9105200466
 30
0.0
  0
SPLINE
  5
513
100
AcDbEntity
  8
0
100
AcDbSpline
 62
3
  6
CONTINUOUS
 70
0
 71
3
 72
23
 73
19
 74
0
 42
0.0000001
 43
0.0000001
 44
0.0000000001
 40
0.0
 40
0.0
 40
0.0
 40
0.0
 40
0.0474655806
 40
0.1000813595
 40
0.1577751156
 40
0.2201172803
 40
0.2864007453
 40
0.3558088158
 40
0.4273646915
 40
0.5
 40
0.5726353085
 40
0.6441911842
 40
0.7135992547
 40
0.7798827197
 40
0.8422248844
 40
0.8999186405
 40
0.9525344194
 40
1.0
 40
1.0
 40
1.0
 40
1.0
 10
27.6382029114
 20
2.9105200466
 30
0.0
 10
27.6360589618
 20
2.9083997499
 30
0.0
 10
27.6319575424
 20
2.9034984066
 30
0.0
 10
27.6266692877
 20
2.8949549557
 30
0.0
 10
27.6220307257
 20
2.8849914815
 30
0.0
 10
27.6181182627
 20
2.8738035067
 30
0.0
 10
27.614989607
 20
2.8616039953
 30
0.0
 10
27.6127214646
 20
2.848622738
 30
0.0
 10
27.6113421808
 20
2.8351130259
 30
0.0
 10
27.6108740999
 20
2.8213361806
 30
0.0
 10
27.6113421808
 20
2.8075593354
 30
0.0
 10
27.6127214646
 20
2.7940496233
 30
0.0
 10
27.614989607
 20
2.781068366
 30
0.0
 10
27.6181182627
 20
2.7688688546
 30
0.0
 10
27.6220307257
 20
2.7576808798
 30
0.0
 10
27.6266692877
 20
2.7477174056
 30
0.0
 10
27.6319575424
 20
2.7391739547
 30
0.0
 10
27.6360589618
 20
2.7342726114
 30
0.0
 10
27.6382029114
 20
2.7321523147
 30
0.0
  0
SPLINE
  5
514
100
AcDbEntity
  8
0
100
AcDbSpline
 62
3
  6
CONTINUOUS
 70
0
 71
3
 72
9
 73
5
 74
0
 42
0.0000001
 43
0.0000001
 44
0.0000000001
 40
0.0
 40
0.0
 40
0.0
 40
0.0
 40
0.51657188
 40
1.0
 40
1.0
 40
1.0
 40
1.0
 10
27.6382029114
 20
2.7321523147
 30
0.0
 10
27.6394540248
 20
2.730915004
 30
0.0
 10
27.6420123645
 20
2.7286517546
 30
0.0
 10
27.6448517432
 20
2.7267462666
 30
0.0
 10
27.6462853429
 20
2.7259360523
 30
0.0
  0
SPLINE
  5
515
100
AcDbEntity
  8
0
100
AcDbSpline
 62
3
  6
CONTINUOUS
 70
0
 71
3
 72
11
 73
7
 74
0
 42
0.0000001
 43
0.0000001
 44
0.0000000001
 40
0.0
 40
0.0
 40
0.0
 40
0.0
 40
0.2608406297
 40
0.5124950001
 40
0.7578094794
 40
1.0
 40
1.0
 40
1.0
 40
1.0
 10
27.6462853429
 20
2.7259360523
 30
0.0
 10
27.6473154667
 20
2.7253538667
 30
0.0
 10
27.6494050381
 20
2.7243206267
 30
0.0
 10
27.6526577791
 20
2.723180974
 30
0.0
 10
27.6559489099
 20
2.7224911059
 30
0.0
 10
27.6581633154
 20
2.7223361806
 30
0.0
 10
27.6592619688
 20
2.7223361806
 30
0.0
  0
LINE
  5
516
100
AcDbEntity
  8
0
100
AcDbLine
 62
7
  6
CONTINUOUS
 10
-9.3930730215
 20
-24.2372942671
 11
-9.4057169924
 21
-24.2591942671
  0
LINE
  5
517
100
AcDbEntity
  8
0
100
AcDbLine
 62
7
  6
CONTINUOUS
 10
-9.501326197
 20
-24.0497942671
 11
-9.5266141387
 21
-24.0497942671
  0
LINE
  5
518
100
AcDbEntity
  8
0
100
AcDbLine
 62
7
  6
CONTINUOUS
 10
-9.1765666705
 20
-24.2372942671
 11
-9.1639226996
 21
-24.2591942671
  0
LINE
  5
519
100
AcDbEntity
  8
0
100
AcDbLine
 62
7
  6
CONTINUOUS
 10
-9.0683134951
 20
-24.0497942671
 11
-9.0430255533
 21
-24.0497942671
  0
LINE
  5
51A
100
AcDbEntity
  8
0
100
AcDbLine
 62
7
  6
CONTINUOUS
 10
-9.1765666705
 20
-23.8622942671
 11
-9.1639226996
 21
-23.8403942671
  0
LINE
  5
51B
100
AcDbEntity
  8
0
100
AcDbLine
 62
7
  6
CONTINUOUS
 10
-9.3930730215
 20
-23.8622942671
 11
-9.4057169924
 21
-23.8403942671
  0
LINE
  5
51C
100
AcDbEntity
  8
0
100
AcDbLine
 62
7
  6
CONTINUOUS
 10
1.2869269785
 20
-29.5373697383
 11
1.2742830076
 21
-29.5592697383
  0
LINE
  5
51D
100
AcDbEntity
  8
0
100
AcDbLine
 62
7
  6
CONTINUOUS
 10
1.178673803
 20
-29.3498697383
 11
1.1533858613
 21
-29.3498697383
  0
LINE
  5
51E
100
AcDbEntity
  8
0
100
AcDbLine
 62
7
  6
CONTINUOUS
 10
1.5034333295
 20
-29.5373697383
 11
1.5160773004
 21
-29.5592697383
  0
LINE
  5
51F
100
AcDbEntity
  8
0
100
AcDbLine
 62
7
  6
CONTINUOUS
 10
1.6116865049
 20
-29.3498697383
 11
1.6369744467
 21
-29.3498697383
  0
LINE
  5
520
100
AcDbEntity
  8
0
100
AcDbLine
 62
7
  6
CONTINUOUS
 10
1.5034333295
 20
-29.1623697383
 11
1.5160773004
 21
-29.1404697383
  0
LINE
  5
521
100
AcDbEntity
  8
0
100
AcDbLine
 62
7
  6
CONTINUOUS
 10
1.2869269785
 20
-29.1623697383
 11
1.2742830076
 21
-29.1404697383
  0
LINE
  5
522
100
AcDbEntity
  8
0
100
AcDbLine
 62
7
  6
CONTINUOUS
 10
2.0369269785
 20
-30.836407844
 11
2.0242830076
 21
-30.858307844
  0
LINE
  5
523
100
AcDbEntity
  8
0
100
AcDbLine
 62
7
  6
CONTINUOUS
 10
1.928673803
 20
-30.648907844
 11
1.9033858613
 21
-30.648907844
  0
LINE
  5
524
100
AcDbEntity
  8
0
100
AcDbLine
 62
7
  6
CONTINUOUS
 10
2.2534333295
 20
-30.836407844
 11
2.2660773004
 21
-30.858307844
  0
LINE
  5
525
100
AcDbEntity
  8
0
100
AcDbLine
 62
7
  6
CONTINUOUS
 10
2.3616865049
 20
-30.648907844
 11
2.3869744467
 21
-30.648907844
  0
LINE
  5
526
100
AcDbEntity
  8
0
100
AcDbLine
 62
7
  6
CONTINUOUS
 10
2.2534333295
 20
-30.461407844
 11
2.2660773004
 21
-30.439507844
  0
LINE
  5
527
100
AcDbEntity
  8
0
100
AcDbLine
 62
7
  6
CONTINUOUS
 10
2.0369269785
 20
-30.461407844
 11
2.0242830076
 21
-30.439507844
  0
LINE
  5
528
100
AcDbEntity
  8
0
100
AcDbLine
 62
7
  6
CONTINUOUS
 10
2.0369269785
 20
-17.6381806903
 11
2.0242830076
 21
-17.6600806903
  0
LINE
  5
529
100
AcDbEntity
  8
0
100
AcDbLine
 62
7
  6
CONTINUOUS
 10
1.928673803
 20
-17.4506806903
 11
1.9033858613
 21
-17.4506806903
  0
LINE
  5
52A
100
AcDbEntity
  8
0
100
AcDbLine
 62
7
  6
CONTINUOUS
 10
2.2534333295
 20
-17.6381806903
 11
2.2660773004
 21
-17.6600806903
  0
LINE
  5
52B
100
AcDbEntity
  8
0
100
AcDbLine
 62
7
  6
CONTINUOUS
 10
2.3616865049
 20
-17.4506806903
 11
2.3869744467
 21
-17.4506806903
  0
LINE
  5
52C
100
AcDbEntity
  8
0
100
AcDbLine
 62
7
  6
CONTINUOUS
 10
2.2534333295
 20
-17.2631806903
 11
2.2660773004
 21
-17.2412806903
  0
LINE
  5
52D
100
AcDbEntity
  8
0
100
AcDbLine
 62
7
  6
CONTINUOUS
 10
2.0369269785
 20
-17.2631806903
 11
2.0242830076
 21
-17.2412806903
  0
LINE
  5
52E
100
AcDbEntity
  8
0
100
AcDbLine
 62
7
  6
CONTINUOUS
 10
1.2869269785
 20
-18.937218796
 11
1.2742830076
 21
-18.959118796
  0
LINE
  5
52F
100
AcDbEntity
  8
0
100
AcDbLine
 62
7
  6
CONTINUOUS
 10
1.178673803
 20
-18.749718796
 11
1.1533858613
 21
-18.749718796
  0
LINE
  5
530
100
AcDbEntity
  8
0
100
AcDbLine
 62
7
  6
CONTINUOUS
 10
1.5034333295
 20
-18.937218796
 11
1.5160773004
 21
-18.959118796
  0
LINE
  5
531
100
AcDbEntity
  8
0
100
AcDbLine
 62
7
  6
CONTINUOUS
 10
1.6116865049
 20
-18.749718796
 11
1.6369744467
 21
-18.749718796
  0
LINE
  5
532
100
AcDbEntity
  8
0
100
AcDbLine
 62
7
  6
CONTINUOUS
 10
1.5034333295
 20
-18.562218796
 11
1.5160773004
 21
-18.540318796
  0
LINE
  5
533
100
AcDbEntity
  8
0
100
AcDbLine
 62
7
  6
CONTINUOUS
 10
1.2869269785
 20
-18.562218796
 11
1.2742830076
 21
-18.540318796
  0
LINE
  5
534
100
AcDbEntity
  8
0
100
AcDbLine
 62
7
  6
CONTINUOUS
 10
-7.8930730215
 20
-24.2372942671
 11
-7.9057169924
 21
-24.2591942671
  0
LINE
  5
535
100
AcDbEntity
  8
0
100
AcDbLine
 62
7
  6
CONTINUOUS
 10
-8.001326197
 20
-24.0497942671
 11
-8.0266141387
 21
-24.0497942671
  0
LINE
  5
536
100
AcDbEntity
  8
0
100
AcDbLine
 62
7
  6
CONTINUOUS
 10
-7.6765666705
 20
-24.2372942671
 11
-7.6639226996
 21
-24.2591942671
  0
LINE
  5
537
100
AcDbEntity
  8
0
100
AcDbLine
 62
7
  6
CONTINUOUS
 10
-7.5683134951
 20
-24.0497942671
 11
-7.5430255533
 21
-24.0497942671
  0
LINE
  5
538
100
AcDbEntity
  8
0
100
AcDbLine
 62
7
  6
CONTINUOUS
 10
-7.6765666705
 20
-23.8622942671
 11
-7.6639226996
 21
-23.8403942671
  0
LINE
  5
539
100
AcDbEntity
  8
0
100
AcDbLine
 62
7
  6
CONTINUOUS
 10
-7.8930730215
 20
-23.8622942671
 11
-7.9057169924
 21
-23.8403942671
  0
SPLINE
  5
53A
100
AcDbEntity
  8
0
100
AcDbSpline
 62
7
  6
CONTINUOUS
 70
0
 71
3
 72
11
 73
7
 74
0
 42
0.0000001
 43
0.0000001
 44
0.0000000001
 40
0.0
 40
0.0
 40
0.0
 40
0.0
 40
0.2723261725
 40
0.5303022335
 40
0.7724607885
 40
1.0
 40
1.0
 40
1.0
 40
1.0
 10
6.3112701089
 20
-11.6968012194
 30
0.0
 10
6.316157854
 20
-11.7028043064
 30
0.0
 10
6.3248692768
 20
-11.7151878737
 30
0.0
 10
6.3345585203
 20
-11.7350061861
 30
0.0
 10
6.3402289244
 20
-11.7550213623
 30
0.0
 10
6.3411981477
 20
-11.7684640133
 30
0.0
 10
6.3408993021
 20
-11.7749252326
 30
0.0
  0
SPLINE
  5
53B
100
AcDbEntity
  8
0
100
AcDbSpline
 62
7
  6
CONTINUOUS
 70
0
 71
3
 72
9
 73
5
 74
0
 42
0.0000001
 43
0.0000001
 44
0.0000000001
 40
0.0
 40
0.0
 40
0.0
 40
0.0
 40
0.5067267903
 40
1.0
 40
1.0
 40
1.0
 40
1.0
 10
6.3408993021
 20
-11.7749252326
 30
0.0
 10
6.340708245
 20
-11.7790559987
 30
0.0
 10
6.3397115414
 20
-11.7871934951
 30
0.0
 10
6.3374066205
 20
-11.7950669936
 30
0.0
 10
6.3359464464
 20
-11.7988182177
 30
0.0
  0
SPLINE
  5
53C
100
AcDbEntity
  8
0
100
AcDbSpline
 62
7
  6
CONTINUOUS
 70
0
 71
3
 72
11
 73
7
 74
0
 42
0.0000001
 43
0.0000001
 44
0.0000000001
 40
0.0
 40
0.0
 40
0.0
 40
0.0
 40
0.2724106931
 40
0.5304066934
 40
0.7725366051
 40
1.0
 40
1.0
 40
1.0
 40
1.0
 10
5.0451409686
 20
-10.9658012194
 30
0.0
 10
5.037473315
 20
-10.9645658308
 30
0.0
 10
5.0223448334
 20
-10.9632122389
 30
0.0
 10
5.0002702956
 20
-10.9647535117
 30
0.0
 10
4.980051332
 20
-10.9698957822
 30
0.0
 10
4.9679044869
 20
-10.9758233544
 30
0.0
 10
4.9624560134
 20
-10.9793404969
 30
0.0
  0
SPLINE
  5
53D
100
AcDbEntity
  8
0
100
AcDbSpline
 62
7
  6
CONTINUOUS
 70
0
 71
3
 72
9
 73
5
 74
0
 42
0.0000001
 43
0.0000001
 44
0.0000000001
 40
0.0
 40
0.0
 40
0.0
 40
0.0
 40
0.5066137205
 40
1.0
 40
1.0
 40
1.0
 40
1.0
 10
4.9624560134
 20
-10.9793404969
 30
0.0
 10
4.9589984924
 20
-10.9815724236
 30
0.0
 10
4.9524970321
 20
-10.9865047517
 30
0.0
 10
4.9468719533
 20
-10.9924234569
 30
0.0
 10
4.9443677757
 20
-10.9955527075
 30
0.0
  0
SPLINE
  5
53E
100
AcDbEntity
  8
0
100
AcDbSpline
 62
7
  6
CONTINUOUS
 70
0
 71
3
 72
15
 73
11
 74
0
 42
0.0000001
 43
0.0000001
 44
0.0000000001
 40
0.0
 40
0.0
 40
0.0
 40
0.0
 40
0.1098565205
 40
0.2226975673
 40
0.3394748637
 40
0.4610138618
 40
0.5878491074
 40
0.7201660051
 40
0.8578049392
 40
1.0
 40
1.0
 40
1.0
 40
1.0
 10
6.3465372974
 20
-11.7804837073
 30
0.0
 10
6.3479977242
 20
-11.7767349699
 30
0.0
 10
6.3503061884
 20
-11.7688661997
 30
0.0
 10
6.3518350226
 20
-11.7564785063
 30
0.0
 10
6.3514285343
 20
-11.7435769138
 30
0.0
 10
6.3491170569
 20
-11.7303640373
 30
0.0
 10
6.3449356964
 20
-11.7170262389
 30
0.0
 10
6.3389555357
 20
-11.7037471557
 30
0.0
 10
6.3312603216
 20
-11.6907306981
 30
0.0
 10
6.3251646493
 20
-11.6824682647
 30
0.0
 10
6.3218767107
 20
-11.6784300463
 30
0.0
  0
SPLINE
  5
53F
100
AcDbEntity
  8
0
100
AcDbSpline
 62
7
  6
CONTINUOUS
 70
0
 71
3
 72
14
 73
10
 74
0
 42
0.0000001
 43
0.0000001
 44
0.0000000001
 40
0.0
 40
0.0
 40
0.0
 40
0.0
 40
0.1422803267
 40
0.2799972374
 40
0.5388093921
 40
0.6604042412
 40
0.7772219414
 40
0.8900934489
 40
1.0
 40
1.0
 40
1.0
 40
1.0
 10
5.0557475703
 20
-10.9474300463
 30
0.0
 10
5.0506009843
 20
-10.9466008443
 30
0.0
 10
5.0403839177
 20
-10.9454525983
 30
0.0
 10
5.0206253706
 20
-10.9452505807
 30
0.0
 10
5.0016416418
 20
-10.9481574571
 30
0.0
 10
4.9844886984
 20
-10.9544378255
 30
0.0
 10
4.9731068253
 20
-10.9605520294
 30
0.0
 10
4.9631467171
 20
-10.9680913225
 30
0.0
 10
4.9574903919
 20
-10.9740374924
 30
0.0
 10
4.9549743774
 20
-10.9771815345
 30
0.0
  0
SPLINE
  5
540
100
AcDbEntity
  8
0
100
AcDbSpline
 62
7
  6
CONTINUOUS
 70
0
 71
3
 72
11
 73
7
 74
0
 42
0.0000001
 43
0.0000001
 44
0.0000000001
 40
0.0
 40
0.0
 40
0.0
 40
0.0
 40
0.2723261725
 40
0.5303022335
 40
0.7724607885
 40
1.0
 40
1.0
 40
1.0
 40
1.0
 10
-2.395819846
 20
-38.7358450367
 30
0.0
 10
-2.4030543009
 20
-38.7330900834
 30
0.0
 10
-2.416790398
 20
-38.7267213109
 30
0.0
 10
-2.4350906852
 20
-38.7144027706
 30
0.0
 10
-2.4500089873
 20
-38.6999043217
 30
0.0
 10
-2.4575696848
 20
-38.6887472561
 30
0.0
 10
-2.4605414865
 20
-38.6830022533
 30
0.0
  0
SPLINE
  5
541
100
AcDbEntity
  8
0
100
AcDbSpline
 62
7
  6
CONTINUOUS
 70
0
 71
3
 72
9
 73
5
 74
0
 42
0.0000001
 43
0.0000001
 44
0.0000000001
 40
0.0
 40
0.0
 40
0.0
 40
0.0
 40
0.5067267903
 40
1.0
 40
1.0
 40
1.0
 40
1.0
 10
-2.4605414865
 20
-38.6830022533
 30
0.0
 10
-2.4624414094
 20
-38.6793293763
 30
0.0
 10
-2.4656469868
 20
-38.6717837459
 30
0.0
 10
-2.4675876161
 20
-38.6638126357
 30
0.0
 10
-2.4681986803
 20
-38.6598338933
 30
0.0
  0
SPLINE
  5
542
100
AcDbEntity
  8
0
100
AcDbSpline
 62
7
  6
CONTINUOUS
 70
0
 71
3
 72
11
 73
7
 74
0
 42
0.0000001
 43
0.0000001
 44
0.0000000001
 40
0.0
 40
0.0
 40
0.0
 40
0.0
 40
0.2724106931
 40
0.5304066934
 40
0.7725366051
 40
1.0
 40
1.0
 40
1.0
 40
1.0
 10
-0.933819846
 20
-38.7358450367
 30
0.0
 10
-0.9265617689
 20
-38.7330810878
 30
0.0
 10
-0.9127833236
 20
-38.726689092
 30
0.0
 10
-0.8944368495
 20
-38.7143170417
 30
0.0
 10
-0.8794978486
 20
-38.699754223
 30
0.0
 10
-0.8719421583
 20
-38.6885473723
 30
0.0
 10
-0.868982213
 20
-38.6827772009
 30
0.0
  0
SPLINE
  5
543
100
AcDbEntity
  8
0
100
AcDbSpline
 62
7
  6
CONTINUOUS
 70
0
 71
3
 72
9
 73
5
 74
0
 42
0.0000001
 43
0.0000001
 44
0.0000000001
 40
0.0
 40
0.0
 40
0.0
 40
0.0
 40
0.5066137205
 40
1.0
 40
1.0
 40
1.0
 40
1.0
 10
-0.868982213
 20
-38.6827772009
 30
0.0
 10
-0.8671038753
 20
-38.6791155351
 30
0.0
 10
-0.8639396096
 20
-38.6715932835
 30
0.0
 10
-0.8620275011
 20
-38.663654995
 30
0.0
 10
-0.861423445
 20
-38.6596928957
 30
0.0
  0
SPLINE
  5
544
100
AcDbEntity
  8
0
100
AcDbSpline
 62
7
  6
CONTINUOUS
 70
0
 71
3
 72
14
 73
10
 74
0
 42
0.0000001
 43
0.0000001
 44
0.0000000001
 40
0.0
 40
0.0
 40
0.0
 40
0.0
 40
0.1111343801
 40
0.2249848803
 40
0.3423798949
 40
0.4640679752
 40
0.5905867205
 40
0.7221977605
 40
1.0
 40
1.0
 40
1.0
 40
1.0
 10
-2.468203371
 20
-38.6810074706
 30
0.0
 10
-2.4676411777
 20
-38.6846749174
 30
0.0
 10
-2.4659093673
 20
-38.6920199797
 30
0.0
 10
-2.4616333277
 20
-38.702662791
 30
0.0
 10
-2.455699581
 20
-38.7128872095
 30
0.0
 10
-2.4482027073
 20
-38.7225612219
 30
0.0
 10
-2.4392357029
 20
-38.7315711444
 30
0.0
 10
-2.4252325318
 20
-38.7427544615
 30
0.0
 10
-2.4132179294
 20
-38.7495187425
 30
0.0
 10
-2.4047666674
 20
-38.7533389799
 30
0.0
  0
SPLINE
  5
545
100
AcDbEntity
  8
0
100
AcDbSpline
 62
7
  6
CONTINUOUS
 70
0
 71
3
 72
14
 73
10
 74
0
 42
0.0000001
 43
0.0000001
 44
0.0000000001
 40
0.0
 40
0.0
 40
0.0
 40
0.0
 40
0.2778318326
 40
0.4094470102
 40
0.5359685394
 40
0.6576550892
 40
0.7750340715
 40
0.888864668
 40
1.0
 40
1.0
 40
1.0
 40
1.0
 10
-0.924865141
 20
-38.7533354097
 30
0.0
 10
-0.9164053964
 20
-38.7495107639
 30
0.0
 10
-0.9043794111
 20
-38.7427378067
 30
0.0
 10
-0.8903665887
 20
-38.7315380034
 30
0.0
 10
-0.8813955544
 20
-38.7225152194
 30
0.0
 10
-0.8738980553
 20
-38.7128279068
 30
0.0
 10
-0.8679692929
 20
-38.7025890862
 30
0.0
 10
-0.8637063439
 20
-38.6919306723
 30
0.0
 10
-0.8619831692
 20
-38.6845774184
 30
0.0
 10
-0.861423445
 20
-38.6809060992
 30
0.0
  0
SPLINE
  5
546
100
AcDbEntity
  8
0
100
AcDbSpline
 62
7
  6
CONTINUOUS
 70
0
 71
3
 72
11
 73
7
 74
0
 42
0.0000001
 43
0.0000001
 44
0.0000000001
 40
0.0
 40
0.0
 40
0.0
 40
0.0
 40
0.2723261725
 40
0.5303022335
 40
0.7724607885
 40
1.0
 40
1.0
 40
1.0
 40
1.0
 10
-8.3747806606
 20
-10.9658012194
 30
0.0
 10
-8.3671379622
 20
-10.9645698515
 30
0.0
 10
-8.352057767
 20
-10.9632173218
 30
0.0
 10
-8.3300499832
 20
-10.964735347
 30
0.0
 10
-8.3098811302
 20
-10.969832221
 30
0.0
 10
-8.2977548412
 20
-10.9757141745
 30
0.0
 10
-8.292308684
 20
-10.979203592
 30
0.0
  0
SPLINE
  5
547
100
AcDbEntity
  8
0
100
AcDbSpline
 62
7
  6
CONTINUOUS
 70
0
 71
3
 72
9
 73
5
 74
0
 42
0.0000001
 43
0.0000001
 44
0.0000000001
 40
0.0
 40
0.0
 40
0.0
 40
0.0
 40
0.5067267903
 40
1.0
 40
1.0
 40
1.0
 40
1.0
 10
-8.292308684
 20
-10.979203592
 30
0.0
 10
-8.2888268641
 20
-10.9814344354
 30
0.0
 10
-8.2822779374
 20
-10.9863663543
 30
0.0
 10
-8.2766117481
 20
-10.9922992235
 30
0.0
 10
-8.2740931797
 20
-10.9954393835
 30
0.0
  0
SPLINE
  5
548
100
AcDbEntity
  8
0
100
AcDbSpline
 62
7
  6
CONTINUOUS
 70
0
 71
3
 72
11
 73
7
 74
0
 42
0.0000001
 43
0.0000001
 44
0.0000000001
 40
0.0
 40
0.0
 40
0.0
 40
0.0
 40
0.2724106931
 40
0.5304066934
 40
0.7725366051
 40
1.0
 40
1.0
 40
1.0
 40
1.0
 10
-9.640909801
 20
-11.6968012194
 30
0.0
 10
-9.6458135057
 20
-11.7028239079
 30
0.0
 10
-9.6545499914
 20
-11.7152487614
 30
0.0
 10
-9.6642524789
 20
-11.7351365083
 30
0.0
 10
-9.6699086239
 20
-11.7552177796
 30
0.0
 10
-9.6708486183
 20
-11.7687010422
 30
0.0
 10
-9.6705269204
 20
-11.7751781299
 30
0.0
  0
SPLINE
  5
549
100
AcDbEntity
  8
0
100
AcDbSpline
 62
7
  6
CONTINUOUS
 70
0
 71
3
 72
9
 73
5
 74
0
 42
0.0000001
 43
0.0000001
 44
0.0000000001
 40
0.0
 40
0.0
 40
0.0
 40
0.0
 40
0.5066137205
 40
1.0
 40
1.0
 40
1.0
 40
1.0
 10
-9.6705269204
 20
-11.7751781299
 30
0.0
 10
-9.6703227756
 20
-11.7792883943
 30
0.0
 10
-9.6693019843
 20
-11.7873849881
 30
0.0
 10
-9.6669887746
 20
-11.7952158019
 30
0.0
 10
-9.6655308529
 20
-11.7989491086
 30
0.0
  0
SPLINE
  5
54A
100
AcDbEntity
  8
0
100
AcDbSpline
 62
7
  6
CONTINUOUS
 70
0
 71
3
 72
11
 73
7
 74
0
 42
0.0000001
 43
0.0000001
 44
0.0000000001
 40
0.0
 40
0.0
 40
0.0
 40
0.0
 40
0.2301918512
 40
0.4712543743
 40
0.7271659622
 40
1.0
 40
1.0
 40
1.0
 40
1.0
 10
-8.2846759061
 20
-10.9771001823
 30
0.0
 10
-8.2884704642
 20
-10.972366372
 30
0.0
 10
-8.2975367166
 20
-10.9636567838
 30
0.0
 10
-8.3142473077
 20
-10.9539577041
 30
0.0
 10
-8.33367728
 20
-10.947671611
 30
0.0
 10
-8.3475846571
 20
-10.945909536
 30
0.0
 10
-8.3547678822
 20
-10.9455794464
 30
0.0
  0
SPLINE
  5
54B
100
AcDbEntity
  8
0
100
AcDbSpline
 62
7
  6
CONTINUOUS
 70
0
 71
3
 72
9
 73
5
 74
0
 42
0.0000001
 43
0.0000001
 44
0.0000000001
 40
0.0
 40
0.0
 40
0.0
 40
0.0
 40
0.2438554798
 40
1.0
 40
1.0
 40
1.0
 40
1.0
 10
-8.3547678822
 20
-10.9455794464
 30
0.0
 10
-8.3572611936
 20
-10.9454648717
 30
0.0
 10
-8.3674978522
 20
-10.9452820221
 30
0.0
 10
-8.3777464075
 20
-10.9461989755
 30
0.0
 10
-8.3853872624
 20
-10.9474300463
 30
0.0
  0
SPLINE
  5
54C
100
AcDbEntity
  8
0
100
AcDbSpline
 62
7
  6
CONTINUOUS
 70
0
 71
3
 72
14
 73
10
 74
0
 42
0.0000001
 43
0.0000001
 44
0.0000000001
 40
0.0
 40
0.0
 40
0.0
 40
0.0
 40
0.2778318326
 40
0.4094470102
 40
0.5359685394
 40
0.6576550892
 40
0.7750340715
 40
0.888864668
 40
1.0
 40
1.0
 40
1.0
 40
1.0
 10
-9.6574099894
 20
-11.6861314646
 30
0.0
 10
-9.6628240203
 20
-11.6936735773
 30
0.0
 10
-9.6698523505
 20
-11.705552123
 30
0.0
 10
-9.676387909
 20
-11.7222578483
 30
0.0
 10
-9.6796456606
 20
-11.7345573256
 30
0.0
 10
-9.681295029
 20
-11.746695534
 30
0.0
 10
-9.6813100776
 20
-11.7585269939
 30
0.0
 10
-9.6796726928
 20
-11.7698889257
 30
0.0
 10
-9.6774883789
 20
-11.7771186177
 30
0.0
 10
-9.6761374546
 20
-11.7805779355
 30
0.0
  0
ELLIPSE
  5
54D
100
AcDbEntity
  8
0
100
AcDbEllipse
 62
7
  6
CONTINUOUS
 10
-8.3939129525
 20
-1.6524506159
 30
0.0
 11
0.1212435565
 21
0.1212435565
 31
0.0
 40
0.5773502692
 41
-1.1993063133
 42
-1.0471975512
  0
ELLIPSE
  5
54E
100
AcDbEntity
  8
0
100
AcDbEllipse
 62
7
  6
CONTINUOUS
 10
5.0642732605
 20
6.8151229772
 30
0.0
 11
0.1212435565
 21
0.1212435565
 31
0.0
 40
0.5773502692
 41
-4.3408989669
 42
-4.1887902048
  0
ELLIPSE
  5
54F
100
AcDbEntity
  8
0
100
AcDbEllipse
 62
7
  6
CONTINUOUS
 10
22.8926792111
 20
-1.6524506159
 30
0.0
 11
0.1352296157
 21
0.1352296157
 31
0.0
 40
0.2679491924
 41
-1.4611057011
 42
-1.308996939
  0
ELLIPSE
  5
550
100
AcDbEntity
  8
0
100
AcDbEllipse
 62
7
  6
CONTINUOUS
 10
-1.5608956644
 20
-23.8697923044
 30
0.0
 11
0.312026085
 21
0.5404450325
 31
0.0
 40
0.942904759
 41
-1.5662361117
 42
-1.5031998078
  0
ELLIPSE
  5
551
100
AcDbEntity
  8
0
100
AcDbEllipse
 62
7
  6
CONTINUOUS
 10
-1.7687440276
 20
-24.2297962299
 30
0.0
 11
0.312026085
 21
0.5404450325
 31
0.0
 40
0.942904759
 41
-1.6383928458
 42
-1.5753565419
  0
ELLIPSE
  5
552
100
AcDbEntity
  8
0
100
AcDbEllipse
 62
7
  6
CONTINUOUS
 10
-0.9890194486
 20
-24.4399678085
 30
0.0
 11
0.0775
 21
0.1342339376
 31
0.0
 40
0.0524077793
 41
0.0
 42
6.2831853072
  0
ENDSEC
  0
SECTION
  2
OBJECTS
  0
DICTIONARY
  5
C
100
AcDbDictionary
280
0
281
1
  3
ACAD_GROUP
350
D
  3
ACAD_MLINESTYLE
350
17
  3
ACAD_LAYOUT
350
1A
  3
ACAD_PLOTSETTINGS
350
19
  3
ACAD_PLOTSTYLENAME
350
E
  0
DICTIONARY
  5
D
102
{ACAD_REACTORS
330
C
102
}
100
AcDbDictionary
280
0
281
1
  0
ACDBDICTIONARYWDFLT
  5
E
102
{ACAD_REACTORS
330
C
102
}
100
AcDbDictionary
281
1
  3
Normal
350
F
100
AcDbDictionaryWithDefault
340
F
  0
DICTIONARY
  5
17
102
{ACAD_REACTORS
330
C
102
}
100
AcDbDictionary
280
0
281
1
  3
Standard
350
18
  0
DICTIONARY
  5
19
102
{ACAD_REACTORS
330
C
102
}
100
AcDbDictionary
281
1
  0
DICTIONARY
  5
1A
102
{ACAD_REACTORS
330
C
102
}
100
AcDbDictionary
281
1
  3
Model
350
553
  3
Layout1
350
554
  0
ACDBPLACEHOLDER
  5
F
102
{ACAD_REACTORS
330
E
102
}
  0
MLINESTYLE
  5
18
102
{ACAD_REACTORS
330
17
102
}
100
AcDbMlineStyle
  2
STANDARD
 70
0
  3

 62
256
 51
90.0
 52
90.0
 71
2
 49
0.5
 62
256
  6
BYLAYER
 49
-0.5
 62
256
  6
BYLAYER
  0
LAYOUT
  5
553
102
{ACAD_REACTORS
330
1A
102
}
100
AcDbPlotSettings
  1

  2
none_device
  4

  6

 40
0.0
 41
0.0
 42
0.0
 43
0.0
 44
431.8
 45
279.4
 46
0.0
 47
0.0
 48
0.0
 49
0.0
140
0.0
141
0.0
142
1.0
143
1.0
 70
1024
 72
0
 73
0
 74
0
  7

 75
0
147
1.0
148
0.0
149
0.0
100
AcDbLayout
  1
Model
 70
0
 71
0
 10
0.0
 20
0.0
 11
17.0
 21
11.0
 12
0.0
 22
0.0
 32
0.0
 14
0.0
 24
0.0
 34
0.0
 15
0.0
 25
0.0
 35
0.0
146
0.0
 13
0.0
 23
0.0
 33
0.0
 16
1.0
 26
0.0
 36
0.0
 17
0.0
 27
1.0
 37
0.0
 76
0
330
236
345
0
346
0
  0
LAYOUT
  5
554
102
{ACAD_REACTORS
330
1A
102
}
100
AcDbPlotSettings
  1

  2
none_device
  4

  6

 40
0.0
 41
0.0
 42
0.0
 43
0.0
 44
431.8
 45
279.4
 46
0.0
 47
0.0
 48
0.0
 49
0.0
140
0.0
141
0.0
142
1.0
143
1.0
 70
0
 72
0
 73
0
 74
0
  7

 75
0
147
1.0
148
0.0
149
0.0
100
AcDbLayout
  1
Layout1
 70
0
 71
1
 10
0.0
 20
0.0
 11
17.0
 21
11.0
 12
0.0
 22
0.0
 32
0.0
 14
0.0
 24
0.0
 34
0.0
 15
0.0
 25
0.0
 35
0.0
146
0.0
 13
0.0
 23
0.0
 33
0.0
 16
1.0
 26
0.0
 36
0.0
 17
0.0
 27
1.0
 37
0.0
 76
0
330
237
345
0
346
0
  0
ENDSEC
  0
EOF
