999
DXF file: N:\Master\master\M3_ProE_files\Lenexa\MADAM DXF\47388.dxf
999
Pro/ENGINEER 2010280 by Parametric Technology Corporation
  0
SECTION
  2
HEADER
  9
$ACADVER
  1
AC1021
  9
$DWGCODEPAGE
  3
ANSI_1252
  9
$EXTMAX
 10
17.0
 20
11.0
 30
0.0
  9
$EXTMIN
 10
0.0
 20
-0.0
 30
0.0
  9
$LIMMIN
 10
0.0
 20
-0.0
  9
$LIMMAX
 10
17.0
 20
11.0
  9
$VIEWCTR
 10
8.5
 20
5.5
  9
$VIEWSIZE
 40
11.0
  9
$CLAYER
  8
0
  9
$LTSCALE
 40
0.935
  9
$CELTYPE
  6
BYLAYER
  9
$DIMSCALE
 40
1.0
  9
$DIMASZ
 40
0.125
  9
$DIMEXO
 40
0.10625
  9
$DIMDLI
 40
0.646
  9
$DIMEXE
 40
0.306
  9
$DIMCEN
 40
0.153
  9
$DIMLFAC
 40
1.0
  9
$DIMBLK
  1
_FILLED
  9
$DIMTXT
 40
0.15625
  9
$DIMTOL
 70
1
  9
$DIMLIM
 70
0
  9
$DIMTFAC
 40
1.0
  9
$DIMTP
 40
0.7
  9
$DIMTM
 40
0.7
  9
$PDMODE
 70
3
  9
$PDSIZE
 40
0.3125
  9
$HANDSEED
  5
56B
  9
$TILEMODE
 70
1
  9
$MEASUREMENT
 70
0
  9
$INSUNITS
 70
1
  0
ENDSEC
  0
SECTION
  2
CLASSES
  0
CLASS
  1
ACDBDICTIONARYWDFLT
  2
AcDbDictionaryWithDefault
  3
AutoCAD 2000
 90
0
 91
1
280
0
281
0
  0
CLASS
  1
ACDBPLACEHOLDER
  2
AcDbPlaceHolder
  3
AutoCAD 2000
 90
0
 91
1
280
0
281
0
  0
CLASS
  1
LAYOUT
  2
AcDbLayout
  3
AutoCAD 2000
 90
0
 91
0
280
0
281
0
  0
ENDSEC
  0
SECTION
  2
TABLES
  0
TABLE
  2
VPORT
  5
8
100
AcDbSymbolTable
 70
2
  0
VPORT
  5
1F4
100
AcDbSymbolTableRecord
100
AcDbViewportTableRecord
  2
*ACTIVE
 70
0
 10
0.0
 20
0.0
 11
1.0
 21
1.0
 12
8.5
 22
5.5
 13
0.0
 23
0.0
 14
1.0
 24
1.0
 15
0.0
 25
0.0
 16
0.0
 26
0.0
 36
1.0
 17
0.0
 27
0.0
 37
0.0
 40
11.0
 41
1.5454545455
 42
50.0
 43
0.0
 44
0.0
 50
0.0
 51
0.0
 71
0
 72
100
 73
1
 74
1
 75
0
 76
0
 77
0
 78
0
  0
ENDTAB
  0
TABLE
  2
LTYPE
  5
5
100
AcDbSymbolTable
 70
6
  0
LTYPE
  5
14
100
AcDbSymbolTableRecord
100
AcDbLinetypeTableRecord
  2
BYBLOCK
 70
0
  3

 72
65
 73
0
 40
0.0
  0
LTYPE
  5
15
100
AcDbSymbolTableRecord
100
AcDbLinetypeTableRecord
  2
BYLAYER
 70
0
  3

 72
65
 73
0
 40
0.0
  0
LTYPE
  5
16
100
AcDbSymbolTableRecord
100
AcDbLinetypeTableRecord
  2
CONTINUOUS
 70
64
  3
Solid line
 72
65
 73
0
 40
0.0
  0
LTYPE
  5
1F5
100
AcDbSymbolTableRecord
100
AcDbLinetypeTableRecord
  2
CENTER
 70
64
  3
____ _ ____ _ ____ _ ____ _ ____ _ ____ _ ____
 72
65
 73
4
 40
0.6
 49
0.375
 74
0
 49
-0.075
 74
0
 49
0.075
 74
0
 49
-0.075
 74
0
  0
LTYPE
  5
1F6
100
AcDbSymbolTableRecord
100
AcDbLinetypeTableRecord
  2
HIDDEN
 70
64
  3
- - - - - - - - - - - - - - - - - - - -
 72
65
 73
2
 40
0.2
 49
0.1
 74
0
 49
-0.1
 74
0
  0
LTYPE
  5
1F7
100
AcDbSymbolTableRecord
100
AcDbLinetypeTableRecord
  2
PHANTOM
 70
64
  3
_____ _ _ _____ _ _ _____ _ _ _____
 72
65
 73
6
 40
0.8
 49
0.45
 74
0
 49
-0.05
 74
0
 49
0.1
 74
0
 49
-0.05
 74
0
 49
0.1
 74
0
 49
-0.05
 74
0
  0
LTYPE
  5
1F8
100
AcDbSymbolTableRecord
100
AcDbLinetypeTableRecord
  2
DOT
 70
64
  3
. . . . . . . . . . . . . . . . . . . .
 72
65
 73
2
 40
0.2
 49
0.1
 74
0
 49
-0.1
 74
0
  0
LTYPE
  5
1F9
100
AcDbSymbolTableRecord
100
AcDbLinetypeTableRecord
  2
DASHED
 70
64
  3
- - - - - - - - - - - - - - - - - - - -
 72
65
 73
2
 40
0.2
 49
0.1
 74
0
 49
-0.1
 74
0
  0
ENDTAB
  0
TABLE
  2
LAYER
  5
2
100
AcDbSymbolTable
 70
36
  0
LAYER
  5
10
100
AcDbSymbolTableRecord
100
AcDbLayerTableRecord
  2
0
 70
0
 62
7
  6
CONTINUOUS
370
-3
390
F
  0
LAYER
  5
1FA
100
AcDbSymbolTableRecord
100
AcDbLayerTableRecord
  2
DEFAULT_1
 70
0
 62
7
  6
CENTER
370
-3
390
F
  0
LAYER
  5
1FB
100
AcDbSymbolTableRecord
100
AcDbLayerTableRecord
  2
DEFAULT_2
 70
0
 62
8
  6
HIDDEN
370
-3
390
F
  0
LAYER
  5
1FC
100
AcDbSymbolTableRecord
100
AcDbLayerTableRecord
  2
DEFAULT_3
 70
0
 62
7
  6
PHANTOM
370
-3
390
F
  0
LAYER
  5
1FD
100
AcDbSymbolTableRecord
100
AcDbLayerTableRecord
  2
01_ALL_DTM_PLN
 70
0
 62
7
  6
CONTINUOUS
370
-3
390
F
  0
LAYER
  5
1FE
100
AcDbSymbolTableRecord
100
AcDbLayerTableRecord
  2
01__ASM_ALL_DTM_PLN
 70
0
 62
7
  6
CONTINUOUS
370
-3
390
F
  0
LAYER
  5
1FF
100
AcDbSymbolTableRecord
100
AcDbLayerTableRecord
  2
01__ASM_DEF_DTM_PLN
 70
0
 62
7
  6
CONTINUOUS
370
-3
390
F
  0
LAYER
  5
200
100
AcDbSymbolTableRecord
100
AcDbLayerTableRecord
  2
01___PRT_ALL_DTM_PLN
 70
0
 62
7
  6
CONTINUOUS
370
-3
390
F
  0
LAYER
  5
201
100
AcDbSymbolTableRecord
100
AcDbLayerTableRecord
  2
01___PRT_DEF_DTM_PLN
 70
0
 62
7
  6
CONTINUOUS
370
-3
390
F
  0
LAYER
  5
202
100
AcDbSymbolTableRecord
100
AcDbLayerTableRecord
  2
02_ALL_AXES
 70
0
 62
7
  6
CONTINUOUS
370
-3
390
F
  0
LAYER
  5
203
100
AcDbSymbolTableRecord
100
AcDbLayerTableRecord
  2
02__ASM_ALL_AXES
 70
0
 62
7
  6
CONTINUOUS
370
-3
390
F
  0
LAYER
  5
204
100
AcDbSymbolTableRecord
100
AcDbLayerTableRecord
  2
02___PRT_ALL_AXES
 70
0
 62
7
  6
CONTINUOUS
370
-3
390
F
  0
LAYER
  5
205
100
AcDbSymbolTableRecord
100
AcDbLayerTableRecord
  2
03_ALL_CURVES
 70
0
 62
7
  6
CONTINUOUS
370
-3
390
F
  0
LAYER
  5
206
100
AcDbSymbolTableRecord
100
AcDbLayerTableRecord
  2
03__ASM_ALL_CURVES
 70
0
 62
7
  6
CONTINUOUS
370
-3
390
F
  0
LAYER
  5
207
100
AcDbSymbolTableRecord
100
AcDbLayerTableRecord
  2
03___PRT_ALL_CURVES
 70
0
 62
7
  6
CONTINUOUS
370
-3
390
F
  0
LAYER
  5
208
100
AcDbSymbolTableRecord
100
AcDbLayerTableRecord
  2
04_ALL_DTM_PNT
 70
0
 62
7
  6
CONTINUOUS
370
-3
390
F
  0
LAYER
  5
209
100
AcDbSymbolTableRecord
100
AcDbLayerTableRecord
  2
04__ASM_ALL_DTM_PNT
 70
0
 62
7
  6
CONTINUOUS
370
-3
390
F
  0
LAYER
  5
20A
100
AcDbSymbolTableRecord
100
AcDbLayerTableRecord
  2
04___PRT_ALL_DTM_PNT
 70
0
 62
7
  6
CONTINUOUS
370
-3
390
F
  0
LAYER
  5
20B
100
AcDbSymbolTableRecord
100
AcDbLayerTableRecord
  2
05_ALL_DTM_CSYS
 70
0
 62
7
  6
CONTINUOUS
370
-3
390
F
  0
LAYER
  5
20C
100
AcDbSymbolTableRecord
100
AcDbLayerTableRecord
  2
05__ASM_ALL_DTM_CSYS
 70
0
 62
7
  6
CONTINUOUS
370
-3
390
F
  0
LAYER
  5
20D
100
AcDbSymbolTableRecord
100
AcDbLayerTableRecord
  2
05__ASM_DEF_DTM_CSYS
 70
0
 62
7
  6
CONTINUOUS
370
-3
390
F
  0
LAYER
  5
20E
100
AcDbSymbolTableRecord
100
AcDbLayerTableRecord
  2
05___PRT_ALL_DTM_CSYS
 70
0
 62
7
  6
CONTINUOUS
370
-3
390
F
  0
LAYER
  5
20F
100
AcDbSymbolTableRecord
100
AcDbLayerTableRecord
  2
05___PRT_DEF_DTM_CSYS
 70
0
 62
7
  6
CONTINUOUS
370
-3
390
F
  0
LAYER
  5
210
100
AcDbSymbolTableRecord
100
AcDbLayerTableRecord
  2
06_ALL_SURFS
 70
0
 62
7
  6
CONTINUOUS
370
-3
390
F
  0
LAYER
  5
211
100
AcDbSymbolTableRecord
100
AcDbLayerTableRecord
  2
06__ASM_ALL_SURFS
 70
0
 62
7
  6
CONTINUOUS
370
-3
390
F
  0
LAYER
  5
212
100
AcDbSymbolTableRecord
100
AcDbLayerTableRecord
  2
06___PRT_ALL_SURFS
 70
0
 62
7
  6
CONTINUOUS
370
-3
390
F
  0
LAYER
  5
213
100
AcDbSymbolTableRecord
100
AcDbLayerTableRecord
  2
07__ASM_ALL_SKELETONS
 70
0
 62
7
  6
CONTINUOUS
370
-3
390
F
  0
LAYER
  5
214
100
AcDbSymbolTableRecord
100
AcDbLayerTableRecord
  2
AXIS
 70
0
 62
7
  6
CONTINUOUS
370
-3
390
F
  0
LAYER
  5
215
100
AcDbSymbolTableRecord
100
AcDbLayerTableRecord
  2
BAFFLE_DTMS
 70
0
 62
7
  6
CONTINUOUS
370
-3
390
F
  0
LAYER
  5
216
100
AcDbSymbolTableRecord
100
AcDbLayerTableRecord
  2
BD_ANGLE
 70
0
 62
7
  6
CONTINUOUS
370
-3
390
F
  0
LAYER
  5
217
100
AcDbSymbolTableRecord
100
AcDbLayerTableRecord
  2
CONDUIT_DTMS
 70
0
 62
7
  6
CONTINUOUS
370
-3
390
F
  0
LAYER
  5
218
100
AcDbSymbolTableRecord
100
AcDbLayerTableRecord
  2
CS
 70
0
 62
7
  6
CONTINUOUS
370
-3
390
F
  0
LAYER
  5
219
100
AcDbSymbolTableRecord
100
AcDbLayerTableRecord
  2
CSYS
 70
0
 62
7
  6
CONTINUOUS
370
-3
390
F
  0
LAYER
  5
21A
100
AcDbSymbolTableRecord
100
AcDbLayerTableRecord
  2
CURVE
 70
0
 62
7
  6
CONTINUOUS
370
-3
390
F
  0
LAYER
  5
21B
100
AcDbSymbolTableRecord
100
AcDbLayerTableRecord
  2
DATUM_PLANES
 70
0
 62
7
  6
CONTINUOUS
370
-3
390
F
  0
LAYER
  5
21C
100
AcDbSymbolTableRecord
100
AcDbLayerTableRecord
  2
DEF_DTMS
 70
0
 62
7
  6
CONTINUOUS
370
-3
390
F
  0
LAYER
  5
21D
100
AcDbSymbolTableRecord
100
AcDbLayerTableRecord
  2
HEAD
 70
0
 62
7
  6
CONTINUOUS
370
-3
390
F
  0
LAYER
  5
21E
100
AcDbSymbolTableRecord
100
AcDbLayerTableRecord
  2
J_BOX_ANGLE
 70
0
 62
7
  6
CONTINUOUS
370
-3
390
F
  0
LAYER
  5
21F
100
AcDbSymbolTableRecord
100
AcDbLayerTableRecord
  2
MTR_HOLE_ANG_DTM
 70
0
 62
7
  6
CONTINUOUS
370
-3
390
F
  0
LAYER
  5
220
100
AcDbSymbolTableRecord
100
AcDbLayerTableRecord
  2
NEW
 70
0
 62
7
  6
CONTINUOUS
370
-3
390
F
  0
LAYER
  5
221
100
AcDbSymbolTableRecord
100
AcDbLayerTableRecord
  2
PARTDTMS
 70
0
 62
7
  6
CONTINUOUS
370
-3
390
F
  0
LAYER
  5
222
100
AcDbSymbolTableRecord
100
AcDbLayerTableRecord
  2
PLANE
 70
0
 62
7
  6
CONTINUOUS
370
-3
390
F
  0
LAYER
  5
223
100
AcDbSymbolTableRecord
100
AcDbLayerTableRecord
  2
PLANES
 70
0
 62
7
  6
CONTINUOUS
370
-3
390
F
  0
LAYER
  5
224
100
AcDbSymbolTableRecord
100
AcDbLayerTableRecord
  2
POINT
 70
0
 62
7
  6
CONTINUOUS
370
-3
390
F
  0
LAYER
  5
225
100
AcDbSymbolTableRecord
100
AcDbLayerTableRecord
  2
ROUND
 70
0
 62
7
  6
CONTINUOUS
370
-3
390
F
  0
LAYER
  5
226
100
AcDbSymbolTableRecord
100
AcDbLayerTableRecord
  2
STANDOFF_DTMS
 70
0
 62
7
  6
CONTINUOUS
370
-3
390
F
  0
LAYER
  5
227
100
AcDbSymbolTableRecord
100
AcDbLayerTableRecord
  2
STIFF_ANGLE
 70
0
 62
7
  6
CONTINUOUS
370
-3
390
F
  0
ENDTAB
  0
TABLE
  2
STYLE
  5
3
100
AcDbSymbolTable
 70
1
  0
STYLE
  5
11
100
AcDbSymbolTableRecord
100
AcDbTextStyleTableRecord
  2
STANDARD
 70
0
 40
0.0
 41
0.8
 50
0.0
 71
0
 42
0.2
  3
txt
  4

  0
STYLE
  5
228
100
AcDbSymbolTableRecord
100
AcDbTextStyleTableRecord
  2
TEXTSTYLE_1
 70
0
 40
0.0
 41
0.8
 50
0.0
 71
0
 42
0.2
  3
gdt
  4

  0
ENDTAB
  0
TABLE
  2
VIEW
  5
6
100
AcDbSymbolTable
 70
0
  0
ENDTAB
  0
TABLE
  2
UCS
  5
7
100
AcDbSymbolTable
 70
0
  0
ENDTAB
  0
TABLE
  2
APPID
  5
9
100
AcDbSymbolTable
 70
1
  0
APPID
  5
229
100
AcDbSymbolTableRecord
100
AcDbRegAppTableRecord
  2
ACAD
 70
0
  0
ENDTAB
  0
TABLE
  2
BLOCK_RECORD
  5
1
100
AcDbSymbolTable
 70
0
  0
BLOCK_RECORD
  5
22A
100
AcDbSymbolTableRecord
100
AcDbBlockTableRecord
  2
*Model_Space
  0
BLOCK_RECORD
  5
22B
100
AcDbSymbolTableRecord
100
AcDbBlockTableRecord
  2
*Paper_Space
  0
ENDTAB
  0
TABLE
  2
DIMSTYLE
  5
A
100
AcDbSymbolTable
 70
1
100
AcDbDimStyleTable
 71
0
  0
DIMSTYLE
105
22C
100
AcDbSymbolTableRecord
100
AcDbDimStyleTableRecord
  2
STANDARD
 70
0
  3

  4

 40
1.0
 41
0.125
 42
0.0625
 43
0.38
 44
0.18
 45
0.0
 46
0.0
 47
0.7
 48
0.7
140
0.15625
141
0.09
142
0.0
143
25.4
144
1.0
145
0.0
146
1.0
147
0.09
 71
1.0
 72
0.0
 73
1
 74
1
 75
0
 76
0
 77
0
 78
4
170
0
171
2
172
0
173
0
174
0
175
0
176
0
177
0
178
0
270
2
271
2
272
2
273
2
274
2
275
0
280
0
281
0
282
0
283
1
284
4
285
0
286
0
287
3
288
0
340
11
  0
ENDTAB
  0
ENDSEC
  0
SECTION
  2
BLOCKS
  0
BLOCK
  5
20
100
AcDbEntity
  8
0
100
AcDbBlockBegin
  2
*Model_Space
 70
0
 10
0.0
 20
0.0
 30
0.0
  3
*Model_Space
  1

  0
ENDBLK
  5
21
100
AcDbEntity
  8
0
100
AcDbBlockEnd
  0
BLOCK
  5
1C
100
AcDbEntity
  8
0
100
AcDbBlockBegin
  2
*Paper_Space
 70
0
 10
0.0
 20
0.0
 30
0.0
  3
*Paper_Space
  1

  0
ENDBLK
  5
1D
100
AcDbEntity
  8
0
100
AcDbBlockEnd
  0
ENDSEC
  0
SECTION
  2
ENTITIES
  0
MTEXT
  5
22D
100
AcDbEntity
  8
0
100
AcDbMText
 62
2
  6
CONTINUOUS
  7
STANDARD
 71
1
 72
1
 10
-2.8807412059
 20
6.5339370183
 30
0.0
 11
1.0
 21
0.0
 31
0.0
 44
0.9
  1
47388
 40
4.0
 41
16.0
  0
LINE
  5
22E
100
AcDbEntity
  8
0
100
AcDbLine
 62
7
  6
CONTINUOUS
 10
-36.6358392436
 20
3.4090579538
 11
-36.6358392436
 21
3.6613600214
  0
LINE
  5
22F
100
AcDbEntity
  8
0
100
AcDbLine
 62
7
  6
CONTINUOUS
 10
-20.9643469268
 20
-4.9452500118
 11
-18.4643469268
 21
-4.9452500118
  0
LINE
  5
230
100
AcDbEntity
  8
0
100
AcDbLine
 62
7
  6
CONTINUOUS
 10
-21.1143469268
 20
-4.9452500118
 11
-22.2643469268
 21
-4.9452500118
  0
LINE
  5
231
100
AcDbEntity
  8
0
100
AcDbLine
 62
7
  6
CONTINUOUS
 10
-36.1988392436
 20
3.6613600214
 11
-36.1988392436
 21
3.4090579538
  0
LINE
  5
232
100
AcDbEntity
  8
0
100
AcDbLine
 62
7
  6
CONTINUOUS
 10
-34.9792248395
 20
8.0996250344
 11
-34.7842248395
 21
8.4373749419
  0
LINE
  5
233
100
AcDbEntity
  8
0
100
AcDbLine
 62
7
  6
CONTINUOUS
 10
-34.4788916295
 20
7.9262275748
 11
-34.3838916295
 21
8.0907724015
  0
LINE
  5
234
100
AcDbEntity
  8
0
100
AcDbLine
 62
7
  6
CONTINUOUS
 10
-27.7693469268
 20
-3.7627500118
 11
-28.1593469268
 21
-3.7627500118
  0
LINE
  5
235
100
AcDbEntity
  8
0
100
AcDbLine
 62
7
  6
CONTINUOUS
 10
-27.8693469268
 20
-3.2427500118
 11
-28.0593469268
 21
-3.2427500118
  0
LINE
  5
236
100
AcDbEntity
  8
0
100
AcDbLine
 62
7
  6
CONTINUOUS
 10
-34.0265247533
 20
7.6497499882
 11
-33.9182715778
 21
7.8372499882
  0
LINE
  5
237
100
AcDbEntity
  8
0
100
AcDbLine
 62
7
  6
CONTINUOUS
 10
-33.5935120514
 20
7.6497499882
 11
-33.7017652268
 21
7.4622499882
  0
LINE
  5
238
100
AcDbEntity
  8
0
100
AcDbLine
 62
7
  6
CONTINUOUS
 10
-22.2643469268
 20
-2.9452500118
 11
-21.1143469268
 21
-2.9452500118
  0
LINE
  5
239
100
AcDbEntity
  8
0
100
AcDbLine
 62
7
  6
CONTINUOUS
 10
-27.8560937513
 20
-2.6627500118
 11
-28.0726001022
 21
-2.6627500118
  0
LINE
  5
23A
100
AcDbEntity
  8
0
100
AcDbLine
 62
7
  6
CONTINUOUS
 10
-28.0726001022
 20
-2.2877500118
 11
-27.8560937513
 21
-2.2877500118
  0
LINE
  5
23B
100
AcDbEntity
  8
0
100
AcDbLine
 62
7
  6
CONTINUOUS
 10
-33.1604993495
 20
7.1497499882
 11
-33.052246174
 21
7.3372499882
  0
LINE
  5
23C
100
AcDbEntity
  8
0
100
AcDbLine
 62
7
  6
CONTINUOUS
 10
-32.7274866476
 20
7.1497499882
 11
-32.8357398231
 21
6.9622499882
  0
LINE
  5
23D
100
AcDbEntity
  8
0
100
AcDbLine
 62
7
  6
CONTINUOUS
 10
-27.8560937513
 20
-1.6627500118
 11
-28.0726001022
 21
-1.6627500118
  0
LINE
  5
23E
100
AcDbEntity
  8
0
100
AcDbLine
 62
7
  6
CONTINUOUS
 10
-18.4643469268
 20
-1.4452500118
 11
-20.9643469268
 21
-1.4452500118
  0
LINE
  5
23F
100
AcDbEntity
  8
0
100
AcDbLine
 62
7
  6
CONTINUOUS
 10
-18.5143469268
 20
-1.3452500118
 11
-21.1643469268
 21
-1.3452500118
  0
LINE
  5
240
100
AcDbEntity
  8
0
100
AcDbLine
 62
7
  6
CONTINUOUS
 10
-28.0726001022
 20
-1.2877500118
 11
-27.8560937513
 21
-1.2877500118
  0
LINE
  5
241
100
AcDbEntity
  8
0
100
AcDbLine
 62
7
  6
CONTINUOUS
 10
-24.596812062
 20
12.0911776067
 11
-24.378312062
 21
12.2173286405
  0
LINE
  5
242
100
AcDbEntity
  8
0
100
AcDbLine
 62
7
  6
CONTINUOUS
 10
-24.159812062
 20
11.838875539
 11
-24.378312062
 21
11.7127245052
  0
LINE
  5
243
100
AcDbEntity
  8
0
100
AcDbLine
 62
7
  6
CONTINUOUS
 10
-36.4173392436
 20
3.2829069199
 11
-36.6358392436
 21
3.4090579538
  0
LINE
  5
244
100
AcDbEntity
  8
0
100
AcDbLine
 62
7
  6
CONTINUOUS
 10
-36.4173392436
 20
3.7875110552
 11
-36.1988392436
 21
3.6613600214
  0
LINE
  5
245
100
AcDbEntity
  8
0
100
AcDbLine
 62
7
  6
CONTINUOUS
 10
-36.6358392436
 20
3.6613600214
 11
-36.4173392436
 21
3.7875110552
  0
LINE
  5
246
100
AcDbEntity
  8
0
100
AcDbLine
 62
7
  6
CONTINUOUS
 10
-36.1988392436
 20
3.4090579538
 11
-36.4173392436
 21
3.2829069199
  0
LINE
  5
247
100
AcDbEntity
  8
0
100
AcDbLine
 62
7
  6
CONTINUOUS
 10
-21.1643469268
 20
0.2747499882
 11
-18.5143469268
 21
0.2747499882
  0
LINE
  5
248
100
AcDbEntity
  8
0
100
AcDbLine
 62
7
  6
CONTINUOUS
 10
-23.0973894747
 20
-2.9282876635
 11
-23.3158894747
 21
-2.8021366297
  0
LINE
  5
249
100
AcDbEntity
  8
0
100
AcDbLine
 62
7
  6
CONTINUOUS
 10
-23.0973894747
 20
-2.4236835283
 11
-22.8788894747
 21
-2.5498345621
  0
LINE
  5
24A
100
AcDbEntity
  8
0
100
AcDbLine
 62
7
  6
CONTINUOUS
 10
-28.0726001022
 20
-2.6627500118
 11
-28.1808532777
 21
-2.4752500118
  0
LINE
  5
24B
100
AcDbEntity
  8
0
100
AcDbLine
 62
7
  6
CONTINUOUS
 10
-33.9182715778
 20
7.4622499882
 11
-34.0265247533
 21
7.6497499882
  0
LINE
  5
24C
100
AcDbEntity
  8
0
100
AcDbLine
 62
7
  6
CONTINUOUS
 10
-33.7017652268
 20
7.8372499882
 11
-33.5935120514
 21
7.6497499882
  0
LINE
  5
24D
100
AcDbEntity
  8
0
100
AcDbLine
 62
7
  6
CONTINUOUS
 10
-27.8560937513
 20
-2.2877500118
 11
-27.7478405758
 21
-2.4752500118
  0
LINE
  5
24E
100
AcDbEntity
  8
0
100
AcDbLine
 62
7
  6
CONTINUOUS
 10
-28.0726001022
 20
-1.6627500118
 11
-28.1808532777
 21
-1.4752500118
  0
LINE
  5
24F
100
AcDbEntity
  8
0
100
AcDbLine
 62
7
  6
CONTINUOUS
 10
-33.052246174
 20
6.9622499882
 11
-33.1604993495
 21
7.1497499882
  0
LINE
  5
250
100
AcDbEntity
  8
0
100
AcDbLine
 62
7
  6
CONTINUOUS
 10
-32.8357398231
 20
7.3372499882
 11
-32.7274866476
 21
7.1497499882
  0
LINE
  5
251
100
AcDbEntity
  8
0
100
AcDbLine
 62
7
  6
CONTINUOUS
 10
-27.8560937513
 20
-1.2877500118
 11
-27.7478405758
 21
-1.4752500118
  0
LINE
  5
252
100
AcDbEntity
  8
0
100
AcDbLine
 62
7
  6
CONTINUOUS
 10
-29.1828469268
 20
4.1485989544
 11
-29.1828469268
 21
4.400901022
  0
LINE
  5
253
100
AcDbEntity
  8
0
100
AcDbLine
 62
7
  6
CONTINUOUS
 10
-28.3395114717
 20
3.1865397308
 11
-28.7191823818
 21
3.405742833
  0
LINE
  5
254
100
AcDbEntity
  8
0
100
AcDbLine
 62
7
  6
CONTINUOUS
 10
-28.7458469268
 20
4.400901022
 11
-28.7458469268
 21
4.1485989544
  0
LINE
  5
255
100
AcDbEntity
  8
0
100
AcDbLine
 62
7
  6
CONTINUOUS
 10
-28.0593469268
 20
-3.7627500118
 11
-28.0593469268
 21
-3.2427500118
  0
LINE
  5
256
100
AcDbEntity
  8
0
100
AcDbLine
 62
7
  6
CONTINUOUS
 10
-27.8693469268
 20
-3.7627500118
 11
-27.8693469268
 21
-3.2427500118
  0
LINE
  5
257
100
AcDbEntity
  8
0
100
AcDbLine
 62
7
  6
CONTINUOUS
 10
-28.5808532777
 20
3.7069296651
 11
-28.4743922468
 21
3.8913255797
  0
LINE
  5
258
100
AcDbEntity
  8
0
100
AcDbLine
 62
7
  6
CONTINUOUS
 10
-28.7191823818
 20
3.405742833
 11
-28.823465029
 21
3.2251199897
  0
LINE
  5
259
100
AcDbEntity
  8
0
100
AcDbLine
 62
7
  6
CONTINUOUS
 10
-28.5271605093
 20
3.7213165991
 11
-28.4410212479
 21
3.8705141764
  0
LINE
  5
25A
100
AcDbEntity
  8
0
100
AcDbLine
 62
7
  6
CONTINUOUS
 10
-28.6635808644
 20
3.3736412819
 11
-28.4887544057
 21
3.6764495907
  0
LINE
  5
25B
100
AcDbEntity
  8
0
100
AcDbLine
 62
7
  6
CONTINUOUS
 10
-28.5293469268
 20
3.2961412819
 11
-28.633629574
 21
3.1155184386
  0
LINE
  5
25C
100
AcDbEntity
  8
0
100
AcDbLine
 62
4
  6
CONTINUOUS
 10
-28.7143469268
 20
2.9757118825
 11
-28.8393469268
 21
2.7592055315
  0
LINE
  5
25D
100
AcDbEntity
  8
0
100
AcDbLine
 62
7
  6
CONTINUOUS
 10
-29.1828469268
 20
4.400901022
 11
-28.9643469268
 21
4.5270520558
  0
LINE
  5
25E
100
AcDbEntity
  8
0
100
AcDbLine
 62
7
  6
CONTINUOUS
 10
-27.6828469268
 20
5.2669264258
 11
-27.4643469268
 21
5.3930774596
  0
LINE
  5
25F
100
AcDbEntity
  8
0
100
AcDbLine
 62
7
  6
CONTINUOUS
 10
-27.2458469268
 20
5.0146243581
 11
-27.4643469268
 21
4.8884733243
  0
LINE
  5
260
100
AcDbEntity
  8
0
100
AcDbLine
 62
7
  6
CONTINUOUS
 10
-28.7458469268
 20
4.1485989544
 11
-28.9643469268
 21
4.0224479205
  0
LINE
  5
261
100
AcDbEntity
  8
0
100
AcDbLine
 62
7
  6
CONTINUOUS
 10
-21.544802224
 20
8.0907724015
 11
-21.094469014
 21
8.3507724015
  0
LINE
  5
262
100
AcDbEntity
  8
0
100
AcDbLine
 62
7
  6
CONTINUOUS
 10
-21.449802224
 20
7.9262275748
 11
-20.999469014
 21
8.1862275748
  0
LINE
  5
263
100
AcDbEntity
  8
0
100
AcDbLine
 62
7
  6
CONTINUOUS
 10
-28.5808532777
 20
3.7069296651
 11
-28.5271605093
 21
3.7213165991
  0
LINE
  5
264
100
AcDbEntity
  8
0
100
AcDbLine
 62
7
  6
CONTINUOUS
 10
-28.1478405758
 20
3.4569296651
 11
-28.2301129892
 21
3.5044296651
  0
LINE
  5
265
100
AcDbEntity
  8
0
100
AcDbLine
 62
7
  6
CONTINUOUS
 10
-28.4985808644
 20
3.6594296651
 11
-28.5808532777
 21
3.7069296651
  0
LINE
  5
266
100
AcDbEntity
  8
0
100
AcDbLine
 62
7
  6
CONTINUOUS
 10
-28.5271605093
 20
3.7213165991
 11
-28.1622275098
 21
3.5106224335
  0
LINE
  5
267
100
AcDbEntity
  8
0
100
AcDbLine
 62
7
  6
CONTINUOUS
 10
-27.4643469268
 20
3.1564225168
 11
-27.6828469268
 21
3.2825735506
  0
LINE
  5
268
100
AcDbEntity
  8
0
100
AcDbLine
 62
7
  6
CONTINUOUS
 10
-28.9643469268
 20
4.0224479205
 11
-29.1828469268
 21
4.1485989544
  0
LINE
  5
269
100
AcDbEntity
  8
0
100
AcDbLine
 62
7
  6
CONTINUOUS
 10
-28.9643469268
 20
4.5270520558
 11
-28.7458469268
 21
4.400901022
  0
LINE
  5
26A
100
AcDbEntity
  8
0
100
AcDbLine
 62
7
  6
CONTINUOUS
 10
-27.4643469268
 20
3.661026652
 11
-27.2458469268
 21
3.5348756182
  0
LINE
  5
26B
100
AcDbEntity
  8
0
100
AcDbLine
 62
7
  6
CONTINUOUS
 10
-28.0937433785
 20
4.0607819298
 11
-28.084950475
 21
4.0557053446
  0
LINE
  5
26C
100
AcDbEntity
  8
0
100
AcDbLine
 62
7
  6
CONTINUOUS
 10
-34.9292248395
 20
8.1862275748
 11
-34.4788916295
 21
7.9262275748
  0
LINE
  5
26D
100
AcDbEntity
  8
0
100
AcDbLine
 62
7
  6
CONTINUOUS
 10
-34.8342248395
 20
8.3507724015
 11
-34.3838916295
 21
8.0907724015
  0
LINE
  5
26E
100
AcDbEntity
  8
0
100
AcDbLine
 62
7
  6
CONTINUOUS
 10
-28.1622275098
 20
3.5106224335
 11
-28.1478405758
 21
3.4569296651
  0
LINE
  5
26F
100
AcDbEntity
  8
0
100
AcDbLine
 62
7
  6
CONTINUOUS
 10
-28.1981952844
 20
4.3631521693
 11
-28.1226644546
 21
4.0812672748
  0
LINE
  5
270
100
AcDbEntity
  8
0
100
AcDbLine
 62
7
  6
CONTINUOUS
 10
-27.6828469268
 20
3.2825735506
 11
-27.6828469268
 21
3.5348756182
  0
LINE
  5
271
100
AcDbEntity
  8
0
100
AcDbLine
 62
7
  6
CONTINUOUS
 10
-27.6828469268
 20
5.0146243581
 11
-27.6828469268
 21
5.2669264258
  0
LINE
  5
272
100
AcDbEntity
  8
0
100
AcDbLine
 62
7
  6
CONTINUOUS
 10
-27.2458469268
 20
5.2669264258
 11
-27.2458469268
 21
5.0146243581
  0
LINE
  5
273
100
AcDbEntity
  8
0
100
AcDbLine
 62
7
  6
CONTINUOUS
 10
-27.2458469268
 20
3.5348756182
 11
-27.2458469268
 21
3.2825735506
  0
LINE
  5
274
100
AcDbEntity
  8
0
100
AcDbLine
 62
7
  6
CONTINUOUS
 10
-28.3951129892
 20
3.2186412819
 11
-28.2202865306
 21
3.5214495907
  0
LINE
  5
275
100
AcDbEntity
  8
0
100
AcDbLine
 62
7
  6
CONTINUOUS
 10
-28.1622275098
 20
3.5106224335
 11
-28.0760882483
 21
3.6598200108
  0
LINE
  5
276
100
AcDbEntity
  8
0
100
AcDbLine
 62
7
  6
CONTINUOUS
 10
-28.3395114717
 20
3.1865397308
 11
-28.4437941189
 21
3.0059168875
  0
LINE
  5
277
100
AcDbEntity
  8
0
100
AcDbLine
 62
7
  6
CONTINUOUS
 10
-28.1478405758
 20
3.4569296651
 11
-28.0413795449
 21
3.6413255797
  0
LINE
  5
278
100
AcDbEntity
  8
0
100
AcDbLine
 62
7
  6
CONTINUOUS
 10
-27.6828469268
 20
3.5348756182
 11
-27.4643469268
 21
3.661026652
  0
LINE
  5
279
100
AcDbEntity
  8
0
100
AcDbLine
 62
7
  6
CONTINUOUS
 10
-27.4643469268
 20
4.8884733243
 11
-27.6828469268
 21
5.0146243581
  0
LINE
  5
27A
100
AcDbEntity
  8
0
100
AcDbLine
 62
7
  6
CONTINUOUS
 10
-27.2458469268
 20
3.2825735506
 11
-27.4643469268
 21
3.1564225168
  0
LINE
  5
27B
100
AcDbEntity
  8
0
100
AcDbLine
 62
7
  6
CONTINUOUS
 10
-27.4643469268
 20
5.3930774596
 11
-27.2458469268
 21
5.2669264258
  0
LINE
  5
27C
100
AcDbEntity
  8
0
100
AcDbLine
 62
7
  6
CONTINUOUS
 10
-28.1808532777
 20
-1.4752500118
 11
-28.0726001022
 21
-1.2877500118
  0
LINE
  5
27D
100
AcDbEntity
  8
0
100
AcDbLine
 62
7
  6
CONTINUOUS
 10
-23.201207206
 20
7.1497499882
 11
-23.0929540305
 21
7.3372499882
  0
LINE
  5
27E
100
AcDbEntity
  8
0
100
AcDbLine
 62
7
  6
CONTINUOUS
 10
-22.7681945041
 20
7.1497499882
 11
-22.8764476795
 21
6.9622499882
  0
LINE
  5
27F
100
AcDbEntity
  8
0
100
AcDbLine
 62
7
  6
CONTINUOUS
 10
-27.7478405758
 20
-1.4752500118
 11
-27.8560937513
 21
-1.6627500118
  0
LINE
  5
280
100
AcDbEntity
  8
0
100
AcDbLine
 62
7
  6
CONTINUOUS
 10
-28.1808532777
 20
-2.4752500118
 11
-28.0726001022
 21
-2.2877500118
  0
LINE
  5
281
100
AcDbEntity
  8
0
100
AcDbLine
 62
7
  6
CONTINUOUS
 10
-22.3351818022
 20
7.6497499882
 11
-22.2269286267
 21
7.8372499882
  0
LINE
  5
282
100
AcDbEntity
  8
0
100
AcDbLine
 62
7
  6
CONTINUOUS
 10
-22.8764476795
 20
6.9622499882
 11
-23.0929540305
 21
6.9622499882
  0
LINE
  5
283
100
AcDbEntity
  8
0
100
AcDbLine
 62
7
  6
CONTINUOUS
 10
-32.8357398231
 20
6.9622499882
 11
-33.052246174
 21
6.9622499882
  0
LINE
  5
284
100
AcDbEntity
  8
0
100
AcDbLine
 62
7
  6
CONTINUOUS
 10
-33.052246174
 20
7.3372499882
 11
-32.8357398231
 21
7.3372499882
  0
LINE
  5
285
100
AcDbEntity
  8
0
100
AcDbLine
 62
7
  6
CONTINUOUS
 10
-23.0929540305
 20
7.3372499882
 11
-22.8764476795
 21
7.3372499882
  0
LINE
  5
286
100
AcDbEntity
  8
0
100
AcDbLine
 62
7
  6
CONTINUOUS
 10
-22.0104222758
 20
7.4622499882
 11
-22.2269286267
 21
7.4622499882
  0
LINE
  5
287
100
AcDbEntity
  8
0
100
AcDbLine
 62
7
  6
CONTINUOUS
 10
-33.7017652268
 20
7.4622499882
 11
-33.9182715778
 21
7.4622499882
  0
LINE
  5
288
100
AcDbEntity
  8
03___PRT_ALL_CURVES
100
AcDbLine
 62
4
  6
CONTINUOUS
 10
-18.4799868258
 20
-1.3307300232
 11
-18.4643469268
 21
-1.3452500118
  0
LINE
  5
289
100
AcDbEntity
  8
0
100
AcDbLine
 62
7
  6
CONTINUOUS
 10
-24.596812062
 20
11.838875539
 11
-24.596812062
 21
12.0911776067
  0
LINE
  5
28A
100
AcDbEntity
  8
0
100
AcDbLine
 62
7
  6
CONTINUOUS
 10
-24.159812062
 20
12.0911776067
 11
-24.159812062
 21
11.838875539
  0
LINE
  5
28B
100
AcDbEntity
  8
0
100
AcDbLine
 62
7
  6
CONTINUOUS
 10
-21.9021691003
 20
7.6497499882
 11
-22.0104222758
 21
7.4622499882
  0
LINE
  5
28C
100
AcDbEntity
  8
0
100
AcDbLine
 62
7
  6
CONTINUOUS
 10
-27.7478405758
 20
-2.4752500118
 11
-27.8560937513
 21
-2.6627500118
  0
LINE
  5
28D
100
AcDbEntity
  8
0
100
AcDbLine
 62
7
  6
CONTINUOUS
 10
-33.9182715778
 20
7.8372499882
 11
-33.7017652268
 21
7.8372499882
  0
LINE
  5
28E
100
AcDbEntity
  8
0
100
AcDbLine
 62
7
  6
CONTINUOUS
 10
-22.2269286267
 20
7.8372499882
 11
-22.0104222758
 21
7.8372499882
  0
LINE
  5
28F
100
AcDbEntity
  8
0
100
AcDbLine
 62
7
  6
CONTINUOUS
 10
-23.3158894747
 20
-2.8021366297
 11
-23.3158894747
 21
-2.5498345621
  0
LINE
  5
290
100
AcDbEntity
  8
0
100
AcDbLine
 62
7
  6
CONTINUOUS
 10
-22.8788894747
 20
-2.5498345621
 11
-22.8788894747
 21
-2.8021366297
  0
LINE
  5
291
100
AcDbEntity
  8
AXIS
100
AcDbLine
 62
7
  6
CONTINUOUS
 10
-31.1558735377
 20
9.5046000192
 11
-31.1263293051
 21
9.4993905739
  0
LINE
  5
292
100
AcDbEntity
  8
0
100
AcDbLine
 62
7
  6
CONTINUOUS
 10
-32.2293139884
 20
9.6938765329
 11
-32.258858221
 21
9.6990859782
  0
LINE
  5
293
100
AcDbEntity
  8
0
100
AcDbLine
 62
7
  6
CONTINUOUS
 10
-22.3143469268
 20
-4.8952500118
 11
-22.3143469268
 21
-2.9952500118
  0
LINE
  5
294
100
AcDbEntity
  8
AXIS
100
AcDbLine
 62
7
  6
CONTINUOUS
 10
-31.1558735377
 20
9.6938765329
 11
-31.1263293051
 21
9.6990859782
  0
LINE
  5
295
100
AcDbEntity
  8
0
100
AcDbLine
 62
7
  6
CONTINUOUS
 10
-32.2293139884
 20
9.5046000192
 11
-32.258858221
 21
9.4993905739
  0
LINE
  5
296
100
AcDbEntity
  8
0
100
AcDbLine
 62
7
  6
CONTINUOUS
 10
-23.0929540305
 20
6.9622499882
 11
-23.201207206
 21
7.1497499882
  0
LINE
  5
297
100
AcDbEntity
  8
0
100
AcDbLine
 62
7
  6
CONTINUOUS
 10
-22.8764476795
 20
7.3372499882
 11
-22.7681945041
 21
7.1497499882
  0
LINE
  5
298
100
AcDbEntity
  8
0
100
AcDbLine
 62
7
  6
CONTINUOUS
 10
-21.2143469268
 20
-1.2952500118
 11
-21.2143469268
 21
0.2247499882
  0
LINE
  5
299
100
AcDbEntity
  8
0
100
AcDbLine
 62
7
  6
CONTINUOUS
 10
-21.0643469268
 20
-2.9952500118
 11
-21.0643469268
 21
-4.8952500118
  0
LINE
  5
29A
100
AcDbEntity
  8
0
100
AcDbLine
 62
7
  6
CONTINUOUS
 10
-20.9643469268
 20
-1.4452500118
 11
-20.9643469268
 21
-4.9452500118
  0
LINE
  5
29B
100
AcDbEntity
  8
0
100
AcDbLine
 62
7
  6
CONTINUOUS
 10
-22.2269286267
 20
7.4622499882
 11
-22.3351818022
 21
7.6497499882
  0
LINE
  5
29C
100
AcDbEntity
  8
0
100
AcDbLine
 62
7
  6
CONTINUOUS
 10
-22.0104222758
 20
7.8372499882
 11
-21.9021691003
 21
7.6497499882
  0
LINE
  5
29D
100
AcDbEntity
  8
0
100
AcDbLine
 62
7
  6
CONTINUOUS
 10
-21.544802224
 20
8.0907724015
 11
-21.449802224
 21
7.9262275748
  0
LINE
  5
29E
100
AcDbEntity
  8
03___PRT_ALL_CURVES
100
AcDbLine
 62
4
  6
CONTINUOUS
 10
-21.2071906535
 20
-1.3452500118
 11
-21.1936131301
 21
-1.3357635634
  0
LINE
  5
29F
100
AcDbEntity
  8
0
100
AcDbLine
 62
7
  6
CONTINUOUS
 10
-23.3158894747
 20
-2.5498345621
 11
-23.0973894747
 21
-2.4236835283
  0
LINE
  5
2A0
100
AcDbEntity
  8
0
100
AcDbLine
 62
7
  6
CONTINUOUS
 10
-24.378312062
 20
11.7127245052
 11
-24.596812062
 21
11.838875539
  0
LINE
  5
2A1
100
AcDbEntity
  8
0
100
AcDbLine
 62
7
  6
CONTINUOUS
 10
-21.144469014
 20
8.4373749419
 11
-20.949469014
 21
8.0996250344
  0
LINE
  5
2A2
100
AcDbEntity
  8
0
100
AcDbLine
 62
7
  6
CONTINUOUS
 10
-18.4643469268
 20
0.2247499882
 11
-18.4643469268
 21
-1.2952500118
  0
LINE
  5
2A3
100
AcDbEntity
  8
0
100
AcDbLine
 62
7
  6
CONTINUOUS
 10
-18.4643469268
 20
-4.9452500118
 11
-18.4643469268
 21
-1.4452500118
  0
LINE
  5
2A4
100
AcDbEntity
  8
0
100
AcDbLine
 62
7
  6
CONTINUOUS
 10
-22.8788894747
 20
-2.8021366297
 11
-23.0973894747
 21
-2.9282876635
  0
LINE
  5
2A5
100
AcDbEntity
  8
0
100
AcDbLine
 62
7
  6
CONTINUOUS
 10
-24.378312062
 20
12.2173286405
 11
-24.159812062
 21
12.0911776067
  0
LINE
  5
2A6
100
AcDbEntity
  8
0
100
AcDbLine
 62
7
  6
CONTINUOUS
 10
-37.0423392436
 20
29.1085266961
 11
-37.0423392436
 21
29.0435266961
  0
LINE
  5
2A7
100
AcDbEntity
  8
0
100
AcDbLine
 62
3
  6
CONTINUOUS
 10
-38.5768065249
 20
24.6095266961
 11
-37.1540395476
 21
28.5185468395
  0
LINE
  5
2A8
100
AcDbEntity
  8
0
100
AcDbLine
 62
7
  6
CONTINUOUS
 10
-33.9970184023
 20
20.0785266961
 11
-34.0265247533
 21
20.0955621958
  0
LINE
  5
2A9
100
AcDbEntity
  8
0
100
AcDbLine
 62
7
  6
CONTINUOUS
 10
-33.1309929985
 20
20.0785266961
 11
-33.1604993495
 21
20.0955621958
  0
LINE
  5
2AA
100
AcDbEntity
  8
0
100
AcDbLine
 62
7
  6
CONTINUOUS
 10
-35.5261862544
 20
29.2415266961
 11
-35.5261862544
 21
29.1765266961
  0
LINE
  5
2AB
100
AcDbEntity
  8
0
100
AcDbLine
 62
7
  6
CONTINUOUS
 10
-35.3976862544
 20
29.2415266961
 11
-35.3976862544
 21
29.4215266961
  0
LINE
  5
2AC
100
AcDbEntity
  8
0
100
AcDbLine
 62
7
  6
CONTINUOUS
 10
-35.1811862544
 20
29.2415266961
 11
-35.1811862544
 21
29.4215266961
  0
LINE
  5
2AD
100
AcDbEntity
  8
0
100
AcDbLine
 62
7
  6
CONTINUOUS
 10
-33.9970171989
 20
20.0785266961
 11
-33.6230196057
 21
20.0785266961
  0
LINE
  5
2AE
100
AcDbEntity
  8
0
100
AcDbLine
 62
7
  6
CONTINUOUS
 10
-33.1309917951
 20
20.0785266961
 11
-32.756994202
 21
20.0785266961
  0
LINE
  5
2AF
100
AcDbEntity
  8
0
100
AcDbLine
 62
7
  6
CONTINUOUS
 10
-28.1513457233
 20
20.0785266961
 11
-27.7773481302
 21
20.0785266961
  0
LINE
  5
2B0
100
AcDbEntity
  8
0
100
AcDbLine
 62
7
  6
CONTINUOUS
 10
-23.1716996516
 20
20.0785266961
 11
-22.7977020584
 21
20.0785266961
  0
LINE
  5
2B1
100
AcDbEntity
  8
0
100
AcDbLine
 62
7
  6
CONTINUOUS
 10
-22.3056742478
 20
20.0785266961
 11
-21.9316766546
 21
20.0785266961
  0
LINE
  5
2B2
100
AcDbEntity
  8
0
100
AcDbLine
 62
7
  6
CONTINUOUS
 10
-21.497302224
 20
20.1685266961
 11
-21.1318374627
 21
20.1685266961
  0
LINE
  5
2B3
100
AcDbEntity
  8
0
100
AcDbLine
 62
7
  6
CONTINUOUS
 10
-34.4313916295
 20
20.1685266961
 11
-34.7968563908
 21
20.1685266961
  0
LINE
  5
2B4
100
AcDbEntity
  8
0
100
AcDbLine
 62
7
  6
CONTINUOUS
 10
-21.8586771244
 20
20.2685266961
 11
-22.378673778
 21
20.2685266961
  0
LINE
  5
2B5
100
AcDbEntity
  8
0
100
AcDbLine
 62
7
  6
CONTINUOUS
 10
-22.7247025282
 20
20.2685266961
 11
-23.2446991818
 21
20.2685266961
  0
LINE
  5
2B6
100
AcDbEntity
  8
0
100
AcDbLine
 62
7
  6
CONTINUOUS
 10
-27.7043486
 20
20.2685266961
 11
-28.2243452536
 21
20.2685266961
  0
LINE
  5
2B7
100
AcDbEntity
  8
0
100
AcDbLine
 62
7
  6
CONTINUOUS
 10
-32.6839946717
 20
20.2685266961
 11
-33.2039913253
 21
20.2685266961
  0
LINE
  5
2B8
100
AcDbEntity
  8
0
100
AcDbLine
 62
7
  6
CONTINUOUS
 10
-33.5500200755
 20
20.2685266961
 11
-34.0700167291
 21
20.2685266961
  0
LINE
  5
2B9
100
AcDbEntity
  8
0
100
AcDbLine
 62
7
  6
CONTINUOUS
 10
-21.7536754512
 20
20.3185266961
 11
-22.4836754512
 21
20.3185266961
  0
LINE
  5
2BA
100
AcDbEntity
  8
0
100
AcDbLine
 62
7
  6
CONTINUOUS
 10
-22.619700855
 20
20.3185266961
 11
-23.349700855
 21
20.3185266961
  0
LINE
  5
2BB
100
AcDbEntity
  8
0
100
AcDbLine
 62
7
  6
CONTINUOUS
 10
-27.5993469268
 20
20.3185266961
 11
-28.3293469268
 21
20.3185266961
  0
LINE
  5
2BC
100
AcDbEntity
  8
0
100
AcDbLine
 62
7
  6
CONTINUOUS
 10
-32.5789929985
 20
20.3185266961
 11
-33.3089929985
 21
20.3185266961
  0
LINE
  5
2BD
100
AcDbEntity
  8
0
100
AcDbLine
 62
7
  6
CONTINUOUS
 10
-33.4450184023
 20
20.3185266961
 11
-34.1750184023
 21
20.3185266961
  0
LINE
  5
2BE
100
AcDbEntity
  8
0
100
AcDbLine
 62
7
  6
CONTINUOUS
 10
-21.497302224
 20
20.3585266961
 11
-21.1318374627
 21
20.3585266961
  0
LINE
  5
2BF
100
AcDbEntity
  8
0
100
AcDbLine
 62
7
  6
CONTINUOUS
 10
-34.4313916295
 20
20.3585266961
 11
-34.7968563908
 21
20.3585266961
  0
LINE
  5
2C0
100
AcDbEntity
  8
0
100
AcDbLine
 62
7
  6
CONTINUOUS
 10
-21.7536754512
 20
20.3835266961
 11
-22.4836754512
 21
20.3835266961
  0
LINE
  5
2C1
100
AcDbEntity
  8
0
100
AcDbLine
 62
7
  6
CONTINUOUS
 10
-22.619700855
 20
20.3835266961
 11
-23.349700855
 21
20.3835266961
  0
LINE
  5
2C2
100
AcDbEntity
  8
0
100
AcDbLine
 62
7
  6
CONTINUOUS
 10
-27.5993469268
 20
20.3835266961
 11
-28.3293469268
 21
20.3835266961
  0
LINE
  5
2C3
100
AcDbEntity
  8
0
100
AcDbLine
 62
7
  6
CONTINUOUS
 10
-32.5789929985
 20
20.3835266961
 11
-33.3089929985
 21
20.3835266961
  0
LINE
  5
2C4
100
AcDbEntity
  8
0
100
AcDbLine
 62
7
  6
CONTINUOUS
 10
-33.4450184023
 20
20.3835266961
 11
-34.1750184023
 21
20.3835266961
  0
LINE
  5
2C5
100
AcDbEntity
  8
0
100
AcDbLine
 62
7
  6
CONTINUOUS
 10
-32.1525937631
 20
20.4235266961
 11
-31.2325937631
 21
20.4235266961
  0
LINE
  5
2C6
100
AcDbEntity
  8
0
100
AcDbLine
 62
7
  6
CONTINUOUS
 10
-21.2143469268
 20
20.4235266961
 11
-21.1023828627
 21
20.4235266961
  0
LINE
  5
2C7
100
AcDbEntity
  8
0
100
AcDbLine
 62
7
  6
CONTINUOUS
 10
-20.9915551654
 20
20.4235266961
 11
-18.4643469268
 21
20.4235266961
  0
LINE
  5
2C8
100
AcDbEntity
  8
0
100
AcDbLine
 62
7
  6
CONTINUOUS
 10
-22.3143469268
 20
20.4285266961
 11
-22.2281754512
 21
20.4285266961
  0
LINE
  5
2C9
100
AcDbEntity
  8
0
100
AcDbLine
 62
7
  6
CONTINUOUS
 10
-22.0091754512
 20
20.4285266961
 11
-21.2143469268
 21
20.4285266961
  0
LINE
  5
2CA
100
AcDbEntity
  8
0
100
AcDbLine
 62
7
  6
CONTINUOUS
 10
-22.3143469268
 20
20.4335266961
 11
-22.2281754512
 21
20.4335266961
  0
LINE
  5
2CB
100
AcDbEntity
  8
0
100
AcDbLine
 62
7
  6
CONTINUOUS
 10
-22.0091754512
 20
20.4335266961
 11
-21.2143469268
 21
20.4335266961
  0
LINE
  5
2CC
100
AcDbEntity
  8
0
100
AcDbLine
 62
7
  6
CONTINUOUS
 10
-21.2143469268
 20
20.4735266961
 11
-18.4643469268
 21
20.4735266961
  0
LINE
  5
2CD
100
AcDbEntity
  8
0
100
AcDbLine
 62
7
  6
CONTINUOUS
 10
-18.4643469268
 20
20.4910266961
 11
-20.9643469268
 21
20.4910266961
  0
LINE
  5
2CE
100
AcDbEntity
  8
0
100
AcDbLine
 62
7
  6
CONTINUOUS
 10
-34.9646862544
 20
29.2415266961
 11
-34.9646862544
 21
29.4215266961
  0
LINE
  5
2CF
100
AcDbEntity
  8
0
100
AcDbLine
 62
7
  6
CONTINUOUS
 10
-34.8361862544
 20
29.2415266961
 11
-34.8361862544
 21
29.1765266961
  0
LINE
  5
2D0
100
AcDbEntity
  8
0
100
AcDbLine
 62
7
  6
CONTINUOUS
 10
-34.1750184023
 20
20.3835266961
 11
-34.1750184023
 21
20.3185266961
  0
LINE
  5
2D1
100
AcDbEntity
  8
0
100
AcDbLine
 62
3
  6
CONTINUOUS
 10
-34.7445006164
 20
29.5055166245
 11
-32.8543921925
 21
34.6985468395
  0
LINE
  5
2D2
100
AcDbEntity
  8
0
100
AcDbLine
 62
7
  6
CONTINUOUS
 10
-33.9195184023
 20
20.9255266961
 11
-33.7005184023
 21
20.9255266961
  0
LINE
  5
2D3
100
AcDbEntity
  8
0
100
AcDbLine
 62
7
  6
CONTINUOUS
 10
-33.0534929985
 20
20.9255266961
 11
-32.8344929985
 21
20.9255266961
  0
LINE
  5
2D4
100
AcDbEntity
  8
0
100
AcDbLine
 62
7
  6
CONTINUOUS
 10
-28.0738469268
 20
20.9255266961
 11
-27.8548469268
 21
20.9255266961
  0
LINE
  5
2D5
100
AcDbEntity
  8
0
100
AcDbLine
 62
7
  6
CONTINUOUS
 10
-23.094200855
 20
20.9255266961
 11
-22.875200855
 21
20.9255266961
  0
LINE
  5
2D6
100
AcDbEntity
  8
0
100
AcDbLine
 62
7
  6
CONTINUOUS
 10
-22.2281754512
 20
20.9255266961
 11
-22.0091754512
 21
20.9255266961
  0
LINE
  5
2D7
100
AcDbEntity
  8
0
100
AcDbLine
 62
7
  6
CONTINUOUS
 10
-22.0291754512
 20
21.0685266961
 11
-22.2081754512
 21
21.0685266961
  0
LINE
  5
2D8
100
AcDbEntity
  8
0
100
AcDbLine
 62
7
  6
CONTINUOUS
 10
-22.895200855
 20
21.0685266961
 11
-23.074200855
 21
21.0685266961
  0
LINE
  5
2D9
100
AcDbEntity
  8
0
100
AcDbLine
 62
7
  6
CONTINUOUS
 10
-27.8748469268
 20
21.0685266961
 11
-28.0538469268
 21
21.0685266961
  0
LINE
  5
2DA
100
AcDbEntity
  8
0
100
AcDbLine
 62
7
  6
CONTINUOUS
 10
-32.8544929985
 20
21.0685266961
 11
-33.0334929985
 21
21.0685266961
  0
LINE
  5
2DB
100
AcDbEntity
  8
0
100
AcDbLine
 62
7
  6
CONTINUOUS
 10
-33.7205184023
 20
21.0685266961
 11
-33.8995184023
 21
21.0685266961
  0
LINE
  5
2DC
100
AcDbEntity
  8
0
100
AcDbLine
 62
7
  6
CONTINUOUS
 10
-28.1513469268
 20
20.0785266961
 11
-28.1808532777
 21
20.0955621958
  0
LINE
  5
2DD
100
AcDbEntity
  8
0
100
AcDbLine
 62
7
  6
CONTINUOUS
 10
-33.7205184023
 20
21.0685266961
 11
-33.7005184023
 21
20.9255266961
  0
LINE
  5
2DE
100
AcDbEntity
  8
0
100
AcDbLine
 62
7
  6
CONTINUOUS
 10
-34.0700184023
 20
20.2685266961
 11
-34.0700184023
 21
20.3185266961
  0
LINE
  5
2DF
100
AcDbEntity
  8
0
100
AcDbLine
 62
7
  6
CONTINUOUS
 10
-34.0265247533
 20
20.0955621958
 11
-34.0265247533
 21
20.2466266961
  0
LINE
  5
2E0
100
AcDbEntity
  8
0
100
AcDbLine
 62
7
  6
CONTINUOUS
 10
-33.9195184023
 20
20.3835266961
 11
-33.9195184023
 21
20.9255266961
  0
LINE
  5
2E1
100
AcDbEntity
  8
0
100
AcDbLine
 62
7
  6
CONTINUOUS
 10
-33.9182715778
 20
20.0955621958
 11
-33.9182715778
 21
20.2466266961
  0
LINE
  5
2E2
100
AcDbEntity
  8
0
100
AcDbLine
 62
7
  6
CONTINUOUS
 10
-33.7017652268
 20
20.0955621958
 11
-33.7017652268
 21
20.2466266961
  0
LINE
  5
2E3
100
AcDbEntity
  8
0
100
AcDbLine
 62
7
  6
CONTINUOUS
 10
-33.7005184023
 20
20.3835266961
 11
-33.7005184023
 21
20.9255266961
  0
LINE
  5
2E4
100
AcDbEntity
  8
0
100
AcDbLine
 62
7
  6
CONTINUOUS
 10
-33.5935120514
 20
20.0955621958
 11
-33.5935120514
 21
20.2466266961
  0
LINE
  5
2E5
100
AcDbEntity
  8
0
100
AcDbLine
 62
7
  6
CONTINUOUS
 10
-33.5500184023
 20
20.2685266961
 11
-33.5500184023
 21
20.3185266961
  0
LINE
  5
2E6
100
AcDbEntity
  8
0
100
AcDbLine
 62
7
  6
CONTINUOUS
 10
-33.4450184023
 20
20.3835266961
 11
-33.4450184023
 21
20.3185266961
  0
LINE
  5
2E7
100
AcDbEntity
  8
0
100
AcDbLine
 62
7
  6
CONTINUOUS
 10
-33.3422779613
 20
22.8435266961
 11
-33.3422779613
 21
22.7935266961
  0
LINE
  5
2E8
100
AcDbEntity
  8
0
100
AcDbLine
 62
7
  6
CONTINUOUS
 10
-33.3089929985
 20
20.3835266961
 11
-33.3089929985
 21
20.3185266961
  0
LINE
  5
2E9
100
AcDbEntity
  8
0
100
AcDbLine
 62
7
  6
CONTINUOUS
 10
-23.8279126361
 20
22.3955266961
 11
-31.2325937631
 21
22.3955266961
  0
LINE
  5
2EA
100
AcDbEntity
  8
0
100
AcDbLine
 62
7
  6
CONTINUOUS
 10
-32.8544929985
 20
21.0685266961
 11
-32.8344929985
 21
20.9255266961
  0
LINE
  5
2EB
100
AcDbEntity
  8
0
100
AcDbLine
 62
7
  6
CONTINUOUS
 10
-33.2205698033
 20
22.8811473858
 11
-33.2205698033
 21
22.8435266961
  0
LINE
  5
2EC
100
AcDbEntity
  8
0
100
AcDbLine
 62
7
  6
CONTINUOUS
 10
-33.2039929985
 20
20.2685266961
 11
-33.2039929985
 21
20.3185266961
  0
LINE
  5
2ED
100
AcDbEntity
  8
0
100
AcDbLine
 62
7
  6
CONTINUOUS
 10
-33.1800529632
 20
24.1035266961
 11
-33.1800529632
 21
22.8811473858
  0
LINE
  5
2EE
100
AcDbEntity
  8
0
100
AcDbLine
 62
7
  6
CONTINUOUS
 10
-33.1604993495
 20
20.0955621958
 11
-33.1604993495
 21
20.2466266961
  0
LINE
  5
2EF
100
AcDbEntity
  8
0
100
AcDbLine
 62
7
  6
CONTINUOUS
 10
-33.1499563992
 20
24.1035266961
 11
-33.1499563992
 21
22.8435266961
  0
LINE
  5
2F0
100
AcDbEntity
  8
0
100
AcDbLine
 62
7
  6
CONTINUOUS
 10
-33.0534929985
 20
20.3835266961
 11
-33.0534929985
 21
20.9255266961
  0
LINE
  5
2F1
100
AcDbEntity
  8
0
100
AcDbLine
 62
7
  6
CONTINUOUS
 10
-33.052246174
 20
20.0955621958
 11
-33.052246174
 21
20.2466266961
  0
LINE
  5
2F2
100
AcDbEntity
  8
0
100
AcDbLine
 62
7
  6
CONTINUOUS
 10
-33.0191577606
 20
22.8435266961
 11
-33.0191577606
 21
22.8811473858
  0
LINE
  5
2F3
100
AcDbEntity
  8
0
100
AcDbLine
 62
7
  6
CONTINUOUS
 10
-32.9441577606
 20
23.1835266961
 11
-32.9441577606
 21
22.8811473858
  0
LINE
  5
2F4
100
AcDbEntity
  8
0
100
AcDbLine
 62
7
  6
CONTINUOUS
 10
-32.8877101872
 20
22.8811473858
 11
-32.8877101872
 21
22.8435266961
  0
LINE
  5
2F5
100
AcDbEntity
  8
0
100
AcDbLine
 62
7
  6
CONTINUOUS
 10
-32.8357398231
 20
20.0955621958
 11
-32.8357398231
 21
20.2466266961
  0
LINE
  5
2F6
100
AcDbEntity
  8
0
100
AcDbLine
 62
7
  6
CONTINUOUS
 10
-32.8344929985
 20
20.3835266961
 11
-32.8344929985
 21
20.9255266961
  0
LINE
  5
2F7
100
AcDbEntity
  8
0
100
AcDbLine
 62
7
  6
CONTINUOUS
 10
-32.8141577606
 20
23.1835266961
 11
-32.8141577606
 21
22.8811473858
  0
LINE
  5
2F8
100
AcDbEntity
  8
0
100
AcDbLine
 62
7
  6
CONTINUOUS
 10
-32.7931625805
 20
24.1035266961
 11
-32.7931625805
 21
22.8811473858
  0
LINE
  5
2F9
100
AcDbEntity
  8
0
100
AcDbLine
 62
7
  6
CONTINUOUS
 10
-32.754235016
 20
24.1035266961
 11
-32.754235016
 21
22.8435266961
  0
LINE
  5
2FA
100
AcDbEntity
  8
0
100
AcDbLine
 62
7
  6
CONTINUOUS
 10
-32.7274866476
 20
20.0955621958
 11
-32.7274866476
 21
20.2466266961
  0
LINE
  5
2FB
100
AcDbEntity
  8
0
100
AcDbLine
 62
7
  6
CONTINUOUS
 10
-32.6839929985
 20
20.2685266961
 11
-32.6839929985
 21
20.3185266961
  0
LINE
  5
2FC
100
AcDbEntity
  8
0
100
AcDbLine
 62
7
  6
CONTINUOUS
 10
-32.5789929985
 20
20.3835266961
 11
-32.5789929985
 21
20.3185266961
  0
LINE
  5
2FD
100
AcDbEntity
  8
0
100
AcDbLine
 62
7
  6
CONTINUOUS
 10
-33.8995184023
 20
21.0685266961
 11
-33.9195184023
 21
20.9255266961
  0
LINE
  5
2FE
100
AcDbEntity
  8
0
100
AcDbLine
 62
7
  6
CONTINUOUS
 10
-21.497302224
 20
22.4685266961
 11
-21.1318374627
 21
22.4685266961
  0
LINE
  5
2FF
100
AcDbEntity
  8
0
100
AcDbLine
 62
7
  6
CONTINUOUS
 10
-34.4313916295
 20
22.4685266961
 11
-34.7968563908
 21
22.4685266961
  0
LINE
  5
300
100
AcDbEntity
  8
0
100
AcDbLine
 62
7
  6
CONTINUOUS
 10
-21.497302224
 20
22.6585266961
 11
-21.1318374627
 21
22.6585266961
  0
LINE
  5
301
100
AcDbEntity
  8
0
100
AcDbLine
 62
7
  6
CONTINUOUS
 10
-34.4313916295
 20
22.6585266961
 11
-34.7968563908
 21
22.6585266961
  0
LINE
  5
302
100
AcDbEntity
  8
0
100
AcDbLine
 62
7
  6
CONTINUOUS
 10
-22.5864158923
 20
22.7935266961
 11
-31.2325937631
 21
22.7935266961
  0
LINE
  5
303
100
AcDbEntity
  8
0
100
AcDbLine
 62
7
  6
CONTINUOUS
 10
-32.1525937631
 20
22.7935266961
 11
-33.3422779613
 21
22.7935266961
  0
LINE
  5
304
100
AcDbEntity
  8
0
100
AcDbLine
 62
7
  6
CONTINUOUS
 10
-22.5864158923
 20
22.8435266961
 11
-31.2325937631
 21
22.8435266961
  0
LINE
  5
305
100
AcDbEntity
  8
0
100
AcDbLine
 62
7
  6
CONTINUOUS
 10
-32.1525937631
 20
22.8435266961
 11
-33.3422779613
 21
22.8435266961
  0
LINE
  5
306
100
AcDbEntity
  8
0
100
AcDbLine
 62
7
  6
CONTINUOUS
 10
-22.708133508
 20
22.8811473858
 11
-26.727624094
 21
22.8811473858
  0
LINE
  5
307
100
AcDbEntity
  8
0
100
AcDbLine
 62
7
  6
CONTINUOUS
 10
-27.3383451376
 20
22.8811473858
 11
-29.3661703717
 21
22.8811473858
  0
LINE
  5
308
100
AcDbEntity
  8
0
100
AcDbLine
 62
7
  6
CONTINUOUS
 10
-30.5618287435
 20
22.8811473858
 11
-31.2325937631
 21
22.8811473858
  0
LINE
  5
309
100
AcDbEntity
  8
0
100
AcDbLine
 62
7
  6
CONTINUOUS
 10
-32.7931625805
 20
22.8811473858
 11
-33.0191439904
 21
22.8811473858
  0
LINE
  5
30A
100
AcDbEntity
  8
0
100
AcDbLine
 62
7
  6
CONTINUOUS
 10
-33.1800529632
 20
22.8811473858
 11
-33.2205603455
 21
22.8811473858
  0
LINE
  5
30B
100
AcDbEntity
  8
0
100
AcDbLine
 62
7
  6
CONTINUOUS
 10
-22.984536093
 20
23.1835266961
 11
-23.114536093
 21
23.1835266961
  0
LINE
  5
30C
100
AcDbEntity
  8
0
100
AcDbLine
 62
7
  6
CONTINUOUS
 10
-24.1349231021
 20
23.1835266961
 11
-24.2649231021
 21
23.1835266961
  0
LINE
  5
30D
100
AcDbEntity
  8
0
100
AcDbLine
 62
7
  6
CONTINUOUS
 10
-24.8618267832
 20
23.1835266961
 11
-24.9918267832
 21
23.1835266961
  0
LINE
  5
30E
100
AcDbEntity
  8
0
100
AcDbLine
 62
7
  6
CONTINUOUS
 10
-26.3207995436
 20
23.1835266961
 11
-26.4507995436
 21
23.1835266961
  0
LINE
  5
30F
100
AcDbEntity
  8
0
100
AcDbLine
 62
7
  6
CONTINUOUS
 10
-27.8993469268
 20
23.1835266961
 11
-28.0293469268
 21
23.1835266961
  0
LINE
  5
310
100
AcDbEntity
  8
0
100
AcDbLine
 62
7
  6
CONTINUOUS
 10
-29.1096274327
 20
23.1835266961
 11
-29.2396274327
 21
23.1835266961
  0
LINE
  5
311
100
AcDbEntity
  8
0
100
AcDbLine
 62
7
  6
CONTINUOUS
 10
-30.9368670703
 20
23.1835266961
 11
-31.0668670703
 21
23.1835266961
  0
LINE
  5
312
100
AcDbEntity
  8
0
100
AcDbLine
 62
7
  6
CONTINUOUS
 10
-32.8141577606
 20
23.1835266961
 11
-32.9441577606
 21
23.1835266961
  0
LINE
  5
313
100
AcDbEntity
  8
0
100
AcDbLine
 62
7
  6
CONTINUOUS
 10
-32.1525937631
 20
20.4235266961
 11
-32.1525937631
 21
24.1035266961
  0
LINE
  5
314
100
AcDbEntity
  8
0
100
AcDbLine
 62
7
  6
CONTINUOUS
 10
-33.0334929985
 20
21.0685266961
 11
-33.0534929985
 21
20.9255266961
  0
LINE
  5
315
100
AcDbEntity
  8
0
100
AcDbLine
 62
7
  6
CONTINUOUS
 10
-38.8660607599
 20
24.1035266961
 11
-17.0626330936
 21
24.1035266961
  0
LINE
  5
316
100
AcDbEntity
  8
0
100
AcDbLine
 62
7
  6
CONTINUOUS
 10
-23.171700855
 20
20.0785266961
 11
-23.201207206
 21
20.0955621958
  0
LINE
  5
317
100
AcDbEntity
  8
0
100
AcDbLine
 62
7
  6
CONTINUOUS
 10
-22.3056754512
 20
20.0785266961
 11
-22.3351818022
 21
20.0955621958
  0
LINE
  5
318
100
AcDbEntity
  8
0
100
AcDbLine
 62
7
  6
CONTINUOUS
 10
-31.2325937631
 20
20.4235266961
 11
-31.2325937631
 21
24.1035266961
  0
LINE
  5
319
100
AcDbEntity
  8
0
100
AcDbLine
 62
7
  6
CONTINUOUS
 10
-31.1418670703
 20
22.8435266961
 11
-31.1418670703
 21
22.8811473858
  0
LINE
  5
31A
100
AcDbEntity
  8
0
100
AcDbLine
 62
7
  6
CONTINUOUS
 10
-31.0668670703
 20
23.1835266961
 11
-31.0668670703
 21
22.8811473858
  0
LINE
  5
31B
100
AcDbEntity
  8
0
100
AcDbLine
 62
7
  6
CONTINUOUS
 10
-30.9368670703
 20
23.1835266961
 11
-30.9368670703
 21
22.8811473858
  0
LINE
  5
31C
100
AcDbEntity
  8
0
100
AcDbLine
 62
7
  6
CONTINUOUS
 10
-30.5618287435
 20
24.1035266961
 11
-30.5618287435
 21
22.8811473858
  0
LINE
  5
31D
100
AcDbEntity
  8
0
100
AcDbLine
 62
7
  6
CONTINUOUS
 10
-38.8660607599
 20
24.6095266961
 11
-17.0626330936
 21
24.6095266961
  0
LINE
  5
31E
100
AcDbEntity
  8
0
100
AcDbLine
 62
7
  6
CONTINUOUS
 10
-30.5289391851
 20
24.1035266961
 11
-30.5289391851
 21
22.8435266961
  0
LINE
  5
31F
100
AcDbEntity
  8
0
100
AcDbLine
 62
7
  6
CONTINUOUS
 10
-29.3661714407
 20
22.8811473858
 11
-29.3661714407
 21
22.8435266961
  0
LINE
  5
320
100
AcDbEntity
  8
0
100
AcDbLine
 62
7
  6
CONTINUOUS
 10
-29.3310919058
 20
24.1035266961
 11
-29.3310919058
 21
22.8811473858
  0
LINE
  5
321
100
AcDbEntity
  8
0
100
AcDbLine
 62
7
  6
CONTINUOUS
 10
-29.3146274327
 20
22.8435266961
 11
-29.3146274327
 21
22.8811473858
  0
LINE
  5
322
100
AcDbEntity
  8
0
100
AcDbLine
 62
7
  6
CONTINUOUS
 10
-29.2396274327
 20
23.1835266961
 11
-29.2396274327
 21
22.8811473858
  0
LINE
  5
323
100
AcDbEntity
  8
0
100
AcDbLine
 62
7
  6
CONTINUOUS
 10
-29.1096274327
 20
23.1835266961
 11
-29.1096274327
 21
22.8811473858
  0
LINE
  5
324
100
AcDbEntity
  8
0
100
AcDbLine
 62
7
  6
CONTINUOUS
 10
-27.8748469268
 20
21.0685266961
 11
-27.8548469268
 21
20.9255266961
  0
LINE
  5
325
100
AcDbEntity
  8
0
100
AcDbLine
 62
7
  6
CONTINUOUS
 10
-28.3293469268
 20
20.3835266961
 11
-28.3293469268
 21
20.3185266961
  0
LINE
  5
326
100
AcDbEntity
  8
0
100
AcDbLine
 62
7
  6
CONTINUOUS
 10
-28.2243469268
 20
20.2685266961
 11
-28.2243469268
 21
20.3185266961
  0
LINE
  5
327
100
AcDbEntity
  8
0
100
AcDbLine
 62
7
  6
CONTINUOUS
 10
-28.1808532777
 20
20.0955621958
 11
-28.1808532777
 21
20.2466266961
  0
LINE
  5
328
100
AcDbEntity
  8
0
100
AcDbLine
 62
7
  6
CONTINUOUS
 10
-28.1043469268
 20
22.8435266961
 11
-28.1043469268
 21
22.8811473858
  0
LINE
  5
329
100
AcDbEntity
  8
0
100
AcDbLine
 62
7
  6
CONTINUOUS
 10
-28.0738469268
 20
20.3835266961
 11
-28.0738469268
 21
20.9255266961
  0
LINE
  5
32A
100
AcDbEntity
  8
0
100
AcDbLine
 62
7
  6
CONTINUOUS
 10
-28.0726001022
 20
20.0955621958
 11
-28.0726001022
 21
20.2466266961
  0
LINE
  5
32B
100
AcDbEntity
  8
0
100
AcDbLine
 62
7
  6
CONTINUOUS
 10
-28.0293469268
 20
23.1835266961
 11
-28.0293469268
 21
22.8811473858
  0
LINE
  5
32C
100
AcDbEntity
  8
0
100
AcDbLine
 62
7
  6
CONTINUOUS
 10
-27.8993469268
 20
23.1835266961
 11
-27.8993469268
 21
22.8811473858
  0
LINE
  5
32D
100
AcDbEntity
  8
0
100
AcDbLine
 62
7
  6
CONTINUOUS
 10
-27.8560937513
 20
20.0955621958
 11
-27.8560937513
 21
20.2466266961
  0
LINE
  5
32E
100
AcDbEntity
  8
0
100
AcDbLine
 62
7
  6
CONTINUOUS
 10
-27.8548469268
 20
20.3835266961
 11
-27.8548469268
 21
20.9255266961
  0
LINE
  5
32F
100
AcDbEntity
  8
0
100
AcDbLine
 62
7
  6
CONTINUOUS
 10
-27.7478405758
 20
20.0955621958
 11
-27.7478405758
 21
20.2466266961
  0
LINE
  5
330
100
AcDbEntity
  8
0
100
AcDbLine
 62
7
  6
CONTINUOUS
 10
-27.7043469268
 20
20.2685266961
 11
-27.7043469268
 21
20.3185266961
  0
LINE
  5
331
100
AcDbEntity
  8
0
100
AcDbLine
 62
7
  6
CONTINUOUS
 10
-27.5993469268
 20
20.3835266961
 11
-27.5993469268
 21
20.3185266961
  0
LINE
  5
332
100
AcDbEntity
  8
0
100
AcDbLine
 62
7
  6
CONTINUOUS
 10
-27.3383451376
 20
24.1035266961
 11
-27.3383451376
 21
22.8811473858
  0
LINE
  5
333
100
AcDbEntity
  8
0
100
AcDbLine
 62
7
  6
CONTINUOUS
 10
-27.3240562788
 20
24.1035266961
 11
-27.3240562788
 21
22.8435266961
  0
LINE
  5
334
100
AcDbEntity
  8
0
100
AcDbLine
 62
7
  6
CONTINUOUS
 10
-28.0538469268
 20
21.0685266961
 11
-28.0738469268
 21
20.9255266961
  0
LINE
  5
335
100
AcDbEntity
  8
0
100
AcDbLine
 62
7
  6
CONTINUOUS
 10
-26.7276302286
 20
22.8811473858
 11
-26.7276302286
 21
22.8435266961
  0
LINE
  5
336
100
AcDbEntity
  8
0
100
AcDbLine
 62
7
  6
CONTINUOUS
 10
-26.7243287274
 20
24.1035266961
 11
-26.7243287274
 21
22.8811473858
  0
LINE
  5
337
100
AcDbEntity
  8
0
100
AcDbLine
 62
7
  6
CONTINUOUS
 10
-26.4507995436
 20
23.1835266961
 11
-26.4507995436
 21
22.8811473858
  0
LINE
  5
338
100
AcDbEntity
  8
0
100
AcDbLine
 62
7
  6
CONTINUOUS
 10
-26.3207995436
 20
23.1835266961
 11
-26.3207995436
 21
22.8811473858
  0
LINE
  5
339
100
AcDbEntity
  8
0
100
AcDbLine
 62
7
  6
CONTINUOUS
 10
-23.753312062
 20
29.0435266961
 11
-25.003312062
 21
29.0435266961
  0
LINE
  5
33A
100
AcDbEntity
  8
0
100
AcDbLine
 62
7
  6
CONTINUOUS
 10
-36.7065940125
 20
29.0435266961
 11
-37.0423392436
 21
29.0435266961
  0
LINE
  5
33B
100
AcDbEntity
  8
0
100
AcDbLine
 62
7
  6
CONTINUOUS
 10
-23.753312062
 20
29.1085266961
 11
-25.003312062
 21
29.1085266961
  0
LINE
  5
33C
100
AcDbEntity
  8
0
100
AcDbLine
 62
7
  6
CONTINUOUS
 10
-36.5560326001
 20
29.1085266961
 11
-37.0423392436
 21
29.1085266961
  0
LINE
  5
33D
100
AcDbEntity
  8
0
100
AcDbLine
 62
3
  6
CONTINUOUS
 10
-19.714354439
 20
29.1765266961
 11
-36.2143394145
 21
29.1765266961
  0
LINE
  5
33E
100
AcDbEntity
  8
0
100
AcDbLine
 62
7
  6
CONTINUOUS
 10
-21.7361256036
 20
29.2415266961
 11
-22.4261256036
 21
29.2415266961
  0
LINE
  5
33F
100
AcDbEntity
  8
0
100
AcDbLine
 62
7
  6
CONTINUOUS
 10
-34.8361889063
 20
29.2415266961
 11
-35.5261836025
 21
29.2415266961
  0
LINE
  5
340
100
AcDbEntity
  8
0
100
AcDbLine
 62
7
  6
CONTINUOUS
 10
-35.3976862544
 20
29.4215266961
 11
-34.9646862544
 21
29.4215266961
  0
LINE
  5
341
100
AcDbEntity
  8
0
100
AcDbLine
 62
7
  6
CONTINUOUS
 10
-22.2976256036
 20
29.4215266961
 11
-21.8646256036
 21
29.4215266961
  0
LINE
  5
342
100
AcDbEntity
  8
0
100
AcDbLine
 62
7
  6
CONTINUOUS
 10
-24.9918267832
 20
23.1835266961
 11
-24.9918267832
 21
22.8811473858
  0
LINE
  5
343
100
AcDbEntity
  8
0
100
AcDbLine
 62
7
  6
CONTINUOUS
 10
-24.8618267832
 20
23.1835266961
 11
-24.8618267832
 21
22.8811473858
  0
LINE
  5
344
100
AcDbEntity
  8
0
100
AcDbLine
 62
7
  6
CONTINUOUS
 10
-24.3539729382
 20
24.1035266961
 11
-24.3539729382
 21
22.8811473858
  0
LINE
  5
345
100
AcDbEntity
  8
0
100
AcDbLine
 62
7
  6
CONTINUOUS
 10
-24.3485859795
 20
22.8811473858
 11
-24.3485859795
 21
22.8435266961
  0
LINE
  5
346
100
AcDbEntity
  8
0
100
AcDbLine
 62
7
  6
CONTINUOUS
 10
-24.2649231021
 20
23.1835266961
 11
-24.2649231021
 21
22.8811473858
  0
LINE
  5
347
100
AcDbEntity
  8
0
100
AcDbLine
 62
7
  6
CONTINUOUS
 10
-24.1349231021
 20
23.1835266961
 11
-24.1349231021
 21
22.8811473858
  0
LINE
  5
348
100
AcDbEntity
  8
0
100
AcDbLine
 62
7
  6
CONTINUOUS
 10
-24.0599231021
 20
22.8435266961
 11
-24.0599231021
 21
22.8811473858
  0
LINE
  5
349
100
AcDbEntity
  8
0
100
AcDbLine
 62
7
  6
CONTINUOUS
 10
-23.8278641681
 20
22.7935266961
 11
-23.8278641681
 21
22.3955266961
  0
LINE
  5
34A
100
AcDbEntity
  8
0
100
AcDbLine
 62
7
  6
CONTINUOUS
 10
-23.753312062
 20
29.1085266961
 11
-23.753312062
 21
29.0435266961
  0
LINE
  5
34B
100
AcDbEntity
  8
0
100
AcDbLine
 62
7
  6
CONTINUOUS
 10
-23.349700855
 20
20.3835266961
 11
-23.349700855
 21
20.3185266961
  0
LINE
  5
34C
100
AcDbEntity
  8
0
100
AcDbLine
 62
7
  6
CONTINUOUS
 10
-33.6230184023
 20
20.0785266961
 11
-33.5935120514
 21
20.0955621958
  0
LINE
  5
34D
100
AcDbEntity
  8
0
100
AcDbLine
 62
7
  6
CONTINUOUS
 10
-32.7569929985
 20
20.0785266961
 11
-32.7274866476
 21
20.0955621958
  0
LINE
  5
34E
100
AcDbEntity
  8
0
100
AcDbLine
 62
7
  6
CONTINUOUS
 10
-22.895200855
 20
21.0685266961
 11
-22.875200855
 21
20.9255266961
  0
LINE
  5
34F
100
AcDbEntity
  8
0
100
AcDbLine
 62
7
  6
CONTINUOUS
 10
-23.244700855
 20
20.2685266961
 11
-23.244700855
 21
20.3185266961
  0
LINE
  5
350
100
AcDbEntity
  8
0
100
AcDbLine
 62
7
  6
CONTINUOUS
 10
-23.201207206
 20
20.0955621958
 11
-23.201207206
 21
20.2466266961
  0
LINE
  5
351
100
AcDbEntity
  8
0
100
AcDbLine
 62
7
  6
CONTINUOUS
 10
-23.114536093
 20
23.1835266961
 11
-23.114536093
 21
22.8811473858
  0
LINE
  5
352
100
AcDbEntity
  8
0
100
AcDbLine
 62
7
  6
CONTINUOUS
 10
-23.094200855
 20
20.3835266961
 11
-23.094200855
 21
20.9255266961
  0
LINE
  5
353
100
AcDbEntity
  8
0
100
AcDbLine
 62
7
  6
CONTINUOUS
 10
-23.0929540305
 20
20.0955621958
 11
-23.0929540305
 21
20.2466266961
  0
LINE
  5
354
100
AcDbEntity
  8
0
100
AcDbLine
 62
7
  6
CONTINUOUS
 10
-22.984536093
 20
23.1835266961
 11
-22.984536093
 21
22.8811473858
  0
LINE
  5
355
100
AcDbEntity
  8
0
100
AcDbLine
 62
7
  6
CONTINUOUS
 10
-22.909536093
 20
22.8435266961
 11
-22.909536093
 21
22.8811473858
  0
LINE
  5
356
100
AcDbEntity
  8
0
100
AcDbLine
 62
7
  6
CONTINUOUS
 10
-22.8764476795
 20
20.0955621958
 11
-22.8764476795
 21
20.2466266961
  0
LINE
  5
357
100
AcDbEntity
  8
0
100
AcDbLine
 62
7
  6
CONTINUOUS
 10
-22.875200855
 20
20.3835266961
 11
-22.875200855
 21
20.9255266961
  0
LINE
  5
358
100
AcDbEntity
  8
0
100
AcDbLine
 62
7
  6
CONTINUOUS
 10
-22.7681945041
 20
20.0955621958
 11
-22.7681945041
 21
20.2466266961
  0
LINE
  5
359
100
AcDbEntity
  8
0
100
AcDbLine
 62
7
  6
CONTINUOUS
 10
-22.7486408903
 20
24.1035266961
 11
-22.7486408903
 21
22.8811473858
  0
LINE
  5
35A
100
AcDbEntity
  8
0
100
AcDbLine
 62
7
  6
CONTINUOUS
 10
-22.724700855
 20
20.2685266961
 11
-22.724700855
 21
20.3185266961
  0
LINE
  5
35B
100
AcDbEntity
  8
0
100
AcDbLine
 62
7
  6
CONTINUOUS
 10
-22.7081240502
 20
22.8811473858
 11
-22.7081240502
 21
22.8435266961
  0
LINE
  5
35C
100
AcDbEntity
  8
0
100
AcDbLine
 62
7
  6
CONTINUOUS
 10
-22.619700855
 20
20.3835266961
 11
-22.619700855
 21
20.3185266961
  0
LINE
  5
35D
100
AcDbEntity
  8
0
100
AcDbLine
 62
7
  6
CONTINUOUS
 10
-22.5864158923
 20
22.8435266961
 11
-22.5864158923
 21
22.7935266961
  0
LINE
  5
35E
100
AcDbEntity
  8
0
100
AcDbLine
 62
7
  6
CONTINUOUS
 10
-22.4836754512
 20
20.3835266961
 11
-22.4836754512
 21
20.3185266961
  0
LINE
  5
35F
100
AcDbEntity
  8
0
100
AcDbLine
 62
7
  6
CONTINUOUS
 10
-22.0291754512
 20
21.0685266961
 11
-22.0091754512
 21
20.9255266961
  0
LINE
  5
360
100
AcDbEntity
  8
0
100
AcDbLine
 62
7
  6
CONTINUOUS
 10
-22.4261256036
 20
29.2415266961
 11
-22.4261256036
 21
29.1765266961
  0
LINE
  5
361
100
AcDbEntity
  8
0
100
AcDbLine
 62
7
  6
CONTINUOUS
 10
-22.3786754512
 20
20.2685266961
 11
-22.3786754512
 21
20.3185266961
  0
LINE
  5
362
100
AcDbEntity
  8
0
100
AcDbLine
 62
7
  6
CONTINUOUS
 10
-22.3351818022
 20
20.0955621958
 11
-22.3351818022
 21
20.2466266961
  0
LINE
  5
363
100
AcDbEntity
  8
0
100
AcDbLine
 62
7
  6
CONTINUOUS
 10
-22.3143469268
 20
20.4285266961
 11
-22.3143469268
 21
20.4335266961
  0
LINE
  5
364
100
AcDbEntity
  8
0
100
AcDbLine
 62
7
  6
CONTINUOUS
 10
-22.2976256036
 20
29.2415266961
 11
-22.2976256036
 21
29.4215266961
  0
LINE
  5
365
100
AcDbEntity
  8
0
100
AcDbLine
 62
7
  6
CONTINUOUS
 10
-22.2281754512
 20
20.3835266961
 11
-22.2281754512
 21
20.9255266961
  0
LINE
  5
366
100
AcDbEntity
  8
0
100
AcDbLine
 62
7
  6
CONTINUOUS
 10
-22.2269286267
 20
20.0955621958
 11
-22.2269286267
 21
20.2466266961
  0
LINE
  5
367
100
AcDbEntity
  8
0
100
AcDbLine
 62
7
  6
CONTINUOUS
 10
-22.0811256036
 20
29.2415266961
 11
-22.0811256036
 21
29.4215266961
  0
LINE
  5
368
100
AcDbEntity
  8
0
100
AcDbLine
 62
7
  6
CONTINUOUS
 10
-22.0104222758
 20
20.0955621958
 11
-22.0104222758
 21
20.2466266961
  0
LINE
  5
369
100
AcDbEntity
  8
0
100
AcDbLine
 62
7
  6
CONTINUOUS
 10
-22.0091754512
 20
20.3835266961
 11
-22.0091754512
 21
20.9255266961
  0
LINE
  5
36A
100
AcDbEntity
  8
0
100
AcDbLine
 62
7
  6
CONTINUOUS
 10
-21.9021691003
 20
20.0955621958
 11
-21.9021691003
 21
20.2466266961
  0
LINE
  5
36B
100
AcDbEntity
  8
0
100
AcDbLine
 62
7
  6
CONTINUOUS
 10
-21.8646256036
 20
29.2415266961
 11
-21.8646256036
 21
29.4215266961
  0
LINE
  5
36C
100
AcDbEntity
  8
0
100
AcDbLine
 62
7
  6
CONTINUOUS
 10
-21.8586754512
 20
20.2685266961
 11
-21.8586754512
 21
20.3185266961
  0
LINE
  5
36D
100
AcDbEntity
  8
0
100
AcDbLine
 62
7
  6
CONTINUOUS
 10
-21.7536754512
 20
20.3835266961
 11
-21.7536754512
 21
20.3185266961
  0
LINE
  5
36E
100
AcDbEntity
  8
0
100
AcDbLine
 62
7
  6
CONTINUOUS
 10
-21.7361256036
 20
29.2415266961
 11
-21.7361256036
 21
29.1765266961
  0
LINE
  5
36F
100
AcDbEntity
  8
0
100
AcDbLine
 62
7
  6
CONTINUOUS
 10
-23.074200855
 20
21.0685266961
 11
-23.094200855
 21
20.9255266961
  0
LINE
  5
370
100
AcDbEntity
  8
0
100
AcDbLine
 62
7
  6
CONTINUOUS
 10
-21.2143469268
 20
20.4235266961
 11
-21.2143469268
 21
20.4735266961
  0
LINE
  5
371
100
AcDbEntity
  8
0
100
AcDbLine
 62
7
  6
CONTINUOUS
 10
-20.9643469268
 20
20.4910266961
 11
-20.9643469268
 21
20.4735266961
  0
LINE
  5
372
100
AcDbEntity
  8
0
100
AcDbLine
 62
7
  6
CONTINUOUS
 10
-22.2081754512
 20
21.0685266961
 11
-22.2281754512
 21
20.9255266961
  0
LINE
  5
373
100
AcDbEntity
  8
0
100
AcDbLine
 62
7
  6
CONTINUOUS
 10
-27.7773469268
 20
20.0785266961
 11
-27.7478405758
 21
20.0955621958
  0
LINE
  5
374
100
AcDbEntity
  8
0
100
AcDbLine
 62
3
  6
CONTINUOUS
 10
-21.1841932372
 20
29.5055166245
 11
-23.0743016611
 21
34.6985468395
  0
LINE
  5
375
100
AcDbEntity
  8
0
100
AcDbLine
 62
3
  6
CONTINUOUS
 10
-31.9146995717
 20
35.3565266961
 11
-24.0139942818
 21
35.3565266961
  0
LINE
  5
376
100
AcDbEntity
  8
0
100
AcDbLine
 62
3
  6
CONTINUOUS
 10
-17.3518873287
 20
24.6095266961
 11
-18.774654306
 21
28.5185468395
  0
LINE
  5
377
100
AcDbEntity
  8
0
100
AcDbLine
 62
7
  6
CONTINUOUS
 10
-18.4643469268
 20
20.4235266961
 11
-18.4643469268
 21
20.4910266961
  0
LINE
  5
378
100
AcDbEntity
  8
0
100
AcDbLine
 62
7
  6
CONTINUOUS
 10
-22.797700855
 20
20.0785266961
 11
-22.7681945041
 21
20.0955621958
  0
LINE
  5
379
100
AcDbEntity
  8
0
100
AcDbLine
 62
7
  6
CONTINUOUS
 10
-21.9316754512
 20
20.0785266961
 11
-21.9021691003
 21
20.0955621958
  0
LINE
  5
37A
100
AcDbEntity
  8
0
100
AcDbLine
 62
3
  6
CONTINUOUS
 10
-3.2452326815
 20
24.6095266961
 11
-1.8224657042
 21
28.5185468395
  0
LINE
  5
37B
100
AcDbEntity
  8
0
100
AcDbLine
 62
7
  6
CONTINUOUS
 10
-0.9480496681
 20
29.1085266961
 11
-0.9480496681
 21
29.0435266961
  0
LINE
  5
37C
100
AcDbEntity
  8
0
100
AcDbLine
 62
7
  6
CONTINUOUS
 10
3.8052269166
 20
20.0785266961
 11
3.8047269166
 21
20.0788153713
  0
LINE
  5
37D
100
AcDbEntity
  8
0
100
AcDbLine
 62
7
  6
CONTINUOUS
 10
4.3052269166
 20
20.0785266961
 11
4.3047269166
 21
20.0788153713
  0
LINE
  5
37E
100
AcDbEntity
  8
0
100
AcDbLine
 62
7
  6
CONTINUOUS
 10
3.8052273866
 20
20.0785266961
 11
4.1792264466
 21
20.0785266961
  0
LINE
  5
37F
100
AcDbEntity
  8
0
100
AcDbLine
 62
7
  6
CONTINUOUS
 10
4.3052273866
 20
20.0785266961
 11
4.6792264466
 21
20.0785266961
  0
LINE
  5
380
100
AcDbEntity
  8
0
100
AcDbLine
 62
7
  6
CONTINUOUS
 10
12.9302273866
 20
20.0785266961
 11
13.3042264466
 21
20.0785266961
  0
LINE
  5
381
100
AcDbEntity
  8
0
100
AcDbLine
 62
7
  6
CONTINUOUS
 10
13.9302273866
 20
20.0785266961
 11
14.3042264466
 21
20.0785266961
  0
LINE
  5
382
100
AcDbEntity
  8
0
100
AcDbLine
 62
7
  6
CONTINUOUS
 10
3.6334769166
 20
20.1685266961
 11
3.5204733817
 21
20.1685266961
  0
LINE
  5
383
100
AcDbEntity
  8
0
100
AcDbLine
 62
7
  6
CONTINUOUS
 10
14.8847269166
 20
20.1685266961
 11
15.4047269166
 21
20.1685266961
  0
LINE
  5
384
100
AcDbEntity
  8
0
100
AcDbLine
 62
7
  6
CONTINUOUS
 10
3.73222757
 20
20.2685266961
 11
4.7522262632
 21
20.2685266961
  0
LINE
  5
385
100
AcDbEntity
  8
0
100
AcDbLine
 62
7
  6
CONTINUOUS
 10
12.85722757
 20
20.2685266961
 11
13.3772262632
 21
20.2685266961
  0
LINE
  5
386
100
AcDbEntity
  8
0
100
AcDbLine
 62
7
  6
CONTINUOUS
 10
13.85722757
 20
20.2685266961
 11
14.3772262632
 21
20.2685266961
  0
LINE
  5
387
100
AcDbEntity
  8
0
100
AcDbLine
 62
7
  6
CONTINUOUS
 10
14.4822269166
 20
20.3185266961
 11
13.7522269166
 21
20.3185266961
  0
LINE
  5
388
100
AcDbEntity
  8
0
100
AcDbLine
 62
7
  6
CONTINUOUS
 10
13.4822269166
 20
20.3185266961
 11
12.7522269166
 21
20.3185266961
  0
LINE
  5
389
100
AcDbEntity
  8
0
100
AcDbLine
 62
7
  6
CONTINUOUS
 10
4.8572269166
 20
20.3185266961
 11
3.7001789352
 21
20.3185266961
  0
LINE
  5
38A
100
AcDbEntity
  8
0
100
AcDbLine
 62
7
  6
CONTINUOUS
 10
3.6334769166
 20
20.3585266961
 11
3.5204733817
 21
20.3585266961
  0
LINE
  5
38B
100
AcDbEntity
  8
0
100
AcDbLine
 62
7
  6
CONTINUOUS
 10
14.8847269166
 20
20.3585266961
 11
15.4047269166
 21
20.3585266961
  0
LINE
  5
38C
100
AcDbEntity
  8
0
100
AcDbLine
 62
7
  6
CONTINUOUS
 10
14.4822269166
 20
20.3835266961
 11
13.7522269166
 21
20.3835266961
  0
LINE
  5
38D
100
AcDbEntity
  8
0
100
AcDbLine
 62
7
  6
CONTINUOUS
 10
13.4822269166
 20
20.3835266961
 11
12.7522269166
 21
20.3835266961
  0
LINE
  5
38E
100
AcDbEntity
  8
0
100
AcDbLine
 62
7
  6
CONTINUOUS
 10
4.8572269166
 20
20.3835266961
 11
3.6272269166
 21
20.3835266961
  0
LINE
  5
38F
100
AcDbEntity
  8
0
100
AcDbLine
 62
7
  6
CONTINUOUS
 10
1.5827386287
 20
20.4235266961
 11
2.5027386287
 21
20.4235266961
  0
LINE
  5
390
100
AcDbEntity
  8
0
100
AcDbLine
 62
7
  6
CONTINUOUS
 10
11.3672269166
 20
20.4235266961
 11
12.9872269166
 21
20.4235266961
  0
LINE
  5
391
100
AcDbEntity
  8
0
100
AcDbLine
 62
7
  6
CONTINUOUS
 10
16.5872269166
 20
20.4285266961
 11
13.0872269166
 21
20.4285266961
  0
LINE
  5
392
100
AcDbEntity
  8
0
100
AcDbLine
 62
7
  6
CONTINUOUS
 10
11.3672269166
 20
20.4735266961
 11
12.9872269166
 21
20.4735266961
  0
LINE
  5
393
100
AcDbEntity
  8
0
100
AcDbLine
 62
7
  6
CONTINUOUS
 10
16.5872269166
 20
20.4910266961
 11
13.0872269166
 21
20.4910266961
  0
LINE
  5
394
100
AcDbEntity
  8
0
100
AcDbLine
 62
3
  6
CONTINUOUS
 10
0.587073227
 20
29.5055166245
 11
2.4771816509
 21
34.6985468395
  0
LINE
  5
395
100
AcDbEntity
  8
0
100
AcDbLine
 62
7
  6
CONTINUOUS
 10
3.8827269166
 20
20.9255266961
 11
4.1017269166
 21
20.9255266961
  0
LINE
  5
396
100
AcDbEntity
  8
0
100
AcDbLine
 62
7
  6
CONTINUOUS
 10
4.3827269166
 20
20.9255266961
 11
4.6017269166
 21
20.9255266961
  0
LINE
  5
397
100
AcDbEntity
  8
0
100
AcDbLine
 62
7
  6
CONTINUOUS
 10
13.0077269166
 20
20.9255266961
 11
13.2267269166
 21
20.9255266961
  0
LINE
  5
398
100
AcDbEntity
  8
0
100
AcDbLine
 62
7
  6
CONTINUOUS
 10
14.0077269166
 20
20.9255266961
 11
14.2267269166
 21
20.9255266961
  0
LINE
  5
399
100
AcDbEntity
  8
0
100
AcDbLine
 62
7
  6
CONTINUOUS
 10
14.2067228952
 20
21.0685266961
 11
14.027730938
 21
21.0685266961
  0
LINE
  5
39A
100
AcDbEntity
  8
0
100
AcDbLine
 62
7
  6
CONTINUOUS
 10
13.2067228952
 20
21.0685266961
 11
13.027730938
 21
21.0685266961
  0
LINE
  5
39B
100
AcDbEntity
  8
0
100
AcDbLine
 62
7
  6
CONTINUOUS
 10
4.5817228952
 20
21.0685266961
 11
4.402730938
 21
21.0685266961
  0
LINE
  5
39C
100
AcDbEntity
  8
0
100
AcDbLine
 62
7
  6
CONTINUOUS
 10
4.0817228952
 20
21.0685266961
 11
3.902730938
 21
21.0685266961
  0
LINE
  5
39D
100
AcDbEntity
  8
0
100
AcDbLine
 62
7
  6
CONTINUOUS
 10
1.5827386287
 20
20.4235266961
 11
1.5827386287
 21
24.1035266961
  0
LINE
  5
39E
100
AcDbEntity
  8
0
100
AcDbLine
 62
7
  6
CONTINUOUS
 10
1.9892958821
 20
22.8435266961
 11
1.9892958821
 21
22.7935266961
  0
LINE
  5
39F
100
AcDbEntity
  8
0
100
AcDbLine
 62
7
  6
CONTINUOUS
 10
2.0201333761
 20
22.8811473858
 11
2.0201333761
 21
22.8435266961
  0
LINE
  5
3A0
100
AcDbEntity
  8
0
100
AcDbLine
 62
7
  6
CONTINUOUS
 10
3.230744158
 20
22.3955266961
 11
3.2884497716
 21
22.3955266961
  0
LINE
  5
3A1
100
AcDbEntity
  8
0
100
AcDbLine
 62
7
  6
CONTINUOUS
 10
3.4585040616
 20
22.3955266961
 11
11.5037096752
 21
22.3955266961
  0
LINE
  5
3A2
100
AcDbEntity
  8
0
100
AcDbLine
 62
7
  6
CONTINUOUS
 10
2.0856180742
 20
29.2415266961
 11
2.0856180742
 21
29.1765266961
  0
LINE
  5
3A3
100
AcDbEntity
  8
0
100
AcDbLine
 62
7
  6
CONTINUOUS
 10
2.0865093577
 20
24.1035266961
 11
2.0865093577
 21
22.8811473858
  0
LINE
  5
3A4
100
AcDbEntity
  8
0
100
AcDbLine
 62
7
  6
CONTINUOUS
 10
2.1227974896
 20
24.1035266961
 11
2.1227974896
 21
22.8435266961
  0
LINE
  5
3A5
100
AcDbEntity
  8
0
100
AcDbLine
 62
7
  6
CONTINUOUS
 10
2.1806254076
 20
29.2415266961
 11
2.1806254076
 21
29.4215266961
  0
LINE
  5
3A6
100
AcDbEntity
  8
0
100
AcDbLine
 62
7
  6
CONTINUOUS
 10
2.3056217409
 20
29.2415266961
 11
2.3056217409
 21
29.4215266961
  0
LINE
  5
3A7
100
AcDbEntity
  8
0
100
AcDbLine
 62
7
  6
CONTINUOUS
 10
2.5027386287
 20
20.4235266961
 11
2.5027386287
 21
22.7935266961
  0
LINE
  5
3A8
100
AcDbEntity
  8
0
100
AcDbLine
 62
7
  6
CONTINUOUS
 10
2.5556144075
 20
29.2415266961
 11
2.5556144075
 21
29.4215266961
  0
LINE
  5
3A9
100
AcDbEntity
  8
0
100
AcDbLine
 62
7
  6
CONTINUOUS
 10
2.6806107408
 20
29.2415266961
 11
2.6806107408
 21
29.4215266961
  0
LINE
  5
3AA
100
AcDbEntity
  8
0
100
AcDbLine
 62
7
  6
CONTINUOUS
 10
2.7756180742
 20
29.2415266961
 11
2.7756180742
 21
29.1765266961
  0
LINE
  5
3AB
100
AcDbEntity
  8
0
100
AcDbLine
 62
7
  6
CONTINUOUS
 10
3.6334769166
 20
22.4685266961
 11
3.5204733817
 21
22.4685266961
  0
LINE
  5
3AC
100
AcDbEntity
  8
0
100
AcDbLine
 62
7
  6
CONTINUOUS
 10
14.8847269166
 20
22.4685266961
 11
15.4047269166
 21
22.4685266961
  0
LINE
  5
3AD
100
AcDbEntity
  8
0
100
AcDbLine
 62
7
  6
CONTINUOUS
 10
3.6334769166
 20
22.6585266961
 11
3.5204733817
 21
22.6585266961
  0
LINE
  5
3AE
100
AcDbEntity
  8
0
100
AcDbLine
 62
7
  6
CONTINUOUS
 10
14.8847269166
 20
22.6585266961
 11
15.4047269166
 21
22.6585266961
  0
LINE
  5
3AF
100
AcDbEntity
  8
0
100
AcDbLine
 62
7
  6
CONTINUOUS
 10
1.9892958821
 20
22.7935266961
 11
12.7451579511
 21
22.7935266961
  0
LINE
  5
3B0
100
AcDbEntity
  8
0
100
AcDbLine
 62
7
  6
CONTINUOUS
 10
1.9892958821
 20
22.8435266961
 11
12.7451579511
 21
22.8435266961
  0
LINE
  5
3B1
100
AcDbEntity
  8
0
100
AcDbLine
 62
7
  6
CONTINUOUS
 10
2.0201403866
 20
22.8811473858
 11
2.0865093577
 21
22.8811473858
  0
LINE
  5
3B2
100
AcDbEntity
  8
0
100
AcDbLine
 62
7
  6
CONTINUOUS
 10
2.9955098175
 20
22.8811473858
 11
3.4629912885
 21
22.8811473858
  0
LINE
  5
3B3
100
AcDbEntity
  8
0
100
AcDbLine
 62
7
  6
CONTINUOUS
 10
4.7315350108
 20
22.8811473858
 11
6.3307585292
 21
22.8811473858
  0
LINE
  5
3B4
100
AcDbEntity
  8
0
100
AcDbLine
 62
7
  6
CONTINUOUS
 10
7.2850568475
 20
22.8811473858
 11
9.5944214656
 21
22.8811473858
  0
LINE
  5
3B5
100
AcDbEntity
  8
0
100
AcDbLine
 62
7
  6
CONTINUOUS
 10
9.7925059051
 20
22.8811473858
 11
12.7143134466
 21
22.8811473858
  0
LINE
  5
3B6
100
AcDbEntity
  8
0
100
AcDbLine
 62
7
  6
CONTINUOUS
 10
3.0704906565
 20
23.1835266961
 11
3.2514391079
 21
23.1835266961
  0
LINE
  5
3B7
100
AcDbEntity
  8
0
100
AcDbLine
 62
7
  6
CONTINUOUS
 10
4.8065272383
 20
23.1835266961
 11
4.9365272383
 21
23.1835266961
  0
LINE
  5
3B8
100
AcDbEntity
  8
0
100
AcDbLine
 62
7
  6
CONTINUOUS
 10
5.7053080734
 20
23.1835266961
 11
5.8353080734
 21
23.1835266961
  0
LINE
  5
3B9
100
AcDbEntity
  8
0
100
AcDbLine
 62
7
  6
CONTINUOUS
 10
7.4958362715
 20
23.1835266961
 11
7.6258362715
 21
23.1835266961
  0
LINE
  5
3BA
100
AcDbEntity
  8
0
100
AcDbLine
 62
7
  6
CONTINUOUS
 10
8.8991457598
 20
23.1835266961
 11
9.0291457598
 21
23.1835266961
  0
LINE
  5
3BB
100
AcDbEntity
  8
0
100
AcDbLine
 62
7
  6
CONTINUOUS
 10
10.1111931117
 20
23.1835266961
 11
10.2411931117
 21
23.1835266961
  0
LINE
  5
3BC
100
AcDbEntity
  8
0
100
AcDbLine
 62
7
  6
CONTINUOUS
 10
11.4830147253
 20
23.1835266961
 11
11.6130147253
 21
23.1835266961
  0
LINE
  5
3BD
100
AcDbEntity
  8
0
100
AcDbLine
 62
7
  6
CONTINUOUS
 10
12.4699648476
 20
23.1835266961
 11
12.5999648476
 21
23.1835266961
  0
LINE
  5
3BE
100
AcDbEntity
  8
0
100
AcDbLine
 62
7
  6
CONTINUOUS
 10
2.9954906565
 20
22.8435266961
 11
2.9954906565
 21
22.8811473858
  0
LINE
  5
3BF
100
AcDbEntity
  8
0
100
AcDbLine
 62
7
  6
CONTINUOUS
 10
3.0464391079
 20
22.8435266961
 11
3.0464391079
 21
22.8811473858
  0
LINE
  5
3C0
100
AcDbEntity
  8
0
100
AcDbLine
 62
7
  6
CONTINUOUS
 10
3.0704906565
 20
23.1835266961
 11
3.0704906565
 21
22.8811473858
  0
LINE
  5
3C1
100
AcDbEntity
  8
0
100
AcDbLine
 62
7
  6
CONTINUOUS
 10
3.1214391079
 20
23.1835266961
 11
3.1214391079
 21
22.8811473858
  0
LINE
  5
3C2
100
AcDbEntity
  8
0
100
AcDbLine
 62
7
  6
CONTINUOUS
 10
3.2305286196
 20
24.1035266961
 11
3.2305286196
 21
23.1835266961
  0
LINE
  5
3C3
100
AcDbEntity
  8
0
100
AcDbLine
 62
7
  6
CONTINUOUS
 10
3.230744158
 20
22.7585041785
 11
3.230744158
 21
22.6675430546
  0
LINE
  5
3C4
100
AcDbEntity
  8
0
100
AcDbLine
 62
7
  6
CONTINUOUS
 10
3.230744158
 20
22.4595103377
 11
3.230744158
 21
22.3955266961
  0
LINE
  5
3C5
100
AcDbEntity
  8
0
100
AcDbLine
 62
7
  6
CONTINUOUS
 10
3.2514391079
 20
23.1835266961
 11
3.2514391079
 21
22.8811473858
  0
LINE
  5
3C6
100
AcDbEntity
  8
0
100
AcDbLine
 62
7
  6
CONTINUOUS
 10
3.4629912885
 20
24.1035266961
 11
3.4629912885
 21
22.8811473858
  0
LINE
  5
3C7
100
AcDbEntity
  8
0
100
AcDbLine
 62
7
  6
CONTINUOUS
 10
3.5007477844
 20
24.1035266961
 11
3.5007477844
 21
22.8435266961
  0
LINE
  5
3C8
100
AcDbEntity
  8
0
100
AcDbLine
 62
7
  6
CONTINUOUS
 10
3.6272269166
 20
20.3835266961
 11
3.6272269166
 21
20.3585266961
  0
LINE
  5
3C9
100
AcDbEntity
  8
0
100
AcDbLine
 62
7
  6
CONTINUOUS
 10
3.7322269166
 20
20.2685266961
 11
3.7322269166
 21
20.3185266961
  0
LINE
  5
3CA
100
AcDbEntity
  8
0
100
AcDbLine
 62
7
  6
CONTINUOUS
 10
3.8047269166
 20
20.0788153713
 11
3.8047269166
 21
20.2466266961
  0
LINE
  5
3CB
100
AcDbEntity
  8
0
100
AcDbLine
 62
7
  6
CONTINUOUS
 10
-3.5291301298
 20
24.1035266961
 11
18.2635839631
 21
24.1035266961
  0
LINE
  5
3CC
100
AcDbEntity
  8
0
100
AcDbLine
 62
7
  6
CONTINUOUS
 10
12.9302269166
 20
20.0785266961
 11
12.9297269166
 21
20.0788153713
  0
LINE
  5
3CD
100
AcDbEntity
  8
0
100
AcDbLine
 62
7
  6
CONTINUOUS
 10
4.0817269166
 20
21.0685266961
 11
4.1017269166
 21
20.9255266961
  0
LINE
  5
3CE
100
AcDbEntity
  8
0
100
AcDbLine
 62
7
  6
CONTINUOUS
 10
4.5817269166
 20
21.0685266961
 11
4.6017269166
 21
20.9255266961
  0
LINE
  5
3CF
100
AcDbEntity
  8
0
100
AcDbLine
 62
7
  6
CONTINUOUS
 10
3.8827269166
 20
20.3835266961
 11
3.8827269166
 21
20.9255266961
  0
LINE
  5
3D0
100
AcDbEntity
  8
0
100
AcDbLine
 62
7
  6
CONTINUOUS
 10
3.9922269166
 20
20.0955621958
 11
3.9922269166
 21
20.2466266961
  0
LINE
  5
3D1
100
AcDbEntity
  8
0
100
AcDbLine
 62
7
  6
CONTINUOUS
 10
4.1017269166
 20
20.3835266961
 11
4.1017269166
 21
20.9255266961
  0
LINE
  5
3D2
100
AcDbEntity
  8
0
100
AcDbLine
 62
7
  6
CONTINUOUS
 10
4.1797269166
 20
20.0788153713
 11
4.1797269166
 21
20.2466266961
  0
LINE
  5
3D3
100
AcDbEntity
  8
0
100
AcDbLine
 62
7
  6
CONTINUOUS
 10
4.2522269166
 20
20.2685266961
 11
4.2522269166
 21
20.3185266961
  0
LINE
  5
3D4
100
AcDbEntity
  8
0
100
AcDbLine
 62
7
  6
CONTINUOUS
 10
4.3047269166
 20
20.0788153713
 11
4.3047269166
 21
20.2466266961
  0
LINE
  5
3D5
100
AcDbEntity
  8
0
100
AcDbLine
 62
7
  6
CONTINUOUS
 10
4.3572269166
 20
20.3835266961
 11
4.3572269166
 21
20.3185266961
  0
LINE
  5
3D6
100
AcDbEntity
  8
0
100
AcDbLine
 62
7
  6
CONTINUOUS
 10
4.3827269166
 20
20.3835266961
 11
4.3827269166
 21
20.9255266961
  0
LINE
  5
3D7
100
AcDbEntity
  8
0
100
AcDbLine
 62
7
  6
CONTINUOUS
 10
4.4922269166
 20
20.0955621958
 11
4.4922269166
 21
20.2466266961
  0
LINE
  5
3D8
100
AcDbEntity
  8
0
100
AcDbLine
 62
7
  6
CONTINUOUS
 10
4.6017269166
 20
20.3835266961
 11
4.6017269166
 21
20.9255266961
  0
LINE
  5
3D9
100
AcDbEntity
  8
0
100
AcDbLine
 62
7
  6
CONTINUOUS
 10
4.6797269166
 20
20.0788153713
 11
4.6797269166
 21
20.2466266961
  0
LINE
  5
3DA
100
AcDbEntity
  8
0
100
AcDbLine
 62
7
  6
CONTINUOUS
 10
4.7315272383
 20
22.8435266961
 11
4.7315272383
 21
22.8811473858
  0
LINE
  5
3DB
100
AcDbEntity
  8
0
100
AcDbLine
 62
7
  6
CONTINUOUS
 10
4.7522269166
 20
20.2685266961
 11
4.7522269166
 21
20.3185266961
  0
LINE
  5
3DC
100
AcDbEntity
  8
0
100
AcDbLine
 62
7
  6
CONTINUOUS
 10
-3.5291301298
 20
24.6095266961
 11
18.2635839631
 21
24.6095266961
  0
LINE
  5
3DD
100
AcDbEntity
  8
0
100
AcDbLine
 62
7
  6
CONTINUOUS
 10
13.9302269166
 20
20.0785266961
 11
13.9297269166
 21
20.0788153713
  0
LINE
  5
3DE
100
AcDbEntity
  8
0
100
AcDbLine
 62
7
  6
CONTINUOUS
 10
4.8065272383
 20
23.1835266961
 11
4.8065272383
 21
22.8811473858
  0
LINE
  5
3DF
100
AcDbEntity
  8
0
100
AcDbLine
 62
7
  6
CONTINUOUS
 10
4.8341476905
 20
24.1035266961
 11
4.8341476905
 21
23.1835266961
  0
LINE
  5
3E0
100
AcDbEntity
  8
0
100
AcDbLine
 62
7
  6
CONTINUOUS
 10
4.8572269166
 20
20.3835266961
 11
4.8572269166
 21
20.3185266961
  0
LINE
  5
3E1
100
AcDbEntity
  8
0
100
AcDbLine
 62
7
  6
CONTINUOUS
 10
4.9365272383
 20
23.1835266961
 11
4.9365272383
 21
22.8811473858
  0
LINE
  5
3E2
100
AcDbEntity
  8
0
100
AcDbLine
 62
7
  6
CONTINUOUS
 10
5.6303080734
 20
22.8435266961
 11
5.6303080734
 21
22.8811473858
  0
LINE
  5
3E3
100
AcDbEntity
  8
0
100
AcDbLine
 62
7
  6
CONTINUOUS
 10
3.9027269166
 20
21.0685266961
 11
3.8827269166
 21
20.9255266961
  0
LINE
  5
3E4
100
AcDbEntity
  8
0
100
AcDbLine
 62
7
  6
CONTINUOUS
 10
4.4027269166
 20
21.0685266961
 11
4.3827269166
 21
20.9255266961
  0
LINE
  5
3E5
100
AcDbEntity
  8
0
100
AcDbLine
 62
7
  6
CONTINUOUS
 10
5.7053080734
 20
23.1835266961
 11
5.7053080734
 21
22.8811473858
  0
LINE
  5
3E6
100
AcDbEntity
  8
0
100
AcDbLine
 62
7
  6
CONTINUOUS
 10
5.8353080734
 20
23.1835266961
 11
5.8353080734
 21
22.8811473858
  0
LINE
  5
3E7
100
AcDbEntity
  8
0
100
AcDbLine
 62
7
  6
CONTINUOUS
 10
6.3307585292
 20
24.1035266961
 11
6.3307585292
 21
22.8811473858
  0
LINE
  5
3E8
100
AcDbEntity
  8
0
100
AcDbLine
 62
7
  6
CONTINUOUS
 10
6.3555616909
 20
24.1035266961
 11
6.3555616909
 21
22.8435266961
  0
LINE
  5
3E9
100
AcDbEntity
  8
0
100
AcDbLine
 62
7
  6
CONTINUOUS
 10
7.2850562012
 20
22.8811473858
 11
7.2850562012
 21
22.8435266961
  0
LINE
  5
3EA
100
AcDbEntity
  8
0
100
AcDbLine
 62
7
  6
CONTINUOUS
 10
7.3006027058
 20
24.1035266961
 11
7.3006027058
 21
22.8811473858
  0
LINE
  5
3EB
100
AcDbEntity
  8
0
100
AcDbLine
 62
7
  6
CONTINUOUS
 10
7.4208362715
 20
22.8435266961
 11
7.4208362715
 21
22.8811473858
  0
LINE
  5
3EC
100
AcDbEntity
  8
0
100
AcDbLine
 62
7
  6
CONTINUOUS
 10
7.4958362715
 20
23.1835266961
 11
7.4958362715
 21
22.8811473858
  0
LINE
  5
3ED
100
AcDbEntity
  8
0
100
AcDbLine
 62
7
  6
CONTINUOUS
 10
7.6258362715
 20
23.1835266961
 11
7.6258362715
 21
22.8811473858
  0
LINE
  5
3EE
100
AcDbEntity
  8
0
100
AcDbLine
 62
7
  6
CONTINUOUS
 10
8.8991457598
 20
23.1835266961
 11
8.8991457598
 21
22.8811473858
  0
LINE
  5
3EF
100
AcDbEntity
  8
0
100
AcDbLine
 62
7
  6
CONTINUOUS
 10
9.0291457598
 20
23.1835266961
 11
9.0291457598
 21
22.8811473858
  0
LINE
  5
3F0
100
AcDbEntity
  8
0
100
AcDbLine
 62
7
  6
CONTINUOUS
 10
14.9429625007
 20
29.0435266961
 11
14.3179625007
 21
29.0435266961
  0
LINE
  5
3F1
100
AcDbEntity
  8
0
100
AcDbLine
 62
7
  6
CONTINUOUS
 10
-0.3230496681
 20
29.0435266961
 11
-0.9480496681
 21
29.0435266961
  0
LINE
  5
3F2
100
AcDbEntity
  8
0
100
AcDbLine
 62
7
  6
CONTINUOUS
 10
14.9429625007
 20
29.1085266961
 11
14.3179625007
 21
29.1085266961
  0
LINE
  5
3F3
100
AcDbEntity
  8
0
100
AcDbLine
 62
7
  6
CONTINUOUS
 10
-0.3230496681
 20
29.1085266961
 11
-0.9480496681
 21
29.1085266961
  0
LINE
  5
3F4
100
AcDbEntity
  8
0
100
AcDbLine
 62
3
  6
CONTINUOUS
 10
-0.8827295694
 20
29.1765266961
 11
15.6171834026
 21
29.1765266961
  0
LINE
  5
3F5
100
AcDbEntity
  8
0
100
AcDbLine
 62
7
  6
CONTINUOUS
 10
15.2755478079
 20
29.2415266961
 11
14.5855531116
 21
29.2415266961
  0
LINE
  5
3F6
100
AcDbEntity
  8
0
100
AcDbLine
 62
7
  6
CONTINUOUS
 10
2.7756180742
 20
29.2415266961
 11
2.0856180742
 21
29.2415266961
  0
LINE
  5
3F7
100
AcDbEntity
  8
0
100
AcDbLine
 62
7
  6
CONTINUOUS
 10
2.1806254076
 20
29.4215266961
 11
2.6806107408
 21
29.4215266961
  0
LINE
  5
3F8
100
AcDbEntity
  8
0
100
AcDbLine
 62
7
  6
CONTINUOUS
 10
14.6805577932
 20
29.4215266961
 11
15.1805431263
 21
29.4215266961
  0
LINE
  5
3F9
100
AcDbEntity
  8
0
100
AcDbLine
 62
7
  6
CONTINUOUS
 10
9.5944214656
 20
24.1035266961
 11
9.5944214656
 21
22.8811473858
  0
LINE
  5
3FA
100
AcDbEntity
  8
0
100
AcDbLine
 62
7
  6
CONTINUOUS
 10
9.5967973284
 20
24.1035266961
 11
9.5967973284
 21
22.8435266961
  0
LINE
  5
3FB
100
AcDbEntity
  8
0
100
AcDbLine
 62
7
  6
CONTINUOUS
 10
9.7875557687
 20
24.1035266961
 11
9.7875557687
 21
22.8435266961
  0
LINE
  5
3FC
100
AcDbEntity
  8
0
100
AcDbLine
 62
7
  6
CONTINUOUS
 10
9.7925059051
 20
24.1035266961
 11
9.7925059051
 21
22.8811473858
  0
LINE
  5
3FD
100
AcDbEntity
  8
0
100
AcDbLine
 62
7
  6
CONTINUOUS
 10
10.1111931117
 20
23.1835266961
 11
10.1111931117
 21
22.8811473858
  0
LINE
  5
3FE
100
AcDbEntity
  8
0
100
AcDbLine
 62
7
  6
CONTINUOUS
 10
10.2411931117
 20
23.1835266961
 11
10.2411931117
 21
22.8811473858
  0
LINE
  5
3FF
100
AcDbEntity
  8
0
100
AcDbLine
 62
7
  6
CONTINUOUS
 10
10.3161931117
 20
22.8435266961
 11
10.3161931117
 21
22.8811473858
  0
LINE
  5
400
100
AcDbEntity
  8
0
100
AcDbLine
 62
7
  6
CONTINUOUS
 10
11.3672269166
 20
20.4235266961
 11
11.3672269166
 21
20.4735266961
  0
LINE
  5
401
100
AcDbEntity
  8
0
100
AcDbLine
 62
7
  6
CONTINUOUS
 10
11.4830147253
 20
23.1835266961
 11
11.4830147253
 21
22.8811473858
  0
LINE
  5
402
100
AcDbEntity
  8
0
100
AcDbLine
 62
7
  6
CONTINUOUS
 10
11.5037096752
 20
22.7585041785
 11
11.5037096752
 21
22.3955266961
  0
LINE
  5
403
100
AcDbEntity
  8
0
100
AcDbLine
 62
7
  6
CONTINUOUS
 10
11.6130147253
 20
23.1835266961
 11
11.6130147253
 21
22.8811473858
  0
LINE
  5
404
100
AcDbEntity
  8
0
100
AcDbLine
 62
7
  6
CONTINUOUS
 10
11.6880147253
 20
22.8435266961
 11
11.6880147253
 21
22.8811473858
  0
LINE
  5
405
100
AcDbEntity
  8
0
100
AcDbLine
 62
7
  6
CONTINUOUS
 10
12.0073717838
 20
24.1035266961
 11
12.0073717838
 21
22.8811473858
  0
LINE
  5
406
100
AcDbEntity
  8
0
100
AcDbLine
 62
7
  6
CONTINUOUS
 10
12.0268732388
 20
22.8811473858
 11
12.0268732388
 21
22.8435266961
  0
LINE
  5
407
100
AcDbEntity
  8
0
100
AcDbLine
 62
7
  6
CONTINUOUS
 10
12.4699648476
 20
23.1835266961
 11
12.4699648476
 21
22.8811473858
  0
LINE
  5
408
100
AcDbEntity
  8
0
100
AcDbLine
 62
7
  6
CONTINUOUS
 10
12.5999648476
 20
23.1835266961
 11
12.5999648476
 21
22.8811473858
  0
LINE
  5
409
100
AcDbEntity
  8
0
100
AcDbLine
 62
7
  6
CONTINUOUS
 10
12.6479444755
 20
24.1035266961
 11
12.6479444755
 21
22.8811473858
  0
LINE
  5
40A
100
AcDbEntity
  8
0
100
AcDbLine
 62
7
  6
CONTINUOUS
 10
12.6749648476
 20
22.8435266961
 11
12.6749648476
 21
22.8811473858
  0
LINE
  5
40B
100
AcDbEntity
  8
0
100
AcDbLine
 62
7
  6
CONTINUOUS
 10
12.7143204571
 20
22.8811473858
 11
12.7143204571
 21
22.8435266961
  0
LINE
  5
40C
100
AcDbEntity
  8
0
100
AcDbLine
 62
7
  6
CONTINUOUS
 10
12.7451579511
 20
22.8435266961
 11
12.7451579511
 21
22.7935266961
  0
LINE
  5
40D
100
AcDbEntity
  8
0
100
AcDbLine
 62
7
  6
CONTINUOUS
 10
12.7522269166
 20
20.3835266961
 11
12.7522269166
 21
20.3185266961
  0
LINE
  5
40E
100
AcDbEntity
  8
0
100
AcDbLine
 62
7
  6
CONTINUOUS
 10
12.8572269166
 20
20.2685266961
 11
12.8572269166
 21
20.3185266961
  0
LINE
  5
40F
100
AcDbEntity
  8
0
100
AcDbLine
 62
7
  6
CONTINUOUS
 10
4.1792269166
 20
20.0785266961
 11
4.1797269166
 21
20.0788153713
  0
LINE
  5
410
100
AcDbEntity
  8
0
100
AcDbLine
 62
7
  6
CONTINUOUS
 10
4.6792269166
 20
20.0785266961
 11
4.6797269166
 21
20.0788153713
  0
LINE
  5
411
100
AcDbEntity
  8
0
100
AcDbLine
 62
7
  6
CONTINUOUS
 10
13.2067269166
 20
21.0685266961
 11
13.2267269166
 21
20.9255266961
  0
LINE
  5
412
100
AcDbEntity
  8
0
100
AcDbLine
 62
7
  6
CONTINUOUS
 10
12.9297269166
 20
20.0788153713
 11
12.9297269166
 21
20.2466266961
  0
LINE
  5
413
100
AcDbEntity
  8
0
100
AcDbLine
 62
7
  6
CONTINUOUS
 10
12.9872269166
 20
20.4235266961
 11
12.9872269166
 21
20.4735266961
  0
LINE
  5
414
100
AcDbEntity
  8
0
100
AcDbLine
 62
7
  6
CONTINUOUS
 10
13.0077269166
 20
20.3835266961
 11
13.0077269166
 21
20.9255266961
  0
LINE
  5
415
100
AcDbEntity
  8
0
100
AcDbLine
 62
7
  6
CONTINUOUS
 10
13.0872269166
 20
20.4910266961
 11
13.0872269166
 21
20.4285266961
  0
LINE
  5
416
100
AcDbEntity
  8
0
100
AcDbLine
 62
7
  6
CONTINUOUS
 10
13.1172269166
 20
20.0955621958
 11
13.1172269166
 21
20.2466266961
  0
LINE
  5
417
100
AcDbEntity
  8
0
100
AcDbLine
 62
7
  6
CONTINUOUS
 10
13.2267269166
 20
20.3835266961
 11
13.2267269166
 21
20.4285266961
  0
LINE
  5
418
100
AcDbEntity
  8
0
100
AcDbLine
 62
7
  6
CONTINUOUS
 10
13.2267269166
 20
20.4910266961
 11
13.2267269166
 21
20.9255266961
  0
LINE
  5
419
100
AcDbEntity
  8
0
100
AcDbLine
 62
7
  6
CONTINUOUS
 10
13.3047269166
 20
20.0788153713
 11
13.3047269166
 21
20.2466266961
  0
LINE
  5
41A
100
AcDbEntity
  8
0
100
AcDbLine
 62
7
  6
CONTINUOUS
 10
13.3772269166
 20
20.2685266961
 11
13.3772269166
 21
20.3185266961
  0
LINE
  5
41B
100
AcDbEntity
  8
0
100
AcDbLine
 62
7
  6
CONTINUOUS
 10
13.4822269166
 20
20.3835266961
 11
13.4822269166
 21
20.3185266961
  0
LINE
  5
41C
100
AcDbEntity
  8
0
100
AcDbLine
 62
7
  6
CONTINUOUS
 10
13.7522269166
 20
20.3835266961
 11
13.7522269166
 21
20.3185266961
  0
LINE
  5
41D
100
AcDbEntity
  8
0
100
AcDbLine
 62
7
  6
CONTINUOUS
 10
14.2067269166
 20
21.0685266961
 11
14.2267269166
 21
20.9255266961
  0
LINE
  5
41E
100
AcDbEntity
  8
0
100
AcDbLine
 62
7
  6
CONTINUOUS
 10
13.8572269166
 20
20.2685266961
 11
13.8572269166
 21
20.3185266961
  0
LINE
  5
41F
100
AcDbEntity
  8
0
100
AcDbLine
 62
7
  6
CONTINUOUS
 10
13.9297269166
 20
20.0788153713
 11
13.9297269166
 21
20.2466266961
  0
LINE
  5
420
100
AcDbEntity
  8
0
100
AcDbLine
 62
7
  6
CONTINUOUS
 10
14.0077269166
 20
20.3835266961
 11
14.0077269166
 21
20.4285266961
  0
LINE
  5
421
100
AcDbEntity
  8
0
100
AcDbLine
 62
7
  6
CONTINUOUS
 10
14.0077269166
 20
20.4910266961
 11
14.0077269166
 21
20.9255266961
  0
LINE
  5
422
100
AcDbEntity
  8
0
100
AcDbLine
 62
7
  6
CONTINUOUS
 10
14.1172269166
 20
20.0955621958
 11
14.1172269166
 21
20.2466266961
  0
LINE
  5
423
100
AcDbEntity
  8
0
100
AcDbLine
 62
7
  6
CONTINUOUS
 10
14.2267269166
 20
20.3835266961
 11
14.2267269166
 21
20.4285266961
  0
LINE
  5
424
100
AcDbEntity
  8
0
100
AcDbLine
 62
7
  6
CONTINUOUS
 10
14.2267269166
 20
20.4910266961
 11
14.2267269166
 21
20.9255266961
  0
LINE
  5
425
100
AcDbEntity
  8
0
100
AcDbLine
 62
7
  6
CONTINUOUS
 10
14.3047269166
 20
20.0788153713
 11
14.3047269166
 21
20.2466266961
  0
LINE
  5
426
100
AcDbEntity
  8
0
100
AcDbLine
 62
7
  6
CONTINUOUS
 10
14.3772269166
 20
20.2685266961
 11
14.3772269166
 21
20.3185266961
  0
LINE
  5
427
100
AcDbEntity
  8
0
100
AcDbLine
 62
7
  6
CONTINUOUS
 10
14.4822269166
 20
20.3835266961
 11
14.4822269166
 21
20.3185266961
  0
LINE
  5
428
100
AcDbEntity
  8
0
100
AcDbLine
 62
7
  6
CONTINUOUS
 10
14.5855504597
 20
29.2415266961
 11
14.5855504597
 21
29.1765266961
  0
LINE
  5
429
100
AcDbEntity
  8
0
100
AcDbLine
 62
7
  6
CONTINUOUS
 10
14.6805577932
 20
29.2415266961
 11
14.6805577932
 21
29.4215266961
  0
LINE
  5
42A
100
AcDbEntity
  8
0
100
AcDbLine
 62
7
  6
CONTINUOUS
 10
13.0277269166
 20
21.0685266961
 11
13.0077269166
 21
20.9255266961
  0
LINE
  5
42B
100
AcDbEntity
  8
0
100
AcDbLine
 62
3
  6
CONTINUOUS
 10
14.1473806062
 20
29.5055166245
 11
12.2572721823
 21
34.6985468395
  0
LINE
  5
42C
100
AcDbEntity
  8
0
100
AcDbLine
 62
7
  6
CONTINUOUS
 10
14.8055541265
 20
29.2415266961
 11
14.8055541265
 21
29.4215266961
  0
LINE
  5
42D
100
AcDbEntity
  8
0
100
AcDbLine
 62
7
  6
CONTINUOUS
 10
14.8847269166
 20
20.1685266961
 11
14.8847269166
 21
20.3585266961
  0
LINE
  5
42E
100
AcDbEntity
  8
0
100
AcDbLine
 62
7
  6
CONTINUOUS
 10
14.8847269166
 20
22.4685266961
 11
14.8847269166
 21
22.6585266961
  0
LINE
  5
42F
100
AcDbEntity
  8
0
100
AcDbLine
 62
7
  6
CONTINUOUS
 10
14.9429625007
 20
29.1085266961
 11
14.9429625007
 21
29.0435266961
  0
LINE
  5
430
100
AcDbEntity
  8
0
100
AcDbLine
 62
7
  6
CONTINUOUS
 10
15.055546793
 20
29.2415266961
 11
15.055546793
 21
29.4215266961
  0
LINE
  5
431
100
AcDbEntity
  8
0
100
AcDbLine
 62
7
  6
CONTINUOUS
 10
15.1805431263
 20
29.2415266961
 11
15.1805431263
 21
29.4215266961
  0
LINE
  5
432
100
AcDbEntity
  8
0
100
AcDbLine
 62
7
  6
CONTINUOUS
 10
15.2755504597
 20
29.2415266961
 11
15.2755504597
 21
29.1765266961
  0
LINE
  5
433
100
AcDbEntity
  8
0
100
AcDbLine
 62
7
  6
CONTINUOUS
 10
15.4047269166
 20
20.0685266961
 11
15.4047269166
 21
20.4285266961
  0
LINE
  5
434
100
AcDbEntity
  8
0
100
AcDbLine
 62
7
  6
CONTINUOUS
 10
15.4047269166
 20
22.3685266961
 11
15.4047269166
 21
22.7585266961
  0
LINE
  5
435
100
AcDbEntity
  8
0
100
AcDbLine
 62
7
  6
CONTINUOUS
 10
14.0277269166
 20
21.0685266961
 11
14.0077269166
 21
20.9255266961
  0
LINE
  5
436
100
AcDbEntity
  8
0
100
AcDbLine
 62
3
  6
CONTINUOUS
 10
3.416883045
 20
35.3565266961
 11
11.3175707882
 21
35.3565266961
  0
LINE
  5
437
100
AcDbEntity
  8
0
100
AcDbLine
 62
3
  6
CONTINUOUS
 10
17.9796865147
 20
24.6095266961
 11
16.5569195374
 21
28.5185468395
  0
LINE
  5
438
100
AcDbEntity
  8
0
100
AcDbLine
 62
7
  6
CONTINUOUS
 10
16.5872269166
 20
20.4910266961
 11
16.5872269166
 21
20.4285266961
  0
LINE
  5
439
100
AcDbEntity
  8
0
100
AcDbLine
 62
7
  6
CONTINUOUS
 10
13.3042269166
 20
20.0785266961
 11
13.3047269166
 21
20.0788153713
  0
LINE
  5
43A
100
AcDbEntity
  8
0
100
AcDbLine
 62
7
  6
CONTINUOUS
 10
14.3042269166
 20
20.0785266961
 11
14.3047269166
 21
20.0788153713
  0
ARC
  5
43B
100
AcDbEntity
  8
0
100
AcDbCircle
 62
7
  6
CONTINUOUS
 10
-28.5345950063
 20
3.5008319437
 40
0.3993281503
100
AcDbArc
 50
223.6649142478
 51
228.6576625913
  0
CIRCLE
  5
43C
100
AcDbEntity
  8
0
100
AcDbCircle
 62
7
  6
CONTINUOUS
 10
-27.9643469268
 20
-2.4752500118
 40
0.365
  0
CIRCLE
  5
43D
100
AcDbEntity
  8
0
100
AcDbCircle
 62
7
  6
CONTINUOUS
 10
-27.9643469268
 20
-1.4752500118
 40
0.365
  0
ARC
  5
43E
100
AcDbEntity
  8
0
100
AcDbCircle
 62
7
  6
CONTINUOUS
 10
-27.9643469268
 20
-3.526142869
 40
0.3066071429
100
AcDbArc
 50
230.5063267891
 51
309.4936732109
  0
CIRCLE
  5
43F
100
AcDbEntity
  8
0
100
AcDbCircle
 62
7
  6
CONTINUOUS
 10
-27.9643469268
 20
-2.4752500118
 40
0.26
  0
CIRCLE
  5
440
100
AcDbEntity
  8
0
100
AcDbCircle
 62
7
  6
CONTINUOUS
 10
-27.9643469268
 20
-1.4752500118
 40
0.26
  0
CIRCLE
  5
441
100
AcDbEntity
  8
0
100
AcDbCircle
 62
7
  6
CONTINUOUS
 10
-27.9643469268
 20
-2.4752500118
 40
0.187
  0
CIRCLE
  5
442
100
AcDbEntity
  8
0
100
AcDbCircle
 62
7
  6
CONTINUOUS
 10
-27.9643469268
 20
-1.4752500118
 40
0.187
  0
CIRCLE
  5
443
100
AcDbEntity
  8
0
100
AcDbCircle
 62
7
  6
CONTINUOUS
 10
-29.5428943099
 20
0.043013728
 40
0.125
  0
CIRCLE
  5
444
100
AcDbEntity
  8
0
100
AcDbCircle
 62
7
  6
CONTINUOUS
 10
-31.0018670703
 20
0.0939621795
 40
0.125
  0
CIRCLE
  5
445
100
AcDbEntity
  8
0
100
AcDbCircle
 62
7
  6
CONTINUOUS
 10
-31.7287707515
 20
1.7790503099
 40
0.125
  0
CIRCLE
  5
446
100
AcDbEntity
  8
0
100
AcDbCircle
 62
7
  6
CONTINUOUS
 10
-32.8791577606
 20
2.677831145
 40
0.125
  0
CIRCLE
  5
447
100
AcDbEntity
  8
0
100
AcDbCircle
 62
7
  6
CONTINUOUS
 10
-27.9643469268
 20
-0.8929879429
 40
0.125
  0
CIRCLE
  5
448
100
AcDbEntity
  8
0
100
AcDbCircle
 62
7
  6
CONTINUOUS
 10
-27.9643469268
 20
1.4747499882
 40
0.07
  0
CIRCLE
  5
449
100
AcDbEntity
  8
0
100
AcDbCircle
 62
7
  6
CONTINUOUS
 10
-30.6273051724
 20
3.4095024039
 40
0.07
  0
CIRCLE
  5
44A
100
AcDbEntity
  8
0
100
AcDbCircle
 62
7
  6
CONTINUOUS
 10
-27.9643469268
 20
1.4747499882
 40
0.065
  0
CIRCLE
  5
44B
100
AcDbEntity
  8
0
100
AcDbCircle
 62
7
  6
CONTINUOUS
 10
-30.6273051724
 20
3.4095024039
 40
0.065
  0
ARC
  5
44C
100
AcDbEntity
  8
0
100
AcDbCircle
 62
7
  6
CONTINUOUS
 10
-36.4173392436
 20
3.5352089876
 40
0.625
100
AcDbArc
 50
78.9166828378
 51
180.0
  0
ARC
  5
44D
100
AcDbEntity
  8
PARTDTMS
100
AcDbCircle
 62
7
  6
CONTINUOUS
 10
-36.4173392436
 20
3.5352089876
 40
0.28
100
AcDbArc
 50
63.5886160172
 51
310.0917073536
  0
CIRCLE
  5
44E
100
AcDbEntity
  8
0
100
AcDbCircle
 62
7
  6
CONTINUOUS
 10
-36.4173392436
 20
3.5352089876
 40
0.2655
  0
CIRCLE
  5
44F
100
AcDbEntity
  8
0
100
AcDbCircle
 62
7
  6
CONTINUOUS
 10
-36.4173392436
 20
3.5352089876
 40
0.218
  0
CIRCLE
  5
450
100
AcDbEntity
  8
0
100
AcDbCircle
 62
7
  6
CONTINUOUS
 10
-32.47676524
 20
4.4683593431
 40
0.125
  0
CIRCLE
  5
451
100
AcDbEntity
  8
0
100
AcDbCircle
 62
7
  6
CONTINUOUS
 10
-32.8791577606
 20
5.8716688313
 40
0.125
  0
CIRCLE
  5
452
100
AcDbEntity
  8
0
100
AcDbCircle
 62
7
  6
CONTINUOUS
 10
-33.8100184023
 20
7.6497499882
 40
0.365
  0
CIRCLE
  5
453
100
AcDbEntity
  8
0
100
AcDbCircle
 62
7
  6
CONTINUOUS
 10
-32.9439929985
 20
7.1497499882
 40
0.365
  0
ARC
  5
454
100
AcDbEntity
  8
0
100
AcDbCircle
 62
7
  6
CONTINUOUS
 10
-34.6768170431
 20
8.1501964167
 40
0.3066071429
100
AcDbArc
 50
110.5063267891
 51
189.4936732109
  0
CIRCLE
  5
455
100
AcDbEntity
  8
0
100
AcDbCircle
 62
7
  6
CONTINUOUS
 10
-33.8100184023
 20
7.6497499882
 40
0.26
  0
CIRCLE
  5
456
100
AcDbEntity
  8
0
100
AcDbCircle
 62
7
  6
CONTINUOUS
 10
-32.9439929985
 20
7.1497499882
 40
0.26
  0
CIRCLE
  5
457
100
AcDbEntity
  8
0
100
AcDbCircle
 62
7
  6
CONTINUOUS
 10
-33.8100184023
 20
7.6497499882
 40
0.187
  0
CIRCLE
  5
458
100
AcDbEntity
  8
0
100
AcDbCircle
 62
7
  6
CONTINUOUS
 10
-32.9439929985
 20
7.1497499882
 40
0.187
  0
CIRCLE
  5
459
100
AcDbEntity
  8
0
100
AcDbCircle
 62
7
  6
CONTINUOUS
 10
-35.1811862544
 20
6.9014646889
 40
0.135
  0
CIRCLE
  5
45A
100
AcDbEntity
  8
0
100
AcDbCircle
 62
7
  6
CONTINUOUS
 10
-35.1811862544
 20
6.9014646889
 40
0.125
  0
CIRCLE
  5
45B
100
AcDbEntity
  8
0
100
AcDbCircle
 62
7
  6
CONTINUOUS
 10
-28.9643469268
 20
4.2747499882
 40
0.2655
  0
CIRCLE
  5
45C
100
AcDbEntity
  8
0
100
AcDbCircle
 62
7
  6
CONTINUOUS
 10
-28.9643469268
 20
4.2747499882
 40
0.218
  0
CIRCLE
  5
45D
100
AcDbEntity
  8
0
100
AcDbCircle
 62
7
  6
CONTINUOUS
 10
-29.6101456332
 20
6.5399975724
 40
0.07
  0
CIRCLE
  5
45E
100
AcDbEntity
  8
0
100
AcDbCircle
 62
7
  6
CONTINUOUS
 10
-29.6101456332
 20
6.5399975724
 40
0.065
  0
ARC
  5
45F
100
AcDbEntity
  8
0
100
AcDbCircle
 62
7
  6
CONTINUOUS
 10
-28.2593469268
 20
3.7637949999
 40
0.78
100
AcDbArc
 50
223.6783348578
 51
256.3216651422
  0
ARC
  5
460
100
AcDbEntity
  8
0
100
AcDbCircle
 62
7
  6
CONTINUOUS
 10
-27.9643469268
 20
4.2747499882
 40
11.1597378441
100
AcDbArc
 50
308.2901565415
 51
308.9368652212
  0
ARC
  5
461
100
AcDbEntity
  8
0
100
AcDbCircle
 62
7
  6
CONTINUOUS
 10
-27.9643469268
 20
4.2747499882
 40
11.1597378441
100
AcDbArc
 50
328.4898528142
 51
304.2252506366
  0
ARC
  5
462
100
AcDbEntity
  8
0
100
AcDbCircle
 62
7
  6
CONTINUOUS
 10
-27.9643469268
 20
4.2747499882
 40
8.349
100
AcDbArc
 50
306.5108306377
 51
324.105468659
  0
ARC
  5
463
100
AcDbEntity
  8
0
100
AcDbCircle
 62
7
  6
CONTINUOUS
 10
-27.9643469268
 20
4.2747499882
 40
8.349
100
AcDbArc
 50
186.4510891981
 51
303.5203311523
  0
ARC
  5
464
100
AcDbEntity
  8
0
100
AcDbCircle
 62
7
  6
CONTINUOUS
 10
-27.9643469268
 20
4.2747499882
 40
8.349
100
AcDbArc
 50
66.4880421847
 51
183.4850824871
  0
ARC
  5
465
100
AcDbEntity
  8
0
100
AcDbCircle
 62
7
  6
CONTINUOUS
 10
-27.9643469268
 20
4.2747499882
 40
8.349
100
AcDbArc
 50
331.3393967463
 51
63.544100159
  0
CIRCLE
  5
466
100
AcDbEntity
  8
0
100
AcDbCircle
 62
7
  6
CONTINUOUS
 10
-27.9643469268
 20
4.2747499882
 40
5.3779310345
  0
CIRCLE
  5
467
100
AcDbEntity
  8
0
100
AcDbCircle
 62
7
  6
CONTINUOUS
 10
-27.9643469268
 20
4.2747499882
 40
4.1364827586
  0
CIRCLE
  5
468
100
AcDbEntity
  8
0
100
AcDbCircle
 62
7
  6
CONTINUOUS
 10
-27.9643469268
 20
4.2747499882
 40
4.0464827586
  0
ARC
  5
469
100
AcDbEntity
  8
0
100
AcDbCircle
 62
7
  6
CONTINUOUS
 10
-27.9643469268
 20
4.2747499882
 40
1.25
100
AcDbArc
 50
184.7539852488
 51
229.8964730224
  0
ARC
  5
46A
100
AcDbEntity
  8
0
100
AcDbCircle
 62
7
  6
CONTINUOUS
 10
-27.9643469268
 20
4.2747499882
 40
1.25
100
AcDbArc
 50
250.1235393399
 51
295.1891239858
  0
ARC
  5
46B
100
AcDbEntity
  8
0
100
AcDbCircle
 62
7
  6
CONTINUOUS
 10
-27.9643469268
 20
4.2747499882
 40
1.25
100
AcDbArc
 50
304.874742549
 51
55.1335038411
  0
ARC
  5
46C
100
AcDbEntity
  8
0
100
AcDbCircle
 62
7
  6
CONTINUOUS
 10
-27.9643469268
 20
4.2747499882
 40
1.25
100
AcDbArc
 50
64.7353544735
 51
175.4991229413
  0
ARC
  5
46D
100
AcDbEntity
  8
0
100
AcDbCircle
 62
7
  6
CONTINUOUS
 10
-27.9643469268
 20
4.2747499882
 40
1.2368456474
100
AcDbArc
 50
306.3295727514
 51
53.838642764
  0
ARC
  5
46E
100
AcDbEntity
  8
0
100
AcDbCircle
 62
7
  6
CONTINUOUS
 10
-27.9643469268
 20
4.2747499882
 40
1.2368456474
100
AcDbArc
 50
250.2322042645
 51
293.7760638916
  0
ARC
  5
46F
100
AcDbEntity
  8
0
100
AcDbCircle
 62
7
  6
CONTINUOUS
 10
-27.9643469268
 20
4.2747499882
 40
1.2368456474
100
AcDbArc
 50
186.1576446527
 51
229.786641295
  0
ARC
  5
470
100
AcDbEntity
  8
0
100
AcDbCircle
 62
7
  6
CONTINUOUS
 10
-27.9643469268
 20
4.2747499882
 40
1.2368456474
100
AcDbArc
 50
66.1405136236
 51
173.6750871004
  0
ARC
  5
471
100
AcDbEntity
  8
0
100
AcDbCircle
 62
7
  6
CONTINUOUS
 10
-27.9643469268
 20
4.2747499882
 40
0.6380912987
100
AcDbArc
 50
263.0661400609
 51
216.9338599391
  0
ARC
  5
472
100
AcDbEntity
  8
0
100
AcDbCircle
 62
7
  6
CONTINUOUS
 10
-27.9643469268
 20
4.2747499882
 40
0.625
100
AcDbArc
 50
259.7009376039
 51
220.2990623961
  0
ARC
  5
473
100
AcDbEntity
  8
0
100
AcDbCircle
 62
7
  6
CONTINUOUS
 10
-27.9643469268
 20
4.2747499882
 40
0.2505
100
AcDbArc
 50
159.2946517306
 51
230.7053482694
  0
ARC
  5
474
100
AcDbEntity
  8
0
100
AcDbCircle
 62
7
  6
CONTINUOUS
 10
-27.9643469268
 20
4.2747499882
 40
0.25
100
AcDbArc
 50
170.5400806566
 51
162.6871567791
  0
ARC
  5
475
100
AcDbEntity
  8
0
100
AcDbCircle
 62
7
  6
CONTINUOUS
 10
-31.6925937631
 20
9.599238276
 40
0.575
100
AcDbArc
 50
170.0
 51
190.0
  0
ARC
  5
476
100
AcDbEntity
  8
AXIS
100
AcDbCircle
 62
7
  6
CONTINUOUS
 10
-31.6925937631
 20
9.599238276
 40
0.575
100
AcDbArc
 50
350.0
 51
10.0
  0
ARC
  5
477
100
AcDbEntity
  8
0
100
AcDbCircle
 62
7
  6
CONTINUOUS
 10
-31.6925937631
 20
9.599238276
 40
0.575
100
AcDbArc
 50
10.019147818
 51
169.980852182
  0
ARC
  5
478
100
AcDbEntity
  8
0
100
AcDbCircle
 62
7
  6
CONTINUOUS
 10
-31.6925937631
 20
9.599238276
 40
0.575
100
AcDbArc
 50
190.019147818
 51
349.980852182
  0
CIRCLE
  5
479
100
AcDbEntity
  8
AXIS
100
AcDbCircle
 62
7
  6
CONTINUOUS
 10
-31.6925937631
 20
9.599238276
 40
0.545
  0
CIRCLE
  5
47A
100
AcDbEntity
  8
AXIS
100
AcDbCircle
 62
7
  6
CONTINUOUS
 10
-31.6925937631
 20
9.599238276
 40
0.47
  0
CIRCLE
  5
47B
100
AcDbEntity
  8
0
100
AcDbCircle
 62
7
  6
CONTINUOUS
 10
-31.6925937631
 20
9.599238276
 40
0.46
  0
CIRCLE
  5
47C
100
AcDbEntity
  8
0
100
AcDbCircle
 62
7
  6
CONTINUOUS
 10
-31.6925937631
 20
9.599238276
 40
0.41
  0
CIRCLE
  5
47D
100
AcDbEntity
  8
0
100
AcDbCircle
 62
7
  6
CONTINUOUS
 10
-31.5011693044
 20
7.0837161833
 40
0.125
  0
CIRCLE
  5
47E
100
AcDbEntity
  8
0
100
AcDbCircle
 62
7
  6
CONTINUOUS
 10
-31.0018670703
 20
8.4555377969
 40
0.125
  0
CIRCLE
  5
47F
100
AcDbEntity
  8
0
100
AcDbCircle
 62
7
  6
CONTINUOUS
 10
-29.1746274327
 20
8.6261434102
 40
0.125
  0
CIRCLE
  5
480
100
AcDbEntity
  8
0
100
AcDbCircle
 62
7
  6
CONTINUOUS
 10
-27.9643469268
 20
9.4424879192
 40
0.125
  0
CIRCLE
  5
481
100
AcDbEntity
  8
0
100
AcDbCircle
 62
7
  6
CONTINUOUS
 10
-27.9643469268
 20
7.0770499882
 40
0.065
  0
ARC
  5
482
100
AcDbEntity
  8
0
100
AcDbCircle
 62
7
  6
CONTINUOUS
 10
-23.0973894747
 20
-2.6759855959
 40
0.625
100
AcDbArc
 50
0.0
 51
51.6587576491
  0
ARC
  5
483
100
AcDbEntity
  8
PARTDTMS
100
AcDbCircle
 62
7
  6
CONTINUOUS
 10
-23.0973894747
 20
-2.6759855959
 40
0.28
100
AcDbArc
 50
181.2068382817
 51
67.4676305242
  0
CIRCLE
  5
484
100
AcDbEntity
  8
0
100
AcDbCircle
 62
7
  6
CONTINUOUS
 10
-27.4643469268
 20
3.4087245844
 40
0.2655
  0
CIRCLE
  5
485
100
AcDbEntity
  8
0
100
AcDbCircle
 62
7
  6
CONTINUOUS
 10
-23.0973894747
 20
-2.6759855959
 40
0.2655
  0
CIRCLE
  5
486
100
AcDbEntity
  8
0
100
AcDbCircle
 62
7
  6
CONTINUOUS
 10
-27.4643469268
 20
3.4087245844
 40
0.218
  0
CIRCLE
  5
487
100
AcDbEntity
  8
0
100
AcDbCircle
 62
7
  6
CONTINUOUS
 10
-23.0973894747
 20
-2.6759855959
 40
0.218
  0
CIRCLE
  5
488
100
AcDbEntity
  8
0
100
AcDbCircle
 62
7
  6
CONTINUOUS
 10
-26.6307289223
 20
-3.288573555
 40
0.135
  0
CIRCLE
  5
489
100
AcDbEntity
  8
0
100
AcDbCircle
 62
7
  6
CONTINUOUS
 10
-23.049536093
 20
2.677831145
 40
0.125
  0
CIRCLE
  5
48A
100
AcDbEntity
  8
0
100
AcDbCircle
 62
7
  6
CONTINUOUS
 10
-24.4275245491
 20
1.4657837931
 40
0.125
  0
CIRCLE
  5
48B
100
AcDbEntity
  8
0
100
AcDbCircle
 62
7
  6
CONTINUOUS
 10
-24.9268267832
 20
0.0939621795
 40
0.125
  0
CIRCLE
  5
48C
100
AcDbEntity
  8
0
100
AcDbCircle
 62
7
  6
CONTINUOUS
 10
-26.7540664208
 20
-0.0766434339
 40
0.125
  0
CIRCLE
  5
48D
100
AcDbEntity
  8
0
100
AcDbCircle
 62
7
  6
CONTINUOUS
 10
-25.3013886811
 20
3.4095024039
 40
0.07
  0
CIRCLE
  5
48E
100
AcDbEntity
  8
0
100
AcDbCircle
 62
7
  6
CONTINUOUS
 10
-25.3013886811
 20
3.4095024039
 40
0.065
  0
ARC
  5
48F
100
AcDbEntity
  8
0
100
AcDbCircle
 62
7
  6
CONTINUOUS
 10
-21.1143469268
 20
-4.8952500118
 40
0.05
100
AcDbArc
 50
270.0
 51
360.0
  0
ARC
  5
490
100
AcDbEntity
  8
0
100
AcDbCircle
 62
7
  6
CONTINUOUS
 10
-22.2643469268
 20
-4.8952500118
 40
0.05
100
AcDbArc
 50
180.0
 51
270.0
  0
ARC
  5
491
100
AcDbEntity
  8
0
100
AcDbCircle
 62
7
  6
CONTINUOUS
 10
-22.2643469268
 20
-2.9952500118
 40
0.05
100
AcDbArc
 50
90.0
 51
180.0
  0
ARC
  5
492
100
AcDbEntity
  8
0
100
AcDbCircle
 62
7
  6
CONTINUOUS
 10
-21.1143469268
 20
-2.9952500118
 40
0.05
100
AcDbArc
 50
0.0
 51
90.0
  0
ARC
  5
493
100
AcDbEntity
  8
0
100
AcDbCircle
 62
7
  6
CONTINUOUS
 10
-18.5143469268
 20
-1.2952500118
 40
0.05
100
AcDbArc
 50
270.0
 51
360.0
  0
ARC
  5
494
100
AcDbEntity
  8
0
100
AcDbCircle
 62
7
  6
CONTINUOUS
 10
-21.1643469268
 20
-1.2952500118
 40
0.05
100
AcDbArc
 50
180.0
 51
270.0
  0
ARC
  5
495
100
AcDbEntity
  8
0
100
AcDbCircle
 62
7
  6
CONTINUOUS
 10
-21.1643469268
 20
0.2247499882
 40
0.05
100
AcDbArc
 50
90.0
 51
180.0
  0
ARC
  5
496
100
AcDbEntity
  8
0
100
AcDbCircle
 62
7
  6
CONTINUOUS
 10
-18.5143469268
 20
0.2247499882
 40
0.05
100
AcDbArc
 50
0.0
 51
90.0
  0
CIRCLE
  5
497
100
AcDbEntity
  8
0
100
AcDbCircle
 62
7
  6
CONTINUOUS
 10
-27.4643469268
 20
5.140775392
 40
0.2655
  0
CIRCLE
  5
498
100
AcDbEntity
  8
0
100
AcDbCircle
 62
7
  6
CONTINUOUS
 10
-27.4643469268
 20
5.140775392
 40
0.218
  0
CIRCLE
  5
499
100
AcDbEntity
  8
0
100
AcDbCircle
 62
7
  6
CONTINUOUS
 10
-26.3185482204
 20
6.5399975724
 40
0.07
  0
CIRCLE
  5
49A
100
AcDbEntity
  8
0
100
AcDbCircle
 62
7
  6
CONTINUOUS
 10
-26.3185482204
 20
6.5399975724
 40
0.065
  0
ARC
  5
49B
100
AcDbEntity
  8
0
100
AcDbCircle
 62
7
  6
CONTINUOUS
 10
-24.378312062
 20
11.9650265728
 40
0.625
100
AcDbArc
 50
319.5825405381
 51
360.0
  0
ARC
  5
49C
100
AcDbEntity
  8
PARTDTMS
100
AcDbCircle
 62
7
  6
CONTINUOUS
 10
-24.378312062
 20
11.9650265728
 40
0.28
100
AcDbArc
 50
300.0330023833
 51
188.1537401189
  0
CIRCLE
  5
49D
100
AcDbEntity
  8
0
100
AcDbCircle
 62
7
  6
CONTINUOUS
 10
-24.378312062
 20
11.9650265728
 40
0.2655
  0
CIRCLE
  5
49E
100
AcDbEntity
  8
0
100
AcDbCircle
 62
7
  6
CONTINUOUS
 10
-24.378312062
 20
11.9650265728
 40
0.218
  0
CIRCLE
  5
49F
100
AcDbEntity
  8
0
100
AcDbCircle
 62
7
  6
CONTINUOUS
 10
-26.3857995436
 20
8.5064862483
 40
0.125
  0
CIRCLE
  5
4A0
100
AcDbEntity
  8
0
100
AcDbCircle
 62
7
  6
CONTINUOUS
 10
-24.9268267832
 20
8.4555377969
 40
0.125
  0
CIRCLE
  5
4A1
100
AcDbEntity
  8
0
100
AcDbCircle
 62
7
  6
CONTINUOUS
 10
-22.1186754512
 20
7.6497499882
 40
0.365
  0
CIRCLE
  5
4A2
100
AcDbEntity
  8
0
100
AcDbCircle
 62
7
  6
CONTINUOUS
 10
-22.984700855
 20
7.1497499882
 40
0.365
  0
CIRCLE
  5
4A3
100
AcDbEntity
  8
0
100
AcDbCircle
 62
7
  6
CONTINUOUS
 10
-22.1186754512
 20
7.6497499882
 40
0.26
  0
CIRCLE
  5
4A4
100
AcDbEntity
  8
0
100
AcDbCircle
 62
7
  6
CONTINUOUS
 10
-22.984700855
 20
7.1497499882
 40
0.26
  0
CIRCLE
  5
4A5
100
AcDbEntity
  8
0
100
AcDbCircle
 62
7
  6
CONTINUOUS
 10
-22.1186754512
 20
7.6497499882
 40
0.187
  0
CIRCLE
  5
4A6
100
AcDbEntity
  8
0
100
AcDbCircle
 62
7
  6
CONTINUOUS
 10
-22.984700855
 20
7.1497499882
 40
0.187
  0
CIRCLE
  5
4A7
100
AcDbEntity
  8
0
100
AcDbCircle
 62
7
  6
CONTINUOUS
 10
-24.1999231021
 20
6.7704496665
 40
0.125
  0
CIRCLE
  5
4A8
100
AcDbEntity
  8
0
100
AcDbCircle
 62
7
  6
CONTINUOUS
 10
-23.049536093
 20
5.8716688313
 40
0.125
  0
CIRCLE
  5
4A9
100
AcDbEntity
  8
0
100
AcDbCircle
 62
7
  6
CONTINUOUS
 10
-23.4519286135
 20
4.0811406333
 40
0.125
  0
ARC
  5
4AA
100
AcDbEntity
  8
0
100
AcDbCircle
 62
7
  6
CONTINUOUS
 10
-21.2518768105
 20
8.1501964167
 40
0.3066071429
100
AcDbArc
 50
350.5063267891
 51
69.4936732109
  0
CIRCLE
  5
4AB
100
AcDbEntity
  8
0
100
AcDbCircle
 62
7
  6
CONTINUOUS
 10
-22.0811256036
 20
9.2113588306
 40
0.135
  0
CIRCLE
  5
4AC
100
AcDbEntity
  8
0
100
AcDbCircle
 62
7
  6
CONTINUOUS
 10
-22.0811256036
 20
9.2113588306
 40
0.125
  0
ARC
  5
4AD
100
AcDbEntity
  8
0
100
AcDbCircle
 62
7
  6
CONTINUOUS
 10
-34.6768168547
 20
20.2635267414
 40
0.3066073313
100
AcDbArc
 50
153.0089741008
 51
206.9911690151
  0
ARC
  5
4AE
100
AcDbEntity
  8
0
100
AcDbCircle
 62
7
  6
CONTINUOUS
 10
-34.6768168547
 20
22.5635267414
 40
0.3066073313
100
AcDbArc
 50
153.0089741008
 51
206.9911690151
  0
ARC
  5
4AF
100
AcDbEntity
  8
0
100
AcDbCircle
 62
7
  6
CONTINUOUS
 10
-38.8710847709
 20
24.3565266961
 40
0.253
100
AcDbArc
 50
90.0
 51
270.0
  0
ARC
  5
4B0
100
AcDbEntity
  8
0
100
AcDbCircle
 62
7
  6
CONTINUOUS
 10
-32.47676524
 20
22.9688391961
 40
0.2153125
100
AcDbArc
 50
234.5106567499
 51
305.4893432501
  0
ARC
  5
4B1
100
AcDbEntity
  8
0
100
AcDbCircle
 62
7
  6
CONTINUOUS
 10
-32.8791577606
 20
22.9688391961
 40
0.2153125
100
AcDbArc
 50
234.5106567499
 51
305.4893432501
  0
ARC
  5
4B2
100
AcDbEntity
  8
0
100
AcDbCircle
 62
7
  6
CONTINUOUS
 10
-31.0018670703
 20
22.9688391961
 40
0.2153125
100
AcDbArc
 50
234.5106567499
 51
305.4893432501
  0
ARC
  5
4B3
100
AcDbEntity
  8
0
100
AcDbCircle
 62
7
  6
CONTINUOUS
 10
-29.1746274327
 20
22.9688391961
 40
0.2153125
100
AcDbArc
 50
234.5106567499
 51
305.4893432501
  0
ARC
  5
4B4
100
AcDbEntity
  8
0
100
AcDbCircle
 62
7
  6
CONTINUOUS
 10
-33.9693132093
 20
20.1768376699
 40
0.0983349364
100
AcDbArc
 50
254.353559472
 51
255.324587215
  0
ARC
  5
4B5
100
AcDbEntity
  8
0
100
AcDbCircle
 62
7
  6
CONTINUOUS
 10
-28.1236417338
 20
20.1768376698
 40
0.0983349363
100
AcDbArc
 50
254.3535594714
 51
255.3245872153
  0
ARC
  5
4B6
100
AcDbEntity
  8
0
100
AcDbCircle
 62
7
  6
CONTINUOUS
 10
-33.1032878055
 20
20.1768376698
 40
0.0983349363
100
AcDbArc
 50
254.3535594715
 51
255.3245872155
  0
ARC
  5
4B7
100
AcDbEntity
  8
0
100
AcDbCircle
 62
3
  6
CONTINUOUS
 10
-31.9146995717
 20
34.3565266961
 40
1.0
100
AcDbArc
 50
90.0
 51
160.0
  0
ARC
  5
4B8
100
AcDbEntity
  8
0
100
AcDbCircle
 62
3
  6
CONTINUOUS
 10
-36.2143469268
 20
28.1765266961
 40
1.0
100
AcDbArc
 50
90.0
 51
160.0
  0
ARC
  5
4B9
100
AcDbEntity
  8
0
100
AcDbCircle
 62
3
  6
CONTINUOUS
 10
-35.2143469268
 20
29.6765266961
 40
0.5
100
AcDbArc
 50
299.8310233096
 51
340.0
  0
ARC
  5
4BA
100
AcDbEntity
  8
AXIS
100
AcDbCircle
 62
7
  6
CONTINUOUS
 10
-35.1811862544
 20
29.4215266961
 40
0.2
100
AcDbArc
 50
0.0
 51
180.0
  0
ARC
  5
4BB
100
AcDbEntity
  8
0
100
AcDbCircle
 62
7
  6
CONTINUOUS
 10
-21.2518769989
 20
20.2635266509
 40
0.3066073313
100
AcDbArc
 50
333.0089741002
 51
26.9911690151
  0
ARC
  5
4BC
100
AcDbEntity
  8
0
100
AcDbCircle
 62
7
  6
CONTINUOUS
 10
-21.2518769989
 20
22.5635266509
 40
0.3066073313
100
AcDbArc
 50
333.0089741002
 51
26.9911690151
  0
ARC
  5
4BD
100
AcDbEntity
  8
0
100
AcDbCircle
 62
7
  6
CONTINUOUS
 10
-17.0576090826
 20
24.3565266961
 40
0.253
100
AcDbArc
 50
270.0
 51
90.0
  0
ARC
  5
4BE
100
AcDbEntity
  8
0
100
AcDbCircle
 62
7
  6
CONTINUOUS
 10
-23.4519286135
 20
22.9688391961
 40
0.2153125
100
AcDbArc
 50
234.5106567499
 51
305.4893432501
  0
ARC
  5
4BF
100
AcDbEntity
  8
0
100
AcDbCircle
 62
7
  6
CONTINUOUS
 10
-23.049536093
 20
22.9688391961
 40
0.2153125
100
AcDbArc
 50
234.5106567499
 51
305.4893432501
  0
ARC
  5
4C0
100
AcDbEntity
  8
0
100
AcDbCircle
 62
7
  6
CONTINUOUS
 10
-24.1999231021
 20
22.9688391961
 40
0.2153125
100
AcDbArc
 50
234.5106567499
 51
305.4893432501
  0
ARC
  5
4C1
100
AcDbEntity
  8
0
100
AcDbCircle
 62
7
  6
CONTINUOUS
 10
-24.9268267832
 20
22.9688391961
 40
0.2153125
100
AcDbArc
 50
234.5106567499
 51
305.4893432501
  0
ARC
  5
4C2
100
AcDbEntity
  8
0
100
AcDbCircle
 62
7
  6
CONTINUOUS
 10
-26.3857995436
 20
22.9688391961
 40
0.2153125
100
AcDbArc
 50
234.5106567499
 51
305.4893432501
  0
ARC
  5
4C3
100
AcDbEntity
  8
0
100
AcDbCircle
 62
7
  6
CONTINUOUS
 10
-27.9643469268
 20
22.9688391961
 40
0.2153125
100
AcDbArc
 50
234.5106567499
 51
305.4893432501
  0
ARC
  5
4C4
100
AcDbEntity
  8
0
100
AcDbCircle
 62
7
  6
CONTINUOUS
 10
-27.9643469268
 20
22.5635266961
 40
0.195
100
AcDbArc
 50
239.6975552136
 51
300.3024447864
  0
ARC
  5
4C5
100
AcDbEntity
  8
0
100
AcDbCircle
 62
7
  6
CONTINUOUS
 10
-27.9643469268
 20
20.2635266961
 40
0.195
100
AcDbArc
 50
38.0832769074
 51
55.7784219345
  0
ARC
  5
4C6
100
AcDbEntity
  8
0
100
AcDbCircle
 62
7
  6
CONTINUOUS
 10
-27.9643469268
 20
20.2635266961
 40
0.195
100
AcDbArc
 50
124.2215780655
 51
141.9167230926
  0
ARC
  5
4C7
100
AcDbEntity
  8
0
100
AcDbCircle
 62
7
  6
CONTINUOUS
 10
-27.9643469268
 20
20.2635266961
 40
0.195
100
AcDbArc
 50
251.8709390998
 51
288.1290609002
  0
ARC
  5
4C8
100
AcDbEntity
  8
0
100
AcDbCircle
 62
7
  6
CONTINUOUS
 10
-23.143995662
 20
20.1768376699
 40
0.0983349365
100
AcDbArc
 50
254.3535594722
 51
255.3245872147
  0
ARC
  5
4C9
100
AcDbEntity
  8
0
100
AcDbCircle
 62
7
  6
CONTINUOUS
 10
-22.2779702582
 20
20.1768376697
 40
0.0983349363
100
AcDbArc
 50
254.3535594713
 51
255.3245872156
  0
ARC
  5
4CA
100
AcDbEntity
  8
0
100
AcDbCircle
 62
3
  6
CONTINUOUS
 10
-19.7143469268
 20
28.1765266961
 40
1.0
100
AcDbArc
 50
20.0
 51
90.0
  0
ARC
  5
4CB
100
AcDbEntity
  8
0
100
AcDbCircle
 62
3
  6
CONTINUOUS
 10
-24.0139942818
 20
34.3565266961
 40
1.0
100
AcDbArc
 50
20.0
 51
90.0
  0
ARC
  5
4CC
100
AcDbEntity
  8
0
100
AcDbCircle
 62
3
  6
CONTINUOUS
 10
-20.7143469268
 20
29.6765266961
 40
0.5
100
AcDbArc
 50
200.0
 51
270.0
  0
ARC
  5
4CD
100
AcDbEntity
  8
AXIS
100
AcDbCircle
 62
7
  6
CONTINUOUS
 10
-22.0811256036
 20
29.4215266961
 40
0.2
100
AcDbArc
 50
0.0
 51
180.0
  0
ARC
  5
4CE
100
AcDbEntity
  8
0
100
AcDbCircle
 62
7
  6
CONTINUOUS
 10
-3.5395109275
 20
24.3565266961
 40
0.253
100
AcDbArc
 50
90.0
 51
270.0
  0
ARC
  5
4CF
100
AcDbEntity
  8
0
100
AcDbCircle
 62
7
  6
CONTINUOUS
 10
3.0158334946
 20
22.9688391961
 40
0.2153125
100
AcDbArc
 50
234.5106567499
 51
286.1601438523
  0
ARC
  5
4D0
100
AcDbEntity
  8
0
100
AcDbCircle
 62
7
  6
CONTINUOUS
 10
2.1994889856
 20
22.9688391961
 40
0.2153125
100
AcDbArc
 50
234.5106567499
 51
305.4893432501
  0
ARC
  5
4D1
100
AcDbEntity
  8
0
100
AcDbCircle
 62
7
  6
CONTINUOUS
 10
3.1354906565
 20
22.9688391961
 40
0.2153125
100
AcDbArc
 50
234.5106567499
 51
276.7961940475
  0
ARC
  5
4D2
100
AcDbEntity
  8
0
100
AcDbCircle
 62
7
  6
CONTINUOUS
 10
3.1864391079
 20
22.9688391961
 40
0.2153125
100
AcDbArc
 50
234.5106567499
 51
305.4893432501
  0
ARC
  5
4D3
100
AcDbEntity
  8
0
100
AcDbCircle
 62
7
  6
CONTINUOUS
 10
4.8715272383
 20
22.9688391961
 40
0.2153125
100
AcDbArc
 50
234.5106567499
 51
305.4893432501
  0
ARC
  5
4D4
100
AcDbEntity
  8
0
100
AcDbCircle
 62
7
  6
CONTINUOUS
 10
5.7703080734
 20
22.9688391961
 40
0.2153125
100
AcDbArc
 50
234.5106567499
 51
305.4893432501
  0
ARC
  5
4D5
100
AcDbEntity
  8
0
100
AcDbCircle
 62
7
  6
CONTINUOUS
 10
4.2828269166
 20
20.2466266961
 40
0.0219
100
AcDbArc
 50
0.0
 51
90.0
  0
ARC
  5
4D6
100
AcDbEntity
  8
0
100
AcDbCircle
 62
7
  6
CONTINUOUS
 10
4.7016269166
 20
20.2466266961
 40
0.0219
100
AcDbArc
 50
90.0
 51
180.0
  0
ARC
  5
4D7
100
AcDbEntity
  8
0
100
AcDbCircle
 62
7
  6
CONTINUOUS
 10
3.7828269166
 20
20.2466266961
 40
0.0219
100
AcDbArc
 50
0.0
 51
90.0
  0
ARC
  5
4D8
100
AcDbEntity
  8
0
100
AcDbCircle
 62
7
  6
CONTINUOUS
 10
4.2016269166
 20
20.2466266961
 40
0.0219
100
AcDbArc
 50
90.0
 51
180.0
  0
ARC
  5
4D9
100
AcDbEntity
  8
0
100
AcDbCircle
 62
3
  6
CONTINUOUS
 10
-0.8827730834
 20
28.1765266961
 40
1.0
100
AcDbArc
 50
90.0
 51
160.0
  0
ARC
  5
4DA
100
AcDbEntity
  8
0
100
AcDbCircle
 62
3
  6
CONTINUOUS
 10
3.4168742717
 20
34.3565266961
 40
1.0
100
AcDbArc
 50
90.0
 51
160.0
  0
ARC
  5
4DB
100
AcDbEntity
  8
0
100
AcDbCircle
 62
3
  6
CONTINUOUS
 10
0.1172269166
 20
29.6765266961
 40
0.5
100
AcDbArc
 50
270.0
 51
340.0
  0
ARC
  5
4DC
100
AcDbEntity
  8
AXIS
100
AcDbCircle
 62
7
  6
CONTINUOUS
 10
2.4306180742
 20
29.4215266961
 40
0.2
100
AcDbArc
 50
0.0
 51
180.0
  0
ARC
  5
4DD
100
AcDbEntity
  8
0
100
AcDbCircle
 62
7
  6
CONTINUOUS
 10
15.1681197737
 20
22.5635266961
 40
0.3066071429
100
AcDbArc
 50
320.5063267891
 51
39.4936732109
  0
ARC
  5
4DE
100
AcDbEntity
  8
0
100
AcDbCircle
 62
7
  6
CONTINUOUS
 10
15.1681197737
 20
20.2635266961
 40
0.3066071429
100
AcDbArc
 50
320.5063267891
 51
32.5689103902
  0
ARC
  5
4DF
100
AcDbEntity
  8
0
100
AcDbCircle
 62
7
  6
CONTINUOUS
 10
18.2739647607
 20
24.3565266961
 40
0.253
100
AcDbArc
 50
270.0
 51
90.0
  0
ARC
  5
4E0
100
AcDbEntity
  8
0
100
AcDbCircle
 62
7
  6
CONTINUOUS
 10
11.5989631767
 20
22.9688391961
 40
0.2153125
100
AcDbArc
 50
263.2038059525
 51
286.1601438523
  0
ARC
  5
4E1
100
AcDbEntity
  8
0
100
AcDbCircle
 62
7
  6
CONTINUOUS
 10
12.5349648476
 20
22.9688391961
 40
0.2153125
100
AcDbArc
 50
234.5106567499
 51
305.4893432501
  0
ARC
  5
4E2
100
AcDbEntity
  8
0
100
AcDbCircle
 62
7
  6
CONTINUOUS
 10
11.7186203386
 20
22.9688391961
 40
0.2153125
100
AcDbArc
 50
246.6193427317
 51
305.4893432501
  0
ARC
  5
4E3
100
AcDbEntity
  8
0
100
AcDbCircle
 62
7
  6
CONTINUOUS
 10
11.5480147253
 20
22.9688391961
 40
0.2153125
100
AcDbArc
 50
234.5106567499
 51
305.4893432501
  0
ARC
  5
4E4
100
AcDbEntity
  8
0
100
AcDbCircle
 62
7
  6
CONTINUOUS
 10
10.1761931117
 20
22.9688391961
 40
0.2153125
100
AcDbArc
 50
234.5106567499
 51
305.4893432501
  0
ARC
  5
4E5
100
AcDbEntity
  8
0
100
AcDbCircle
 62
7
  6
CONTINUOUS
 10
7.5608362715
 20
22.9688391961
 40
0.2153125
100
AcDbArc
 50
234.5106567499
 51
305.4893432501
  0
ARC
  5
4E6
100
AcDbEntity
  8
0
100
AcDbCircle
 62
7
  6
CONTINUOUS
 10
8.9641457598
 20
22.9688391961
 40
0.2153125
100
AcDbArc
 50
234.5106567499
 51
305.4893432501
  0
ARC
  5
4E7
100
AcDbEntity
  8
0
100
AcDbCircle
 62
7
  6
CONTINUOUS
 10
12.9078269166
 20
20.2466266961
 40
0.0219
100
AcDbArc
 50
0.0
 51
90.0
  0
ARC
  5
4E8
100
AcDbEntity
  8
0
100
AcDbCircle
 62
7
  6
CONTINUOUS
 10
13.3266269166
 20
20.2466266961
 40
0.0219
100
AcDbArc
 50
90.0
 51
180.0
  0
ARC
  5
4E9
100
AcDbEntity
  8
0
100
AcDbCircle
 62
7
  6
CONTINUOUS
 10
13.9078269166
 20
20.2466266961
 40
0.0219
100
AcDbArc
 50
0.0
 51
90.0
  0
ARC
  5
4EA
100
AcDbEntity
  8
0
100
AcDbCircle
 62
7
  6
CONTINUOUS
 10
14.3266269166
 20
20.2466266961
 40
0.0219
100
AcDbArc
 50
90.0
 51
180.0
  0
ARC
  5
4EB
100
AcDbEntity
  8
0
100
AcDbCircle
 62
3
  6
CONTINUOUS
 10
11.3175795615
 20
34.3565266961
 40
1.0
100
AcDbArc
 50
20.0
 51
90.0
  0
ARC
  5
4EC
100
AcDbEntity
  8
0
100
AcDbCircle
 62
3
  6
CONTINUOUS
 10
15.6172269166
 20
28.1765266961
 40
1.0
100
AcDbArc
 50
20.0
 51
90.0
  0
ARC
  5
4ED
100
AcDbEntity
  8
0
100
AcDbCircle
 62
3
  6
CONTINUOUS
 10
14.6172269166
 20
29.6765266961
 40
0.5
100
AcDbArc
 50
200.0
 51
266.3882234634
  0
ARC
  5
4EE
100
AcDbEntity
  8
AXIS
100
AcDbCircle
 62
7
  6
CONTINUOUS
 10
14.9305504597
 20
29.4215266961
 40
0.2
100
AcDbArc
 50
0.0
 51
180.0
  0
LINE
  5
4EF
100
AcDbEntity
  8
0
100
AcDbLine
 62
7
  6
CONTINUOUS
 10
-22.0104222758
 20
7.8372499882
 11
-21.9977783049
 21
7.8591499882
  0
LINE
  5
4F0
100
AcDbEntity
  8
0
100
AcDbLine
 62
7
  6
CONTINUOUS
 10
-21.9021691003
 20
7.6497499882
 11
-21.8768811585
 21
7.6497499882
  0
LINE
  5
4F1
100
AcDbEntity
  8
0
100
AcDbLine
 62
7
  6
CONTINUOUS
 10
-22.2269286267
 20
7.8372499882
 11
-22.2395725976
 21
7.8591499882
  0
LINE
  5
4F2
100
AcDbEntity
  8
0
100
AcDbLine
 62
7
  6
CONTINUOUS
 10
-22.3351818022
 20
7.6497499882
 11
-22.360469744
 21
7.6497499882
  0
LINE
  5
4F3
100
AcDbEntity
  8
0
100
AcDbLine
 62
7
  6
CONTINUOUS
 10
-22.2269286267
 20
7.4622499882
 11
-22.2395725976
 21
7.4403499882
  0
LINE
  5
4F4
100
AcDbEntity
  8
0
100
AcDbLine
 62
7
  6
CONTINUOUS
 10
-22.0104222758
 20
7.4622499882
 11
-21.9977783049
 21
7.4403499882
  0
LINE
  5
4F5
100
AcDbEntity
  8
0
100
AcDbLine
 62
7
  6
CONTINUOUS
 10
-33.7017652268
 20
7.8372499882
 11
-33.6891212559
 21
7.8591499882
  0
LINE
  5
4F6
100
AcDbEntity
  8
0
100
AcDbLine
 62
7
  6
CONTINUOUS
 10
-33.5935120514
 20
7.6497499882
 11
-33.5682241096
 21
7.6497499882
  0
LINE
  5
4F7
100
AcDbEntity
  8
0
100
AcDbLine
 62
7
  6
CONTINUOUS
 10
-33.9182715778
 20
7.8372499882
 11
-33.9309155487
 21
7.8591499882
  0
LINE
  5
4F8
100
AcDbEntity
  8
0
100
AcDbLine
 62
7
  6
CONTINUOUS
 10
-34.0265247533
 20
7.6497499882
 11
-34.0518126951
 21
7.6497499882
  0
LINE
  5
4F9
100
AcDbEntity
  8
0
100
AcDbLine
 62
7
  6
CONTINUOUS
 10
-33.9182715778
 20
7.4622499882
 11
-33.9309155487
 21
7.4403499882
  0
LINE
  5
4FA
100
AcDbEntity
  8
0
100
AcDbLine
 62
7
  6
CONTINUOUS
 10
-33.7017652268
 20
7.4622499882
 11
-33.6891212559
 21
7.4403499882
  0
LINE
  5
4FB
100
AcDbEntity
  8
0
100
AcDbLine
 62
7
  6
CONTINUOUS
 10
-27.8560937513
 20
-2.2877500118
 11
-27.8434497804
 21
-2.2658500118
  0
LINE
  5
4FC
100
AcDbEntity
  8
0
100
AcDbLine
 62
7
  6
CONTINUOUS
 10
-27.7478405758
 20
-2.4752500118
 11
-27.722552634
 21
-2.4752500118
  0
LINE
  5
4FD
100
AcDbEntity
  8
0
100
AcDbLine
 62
7
  6
CONTINUOUS
 10
-28.0726001022
 20
-2.2877500118
 11
-28.0852440731
 21
-2.2658500118
  0
LINE
  5
4FE
100
AcDbEntity
  8
0
100
AcDbLine
 62
7
  6
CONTINUOUS
 10
-28.1808532777
 20
-2.4752500118
 11
-28.2061412195
 21
-2.4752500118
  0
LINE
  5
4FF
100
AcDbEntity
  8
0
100
AcDbLine
 62
7
  6
CONTINUOUS
 10
-28.0726001022
 20
-2.6627500118
 11
-28.0852440731
 21
-2.6846500118
  0
LINE
  5
500
100
AcDbEntity
  8
0
100
AcDbLine
 62
7
  6
CONTINUOUS
 10
-27.8560937513
 20
-2.6627500118
 11
-27.8434497804
 21
-2.6846500118
  0
LINE
  5
501
100
AcDbEntity
  8
0
100
AcDbLine
 62
7
  6
CONTINUOUS
 10
-32.8357398231
 20
7.3372499882
 11
-32.8230958522
 21
7.3591499882
  0
LINE
  5
502
100
AcDbEntity
  8
0
100
AcDbLine
 62
7
  6
CONTINUOUS
 10
-32.7274866476
 20
7.1497499882
 11
-32.7021987058
 21
7.1497499882
  0
LINE
  5
503
100
AcDbEntity
  8
0
100
AcDbLine
 62
7
  6
CONTINUOUS
 10
-33.052246174
 20
7.3372499882
 11
-33.0648901449
 21
7.3591499882
  0
LINE
  5
504
100
AcDbEntity
  8
0
100
AcDbLine
 62
7
  6
CONTINUOUS
 10
-33.1604993495
 20
7.1497499882
 11
-33.1857872913
 21
7.1497499882
  0
LINE
  5
505
100
AcDbEntity
  8
0
100
AcDbLine
 62
7
  6
CONTINUOUS
 10
-33.052246174
 20
6.9622499882
 11
-33.0648901449
 21
6.9403499882
  0
LINE
  5
506
100
AcDbEntity
  8
0
100
AcDbLine
 62
7
  6
CONTINUOUS
 10
-32.8357398231
 20
6.9622499882
 11
-32.8230958522
 21
6.9403499882
  0
LINE
  5
507
100
AcDbEntity
  8
0
100
AcDbLine
 62
7
  6
CONTINUOUS
 10
-22.8764476795
 20
7.3372499882
 11
-22.8638037086
 21
7.3591499882
  0
LINE
  5
508
100
AcDbEntity
  8
0
100
AcDbLine
 62
7
  6
CONTINUOUS
 10
-22.7681945041
 20
7.1497499882
 11
-22.7429065623
 21
7.1497499882
  0
LINE
  5
509
100
AcDbEntity
  8
0
100
AcDbLine
 62
7
  6
CONTINUOUS
 10
-23.0929540305
 20
7.3372499882
 11
-23.1055980014
 21
7.3591499882
  0
LINE
  5
50A
100
AcDbEntity
  8
0
100
AcDbLine
 62
7
  6
CONTINUOUS
 10
-23.201207206
 20
7.1497499882
 11
-23.2264951477
 21
7.1497499882
  0
LINE
  5
50B
100
AcDbEntity
  8
0
100
AcDbLine
 62
7
  6
CONTINUOUS
 10
-23.0929540305
 20
6.9622499882
 11
-23.1055980014
 21
6.9403499882
  0
LINE
  5
50C
100
AcDbEntity
  8
0
100
AcDbLine
 62
7
  6
CONTINUOUS
 10
-22.8764476795
 20
6.9622499882
 11
-22.8638037086
 21
6.9403499882
  0
LINE
  5
50D
100
AcDbEntity
  8
0
100
AcDbLine
 62
7
  6
CONTINUOUS
 10
-27.8560937513
 20
-1.2877500118
 11
-27.8434497804
 21
-1.2658500118
  0
LINE
  5
50E
100
AcDbEntity
  8
0
100
AcDbLine
 62
7
  6
CONTINUOUS
 10
-27.7478405758
 20
-1.4752500118
 11
-27.722552634
 21
-1.4752500118
  0
LINE
  5
50F
100
AcDbEntity
  8
0
100
AcDbLine
 62
7
  6
CONTINUOUS
 10
-28.0726001022
 20
-1.2877500118
 11
-28.0852440731
 21
-1.2658500118
  0
LINE
  5
510
100
AcDbEntity
  8
0
100
AcDbLine
 62
7
  6
CONTINUOUS
 10
-28.1808532777
 20
-1.4752500118
 11
-28.2061412195
 21
-1.4752500118
  0
LINE
  5
511
100
AcDbEntity
  8
0
100
AcDbLine
 62
7
  6
CONTINUOUS
 10
-28.0726001022
 20
-1.6627500118
 11
-28.0852440731
 21
-1.6846500118
  0
LINE
  5
512
100
AcDbEntity
  8
0
100
AcDbLine
 62
7
  6
CONTINUOUS
 10
-27.8560937513
 20
-1.6627500118
 11
-27.8434497804
 21
-1.6846500118
  0
SPLINE
  5
513
100
AcDbEntity
  8
0
100
AcDbSpline
 62
7
  6
CONTINUOUS
 70
0
 71
3
 72
15
 73
11
 74
0
 42
0.0000001
 43
0.0000001
 44
0.0000000001
 40
0.0
 40
0.0
 40
0.0
 40
0.0
 40
0.1252146822
 40
0.2499116931
 40
0.3743170529
 40
0.498661262
 40
0.6231754954
 40
0.7480888588
 40
0.8736249174
 40
1.0
 40
1.0
 40
1.0
 40
1.0
 10
-28.7983738584
 20
3.2010258583
 30
0.0
 10
-28.7924997371
 20
3.1958599075
 30
0.0
 10
-28.7804649319
 20
3.1858965103
 30
0.0
 10
-28.7615730434
 20
3.1720913275
 30
0.0
 10
-28.7419217495
 20
3.1594891101
 30
0.0
 10
-28.7215487251
 20
3.1481142612
 30
0.0
 10
-28.7004920421
 20
3.1379879187
 30
0.0
 10
-28.6787910169
 20
3.1291290128
 30
0.0
 10
-28.6564873792
 20
3.1215542511
 30
0.0
 10
-28.6413007071
 20
3.1173853865
 30
0.0
 10
-28.633629574
 20
3.1155184386
 30
0.0
  0
SPLINE
  5
514
100
AcDbEntity
  8
0
100
AcDbSpline
 62
7
  6
CONTINUOUS
 70
0
 71
3
 72
15
 73
11
 74
0
 42
0.0000001
 43
0.0000001
 44
0.0000000001
 40
0.0
 40
0.0
 40
0.0
 40
0.0
 40
0.1261099833
 40
0.2512738785
 40
0.3757984041
 40
0.5
 40
0.6242015959
 40
0.7487261215
 40
0.8738900167
 40
1.0
 40
1.0
 40
1.0
 40
1.0
 10
-28.633629574
 20
3.1155184386
 30
0.0
 10
-28.627178959
 20
3.1087631435
 30
0.0
 10
-28.61385636
 20
3.0957423475
 30
0.0
 10
-28.5926104017
 20
3.0777261729
 30
0.0
 10
-28.5702441632
 20
3.0613565177
 30
0.0
 10
-28.5468176161
 20
3.0466780581
 30
0.0
 10
-28.5223924237
 20
3.033729303
 30
0.0
 10
-28.4970327672
 20
3.0225443999
 30
0.0
 10
-28.4708073231
 20
3.0131529476
 30
0.0
 10
-28.4528696836
 20
3.0081256364
 30
0.0
 10
-28.4437941189
 20
3.0059168875
 30
0.0
  0
SPLINE
  5
515
100
AcDbEntity
  8
0
100
AcDbSpline
 62
7
  6
CONTINUOUS
 70
0
 71
3
 72
28
 73
24
 74
0
 42
0.0000001
 43
0.0000001
 44
0.0000000001
 40
0.0
 40
0.0
 40
0.0
 40
0.0
 40
0.0809538291
 40
0.1613813644
 40
0.2406203138
 40
0.3181401174
 40
0.3934339808
 40
0.4660114845
 40
0.5354465657
 40
0.601381138
 40
0.6329553309
 40
0.6635612855
 40
0.6931812056
 40
0.7218083152
 40
0.7760736811
 40
0.8017638312
 40
0.8265284098
 40
0.8734496737
 40
0.9174196222
 40
0.9385589469
 40
0.9592787635
 40
0.9797122304
 40
1.0
 40
1.0
 40
1.0
 40
1.0
 10
-21.544802224
 20
20.2635266961
 30
0.0
 10
-21.544802224
 20
20.266630493
 30
0.0
 10
-21.5446503244
 20
20.2728189771
 30
0.0
 10
-21.5439708975
 20
20.2820230162
 30
0.0
 10
-21.5428442935
 20
20.2910508278
 30
0.0
 10
-21.5412825266
 20
20.2998139434
 30
0.0
 10
-21.5393007544
 20
20.3082299416
 30
0.0
 10
-21.5369171946
 20
20.3162187623
 30
0.0
 10
-21.5341553973
 20
20.3237038961
 30
0.0
 10
-21.5315224376
 20
20.3295451192
 30
0.0
 10
-21.529240934
 20
20.3338964238
 30
0.0
 10
-21.5274775446
 20
20.3369437023
 30
0.0
 10
-21.525641082
 20
20.3398145706
 30
0.0
 10
-21.5231462512
 20
20.3433349272
 30
0.0
 10
-21.5204859551
 20
20.3465500856
 30
0.0
 10
-21.5176578417
 20
20.349403299
 30
0.0
 10
-21.5148657637
 20
20.3518848398
 30
0.0
 10
-21.5112601126
 20
20.3544934357
 30
0.0
 10
-21.5074096095
 20
20.3564461056
 30
0.0
 10
-21.5042980403
 20
20.3575293839
 30
0.0
 10
-21.501976083
 20
20.3581039089
 30
0.0
 10
-21.4996424025
 20
20.3584495504
 30
0.0
 10
-21.4980800639
 20
20.3585266961
 30
0.0
 10
-21.497302224
 20
20.3585266961
 30
0.0
  0
SPLINE
  5
516
100
AcDbEntity
  8
0
100
AcDbSpline
 62
7
  6
CONTINUOUS
 70
0
 71
3
 72
28
 73
24
 74
0
 42
0.0000001
 43
0.0000001
 44
0.0000000001
 40
0.0
 40
0.0
 40
0.0
 40
0.0
 40
0.0809538291
 40
0.1613813644
 40
0.2406203138
 40
0.3181401174
 40
0.3934339808
 40
0.4660114845
 40
0.5354465657
 40
0.601381138
 40
0.6329553309
 40
0.6635612855
 40
0.6931812056
 40
0.7218083152
 40
0.7760736811
 40
0.8017638312
 40
0.8265284098
 40
0.8734496737
 40
0.9174196222
 40
0.9385589469
 40
0.9592787635
 40
0.9797122304
 40
1.0
 40
1.0
 40
1.0
 40
1.0
 10
-21.544802224
 20
20.2635266961
 30
0.0
 10
-21.544802224
 20
20.2604228993
 30
0.0
 10
-21.5446503244
 20
20.2542344152
 30
0.0
 10
-21.5439708975
 20
20.2450303761
 30
0.0
 10
-21.5428442935
 20
20.2360025645
 30
0.0
 10
-21.5412825266
 20
20.2272394489
 30
0.0
 10
-21.5393007544
 20
20.2188234507
 30
0.0
 10
-21.5369171946
 20
20.21083463
 30
0.0
 10
-21.5341553973
 20
20.2033494962
 30
0.0
 10
-21.5315224376
 20
20.1975082731
 30
0.0
 10
-21.529240934
 20
20.1931569685
 30
0.0
 10
-21.5274775446
 20
20.19010969
 30
0.0
 10
-21.525641082
 20
20.1872388217
 30
0.0
 10
-21.5231462512
 20
20.1837184651
 30
0.0
 10
-21.5204859551
 20
20.1805033067
 30
0.0
 10
-21.5176578417
 20
20.1776500933
 30
0.0
 10
-21.5148657637
 20
20.1751685525
 30
0.0
 10
-21.5112601126
 20
20.1725599566
 30
0.0
 10
-21.5074096095
 20
20.1706072867
 30
0.0
 10
-21.5042980403
 20
20.1695240084
 30
0.0
 10
-21.501976083
 20
20.1689494834
 30
0.0
 10
-21.4996424025
 20
20.1686038419
 30
0.0
 10
-21.4980800639
 20
20.1685266961
 30
0.0
 10
-21.497302224
 20
20.1685266961
 30
0.0
  0
SPLINE
  5
517
100
AcDbEntity
  8
0
100
AcDbSpline
 62
7
  6
CONTINUOUS
 70
0
 71
3
 72
48
 73
44
 74
0
 42
0.0000001
 43
0.0000001
 44
0.0000000001
 40
0.0
 40
0.0
 40
0.0
 40
0.0
 40
0.0434505608
 40
0.0867489443
 40
0.1296894134
 40
0.1721059677
 40
0.2138412953
 40
0.2547363219
 40
0.2946389744
 40
0.3334114972
 40
0.3709278872
 40
0.4070781225
 40
0.4417690476
 40
0.4749301402
 40
0.5065147373
 40
0.5365063788
 40
0.55091162
 40
0.5649286106
 40
0.5918257883
 40
0.6173071701
 40
0.6415266156
 40
0.6646922829
 40
0.6759663329
 40
0.6870790299
 40
0.6980703734
 40
0.7089821271
 40
0.719857322
 40
0.7307397784
 40
0.7416731319
 40
0.7527000386
 40
0.7638617577
 40
0.7751974626
 40
0.7985205301
 40
0.8229357668
 40
0.8356218101
 40
0.8486506313
 40
0.8620391071
 40
0.8758006497
 40
0.8899451639
 40
0.9044801783
 40
0.9347350424
 40
0.9665820077
 40
1.0
 40
1.0
 40
1.0
 40
1.0
 10
-21.144469014
 20
20.2635266961
 30
0.0
 10
-21.144469014
 20
20.2682892362
 30
0.0
 10
-21.1442945265
 20
20.2777985517
 30
0.0
 10
-21.1435127005
 20
20.2919951455
 30
0.0
 10
-21.1422129355
 20
20.3060401866
 30
0.0
 10
-21.1404036132
 20
20.3198560113
 30
0.0
 10
-21.138093643
 20
20.3333697839
 30
0.0
 10
-21.1352964307
 20
20.3465098116
 30
0.0
 10
-21.132025658
 20
20.3592052532
 30
0.0
 10
-21.128300043
 20
20.3713883793
 30
0.0
 10
-21.124138427
 20
20.382993996
 30
0.0
 10
-21.1195639279
 20
20.3939605796
 30
0.0
 10
-21.1145998076
 20
20.4042293822
 30
0.0
 10
-21.1092729872
 20
20.4137463682
 30
0.0
 10
-21.1036107012
 20
20.4224602196
 30
0.0
 10
-21.0985711614
 20
20.4291020481
 30
0.0
 10
-21.0943925588
 20
20.4339554974
 30
0.0
 10
-21.0902421371
 20
20.4383778956
 30
0.0
 10
-21.0849092958
 20
20.4433472406
 30
0.0
 10
-21.0782081836
 20
20.4484315468
 30
0.0
 10
-21.0713287125
 20
20.4525241746
 30
0.0
 10
-21.065420301
 20
20.4551097631
 30
0.0
 10
-21.0606634434
 20
20.4566379445
 30
0.0
 10
-21.0571080068
 20
20.4575133874
 30
0.0
 10
-21.0535385117
 20
20.4581272076
 30
0.0
 10
-21.0499597717
 20
20.4584786864
 30
0.0
 10
-21.0463767986
 20
20.4585669869
 30
0.0
 10
-21.0427946714
 20
20.4583915837
 30
0.0
 10
-21.03921843
 20
20.4579533076
 30
0.0
 10
-21.0356530634
 20
20.4572529526
 30
0.0
 10
-21.0321034367
 20
20.4562911951
 30
0.0
 10
-21.0273543646
 20
20.4546469261
 30
0.0
 10
-21.0214615256
 20
20.451917597
 30
0.0
 10
-21.0158233103
 20
20.4484134218
 30
0.0
 10
-21.0114074648
 20
20.4451402022
 30
0.0
 10
-21.0081010491
 20
20.4424098343
 30
0.0
 10
-21.0048476336
 20
20.4394391857
 30
0.0
 10
-21.0016513488
 20
20.4362322048
 30
0.0
 10
-20.9985161768
 20
20.4327935083
 30
0.0
 10
-20.9943678101
 20
20.4278397868
 30
0.0
 10
-20.9893696809
 20
20.4210773331
 30
0.0
 10
-20.9837608425
 20
20.4122279009
 30
0.0
 10
-20.9803288796
 20
20.4059451374
 30
0.0
 10
-20.978666486
 20
20.4026812143
 30
0.0
  0
SPLINE
  5
518
100
AcDbEntity
  8
0
100
AcDbSpline
 62
7
  6
CONTINUOUS
 70
0
 71
3
 72
48
 73
44
 74
0
 42
0.0000001
 43
0.0000001
 44
0.0000000001
 40
0.0
 40
0.0
 40
0.0
 40
0.0
 40
0.0434505608
 40
0.0867489443
 40
0.1296894134
 40
0.1721059677
 40
0.2138412953
 40
0.2547363219
 40
0.2946389744
 40
0.3334114972
 40
0.3709278872
 40
0.4070781225
 40
0.4417690476
 40
0.4749301402
 40
0.5065147373
 40
0.5365063788
 40
0.55091162
 40
0.5649286106
 40
0.5918257883
 40
0.6173071701
 40
0.6415266156
 40
0.6646922829
 40
0.6759663329
 40
0.6870790299
 40
0.6980703734
 40
0.7089821271
 40
0.719857322
 40
0.7307397784
 40
0.7416731319
 40
0.7527000386
 40
0.7638617577
 40
0.7751974626
 40
0.7985205301
 40
0.8229357668
 40
0.8356218101
 40
0.8486506313
 40
0.8620391071
 40
0.8758006497
 40
0.8899451639
 40
0.9044801783
 40
0.9347350424
 40
0.9665820077
 40
1.0
 40
1.0
 40
1.0
 40
1.0
 10
-21.144469014
 20
20.2635266961
 30
0.0
 10
-21.144469014
 20
20.2587641561
 30
0.0
 10
-21.1442945265
 20
20.2492548406
 30
0.0
 10
-21.1435127005
 20
20.2350582467
 30
0.0
 10
-21.1422129355
 20
20.2210132057
 30
0.0
 10
-21.1404036132
 20
20.207197381
 30
0.0
 10
-21.138093643
 20
20.1936836084
 30
0.0
 10
-21.1352964307
 20
20.1805435807
 30
0.0
 10
-21.132025658
 20
20.1678481391
 30
0.0
 10
-21.128300043
 20
20.155665013
 30
0.0
 10
-21.124138427
 20
20.1440593963
 30
0.0
 10
-21.1195639279
 20
20.1330928127
 30
0.0
 10
-21.1145998076
 20
20.1228240101
 30
0.0
 10
-21.1092729872
 20
20.1133070241
 30
0.0
 10
-21.1036107012
 20
20.1045931727
 30
0.0
 10
-21.0985711614
 20
20.0979513442
 30
0.0
 10
-21.0943925588
 20
20.0930978949
 30
0.0
 10
-21.0902421371
 20
20.0886754967
 30
0.0
 10
-21.0849092958
 20
20.0837061517
 30
0.0
 10
-21.0782081836
 20
20.0786218455
 30
0.0
 10
-21.0713287125
 20
20.0745292177
 30
0.0
 10
-21.065420301
 20
20.0719436292
 30
0.0
 10
-21.0606634434
 20
20.0704154478
 30
0.0
 10
-21.0571080068
 20
20.0695400049
 30
0.0
 10
-21.0535385117
 20
20.0689261847
 30
0.0
 10
-21.0499597717
 20
20.0685747059
 30
0.0
 10
-21.0463767986
 20
20.0684864054
 30
0.0
 10
-21.0427946714
 20
20.0686618086
 30
0.0
 10
-21.03921843
 20
20.0691000847
 30
0.0
 10
-21.0356530634
 20
20.0698004397
 30
0.0
 10
-21.0321034367
 20
20.0707621972
 30
0.0
 10
-21.0273543646
 20
20.0724064662
 30
0.0
 10
-21.0214615256
 20
20.0751357953
 30
0.0
 10
-21.0158233103
 20
20.0786399705
 30
0.0
 10
-21.0114074648
 20
20.0819131901
 30
0.0
 10
-21.0081010491
 20
20.084643558
 30
0.0
 10
-21.0048476336
 20
20.0876142066
 30
0.0
 10
-21.0016513488
 20
20.0908211875
 30
0.0
 10
-20.9985161768
 20
20.094259884
 30
0.0
 10
-20.9943678101
 20
20.0992136055
 30
0.0
 10
-20.9893696809
 20
20.1059760592
 30
0.0
 10
-20.9837608425
 20
20.1148254914
 30
0.0
 10
-20.9803288796
 20
20.1211082549
 30
0.0
 10
-20.978666486
 20
20.124372178
 30
0.0
  0
SPLINE
  5
519
100
AcDbEntity
  8
0
100
AcDbSpline
 62
7
  6
CONTINUOUS
 70
0
 71
3
 72
28
 73
24
 74
0
 42
0.0000001
 43
0.0000001
 44
0.0000000001
 40
0.0
 40
0.0
 40
0.0
 40
0.0
 40
0.0202877696
 40
0.0407212365
 40
0.0614410531
 40
0.0825803778
 40
0.1265503263
 40
0.1734715902
 40
0.1982361688
 40
0.2239263189
 40
0.2781916848
 40
0.3068187944
 40
0.3364387145
 40
0.3670446691
 40
0.398618862
 40
0.4645534343
 40
0.5339885155
 40
0.6065660192
 40
0.6818598826
 40
0.7593796862
 40
0.8386186356
 40
0.9190461709
 40
1.0
 40
1.0
 40
1.0
 40
1.0
 10
-34.4313916295
 20
20.1685266961
 30
0.0
 10
-34.4306137897
 20
20.1685266961
 30
0.0
 10
-34.429051451
 20
20.1686038419
 30
0.0
 10
-34.4267177705
 20
20.1689494834
 30
0.0
 10
-34.4243958133
 20
20.1695240084
 30
0.0
 10
-34.4212842441
 20
20.1706072867
 30
0.0
 10
-34.4174337409
 20
20.1725599566
 30
0.0
 10
-34.4138280898
 20
20.1751685525
 30
0.0
 10
-34.4110360118
 20
20.1776500933
 30
0.0
 10
-34.4082078984
 20
20.1805033067
 30
0.0
 10
-34.4055476023
 20
20.1837184651
 30
0.0
 10
-34.4030527715
 20
20.1872388217
 30
0.0
 10
-34.4012163089
 20
20.19010969
 30
0.0
 10
-34.3994529195
 20
20.1931569685
 30
0.0
 10
-34.3971714159
 20
20.1975082731
 30
0.0
 10
-34.3945384562
 20
20.2033494962
 30
0.0
 10
-34.391776659
 20
20.21083463
 30
0.0
 10
-34.3893930992
 20
20.2188234507
 30
0.0
 10
-34.3874113269
 20
20.2272394489
 30
0.0
 10
-34.38584956
 20
20.2360025645
 30
0.0
 10
-34.384722956
 20
20.2450303761
 30
0.0
 10
-34.3840435291
 20
20.2542344152
 30
0.0
 10
-34.3838916295
 20
20.2604228993
 30
0.0
 10
-34.3838916295
 20
20.2635266961
 30
0.0
  0
SPLINE
  5
51A
100
AcDbEntity
  8
0
100
AcDbSpline
 62
7
  6
CONTINUOUS
 70
0
 71
3
 72
28
 73
24
 74
0
 42
0.0000001
 43
0.0000001
 44
0.0000000001
 40
0.0
 40
0.0
 40
0.0
 40
0.0
 40
0.0202877696
 40
0.0407212365
 40
0.0614410531
 40
0.0825803778
 40
0.1265503263
 40
0.1734715902
 40
0.1982361688
 40
0.2239263189
 40
0.2781916848
 40
0.3068187944
 40
0.3364387145
 40
0.3670446691
 40
0.398618862
 40
0.4645534343
 40
0.5339885155
 40
0.6065660192
 40
0.6818598826
 40
0.7593796862
 40
0.8386186356
 40
0.9190461709
 40
1.0
 40
1.0
 40
1.0
 40
1.0
 10
-34.4313916295
 20
20.3585266961
 30
0.0
 10
-34.4306137897
 20
20.3585266961
 30
0.0
 10
-34.429051451
 20
20.3584495504
 30
0.0
 10
-34.4267177705
 20
20.3581039089
 30
0.0
 10
-34.4243958133
 20
20.3575293839
 30
0.0
 10
-34.4212842441
 20
20.3564461056
 30
0.0
 10
-34.4174337409
 20
20.3544934357
 30
0.0
 10
-34.4138280898
 20
20.3518848398
 30
0.0
 10
-34.4110360118
 20
20.349403299
 30
0.0
 10
-34.4082078984
 20
20.3465500856
 30
0.0
 10
-34.4055476023
 20
20.3433349272
 30
0.0
 10
-34.4030527715
 20
20.3398145706
 30
0.0
 10
-34.4012163089
 20
20.3369437023
 30
0.0
 10
-34.3994529195
 20
20.3338964238
 30
0.0
 10
-34.3971714159
 20
20.3295451192
 30
0.0
 10
-34.3945384562
 20
20.3237038961
 30
0.0
 10
-34.391776659
 20
20.3162187623
 30
0.0
 10
-34.3893930992
 20
20.3082299416
 30
0.0
 10
-34.3874113269
 20
20.2998139434
 30
0.0
 10
-34.38584956
 20
20.2910508278
 30
0.0
 10
-34.384722956
 20
20.2820230162
 30
0.0
 10
-34.3840435291
 20
20.2728189771
 30
0.0
 10
-34.3838916295
 20
20.266630493
 30
0.0
 10
-34.3838916295
 20
20.2635266961
 30
0.0
  0
SPLINE
  5
51B
100
AcDbEntity
  8
0
100
AcDbSpline
 62
7
  6
CONTINUOUS
 70
0
 71
3
 72
48
 73
44
 74
0
 42
0.0000001
 43
0.0000001
 44
0.0000000001
 40
0.0
 40
0.0
 40
0.0
 40
0.0
 40
0.0334179923
 40
0.0652649576
 40
0.0955198217
 40
0.1100548361
 40
0.1241993503
 40
0.1379608929
 40
0.1513493687
 40
0.1643781899
 40
0.1770642332
 40
0.2014794699
 40
0.2248025374
 40
0.2361382423
 40
0.2472999614
 40
0.2583268681
 40
0.2692602216
 40
0.280142678
 40
0.2910178729
 40
0.3019296266
 40
0.3129209701
 40
0.3240336671
 40
0.3353077171
 40
0.3584733844
 40
0.3826928299
 40
0.4081742117
 40
0.4350713894
 40
0.44908838
 40
0.4634936212
 40
0.4934852627
 40
0.5250698598
 40
0.5582309524
 40
0.5929218775
 40
0.6290721128
 40
0.6665885028
 40
0.7053610256
 40
0.7452636781
 40
0.7861587047
 40
0.8278940323
 40
0.8703105866
 40
0.9132510557
 40
0.9565494392
 40
1.0
 40
1.0
 40
1.0
 40
1.0
 10
-34.9500273676
 20
20.124372178
 30
0.0
 10
-34.9483649739
 20
20.1211082549
 30
0.0
 10
-34.9449330111
 20
20.1148254914
 30
0.0
 10
-34.9393241727
 20
20.1059760592
 30
0.0
 10
-34.9343260434
 20
20.0992136055
 30
0.0
 10
-34.9301776768
 20
20.094259884
 30
0.0
 10
-34.9270425048
 20
20.0908211875
 30
0.0
 10
-34.9238462199
 20
20.0876142066
 30
0.0
 10
-34.9205928045
 20
20.084643558
 30
0.0
 10
-34.9172863887
 20
20.0819131901
 30
0.0
 10
-34.9128705432
 20
20.0786399705
 30
0.0
 10
-34.907232328
 20
20.0751357953
 30
0.0
 10
-34.9013394889
 20
20.0724064662
 30
0.0
 10
-34.8965904168
 20
20.0707621972
 30
0.0
 10
-34.8930407902
 20
20.0698004397
 30
0.0
 10
-34.8894754235
 20
20.0691000847
 30
0.0
 10
-34.8858991822
 20
20.0686618086
 30
0.0
 10
-34.8823170549
 20
20.0684864054
 30
0.0
 10
-34.8787340819
 20
20.0685747059
 30
0.0
 10
-34.8751553419
 20
20.0689261847
 30
0.0
 10
-34.8715858468
 20
20.0695400049
 30
0.0
 10
-34.8680304102
 20
20.0704154478
 30
0.0
 10
-34.8632735525
 20
20.0719436292
 30
0.0
 10
-34.8573651411
 20
20.0745292177
 30
0.0
 10
-34.8504856699
 20
20.0786218455
 30
0.0
 10
-34.8437845577
 20
20.0837061517
 30
0.0
 10
-34.8384517165
 20
20.0886754967
 30
0.0
 10
-34.8343012948
 20
20.0930978949
 30
0.0
 10
-34.8301226921
 20
20.0979513442
 30
0.0
 10
-34.8250831523
 20
20.1045931727
 30
0.0
 10
-34.8194208663
 20
20.1133070241
 30
0.0
 10
-34.8140940459
 20
20.1228240101
 30
0.0
 10
-34.8091299257
 20
20.1330928127
 30
0.0
 10
-34.8045554266
 20
20.1440593963
 30
0.0
 10
-34.8003938106
 20
20.155665013
 30
0.0
 10
-34.7966681955
 20
20.1678481391
 30
0.0
 10
-34.7933974228
 20
20.1805435807
 30
0.0
 10
-34.7906002106
 20
20.1936836084
 30
0.0
 10
-34.7882902403
 20
20.207197381
 30
0.0
 10
-34.786480918
 20
20.2210132057
 30
0.0
 10
-34.785181153
 20
20.2350582467
 30
0.0
 10
-34.784399327
 20
20.2492548406
 30
0.0
 10
-34.7842248395
 20
20.2587641561
 30
0.0
 10
-34.7842248395
 20
20.2635266961
 30
0.0
  0
SPLINE
  5
51C
100
AcDbEntity
  8
0
100
AcDbSpline
 62
7
  6
CONTINUOUS
 70
0
 71
3
 72
48
 73
44
 74
0
 42
0.0000001
 43
0.0000001
 44
0.0000000001
 40
0.0
 40
0.0
 40
0.0
 40
0.0
 40
0.0334179923
 40
0.0652649576
 40
0.0955198217
 40
0.1100548361
 40
0.1241993503
 40
0.1379608929
 40
0.1513493687
 40
0.1643781899
 40
0.1770642332
 40
0.2014794699
 40
0.2248025374
 40
0.2361382423
 40
0.2472999614
 40
0.2583268681
 40
0.2692602216
 40
0.280142678
 40
0.2910178729
 40
0.3019296266
 40
0.3129209701
 40
0.3240336671
 40
0.3353077171
 40
0.3584733844
 40
0.3826928299
 40
0.4081742117
 40
0.4350713894
 40
0.44908838
 40
0.4634936212
 40
0.4934852627
 40
0.5250698598
 40
0.5582309524
 40
0.5929218775
 40
0.6290721128
 40
0.6665885028
 40
0.7053610256
 40
0.7452636781
 40
0.7861587047
 40
0.8278940323
 40
0.8703105866
 40
0.9132510557
 40
0.9565494392
 40
1.0
 40
1.0
 40
1.0
 40
1.0
 10
-34.9500273676
 20
20.4026812143
 30
0.0
 10
-34.9483649739
 20
20.4059451374
 30
0.0
 10
-34.9449330111
 20
20.4122279009
 30
0.0
 10
-34.9393241727
 20
20.4210773331
 30
0.0
 10
-34.9343260434
 20
20.4278397868
 30
0.0
 10
-34.9301776768
 20
20.4327935083
 30
0.0
 10
-34.9270425048
 20
20.4362322048
 30
0.0
 10
-34.9238462199
 20
20.4394391857
 30
0.0
 10
-34.9205928045
 20
20.4424098343
 30
0.0
 10
-34.9172863887
 20
20.4451402022
 30
0.0
 10
-34.9128705432
 20
20.4484134218
 30
0.0
 10
-34.907232328
 20
20.451917597
 30
0.0
 10
-34.9013394889
 20
20.4546469261
 30
0.0
 10
-34.8965904168
 20
20.4562911951
 30
0.0
 10
-34.8930407902
 20
20.4572529526
 30
0.0
 10
-34.8894754235
 20
20.4579533076
 30
0.0
 10
-34.8858991822
 20
20.4583915837
 30
0.0
 10
-34.8823170549
 20
20.4585669869
 30
0.0
 10
-34.8787340819
 20
20.4584786864
 30
0.0
 10
-34.8751553419
 20
20.4581272076
 30
0.0
 10
-34.8715858468
 20
20.4575133874
 30
0.0
 10
-34.8680304102
 20
20.4566379445
 30
0.0
 10
-34.8632735525
 20
20.4551097631
 30
0.0
 10
-34.8573651411
 20
20.4525241746
 30
0.0
 10
-34.8504856699
 20
20.4484315468
 30
0.0
 10
-34.8437845577
 20
20.4433472406
 30
0.0
 10
-34.8384517165
 20
20.4383778956
 30
0.0
 10
-34.8343012948
 20
20.4339554974
 30
0.0
 10
-34.8301226921
 20
20.4291020481
 30
0.0
 10
-34.8250831523
 20
20.4224602196
 30
0.0
 10
-34.8194208663
 20
20.4137463682
 30
0.0
 10
-34.8140940459
 20
20.4042293822
 30
0.0
 10
-34.8091299257
 20
20.3939605796
 30
0.0
 10
-34.8045554266
 20
20.382993996
 30
0.0
 10
-34.8003938106
 20
20.3713883793
 30
0.0
 10
-34.7966681955
 20
20.3592052532
 30
0.0
 10
-34.7933974228
 20
20.3465098116
 30
0.0
 10
-34.7906002106
 20
20.3333697839
 30
0.0
 10
-34.7882902403
 20
20.3198560113
 30
0.0
 10
-34.786480918
 20
20.3060401866
 30
0.0
 10
-34.785181153
 20
20.2919951455
 30
0.0
 10
-34.784399327
 20
20.2777985517
 30
0.0
 10
-34.7842248395
 20
20.2682892362
 30
0.0
 10
-34.7842248395
 20
20.2635266961
 30
0.0
  0
SPLINE
  5
51D
100
AcDbEntity
  8
0
100
AcDbSpline
 62
7
  6
CONTINUOUS
 70
0
 71
3
 72
28
 73
24
 74
0
 42
0.0000001
 43
0.0000001
 44
0.0000000001
 40
0.0
 40
0.0
 40
0.0
 40
0.0
 40
0.0202877696
 40
0.0407212365
 40
0.0614410531
 40
0.0825803778
 40
0.1265503263
 40
0.1734715902
 40
0.1982361688
 40
0.2239263189
 40
0.2781916848
 40
0.3068187944
 40
0.3364387145
 40
0.3670446691
 40
0.398618862
 40
0.4645534343
 40
0.5339885155
 40
0.6065660192
 40
0.6818598826
 40
0.7593796862
 40
0.8386186356
 40
0.9190461709
 40
1.0
 40
1.0
 40
1.0
 40
1.0
 10
-34.4313916295
 20
22.4685266961
 30
0.0
 10
-34.4306137897
 20
22.4685266961
 30
0.0
 10
-34.429051451
 20
22.4686038419
 30
0.0
 10
-34.4267177705
 20
22.4689494834
 30
0.0
 10
-34.4243958133
 20
22.4695240084
 30
0.0
 10
-34.4212842441
 20
22.4706072867
 30
0.0
 10
-34.4174337409
 20
22.4725599566
 30
0.0
 10
-34.4138280898
 20
22.4751685525
 30
0.0
 10
-34.4110360118
 20
22.4776500933
 30
0.0
 10
-34.4082078984
 20
22.4805033067
 30
0.0
 10
-34.4055476023
 20
22.4837184651
 30
0.0
 10
-34.4030527715
 20
22.4872388217
 30
0.0
 10
-34.4012163089
 20
22.49010969
 30
0.0
 10
-34.3994529195
 20
22.4931569685
 30
0.0
 10
-34.3971714159
 20
22.4975082731
 30
0.0
 10
-34.3945384562
 20
22.5033494962
 30
0.0
 10
-34.391776659
 20
22.51083463
 30
0.0
 10
-34.3893930992
 20
22.5188234507
 30
0.0
 10
-34.3874113269
 20
22.5272394489
 30
0.0
 10
-34.38584956
 20
22.5360025645
 30
0.0
 10
-34.384722956
 20
22.5450303761
 30
0.0
 10
-34.3840435291
 20
22.5542344152
 30
0.0
 10
-34.3838916295
 20
22.5604228993
 30
0.0
 10
-34.3838916295
 20
22.5635266961
 30
0.0
  0
SPLINE
  5
51E
100
AcDbEntity
  8
0
100
AcDbSpline
 62
7
  6
CONTINUOUS
 70
0
 71
3
 72
28
 73
24
 74
0
 42
0.0000001
 43
0.0000001
 44
0.0000000001
 40
0.0
 40
0.0
 40
0.0
 40
0.0
 40
0.0202877696
 40
0.0407212365
 40
0.0614410531
 40
0.0825803778
 40
0.1265503263
 40
0.1734715902
 40
0.1982361688
 40
0.2239263189
 40
0.2781916848
 40
0.3068187944
 40
0.3364387145
 40
0.3670446691
 40
0.398618862
 40
0.4645534343
 40
0.5339885155
 40
0.6065660192
 40
0.6818598826
 40
0.7593796862
 40
0.8386186356
 40
0.9190461709
 40
1.0
 40
1.0
 40
1.0
 40
1.0
 10
-34.4313916295
 20
22.6585266961
 30
0.0
 10
-34.4306137897
 20
22.6585266961
 30
0.0
 10
-34.429051451
 20
22.6584495504
 30
0.0
 10
-34.4267177705
 20
22.6581039089
 30
0.0
 10
-34.4243958133
 20
22.6575293839
 30
0.0
 10
-34.4212842441
 20
22.6564461056
 30
0.0
 10
-34.4174337409
 20
22.6544934357
 30
0.0
 10
-34.4138280898
 20
22.6518848398
 30
0.0
 10
-34.4110360118
 20
22.649403299
 30
0.0
 10
-34.4082078984
 20
22.6465500856
 30
0.0
 10
-34.4055476023
 20
22.6433349272
 30
0.0
 10
-34.4030527715
 20
22.6398145706
 30
0.0
 10
-34.4012163089
 20
22.6369437023
 30
0.0
 10
-34.3994529195
 20
22.6338964238
 30
0.0
 10
-34.3971714159
 20
22.6295451192
 30
0.0
 10
-34.3945384562
 20
22.6237038961
 30
0.0
 10
-34.391776659
 20
22.6162187623
 30
0.0
 10
-34.3893930992
 20
22.6082299416
 30
0.0
 10
-34.3874113269
 20
22.5998139434
 30
0.0
 10
-34.38584956
 20
22.5910508278
 30
0.0
 10
-34.384722956
 20
22.5820230162
 30
0.0
 10
-34.3840435291
 20
22.5728189771
 30
0.0
 10
-34.3838916295
 20
22.566630493
 30
0.0
 10
-34.3838916295
 20
22.5635266961
 30
0.0
  0
SPLINE
  5
51F
100
AcDbEntity
  8
0
100
AcDbSpline
 62
7
  6
CONTINUOUS
 70
0
 71
3
 72
48
 73
44
 74
0
 42
0.0000001
 43
0.0000001
 44
0.0000000001
 40
0.0
 40
0.0
 40
0.0
 40
0.0
 40
0.0334179923
 40
0.0652649576
 40
0.0955198217
 40
0.1100548361
 40
0.1241993503
 40
0.1379608929
 40
0.1513493687
 40
0.1643781899
 40
0.1770642332
 40
0.2014794699
 40
0.2248025374
 40
0.2361382423
 40
0.2472999614
 40
0.2583268681
 40
0.2692602216
 40
0.280142678
 40
0.2910178729
 40
0.3019296266
 40
0.3129209701
 40
0.3240336671
 40
0.3353077171
 40
0.3584733844
 40
0.3826928299
 40
0.4081742117
 40
0.4350713894
 40
0.44908838
 40
0.4634936212
 40
0.4934852627
 40
0.5250698598
 40
0.5582309524
 40
0.5929218775
 40
0.6290721128
 40
0.6665885028
 40
0.7053610256
 40
0.7452636781
 40
0.7861587047
 40
0.8278940323
 40
0.8703105866
 40
0.9132510557
 40
0.9565494392
 40
1.0
 40
1.0
 40
1.0
 40
1.0
 10
-34.9500273676
 20
22.424372178
 30
0.0
 10
-34.9483649739
 20
22.4211082549
 30
0.0
 10
-34.9449330111
 20
22.4148254914
 30
0.0
 10
-34.9393241727
 20
22.4059760592
 30
0.0
 10
-34.9343260434
 20
22.3992136055
 30
0.0
 10
-34.9301776768
 20
22.394259884
 30
0.0
 10
-34.9270425048
 20
22.3908211875
 30
0.0
 10
-34.9238462199
 20
22.3876142066
 30
0.0
 10
-34.9205928045
 20
22.384643558
 30
0.0
 10
-34.9172863887
 20
22.3819131901
 30
0.0
 10
-34.9128705432
 20
22.3786399705
 30
0.0
 10
-34.907232328
 20
22.3751357953
 30
0.0
 10
-34.9013394889
 20
22.3724064662
 30
0.0
 10
-34.8965904168
 20
22.3707621972
 30
0.0
 10
-34.8930407902
 20
22.3698004397
 30
0.0
 10
-34.8894754235
 20
22.3691000847
 30
0.0
 10
-34.8858991822
 20
22.3686618086
 30
0.0
 10
-34.8823170549
 20
22.3684864054
 30
0.0
 10
-34.8787340819
 20
22.3685747059
 30
0.0
 10
-34.8751553419
 20
22.3689261847
 30
0.0
 10
-34.8715858468
 20
22.3695400049
 30
0.0
 10
-34.8680304102
 20
22.3704154478
 30
0.0
 10
-34.8632735525
 20
22.3719436292
 30
0.0
 10
-34.8573651411
 20
22.3745292177
 30
0.0
 10
-34.8504856699
 20
22.3786218455
 30
0.0
 10
-34.8437845577
 20
22.3837061517
 30
0.0
 10
-34.8384517165
 20
22.3886754967
 30
0.0
 10
-34.8343012948
 20
22.3930978949
 30
0.0
 10
-34.8301226921
 20
22.3979513442
 30
0.0
 10
-34.8250831523
 20
22.4045931727
 30
0.0
 10
-34.8194208663
 20
22.4133070241
 30
0.0
 10
-34.8140940459
 20
22.4228240101
 30
0.0
 10
-34.8091299257
 20
22.4330928127
 30
0.0
 10
-34.8045554266
 20
22.4440593963
 30
0.0
 10
-34.8003938106
 20
22.455665013
 30
0.0
 10
-34.7966681955
 20
22.4678481391
 30
0.0
 10
-34.7933974228
 20
22.4805435807
 30
0.0
 10
-34.7906002106
 20
22.4936836084
 30
0.0
 10
-34.7882902403
 20
22.507197381
 30
0.0
 10
-34.786480918
 20
22.5210132057
 30
0.0
 10
-34.785181153
 20
22.5350582467
 30
0.0
 10
-34.784399327
 20
22.5492548406
 30
0.0
 10
-34.7842248395
 20
22.5587641561
 30
0.0
 10
-34.7842248395
 20
22.5635266961
 30
0.0
  0
SPLINE
  5
520
100
AcDbEntity
  8
0
100
AcDbSpline
 62
7
  6
CONTINUOUS
 70
0
 71
3
 72
48
 73
44
 74
0
 42
0.0000001
 43
0.0000001
 44
0.0000000001
 40
0.0
 40
0.0
 40
0.0
 40
0.0
 40
0.0334179923
 40
0.0652649576
 40
0.0955198217
 40
0.1100548361
 40
0.1241993503
 40
0.1379608929
 40
0.1513493687
 40
0.1643781899
 40
0.1770642332
 40
0.2014794699
 40
0.2248025374
 40
0.2361382423
 40
0.2472999614
 40
0.2583268681
 40
0.2692602216
 40
0.280142678
 40
0.2910178729
 40
0.3019296266
 40
0.3129209701
 40
0.3240336671
 40
0.3353077171
 40
0.3584733844
 40
0.3826928299
 40
0.4081742117
 40
0.4350713894
 40
0.44908838
 40
0.4634936212
 40
0.4934852627
 40
0.5250698598
 40
0.5582309524
 40
0.5929218775
 40
0.6290721128
 40
0.6665885028
 40
0.7053610256
 40
0.7452636781
 40
0.7861587047
 40
0.8278940323
 40
0.8703105866
 40
0.9132510557
 40
0.9565494392
 40
1.0
 40
1.0
 40
1.0
 40
1.0
 10
-34.9500273676
 20
22.7026812143
 30
0.0
 10
-34.9483649739
 20
22.7059451374
 30
0.0
 10
-34.9449330111
 20
22.7122279009
 30
0.0
 10
-34.9393241727
 20
22.7210773331
 30
0.0
 10
-34.9343260434
 20
22.7278397868
 30
0.0
 10
-34.9301776768
 20
22.7327935083
 30
0.0
 10
-34.9270425048
 20
22.7362322048
 30
0.0
 10
-34.9238462199
 20
22.7394391857
 30
0.0
 10
-34.9205928045
 20
22.7424098343
 30
0.0
 10
-34.9172863887
 20
22.7451402022
 30
0.0
 10
-34.9128705432
 20
22.7484134218
 30
0.0
 10
-34.907232328
 20
22.751917597
 30
0.0
 10
-34.9013394889
 20
22.7546469261
 30
0.0
 10
-34.8965904168
 20
22.7562911951
 30
0.0
 10
-34.8930407902
 20
22.7572529526
 30
0.0
 10
-34.8894754235
 20
22.7579533076
 30
0.0
 10
-34.8858991822
 20
22.7583915837
 30
0.0
 10
-34.8823170549
 20
22.7585669869
 30
0.0
 10
-34.8787340819
 20
22.7584786864
 30
0.0
 10
-34.8751553419
 20
22.7581272076
 30
0.0
 10
-34.8715858468
 20
22.7575133874
 30
0.0
 10
-34.8680304102
 20
22.7566379445
 30
0.0
 10
-34.8632735525
 20
22.7551097631
 30
0.0
 10
-34.8573651411
 20
22.7525241746
 30
0.0
 10
-34.8504856699
 20
22.7484315468
 30
0.0
 10
-34.8437845577
 20
22.7433472406
 30
0.0
 10
-34.8384517165
 20
22.7383778956
 30
0.0
 10
-34.8343012948
 20
22.7339554974
 30
0.0
 10
-34.8301226921
 20
22.7291020481
 30
0.0
 10
-34.8250831523
 20
22.7224602196
 30
0.0
 10
-34.8194208663
 20
22.7137463682
 30
0.0
 10
-34.8140940459
 20
22.7042293822
 30
0.0
 10
-34.8091299257
 20
22.6939605796
 30
0.0
 10
-34.8045554266
 20
22.682993996
 30
0.0
 10
-34.8003938106
 20
22.6713883793
 30
0.0
 10
-34.7966681955
 20
22.6592052532
 30
0.0
 10
-34.7933974228
 20
22.6465098116
 30
0.0
 10
-34.7906002106
 20
22.6333697839
 30
0.0
 10
-34.7882902403
 20
22.6198560113
 30
0.0
 10
-34.786480918
 20
22.6060401866
 30
0.0
 10
-34.785181153
 20
22.5919951455
 30
0.0
 10
-34.784399327
 20
22.5777985517
 30
0.0
 10
-34.7842248395
 20
22.5682892362
 30
0.0
 10
-34.7842248395
 20
22.5635266961
 30
0.0
  0
SPLINE
  5
521
100
AcDbEntity
  8
0
100
AcDbSpline
 62
7
  6
CONTINUOUS
 70
0
 71
3
 72
28
 73
24
 74
0
 42
0.0000001
 43
0.0000001
 44
0.0000000001
 40
0.0
 40
0.0
 40
0.0
 40
0.0
 40
0.0809538291
 40
0.1613813644
 40
0.2406203138
 40
0.3181401174
 40
0.3934339808
 40
0.4660114845
 40
0.5354465657
 40
0.601381138
 40
0.6329553309
 40
0.6635612855
 40
0.6931812056
 40
0.7218083152
 40
0.7760736811
 40
0.8017638312
 40
0.8265284098
 40
0.8734496737
 40
0.9174196222
 40
0.9385589469
 40
0.9592787635
 40
0.9797122304
 40
1.0
 40
1.0
 40
1.0
 40
1.0
 10
-21.544802224
 20
22.5635266961
 30
0.0
 10
-21.544802224
 20
22.566630493
 30
0.0
 10
-21.5446503244
 20
22.5728189771
 30
0.0
 10
-21.5439708975
 20
22.5820230162
 30
0.0
 10
-21.5428442935
 20
22.5910508278
 30
0.0
 10
-21.5412825266
 20
22.5998139434
 30
0.0
 10
-21.5393007544
 20
22.6082299416
 30
0.0
 10
-21.5369171946
 20
22.6162187623
 30
0.0
 10
-21.5341553973
 20
22.6237038961
 30
0.0
 10
-21.5315224376
 20
22.6295451192
 30
0.0
 10
-21.529240934
 20
22.6338964238
 30
0.0
 10
-21.5274775446
 20
22.6369437023
 30
0.0
 10
-21.525641082
 20
22.6398145706
 30
0.0
 10
-21.5231462512
 20
22.6433349272
 30
0.0
 10
-21.5204859551
 20
22.6465500856
 30
0.0
 10
-21.5176578417
 20
22.649403299
 30
0.0
 10
-21.5148657637
 20
22.6518848398
 30
0.0
 10
-21.5112601126
 20
22.6544934357
 30
0.0
 10
-21.5074096095
 20
22.6564461056
 30
0.0
 10
-21.5042980403
 20
22.6575293839
 30
0.0
 10
-21.501976083
 20
22.6581039089
 30
0.0
 10
-21.4996424025
 20
22.6584495504
 30
0.0
 10
-21.4980800639
 20
22.6585266961
 30
0.0
 10
-21.497302224
 20
22.6585266961
 30
0.0
  0
SPLINE
  5
522
100
AcDbEntity
  8
0
100
AcDbSpline
 62
7
  6
CONTINUOUS
 70
0
 71
3
 72
28
 73
24
 74
0
 42
0.0000001
 43
0.0000001
 44
0.0000000001
 40
0.0
 40
0.0
 40
0.0
 40
0.0
 40
0.0809538291
 40
0.1613813644
 40
0.2406203138
 40
0.3181401174
 40
0.3934339808
 40
0.4660114845
 40
0.5354465657
 40
0.601381138
 40
0.6329553309
 40
0.6635612855
 40
0.6931812056
 40
0.7218083152
 40
0.7760736811
 40
0.8017638312
 40
0.8265284098
 40
0.8734496737
 40
0.9174196222
 40
0.9385589469
 40
0.9592787635
 40
0.9797122304
 40
1.0
 40
1.0
 40
1.0
 40
1.0
 10
-21.544802224
 20
22.5635266961
 30
0.0
 10
-21.544802224
 20
22.5604228993
 30
0.0
 10
-21.5446503244
 20
22.5542344152
 30
0.0
 10
-21.5439708975
 20
22.5450303761
 30
0.0
 10
-21.5428442935
 20
22.5360025645
 30
0.0
 10
-21.5412825266
 20
22.5272394489
 30
0.0
 10
-21.5393007544
 20
22.5188234507
 30
0.0
 10
-21.5369171946
 20
22.51083463
 30
0.0
 10
-21.5341553973
 20
22.5033494962
 30
0.0
 10
-21.5315224376
 20
22.4975082731
 30
0.0
 10
-21.529240934
 20
22.4931569685
 30
0.0
 10
-21.5274775446
 20
22.49010969
 30
0.0
 10
-21.525641082
 20
22.4872388217
 30
0.0
 10
-21.5231462512
 20
22.4837184651
 30
0.0
 10
-21.5204859551
 20
22.4805033067
 30
0.0
 10
-21.5176578417
 20
22.4776500933
 30
0.0
 10
-21.5148657637
 20
22.4751685525
 30
0.0
 10
-21.5112601126
 20
22.4725599566
 30
0.0
 10
-21.5074096095
 20
22.4706072867
 30
0.0
 10
-21.5042980403
 20
22.4695240084
 30
0.0
 10
-21.501976083
 20
22.4689494834
 30
0.0
 10
-21.4996424025
 20
22.4686038419
 30
0.0
 10
-21.4980800639
 20
22.4685266961
 30
0.0
 10
-21.497302224
 20
22.4685266961
 30
0.0
  0
SPLINE
  5
523
100
AcDbEntity
  8
0
100
AcDbSpline
 62
7
  6
CONTINUOUS
 70
0
 71
3
 72
48
 73
44
 74
0
 42
0.0000001
 43
0.0000001
 44
0.0000000001
 40
0.0
 40
0.0
 40
0.0
 40
0.0
 40
0.0434505608
 40
0.0867489443
 40
0.1296894134
 40
0.1721059677
 40
0.2138412953
 40
0.2547363219
 40
0.2946389744
 40
0.3334114972
 40
0.3709278872
 40
0.4070781225
 40
0.4417690476
 40
0.4749301402
 40
0.5065147373
 40
0.5365063788
 40
0.55091162
 40
0.5649286106
 40
0.5918257883
 40
0.6173071701
 40
0.6415266156
 40
0.6646922829
 40
0.6759663329
 40
0.6870790299
 40
0.6980703734
 40
0.7089821271
 40
0.719857322
 40
0.7307397784
 40
0.7416731319
 40
0.7527000386
 40
0.7638617577
 40
0.7751974626
 40
0.7985205301
 40
0.8229357668
 40
0.8356218101
 40
0.8486506313
 40
0.8620391071
 40
0.8758006497
 40
0.8899451639
 40
0.9044801783
 40
0.9347350424
 40
0.9665820077
 40
1.0
 40
1.0
 40
1.0
 40
1.0
 10
-21.144469014
 20
22.5635266961
 30
0.0
 10
-21.144469014
 20
22.5682892362
 30
0.0
 10
-21.1442945265
 20
22.5777985517
 30
0.0
 10
-21.1435127005
 20
22.5919951455
 30
0.0
 10
-21.1422129355
 20
22.6060401866
 30
0.0
 10
-21.1404036132
 20
22.6198560113
 30
0.0
 10
-21.138093643
 20
22.6333697839
 30
0.0
 10
-21.1352964307
 20
22.6465098116
 30
0.0
 10
-21.132025658
 20
22.6592052532
 30
0.0
 10
-21.128300043
 20
22.6713883793
 30
0.0
 10
-21.124138427
 20
22.682993996
 30
0.0
 10
-21.1195639279
 20
22.6939605796
 30
0.0
 10
-21.1145998076
 20
22.7042293822
 30
0.0
 10
-21.1092729872
 20
22.7137463682
 30
0.0
 10
-21.1036107012
 20
22.7224602196
 30
0.0
 10
-21.0985711614
 20
22.7291020481
 30
0.0
 10
-21.0943925588
 20
22.7339554974
 30
0.0
 10
-21.0902421371
 20
22.7383778956
 30
0.0
 10
-21.0849092958
 20
22.7433472406
 30
0.0
 10
-21.0782081836
 20
22.7484315468
 30
0.0
 10
-21.0713287125
 20
22.7525241746
 30
0.0
 10
-21.065420301
 20
22.7551097631
 30
0.0
 10
-21.0606634434
 20
22.7566379445
 30
0.0
 10
-21.0571080068
 20
22.7575133874
 30
0.0
 10
-21.0535385117
 20
22.7581272076
 30
0.0
 10
-21.0499597717
 20
22.7584786864
 30
0.0
 10
-21.0463767986
 20
22.7585669869
 30
0.0
 10
-21.0427946714
 20
22.7583915837
 30
0.0
 10
-21.03921843
 20
22.7579533076
 30
0.0
 10
-21.0356530634
 20
22.7572529526
 30
0.0
 10
-21.0321034367
 20
22.7562911951
 30
0.0
 10
-21.0273543646
 20
22.7546469261
 30
0.0
 10
-21.0214615256
 20
22.751917597
 30
0.0
 10
-21.0158233103
 20
22.7484134218
 30
0.0
 10
-21.0114074648
 20
22.7451402022
 30
0.0
 10
-21.0081010491
 20
22.7424098343
 30
0.0
 10
-21.0048476336
 20
22.7394391857
 30
0.0
 10
-21.0016513488
 20
22.7362322048
 30
0.0
 10
-20.9985161768
 20
22.7327935083
 30
0.0
 10
-20.9943678101
 20
22.7278397868
 30
0.0
 10
-20.9893696809
 20
22.7210773331
 30
0.0
 10
-20.9837608425
 20
22.7122279009
 30
0.0
 10
-20.9803288796
 20
22.7059451374
 30
0.0
 10
-20.978666486
 20
22.7026812143
 30
0.0
  0
SPLINE
  5
524
100
AcDbEntity
  8
0
100
AcDbSpline
 62
7
  6
CONTINUOUS
 70
0
 71
3
 72
48
 73
44
 74
0
 42
0.0000001
 43
0.0000001
 44
0.0000000001
 40
0.0
 40
0.0
 40
0.0
 40
0.0
 40
0.0434505608
 40
0.0867489443
 40
0.1296894134
 40
0.1721059677
 40
0.2138412953
 40
0.2547363219
 40
0.2946389744
 40
0.3334114972
 40
0.3709278872
 40
0.4070781225
 40
0.4417690476
 40
0.4749301402
 40
0.5065147373
 40
0.5365063788
 40
0.55091162
 40
0.5649286106
 40
0.5918257883
 40
0.6173071701
 40
0.6415266156
 40
0.6646922829
 40
0.6759663329
 40
0.6870790299
 40
0.6980703734
 40
0.7089821271
 40
0.719857322
 40
0.7307397784
 40
0.7416731319
 40
0.7527000386
 40
0.7638617577
 40
0.7751974626
 40
0.7985205301
 40
0.8229357668
 40
0.8356218101
 40
0.8486506313
 40
0.8620391071
 40
0.8758006497
 40
0.8899451639
 40
0.9044801783
 40
0.9347350424
 40
0.9665820077
 40
1.0
 40
1.0
 40
1.0
 40
1.0
 10
-21.144469014
 20
22.5635266961
 30
0.0
 10
-21.144469014
 20
22.5587641561
 30
0.0
 10
-21.1442945265
 20
22.5492548406
 30
0.0
 10
-21.1435127005
 20
22.5350582467
 30
0.0
 10
-21.1422129355
 20
22.5210132057
 30
0.0
 10
-21.1404036132
 20
22.507197381
 30
0.0
 10
-21.138093643
 20
22.4936836084
 30
0.0
 10
-21.1352964307
 20
22.4805435807
 30
0.0
 10
-21.132025658
 20
22.4678481391
 30
0.0
 10
-21.128300043
 20
22.455665013
 30
0.0
 10
-21.124138427
 20
22.4440593963
 30
0.0
 10
-21.1195639279
 20
22.4330928127
 30
0.0
 10
-21.1145998076
 20
22.4228240101
 30
0.0
 10
-21.1092729872
 20
22.4133070241
 30
0.0
 10
-21.1036107012
 20
22.4045931727
 30
0.0
 10
-21.0985711614
 20
22.3979513442
 30
0.0
 10
-21.0943925588
 20
22.3930978949
 30
0.0
 10
-21.0902421371
 20
22.3886754967
 30
0.0
 10
-21.0849092958
 20
22.3837061517
 30
0.0
 10
-21.0782081836
 20
22.3786218455
 30
0.0
 10
-21.0713287125
 20
22.3745292177
 30
0.0
 10
-21.065420301
 20
22.3719436292
 30
0.0
 10
-21.0606634434
 20
22.3704154478
 30
0.0
 10
-21.0571080068
 20
22.3695400049
 30
0.0
 10
-21.0535385117
 20
22.3689261847
 30
0.0
 10
-21.0499597717
 20
22.3685747059
 30
0.0
 10
-21.0463767986
 20
22.3684864054
 30
0.0
 10
-21.0427946714
 20
22.3686618086
 30
0.0
 10
-21.03921843
 20
22.3691000847
 30
0.0
 10
-21.0356530634
 20
22.3698004397
 30
0.0
 10
-21.0321034367
 20
22.3707621972
 30
0.0
 10
-21.0273543646
 20
22.3724064662
 30
0.0
 10
-21.0214615256
 20
22.3751357953
 30
0.0
 10
-21.0158233103
 20
22.3786399705
 30
0.0
 10
-21.0114074648
 20
22.3819131901
 30
0.0
 10
-21.0081010491
 20
22.384643558
 30
0.0
 10
-21.0048476336
 20
22.3876142066
 30
0.0
 10
-21.0016513488
 20
22.3908211875
 30
0.0
 10
-20.9985161768
 20
22.394259884
 30
0.0
 10
-20.9943678101
 20
22.3992136055
 30
0.0
 10
-20.9893696809
 20
22.4059760592
 30
0.0
 10
-20.9837608425
 20
22.4148254914
 30
0.0
 10
-20.9803288796
 20
22.4211082549
 30
0.0
 10
-20.978666486
 20
22.424372178
 30
0.0
  0
SPLINE
  5
525
100
AcDbEntity
  8
0
100
AcDbSpline
 62
7
  6
CONTINUOUS
 70
0
 71
3
 72
20
 73
16
 74
0
 42
0.0000001
 43
0.0000001
 44
0.0000000001
 40
0.0
 40
0.0
 40
0.0
 40
0.0
 40
0.0624510153
 40
0.1250358108
 40
0.1875892898
 40
0.2501131682
 40
0.3126275778
 40
0.3751444506
 40
0.437682982
 40
0.5002027013
 40
0.5627223417
 40
0.6252433535
 40
0.7501308459
 40
0.8751337096
 40
1.0
 40
1.0
 40
1.0
 40
1.0
 10
-28.1808532777
 20
20.2466266961
 30
0.0
 10
-28.1808532777
 20
20.2473986279
 30
0.0
 10
-28.1809493956
 20
20.2489456867
 30
0.0
 10
-28.1813707284
 20
20.2512312115
 30
0.0
 10
-28.1820639322
 20
20.2534506711
 30
0.0
 10
-28.1830106216
 20
20.2555728903
 30
0.0
 10
-28.1841893241
 20
20.2575747085
 30
0.0
 10
-28.1855786515
 20
20.2594362477
 30
0.0
 10
-28.1871526421
 20
20.2611440919
 30
0.0
 10
-28.1888890208
 20
20.2626861189
 30
0.0
 10
-28.1907644461
 20
20.2640549919
 30
0.0
 10
-28.1934186438
 20
20.2656425816
 30
0.0
 10
-28.1969851087
 20
20.2671774614
 30
0.0
 10
-28.2015035574
 20
20.2682805697
 30
0.0
 10
-28.2045977977
 20
20.2685266961
 30
0.0
 10
-28.2061412195
 20
20.2685266961
 30
0.0
  0
SPLINE
  5
526
100
AcDbEntity
  8
0
100
AcDbSpline
 62
7
  6
CONTINUOUS
 70
0
 71
3
 72
20
 73
16
 74
0
 42
0.0000001
 43
0.0000001
 44
0.0000000001
 40
0.0
 40
0.0
 40
0.0
 40
0.0
 40
0.0624510153
 40
0.1250358108
 40
0.1875892898
 40
0.2501131682
 40
0.3126275778
 40
0.3751444506
 40
0.437682982
 40
0.5002027013
 40
0.5627223417
 40
0.6252433535
 40
0.7501308459
 40
0.8751337096
 40
1.0
 40
1.0
 40
1.0
 40
1.0
 10
-27.7478405758
 20
20.2466266961
 30
0.0
 10
-27.7478405758
 20
20.2473986279
 30
0.0
 10
-27.7477444579
 20
20.2489456867
 30
0.0
 10
-27.7473231252
 20
20.2512312115
 30
0.0
 10
-27.7466299214
 20
20.2534506711
 30
0.0
 10
-27.745683232
 20
20.2555728903
 30
0.0
 10
-27.7445045294
 20
20.2575747085
 30
0.0
 10
-27.7431152021
 20
20.2594362477
 30
0.0
 10
-27.7415412114
 20
20.2611440919
 30
0.0
 10
-27.7398048327
 20
20.2626861189
 30
0.0
 10
-27.7379294075
 20
20.2640549919
 30
0.0
 10
-27.7352752098
 20
20.2656425816
 30
0.0
 10
-27.7317087448
 20
20.2671774614
 30
0.0
 10
-27.7271902961
 20
20.2682805697
 30
0.0
 10
-27.7240960558
 20
20.2685266961
 30
0.0
 10
-27.722552634
 20
20.2685266961
 30
0.0
  0
SPLINE
  5
527
100
AcDbEntity
  8
0
100
AcDbSpline
 62
7
  6
CONTINUOUS
 70
0
 71
3
 72
21
 73
17
 74
0
 42
0.0000001
 43
0.0000001
 44
0.0000000001
 40
0.0
 40
0.0
 40
0.0
 40
0.0
 40
0.1249878024
 40
0.1874878899
 40
0.2499891327
 40
0.3124908104
 40
0.3749936014
 40
0.4374965966
 40
0.5
 40
0.5625034034
 40
0.6250063986
 40
0.6875091896
 40
0.7500108673
 40
0.8125121101
 40
0.8750121976
 40
1.0
 40
1.0
 40
1.0
 40
1.0
 10
-28.0726001022
 20
20.0955621958
 30
0.0
 10
-28.063801665
 20
20.0930223058
 30
0.0
 10
-28.0505060476
 20
20.0895320968
 30
0.0
 10
-28.0325954525
 20
20.0856861693
 30
0.0
 10
-28.0190724031
 20
20.0832486143
 30
0.0
 10
-28.0054698783
 20
20.0812993906
 30
0.0
 10
-27.9918016843
 20
20.0798764015
 30
0.0
 10
-27.978086547
 20
20.0790098636
 30
0.0
 10
-27.9643469268
 20
20.0787181248
 30
0.0
 10
-27.9506073066
 20
20.0790098636
 30
0.0
 10
-27.9368921692
 20
20.0798764015
 30
0.0
 10
-27.9232239753
 20
20.0812993906
 30
0.0
 10
-27.9096214505
 20
20.0832486143
 30
0.0
 10
-27.896098401
 20
20.0856861693
 30
0.0
 10
-27.8781878059
 20
20.0895320968
 30
0.0
 10
-27.8648921885
 20
20.0930223058
 30
0.0
 10
-27.8560937513
 20
20.0955621958
 30
0.0
  0
SPLINE
  5
528
100
AcDbEntity
  8
0
100
AcDbSpline
 62
7
  6
CONTINUOUS
 70
0
 71
3
 72
20
 73
16
 74
0
 42
0.0000001
 43
0.0000001
 44
0.0000000001
 40
0.0
 40
0.0
 40
0.0
 40
0.0
 40
0.0837825316
 40
0.1668205226
 40
0.3265531609
 40
0.4737997088
 40
0.605775902
 40
0.6658290323
 40
0.7220447888
 40
0.7746430092
 40
0.824011642
 40
0.8706339298
 40
0.915072831
 40
0.9579636695
 40
1.0
 40
1.0
 40
1.0
 40
1.0
 10
-27.8560937513
 20
20.2466266961
 30
0.0
 10
-27.8560937513
 20
20.2473975373
 30
0.0
 10
-27.8560463153
 20
20.2489328439
 30
0.0
 10
-27.8557718594
 20
20.2519260548
 30
0.0
 10
-27.8551146843
 20
20.2554647309
 30
0.0
 10
-27.8538577816
 20
20.259315278
 30
0.0
 10
-27.8524568294
 20
20.2621218358
 30
0.0
 10
-27.8511702203
 20
20.2640124882
 30
0.0
 10
-27.8501759975
 20
20.2652098114
 30
0.0
 10
-27.8491315457
 20
20.2662275634
 30
0.0
 10
-27.8480454218
 20
20.2670634006
 30
0.0
 10
-27.846925691
 20
20.2677157377
 30
0.0
 10
-27.8457804605
 20
20.2681828422
 30
0.0
 10
-27.8446192688
 20
20.2684637879
 30
0.0
 10
-27.8438365356
 20
20.2685266961
 30
0.0
 10
-27.8434497804
 20
20.2685266961
 30
0.0
  0
SPLINE
  5
529
100
AcDbEntity
  8
0
100
AcDbSpline
 62
7
  6
CONTINUOUS
 70
0
 71
3
 72
11
 73
7
 74
0
 42
0.0000001
 43
0.0000001
 44
0.0000000001
 40
0.0
 40
0.0
 40
0.0
 40
0.0
 40
0.2572860881
 40
0.5096780896
 40
0.7571556577
 40
1.0
 40
1.0
 40
1.0
 40
1.0
 10
-28.1808532777
 20
20.0955621958
 30
0.0
 10
-28.1783594701
 20
20.0941223953
 30
0.0
 10
-28.1733544496
 20
20.0913801178
 30
0.0
 10
-28.1657123645
 20
20.0877072341
 30
0.0
 10
-28.1580055496
 20
20.0845766254
 30
0.0
 10
-28.1527799708
 20
20.0828795909
 30
0.0
 10
-28.1501627068
 20
20.0821466053
 30
0.0
  0
SPLINE
  5
52A
100
AcDbEntity
  8
0
100
AcDbSpline
 62
7
  6
CONTINUOUS
 70
0
 71
3
 72
19
 73
15
 74
0
 42
0.0000001
 43
0.0000001
 44
0.0000000001
 40
0.0
 40
0.0
 40
0.0
 40
0.0
 40
0.1228781095
 40
0.183704646
 40
0.2442904954
 40
0.3047879769
 40
0.3653556749
 40
0.4261469538
 40
0.4873049404
 40
0.5489546854
 40
0.6111988128
 40
0.7377340531
 40
0.867314928
 40
1.0
 40
1.0
 40
1.0
 40
1.0
 10
-28.1485541858
 20
20.0817107575
 30
0.0
 10
-28.1454084209
 20
20.0808871204
 30
0.0
 10
-28.1406371879
 20
20.0798918171
 30
0.0
 10
-28.1342167016
 20
20.0791136792
 30
0.0
 10
-28.1294091997
 20
20.0788123723
 30
0.0
 10
-28.1245992976
 20
20.0787958215
 30
0.0
 10
-28.1197914335
 20
20.0790645139
 30
0.0
 10
-28.1149900498
 20
20.0796140925
 30
0.0
 10
-28.1101995636
 20
20.080440091
 30
0.0
 10
-28.105423269
 20
20.0815317517
 30
0.0
 10
-28.0990443694
 20
20.0833379606
 30
0.0
 10
-28.0911125272
 20
20.0862145222
 30
0.0
 10
-28.0817484083
 20
20.0904989275
 30
0.0
 10
-28.075641003
 20
20.093806531
 30
0.0
 10
-28.0726001022
 20
20.0955621958
 30
0.0
  0
SPLINE
  5
52B
100
AcDbEntity
  8
0
100
AcDbSpline
 62
7
  6
CONTINUOUS
 70
0
 71
3
 72
20
 73
16
 74
0
 42
0.0000001
 43
0.0000001
 44
0.0000000001
 40
0.0
 40
0.0
 40
0.0
 40
0.0
 40
0.0837825316
 40
0.1668205226
 40
0.3265531609
 40
0.4737997088
 40
0.605775902
 40
0.6658290323
 40
0.7220447888
 40
0.7746430092
 40
0.824011642
 40
0.8706339298
 40
0.915072831
 40
0.9579636695
 40
1.0
 40
1.0
 40
1.0
 40
1.0
 10
-28.0726001022
 20
20.2466266961
 30
0.0
 10
-28.0726001022
 20
20.2473975373
 30
0.0
 10
-28.0726475382
 20
20.2489328439
 30
0.0
 10
-28.0729219941
 20
20.2519260548
 30
0.0
 10
-28.0735791692
 20
20.2554647309
 30
0.0
 10
-28.074836072
 20
20.259315278
 30
0.0
 10
-28.0762370241
 20
20.2621218358
 30
0.0
 10
-28.0775236332
 20
20.2640124882
 30
0.0
 10
-28.0785178561
 20
20.2652098114
 30
0.0
 10
-28.0795623079
 20
20.2662275634
 30
0.0
 10
-28.0806484317
 20
20.2670634006
 30
0.0
 10
-28.0817681626
 20
20.2677157377
 30
0.0
 10
-28.082913393
 20
20.2681828422
 30
0.0
 10
-28.0840745847
 20
20.2684637879
 30
0.0
 10
-28.0848573179
 20
20.2685266961
 30
0.0
 10
-28.0852440731
 20
20.2685266961
 30
0.0
  0
SPLINE
  5
52C
100
AcDbEntity
  8
0
100
AcDbSpline
 62
7
  6
CONTINUOUS
 70
0
 71
3
 72
19
 73
15
 74
0
 42
0.0000001
 43
0.0000001
 44
0.0000000001
 40
0.0
 40
0.0
 40
0.0
 40
0.0
 40
0.132685072
 40
0.2622659469
 40
0.3888011872
 40
0.4510453146
 40
0.5126950596
 40
0.5738530462
 40
0.6346443251
 40
0.6952120231
 40
0.7557095046
 40
0.816295354
 40
0.8771218905
 40
1.0
 40
1.0
 40
1.0
 40
1.0
 10
-27.8560937513
 20
20.0955621958
 30
0.0
 10
-27.8530528506
 20
20.093806531
 30
0.0
 10
-27.8469454453
 20
20.0904989275
 30
0.0
 10
-27.8375813263
 20
20.0862145222
 30
0.0
 10
-27.8296494841
 20
20.0833379606
 30
0.0
 10
-27.8232705845
 20
20.0815317517
 30
0.0
 10
-27.8184942899
 20
20.080440091
 30
0.0
 10
-27.8137038037
 20
20.0796140925
 30
0.0
 10
-27.8089024201
 20
20.0790645139
 30
0.0
 10
-27.8040945559
 20
20.0787958215
 30
0.0
 10
-27.7992846539
 20
20.0788123723
 30
0.0
 10
-27.794477152
 20
20.0791136792
 30
0.0
 10
-27.7880566656
 20
20.0798918171
 30
0.0
 10
-27.7832854327
 20
20.0808871204
 30
0.0
 10
-27.7801396678
 20
20.0817107575
 30
0.0
  0
SPLINE
  5
52D
100
AcDbEntity
  8
0
100
AcDbSpline
 62
7
  6
CONTINUOUS
 70
0
 71
3
 72
11
 73
7
 74
0
 42
0.0000001
 43
0.0000001
 44
0.0000000001
 40
0.0
 40
0.0
 40
0.0
 40
0.0
 40
0.242525876
 40
0.489855189
 40
0.7423461086
 40
1.0
 40
1.0
 40
1.0
 40
1.0
 10
-27.7801396678
 20
20.0817107575
 30
0.0
 10
-27.7773835327
 20
20.0824323801
 30
0.0
 10
-27.7718789109
 20
20.0841363415
 30
0.0
 10
-27.7637651698
 20
20.0873515229
 30
0.0
 10
-27.7557234528
 20
20.091173728
 30
0.0
 10
-27.7504618205
 20
20.0940488195
 30
0.0
 10
-27.7478405758
 20
20.0955621958
 30
0.0
  0
SPLINE
  5
52E
100
AcDbEntity
  8
0
100
AcDbSpline
 62
7
  6
CONTINUOUS
 70
0
 71
3
 72
20
 73
16
 74
0
 42
0.0000001
 43
0.0000001
 44
0.0000000001
 40
0.0
 40
0.0
 40
0.0
 40
0.0
 40
0.0624510153
 40
0.1250358108
 40
0.1875892898
 40
0.2501131682
 40
0.3126275778
 40
0.3751444506
 40
0.437682982
 40
0.5002027013
 40
0.5627223417
 40
0.6252433535
 40
0.7501308459
 40
0.8751337096
 40
1.0
 40
1.0
 40
1.0
 40
1.0
 10
-23.201207206
 20
20.2466266961
 30
0.0
 10
-23.201207206
 20
20.2473986279
 30
0.0
 10
-23.2013033238
 20
20.2489456867
 30
0.0
 10
-23.2017246566
 20
20.2512312115
 30
0.0
 10
-23.2024178604
 20
20.2534506711
 30
0.0
 10
-23.2033645498
 20
20.2555728903
 30
0.0
 10
-23.2045432524
 20
20.2575747085
 30
0.0
 10
-23.2059325797
 20
20.2594362477
 30
0.0
 10
-23.2075065704
 20
20.2611440919
 30
0.0
 10
-23.2092429491
 20
20.2626861189
 30
0.0
 10
-23.2111183743
 20
20.2640549919
 30
0.0
 10
-23.213772572
 20
20.2656425816
 30
0.0
 10
-23.217339037
 20
20.2671774614
 30
0.0
 10
-23.2218574857
 20
20.2682805697
 30
0.0
 10
-23.2249517259
 20
20.2685266961
 30
0.0
 10
-23.2264951477
 20
20.2685266961
 30
0.0
  0
SPLINE
  5
52F
100
AcDbEntity
  8
0
100
AcDbSpline
 62
7
  6
CONTINUOUS
 70
0
 71
3
 72
20
 73
16
 74
0
 42
0.0000001
 43
0.0000001
 44
0.0000000001
 40
0.0
 40
0.0
 40
0.0
 40
0.0
 40
0.0624510153
 40
0.1250358108
 40
0.1875892898
 40
0.2501131682
 40
0.3126275778
 40
0.3751444506
 40
0.437682982
 40
0.5002027013
 40
0.5627223417
 40
0.6252433535
 40
0.7501308459
 40
0.8751337096
 40
1.0
 40
1.0
 40
1.0
 40
1.0
 10
-22.7681945041
 20
20.2466266961
 30
0.0
 10
-22.7681945041
 20
20.2473986279
 30
0.0
 10
-22.7680983862
 20
20.2489456867
 30
0.0
 10
-22.7676770534
 20
20.2512312115
 30
0.0
 10
-22.7669838496
 20
20.2534506711
 30
0.0
 10
-22.7660371602
 20
20.2555728903
 30
0.0
 10
-22.7648584576
 20
20.2575747085
 30
0.0
 10
-22.7634691303
 20
20.2594362477
 30
0.0
 10
-22.7618951396
 20
20.2611440919
 30
0.0
 10
-22.760158761
 20
20.2626861189
 30
0.0
 10
-22.7582833357
 20
20.2640549919
 30
0.0
 10
-22.755629138
 20
20.2656425816
 30
0.0
 10
-22.752062673
 20
20.2671774614
 30
0.0
 10
-22.7475442244
 20
20.2682805697
 30
0.0
 10
-22.7444499841
 20
20.2685266961
 30
0.0
 10
-22.7429065623
 20
20.2685266961
 30
0.0
  0
SPLINE
  5
530
100
AcDbEntity
  8
0
100
AcDbSpline
 62
7
  6
CONTINUOUS
 70
0
 71
3
 72
21
 73
17
 74
0
 42
0.0000001
 43
0.0000001
 44
0.0000000001
 40
0.0
 40
0.0
 40
0.0
 40
0.0
 40
0.1249878024
 40
0.1874878899
 40
0.2499891327
 40
0.3124908104
 40
0.3749936014
 40
0.4374965966
 40
0.5
 40
0.5625034034
 40
0.6250063986
 40
0.6875091896
 40
0.7500108673
 40
0.8125121101
 40
0.8750121976
 40
1.0
 40
1.0
 40
1.0
 40
1.0
 10
-23.0929540305
 20
20.0955621958
 30
0.0
 10
-23.0841555933
 20
20.0930223058
 30
0.0
 10
-23.0708599758
 20
20.0895320968
 30
0.0
 10
-23.0529493808
 20
20.0856861693
 30
0.0
 10
-23.0394263313
 20
20.0832486143
 30
0.0
 10
-23.0258238065
 20
20.0812993906
 30
0.0
 10
-23.0121556125
 20
20.0798764015
 30
0.0
 10
-22.9984404752
 20
20.0790098636
 30
0.0
 10
-22.984700855
 20
20.0787181248
 30
0.0
 10
-22.9709612348
 20
20.0790098636
 30
0.0
 10
-22.9572460975
 20
20.0798764015
 30
0.0
 10
-22.9435779035
 20
20.0812993906
 30
0.0
 10
-22.9299753787
 20
20.0832486143
 30
0.0
 10
-22.9164523293
 20
20.0856861693
 30
0.0
 10
-22.8985417342
 20
20.0895320968
 30
0.0
 10
-22.8852461167
 20
20.0930223058
 30
0.0
 10
-22.8764476795
 20
20.0955621958
 30
0.0
  0
SPLINE
  5
531
100
AcDbEntity
  8
0
100
AcDbSpline
 62
7
  6
CONTINUOUS
 70
0
 71
3
 72
20
 73
16
 74
0
 42
0.0000001
 43
0.0000001
 44
0.0000000001
 40
0.0
 40
0.0
 40
0.0
 40
0.0
 40
0.0837825316
 40
0.1668205226
 40
0.3265531609
 40
0.4737997088
 40
0.605775902
 40
0.6658290323
 40
0.7220447888
 40
0.7746430092
 40
0.824011642
 40
0.8706339298
 40
0.915072831
 40
0.9579636695
 40
1.0
 40
1.0
 40
1.0
 40
1.0
 10
-22.8764476795
 20
20.2466266961
 30
0.0
 10
-22.8764476795
 20
20.2473975373
 30
0.0
 10
-22.8764002436
 20
20.2489328439
 30
0.0
 10
-22.8761257877
 20
20.2519260548
 30
0.0
 10
-22.8754686126
 20
20.2554647309
 30
0.0
 10
-22.8742117098
 20
20.259315278
 30
0.0
 10
-22.8728107576
 20
20.2621218358
 30
0.0
 10
-22.8715241486
 20
20.2640124882
 30
0.0
 10
-22.8705299257
 20
20.2652098114
 30
0.0
 10
-22.8694854739
 20
20.2662275634
 30
0.0
 10
-22.8683993501
 20
20.2670634006
 30
0.0
 10
-22.8672796192
 20
20.2677157377
 30
0.0
 10
-22.8661343887
 20
20.2681828422
 30
0.0
 10
-22.864973197
 20
20.2684637879
 30
0.0
 10
-22.8641904639
 20
20.2685266961
 30
0.0
 10
-22.8638037086
 20
20.2685266961
 30
0.0
  0
SPLINE
  5
532
100
AcDbEntity
  8
0
100
AcDbSpline
 62
7
  6
CONTINUOUS
 70
0
 71
3
 72
11
 73
7
 74
0
 42
0.0000001
 43
0.0000001
 44
0.0000000001
 40
0.0
 40
0.0
 40
0.0
 40
0.0
 40
0.2572860881
 40
0.5096780896
 40
0.7571556577
 40
1.0
 40
1.0
 40
1.0
 40
1.0
 10
-23.201207206
 20
20.0955621958
 30
0.0
 10
-23.1987133984
 20
20.0941223953
 30
0.0
 10
-23.1937083778
 20
20.0913801178
 30
0.0
 10
-23.1860662927
 20
20.0877072341
 30
0.0
 10
-23.1783594778
 20
20.0845766254
 30
0.0
 10
-23.173133899
 20
20.0828795909
 30
0.0
 10
-23.1705166351
 20
20.0821466053
 30
0.0
  0
SPLINE
  5
533
100
AcDbEntity
  8
0
100
AcDbSpline
 62
7
  6
CONTINUOUS
 70
0
 71
3
 72
19
 73
15
 74
0
 42
0.0000001
 43
0.0000001
 44
0.0000000001
 40
0.0
 40
0.0
 40
0.0
 40
0.0
 40
0.1228781095
 40
0.183704646
 40
0.2442904954
 40
0.3047879769
 40
0.3653556749
 40
0.4261469538
 40
0.4873049404
 40
0.5489546854
 40
0.6111988128
 40
0.7377340531
 40
0.867314928
 40
1.0
 40
1.0
 40
1.0
 40
1.0
 10
-23.168908114
 20
20.0817107575
 30
0.0
 10
-23.1657623491
 20
20.0808871204
 30
0.0
 10
-23.1609911162
 20
20.0798918171
 30
0.0
 10
-23.1545706298
 20
20.0791136792
 30
0.0
 10
-23.1497631279
 20
20.0788123723
 30
0.0
 10
-23.1449532258
 20
20.0787958215
 30
0.0
 10
-23.1401453617
 20
20.0790645139
 30
0.0
 10
-23.135343978
 20
20.0796140925
 30
0.0
 10
-23.1305534918
 20
20.080440091
 30
0.0
 10
-23.1257771973
 20
20.0815317517
 30
0.0
 10
-23.1193982977
 20
20.0833379606
 30
0.0
 10
-23.1114664554
 20
20.0862145222
 30
0.0
 10
-23.1021023365
 20
20.0904989275
 30
0.0
 10
-23.0959949312
 20
20.093806531
 30
0.0
 10
-23.0929540305
 20
20.0955621958
 30
0.0
  0
SPLINE
  5
534
100
AcDbEntity
  8
0
100
AcDbSpline
 62
7
  6
CONTINUOUS
 70
0
 71
3
 72
20
 73
16
 74
0
 42
0.0000001
 43
0.0000001
 44
0.0000000001
 40
0.0
 40
0.0
 40
0.0
 40
0.0
 40
0.0837825316
 40
0.1668205226
 40
0.3265531609
 40
0.4737997088
 40
0.605775902
 40
0.6658290323
 40
0.7220447888
 40
0.7746430092
 40
0.824011642
 40
0.8706339298
 40
0.915072831
 40
0.9579636695
 40
1.0
 40
1.0
 40
1.0
 40
1.0
 10
-23.0929540305
 20
20.2466266961
 30
0.0
 10
-23.0929540305
 20
20.2473975373
 30
0.0
 10
-23.0930014665
 20
20.2489328439
 30
0.0
 10
-23.0932759223
 20
20.2519260548
 30
0.0
 10
-23.0939330974
 20
20.2554647309
 30
0.0
 10
-23.0951900002
 20
20.259315278
 30
0.0
 10
-23.0965909524
 20
20.2621218358
 30
0.0
 10
-23.0978775615
 20
20.2640124882
 30
0.0
 10
-23.0988717843
 20
20.2652098114
 30
0.0
 10
-23.0999162361
 20
20.2662275634
 30
0.0
 10
-23.10100236
 20
20.2670634006
 30
0.0
 10
-23.1021220908
 20
20.2677157377
 30
0.0
 10
-23.1032673213
 20
20.2681828422
 30
0.0
 10
-23.104428513
 20
20.2684637879
 30
0.0
 10
-23.1052112461
 20
20.2685266961
 30
0.0
 10
-23.1055980014
 20
20.2685266961
 30
0.0
  0
SPLINE
  5
535
100
AcDbEntity
  8
0
100
AcDbSpline
 62
7
  6
CONTINUOUS
 70
0
 71
3
 72
19
 73
15
 74
0
 42
0.0000001
 43
0.0000001
 44
0.0000000001
 40
0.0
 40
0.0
 40
0.0
 40
0.0
 40
0.132685072
 40
0.2622659469
 40
0.3888011872
 40
0.4510453146
 40
0.5126950596
 40
0.5738530462
 40
0.6346443251
 40
0.6952120231
 40
0.7557095046
 40
0.816295354
 40
0.8771218905
 40
1.0
 40
1.0
 40
1.0
 40
1.0
 10
-22.8764476795
 20
20.0955621958
 30
0.0
 10
-22.8734067788
 20
20.093806531
 30
0.0
 10
-22.8672993735
 20
20.0904989275
 30
0.0
 10
-22.8579352546
 20
20.0862145222
 30
0.0
 10
-22.8500034123
 20
20.0833379606
 30
0.0
 10
-22.8436245127
 20
20.0815317517
 30
0.0
 10
-22.8388482182
 20
20.080440091
 30
0.0
 10
-22.834057732
 20
20.0796140925
 30
0.0
 10
-22.8292563483
 20
20.0790645139
 30
0.0
 10
-22.8244484842
 20
20.0787958215
 30
0.0
 10
-22.8196385821
 20
20.0788123723
 30
0.0
 10
-22.8148310802
 20
20.0791136792
 30
0.0
 10
-22.8084105938
 20
20.0798918171
 30
0.0
 10
-22.8036393609
 20
20.0808871204
 30
0.0
 10
-22.800493596
 20
20.0817107575
 30
0.0
  0
SPLINE
  5
536
100
AcDbEntity
  8
0
100
AcDbSpline
 62
7
  6
CONTINUOUS
 70
0
 71
3
 72
11
 73
7
 74
0
 42
0.0000001
 43
0.0000001
 44
0.0000000001
 40
0.0
 40
0.0
 40
0.0
 40
0.0
 40
0.242525876
 40
0.489855189
 40
0.7423461086
 40
1.0
 40
1.0
 40
1.0
 40
1.0
 10
-22.800493596
 20
20.0817107575
 30
0.0
 10
-22.7977374609
 20
20.0824323801
 30
0.0
 10
-22.7922328391
 20
20.0841363415
 30
0.0
 10
-22.784119098
 20
20.0873515229
 30
0.0
 10
-22.776077381
 20
20.091173728
 30
0.0
 10
-22.7708157487
 20
20.0940488195
 30
0.0
 10
-22.7681945041
 20
20.0955621958
 30
0.0
  0
SPLINE
  5
537
100
AcDbEntity
  8
0
100
AcDbSpline
 62
7
  6
CONTINUOUS
 70
0
 71
3
 72
20
 73
16
 74
0
 42
0.0000001
 43
0.0000001
 44
0.0000000001
 40
0.0
 40
0.0
 40
0.0
 40
0.0
 40
0.0624510153
 40
0.1250358108
 40
0.1875892898
 40
0.2501131682
 40
0.3126275778
 40
0.3751444506
 40
0.437682982
 40
0.5002027013
 40
0.5627223417
 40
0.6252433535
 40
0.7501308459
 40
0.8751337096
 40
1.0
 40
1.0
 40
1.0
 40
1.0
 10
-33.1604993495
 20
20.2466266961
 30
0.0
 10
-33.1604993495
 20
20.2473986279
 30
0.0
 10
-33.1605954674
 20
20.2489456867
 30
0.0
 10
-33.1610168001
 20
20.2512312115
 30
0.0
 10
-33.1617100039
 20
20.2534506711
 30
0.0
 10
-33.1626566933
 20
20.2555728903
 30
0.0
 10
-33.1638353959
 20
20.2575747085
 30
0.0
 10
-33.1652247232
 20
20.2594362477
 30
0.0
 10
-33.1667987139
 20
20.2611440919
 30
0.0
 10
-33.1685350926
 20
20.2626861189
 30
0.0
 10
-33.1704105178
 20
20.2640549919
 30
0.0
 10
-33.1730647155
 20
20.2656425816
 30
0.0
 10
-33.1766311805
 20
20.2671774614
 30
0.0
 10
-33.1811496292
 20
20.2682805697
 30
0.0
 10
-33.1842438695
 20
20.2685266961
 30
0.0
 10
-33.1857872913
 20
20.2685266961
 30
0.0
  0
SPLINE
  5
538
100
AcDbEntity
  8
0
100
AcDbSpline
 62
7
  6
CONTINUOUS
 70
0
 71
3
 72
20
 73
16
 74
0
 42
0.0000001
 43
0.0000001
 44
0.0000000001
 40
0.0
 40
0.0
 40
0.0
 40
0.0
 40
0.0624510153
 40
0.1250358108
 40
0.1875892898
 40
0.2501131682
 40
0.3126275778
 40
0.3751444506
 40
0.437682982
 40
0.5002027013
 40
0.5627223417
 40
0.6252433535
 40
0.7501308459
 40
0.8751337096
 40
1.0
 40
1.0
 40
1.0
 40
1.0
 10
-32.7274866476
 20
20.2466266961
 30
0.0
 10
-32.7274866476
 20
20.2473986279
 30
0.0
 10
-32.7273905297
 20
20.2489456867
 30
0.0
 10
-32.7269691969
 20
20.2512312115
 30
0.0
 10
-32.7262759931
 20
20.2534506711
 30
0.0
 10
-32.7253293037
 20
20.2555728903
 30
0.0
 10
-32.7241506012
 20
20.2575747085
 30
0.0
 10
-32.7227612738
 20
20.2594362477
 30
0.0
 10
-32.7211872832
 20
20.2611440919
 30
0.0
 10
-32.7194509045
 20
20.2626861189
 30
0.0
 10
-32.7175754792
 20
20.2640549919
 30
0.0
 10
-32.7149212815
 20
20.2656425816
 30
0.0
 10
-32.7113548166
 20
20.2671774614
 30
0.0
 10
-32.7068363679
 20
20.2682805697
 30
0.0
 10
-32.7037421276
 20
20.2685266961
 30
0.0
 10
-32.7021987058
 20
20.2685266961
 30
0.0
  0
SPLINE
  5
539
100
AcDbEntity
  8
0
100
AcDbSpline
 62
7
  6
CONTINUOUS
 70
0
 71
3
 72
21
 73
17
 74
0
 42
0.0000001
 43
0.0000001
 44
0.0000000001
 40
0.0
 40
0.0
 40
0.0
 40
0.0
 40
0.1249878024
 40
0.1874878899
 40
0.2499891327
 40
0.3124908104
 40
0.3749936014
 40
0.4374965966
 40
0.5
 40
0.5625034034
 40
0.6250063986
 40
0.6875091896
 40
0.7500108673
 40
0.8125121101
 40
0.8750121976
 40
1.0
 40
1.0
 40
1.0
 40
1.0
 10
-33.052246174
 20
20.0955621958
 30
0.0
 10
-33.0434477368
 20
20.0930223058
 30
0.0
 10
-33.0301521194
 20
20.0895320968
 30
0.0
 10
-33.0122415243
 20
20.0856861693
 30
0.0
 10
-32.9987184748
 20
20.0832486143
 30
0.0
 10
-32.98511595
 20
20.0812993906
 30
0.0
 10
-32.971447756
 20
20.0798764015
 30
0.0
 10
-32.9577326187
 20
20.0790098636
 30
0.0
 10
-32.9439929985
 20
20.0787181248
 30
0.0
 10
-32.9302533783
 20
20.0790098636
 30
0.0
 10
-32.916538241
 20
20.0798764015
 30
0.0
 10
-32.902870047
 20
20.0812993906
 30
0.0
 10
-32.8892675222
 20
20.0832486143
 30
0.0
 10
-32.8757444728
 20
20.0856861693
 30
0.0
 10
-32.8578338777
 20
20.0895320968
 30
0.0
 10
-32.8445382603
 20
20.0930223058
 30
0.0
 10
-32.8357398231
 20
20.0955621958
 30
0.0
  0
SPLINE
  5
53A
100
AcDbEntity
  8
0
100
AcDbSpline
 62
7
  6
CONTINUOUS
 70
0
 71
3
 72
20
 73
16
 74
0
 42
0.0000001
 43
0.0000001
 44
0.0000000001
 40
0.0
 40
0.0
 40
0.0
 40
0.0
 40
0.0837825316
 40
0.1668205226
 40
0.3265531609
 40
0.4737997088
 40
0.605775902
 40
0.6658290323
 40
0.7220447888
 40
0.7746430092
 40
0.824011642
 40
0.8706339298
 40
0.915072831
 40
0.9579636695
 40
1.0
 40
1.0
 40
1.0
 40
1.0
 10
-32.8357398231
 20
20.2466266961
 30
0.0
 10
-32.8357398231
 20
20.2473975373
 30
0.0
 10
-32.8356923871
 20
20.2489328439
 30
0.0
 10
-32.8354179312
 20
20.2519260548
 30
0.0
 10
-32.8347607561
 20
20.2554647309
 30
0.0
 10
-32.8335038533
 20
20.259315278
 30
0.0
 10
-32.8321029012
 20
20.2621218358
 30
0.0
 10
-32.8308162921
 20
20.2640124882
 30
0.0
 10
-32.8298220692
 20
20.2652098114
 30
0.0
 10
-32.8287776174
 20
20.2662275634
 30
0.0
 10
-32.8276914936
 20
20.2670634006
 30
0.0
 10
-32.8265717627
 20
20.2677157377
 30
0.0
 10
-32.8254265323
 20
20.2681828422
 30
0.0
 10
-32.8242653406
 20
20.2684637879
 30
0.0
 10
-32.8234826074
 20
20.2685266961
 30
0.0
 10
-32.8230958522
 20
20.2685266961
 30
0.0
  0
SPLINE
  5
53B
100
AcDbEntity
  8
0
100
AcDbSpline
 62
7
  6
CONTINUOUS
 70
0
 71
3
 72
11
 73
7
 74
0
 42
0.0000001
 43
0.0000001
 44
0.0000000001
 40
0.0
 40
0.0
 40
0.0
 40
0.0
 40
0.2572860881
 40
0.5096780896
 40
0.7571556577
 40
1.0
 40
1.0
 40
1.0
 40
1.0
 10
-33.1604993495
 20
20.0955621958
 30
0.0
 10
-33.1580055419
 20
20.0941223953
 30
0.0
 10
-33.1530005213
 20
20.0913801178
 30
0.0
 10
-33.1453584363
 20
20.0877072341
 30
0.0
 10
-33.1376516213
 20
20.0845766254
 30
0.0
 10
-33.1324260425
 20
20.0828795909
 30
0.0
 10
-33.1298087786
 20
20.0821466053
 30
0.0
  0
SPLINE
  5
53C
100
AcDbEntity
  8
0
100
AcDbSpline
 62
7
  6
CONTINUOUS
 70
0
 71
3
 72
19
 73
15
 74
0
 42
0.0000001
 43
0.0000001
 44
0.0000000001
 40
0.0
 40
0.0
 40
0.0
 40
0.0
 40
0.1228781095
 40
0.183704646
 40
0.2442904954
 40
0.3047879769
 40
0.3653556749
 40
0.4261469538
 40
0.4873049404
 40
0.5489546854
 40
0.6111988128
 40
0.7377340531
 40
0.867314928
 40
1.0
 40
1.0
 40
1.0
 40
1.0
 10
-33.1282002575
 20
20.0817107575
 30
0.0
 10
-33.1250544926
 20
20.0808871204
 30
0.0
 10
-33.1202832597
 20
20.0798918171
 30
0.0
 10
-33.1138627733
 20
20.0791136792
 30
0.0
 10
-33.1090552714
 20
20.0788123723
 30
0.0
 10
-33.1042453694
 20
20.0787958215
 30
0.0
 10
-33.0994375052
 20
20.0790645139
 30
0.0
 10
-33.0946361216
 20
20.0796140925
 30
0.0
 10
-33.0898456354
 20
20.080440091
 30
0.0
 10
-33.0850693408
 20
20.0815317517
 30
0.0
 10
-33.0786904412
 20
20.0833379606
 30
0.0
 10
-33.070758599
 20
20.0862145222
 30
0.0
 10
-33.06139448
 20
20.0904989275
 30
0.0
 10
-33.0552870747
 20
20.093806531
 30
0.0
 10
-33.052246174
 20
20.0955621958
 30
0.0
  0
SPLINE
  5
53D
100
AcDbEntity
  8
0
100
AcDbSpline
 62
7
  6
CONTINUOUS
 70
0
 71
3
 72
20
 73
16
 74
0
 42
0.0000001
 43
0.0000001
 44
0.0000000001
 40
0.0
 40
0.0
 40
0.0
 40
0.0
 40
0.0837825316
 40
0.1668205226
 40
0.3265531609
 40
0.4737997088
 40
0.605775902
 40
0.6658290323
 40
0.7220447888
 40
0.7746430092
 40
0.824011642
 40
0.8706339298
 40
0.915072831
 40
0.9579636695
 40
1.0
 40
1.0
 40
1.0
 40
1.0
 10
-33.052246174
 20
20.2466266961
 30
0.0
 10
-33.052246174
 20
20.2473975373
 30
0.0
 10
-33.05229361
 20
20.2489328439
 30
0.0
 10
-33.0525680659
 20
20.2519260548
 30
0.0
 10
-33.053225241
 20
20.2554647309
 30
0.0
 10
-33.0544821437
 20
20.259315278
 30
0.0
 10
-33.0558830959
 20
20.2621218358
 30
0.0
 10
-33.057169705
 20
20.2640124882
 30
0.0
 10
-33.0581639278
 20
20.2652098114
 30
0.0
 10
-33.0592083796
 20
20.2662275634
 30
0.0
 10
-33.0602945035
 20
20.2670634006
 30
0.0
 10
-33.0614142343
 20
20.2677157377
 30
0.0
 10
-33.0625594648
 20
20.2681828422
 30
0.0
 10
-33.0637206565
 20
20.2684637879
 30
0.0
 10
-33.0645033897
 20
20.2685266961
 30
0.0
 10
-33.0648901449
 20
20.2685266961
 30
0.0
  0
SPLINE
  5
53E
100
AcDbEntity
  8
0
100
AcDbSpline
 62
7
  6
CONTINUOUS
 70
0
 71
3
 72
19
 73
15
 74
0
 42
0.0000001
 43
0.0000001
 44
0.0000000001
 40
0.0
 40
0.0
 40
0.0
 40
0.0
 40
0.132685072
 40
0.2622659469
 40
0.3888011872
 40
0.4510453146
 40
0.5126950596
 40
0.5738530462
 40
0.6346443251
 40
0.6952120231
 40
0.7557095046
 40
0.816295354
 40
0.8771218905
 40
1.0
 40
1.0
 40
1.0
 40
1.0
 10
-32.8357398231
 20
20.0955621958
 30
0.0
 10
-32.8326989223
 20
20.093806531
 30
0.0
 10
-32.826591517
 20
20.0904989275
 30
0.0
 10
-32.8172273981
 20
20.0862145222
 30
0.0
 10
-32.8092955559
 20
20.0833379606
 30
0.0
 10
-32.8029166563
 20
20.0815317517
 30
0.0
 10
-32.7981403617
 20
20.080440091
 30
0.0
 10
-32.7933498755
 20
20.0796140925
 30
0.0
 10
-32.7885484918
 20
20.0790645139
 30
0.0
 10
-32.7837406277
 20
20.0787958215
 30
0.0
 10
-32.7789307256
 20
20.0788123723
 30
0.0
 10
-32.7741232237
 20
20.0791136792
 30
0.0
 10
-32.7677027374
 20
20.0798918171
 30
0.0
 10
-32.7629315044
 20
20.0808871204
 30
0.0
 10
-32.7597857395
 20
20.0817107575
 30
0.0
  0
SPLINE
  5
53F
100
AcDbEntity
  8
0
100
AcDbSpline
 62
7
  6
CONTINUOUS
 70
0
 71
3
 72
11
 73
7
 74
0
 42
0.0000001
 43
0.0000001
 44
0.0000000001
 40
0.0
 40
0.0
 40
0.0
 40
0.0
 40
0.242525876
 40
0.489855189
 40
0.7423461086
 40
1.0
 40
1.0
 40
1.0
 40
1.0
 10
-32.7597857395
 20
20.0817107575
 30
0.0
 10
-32.7570296045
 20
20.0824323801
 30
0.0
 10
-32.7515249827
 20
20.0841363415
 30
0.0
 10
-32.7434112415
 20
20.0873515229
 30
0.0
 10
-32.7353695245
 20
20.091173728
 30
0.0
 10
-32.7301078922
 20
20.0940488195
 30
0.0
 10
-32.7274866476
 20
20.0955621958
 30
0.0
  0
SPLINE
  5
540
100
AcDbEntity
  8
0
100
AcDbSpline
 62
7
  6
CONTINUOUS
 70
0
 71
3
 72
20
 73
16
 74
0
 42
0.0000001
 43
0.0000001
 44
0.0000000001
 40
0.0
 40
0.0
 40
0.0
 40
0.0
 40
0.0624510153
 40
0.1250358108
 40
0.1875892898
 40
0.2501131682
 40
0.3126275778
 40
0.3751444506
 40
0.437682982
 40
0.5002027013
 40
0.5627223417
 40
0.6252433535
 40
0.7501308459
 40
0.8751337096
 40
1.0
 40
1.0
 40
1.0
 40
1.0
 10
-34.0265247533
 20
20.2466266961
 30
0.0
 10
-34.0265247533
 20
20.2473986279
 30
0.0
 10
-34.0266208711
 20
20.2489456867
 30
0.0
 10
-34.0270422039
 20
20.2512312115
 30
0.0
 10
-34.0277354077
 20
20.2534506711
 30
0.0
 10
-34.0286820971
 20
20.2555728903
 30
0.0
 10
-34.0298607997
 20
20.2575747085
 30
0.0
 10
-34.031250127
 20
20.2594362477
 30
0.0
 10
-34.0328241177
 20
20.2611440919
 30
0.0
 10
-34.0345604964
 20
20.2626861189
 30
0.0
 10
-34.0364359216
 20
20.2640549919
 30
0.0
 10
-34.0390901193
 20
20.2656425816
 30
0.0
 10
-34.0426565843
 20
20.2671774614
 30
0.0
 10
-34.047175033
 20
20.2682805697
 30
0.0
 10
-34.0502692732
 20
20.2685266961
 30
0.0
 10
-34.0518126951
 20
20.2685266961
 30
0.0
  0
SPLINE
  5
541
100
AcDbEntity
  8
0
100
AcDbSpline
 62
7
  6
CONTINUOUS
 70
0
 71
3
 72
20
 73
16
 74
0
 42
0.0000001
 43
0.0000001
 44
0.0000000001
 40
0.0
 40
0.0
 40
0.0
 40
0.0
 40
0.0624510153
 40
0.1250358108
 40
0.1875892898
 40
0.2501131682
 40
0.3126275778
 40
0.3751444506
 40
0.437682982
 40
0.5002027013
 40
0.5627223417
 40
0.6252433535
 40
0.7501308459
 40
0.8751337096
 40
1.0
 40
1.0
 40
1.0
 40
1.0
 10
-33.5935120514
 20
20.2466266961
 30
0.0
 10
-33.5935120514
 20
20.2473986279
 30
0.0
 10
-33.5934159335
 20
20.2489456867
 30
0.0
 10
-33.5929946007
 20
20.2512312115
 30
0.0
 10
-33.5923013969
 20
20.2534506711
 30
0.0
 10
-33.5913547075
 20
20.2555728903
 30
0.0
 10
-33.590176005
 20
20.2575747085
 30
0.0
 10
-33.5887866776
 20
20.2594362477
 30
0.0
 10
-33.587212687
 20
20.2611440919
 30
0.0
 10
-33.5854763083
 20
20.2626861189
 30
0.0
 10
-33.583600883
 20
20.2640549919
 30
0.0
 10
-33.5809466853
 20
20.2656425816
 30
0.0
 10
-33.5773802204
 20
20.2671774614
 30
0.0
 10
-33.5728617717
 20
20.2682805697
 30
0.0
 10
-33.5697675314
 20
20.2685266961
 30
0.0
 10
-33.5682241096
 20
20.2685266961
 30
0.0
  0
SPLINE
  5
542
100
AcDbEntity
  8
0
100
AcDbSpline
 62
7
  6
CONTINUOUS
 70
0
 71
3
 72
21
 73
17
 74
0
 42
0.0000001
 43
0.0000001
 44
0.0000000001
 40
0.0
 40
0.0
 40
0.0
 40
0.0
 40
0.1249878024
 40
0.1874878899
 40
0.2499891327
 40
0.3124908104
 40
0.3749936014
 40
0.4374965966
 40
0.5
 40
0.5625034034
 40
0.6250063986
 40
0.6875091896
 40
0.7500108673
 40
0.8125121101
 40
0.8750121976
 40
1.0
 40
1.0
 40
1.0
 40
1.0
 10
-33.9182715778
 20
20.0955621958
 30
0.0
 10
-33.9094731406
 20
20.0930223058
 30
0.0
 10
-33.8961775231
 20
20.0895320968
 30
0.0
 10
-33.8782669281
 20
20.0856861693
 30
0.0
 10
-33.8647438786
 20
20.0832486143
 30
0.0
 10
-33.8511413538
 20
20.0812993906
 30
0.0
 10
-33.8374731598
 20
20.0798764015
 30
0.0
 10
-33.8237580225
 20
20.0790098636
 30
0.0
 10
-33.8100184023
 20
20.0787181248
 30
0.0
 10
-33.7962787821
 20
20.0790098636
 30
0.0
 10
-33.7825636448
 20
20.0798764015
 30
0.0
 10
-33.7688954508
 20
20.0812993906
 30
0.0
 10
-33.755292926
 20
20.0832486143
 30
0.0
 10
-33.7417698766
 20
20.0856861693
 30
0.0
 10
-33.7238592815
 20
20.0895320968
 30
0.0
 10
-33.7105636641
 20
20.0930223058
 30
0.0
 10
-33.7017652268
 20
20.0955621958
 30
0.0
  0
SPLINE
  5
543
100
AcDbEntity
  8
0
100
AcDbSpline
 62
7
  6
CONTINUOUS
 70
0
 71
3
 72
20
 73
16
 74
0
 42
0.0000001
 43
0.0000001
 44
0.0000000001
 40
0.0
 40
0.0
 40
0.0
 40
0.0
 40
0.0837825316
 40
0.1668205226
 40
0.3265531609
 40
0.4737997088
 40
0.605775902
 40
0.6658290323
 40
0.7220447888
 40
0.7746430092
 40
0.824011642
 40
0.8706339298
 40
0.915072831
 40
0.9579636695
 40
1.0
 40
1.0
 40
1.0
 40
1.0
 10
-33.7017652268
 20
20.2466266961
 30
0.0
 10
-33.7017652268
 20
20.2473975373
 30
0.0
 10
-33.7017177909
 20
20.2489328439
 30
0.0
 10
-33.701443335
 20
20.2519260548
 30
0.0
 10
-33.7007861599
 20
20.2554647309
 30
0.0
 10
-33.6995292571
 20
20.259315278
 30
0.0
 10
-33.6981283049
 20
20.2621218358
 30
0.0
 10
-33.6968416959
 20
20.2640124882
 30
0.0
 10
-33.695847473
 20
20.2652098114
 30
0.0
 10
-33.6948030212
 20
20.2662275634
 30
0.0
 10
-33.6937168974
 20
20.2670634006
 30
0.0
 10
-33.6925971665
 20
20.2677157377
 30
0.0
 10
-33.691451936
 20
20.2681828422
 30
0.0
 10
-33.6902907444
 20
20.2684637879
 30
0.0
 10
-33.6895080112
 20
20.2685266961
 30
0.0
 10
-33.6891212559
 20
20.2685266961
 30
0.0
  0
SPLINE
  5
544
100
AcDbEntity
  8
0
100
AcDbSpline
 62
7
  6
CONTINUOUS
 70
0
 71
3
 72
11
 73
7
 74
0
 42
0.0000001
 43
0.0000001
 44
0.0000000001
 40
0.0
 40
0.0
 40
0.0
 40
0.0
 40
0.2572860881
 40
0.5096780896
 40
0.7571556577
 40
1.0
 40
1.0
 40
1.0
 40
1.0
 10
-34.0265247533
 20
20.0955621958
 30
0.0
 10
-34.0240309457
 20
20.0941223953
 30
0.0
 10
-34.0190259251
 20
20.0913801178
 30
0.0
 10
-34.01138384
 20
20.0877072341
 30
0.0
 10
-34.0036770251
 20
20.0845766254
 30
0.0
 10
-33.9984514463
 20
20.0828795909
 30
0.0
 10
-33.9958341824
 20
20.0821466053
 30
0.0
  0
SPLINE
  5
545
100
AcDbEntity
  8
0
100
AcDbSpline
 62
7
  6
CONTINUOUS
 70
0
 71
3
 72
19
 73
15
 74
0
 42
0.0000001
 43
0.0000001
 44
0.0000000001
 40
0.0
 40
0.0
 40
0.0
 40
0.0
 40
0.1228781095
 40
0.183704646
 40
0.2442904954
 40
0.3047879769
 40
0.3653556749
 40
0.4261469538
 40
0.4873049404
 40
0.5489546854
 40
0.6111988128
 40
0.7377340531
 40
0.867314928
 40
1.0
 40
1.0
 40
1.0
 40
1.0
 10
-33.9942256613
 20
20.0817107575
 30
0.0
 10
-33.9910798964
 20
20.0808871204
 30
0.0
 10
-33.9863086635
 20
20.0798918171
 30
0.0
 10
-33.9798881771
 20
20.0791136792
 30
0.0
 10
-33.9750806752
 20
20.0788123723
 30
0.0
 10
-33.9702707732
 20
20.0787958215
 30
0.0
 10
-33.965462909
 20
20.0790645139
 30
0.0
 10
-33.9606615253
 20
20.0796140925
 30
0.0
 10
-33.9558710391
 20
20.080440091
 30
0.0
 10
-33.9510947446
 20
20.0815317517
 30
0.0
 10
-33.944715845
 20
20.0833379606
 30
0.0
 10
-33.9367840027
 20
20.0862145222
 30
0.0
 10
-33.9274198838
 20
20.0904989275
 30
0.0
 10
-33.9213124785
 20
20.093806531
 30
0.0
 10
-33.9182715778
 20
20.0955621958
 30
0.0
  0
SPLINE
  5
546
100
AcDbEntity
  8
0
100
AcDbSpline
 62
7
  6
CONTINUOUS
 70
0
 71
3
 72
20
 73
16
 74
0
 42
0.0000001
 43
0.0000001
 44
0.0000000001
 40
0.0
 40
0.0
 40
0.0
 40
0.0
 40
0.0837825316
 40
0.1668205226
 40
0.3265531609
 40
0.4737997088
 40
0.605775902
 40
0.6658290323
 40
0.7220447888
 40
0.7746430092
 40
0.824011642
 40
0.8706339298
 40
0.915072831
 40
0.9579636695
 40
1.0
 40
1.0
 40
1.0
 40
1.0
 10
-33.9182715778
 20
20.2466266961
 30
0.0
 10
-33.9182715778
 20
20.2473975373
 30
0.0
 10
-33.9183190138
 20
20.2489328439
 30
0.0
 10
-33.9185934696
 20
20.2519260548
 30
0.0
 10
-33.9192506447
 20
20.2554647309
 30
0.0
 10
-33.9205075475
 20
20.259315278
 30
0.0
 10
-33.9219084997
 20
20.2621218358
 30
0.0
 10
-33.9231951088
 20
20.2640124882
 30
0.0
 10
-33.9241893316
 20
20.2652098114
 30
0.0
 10
-33.9252337834
 20
20.2662275634
 30
0.0
 10
-33.9263199073
 20
20.2670634006
 30
0.0
 10
-33.9274396381
 20
20.2677157377
 30
0.0
 10
-33.9285848686
 20
20.2681828422
 30
0.0
 10
-33.9297460603
 20
20.2684637879
 30
0.0
 10
-33.9305287934
 20
20.2685266961
 30
0.0
 10
-33.9309155487
 20
20.2685266961
 30
0.0
  0
SPLINE
  5
547
100
AcDbEntity
  8
0
100
AcDbSpline
 62
7
  6
CONTINUOUS
 70
0
 71
3
 72
19
 73
15
 74
0
 42
0.0000001
 43
0.0000001
 44
0.0000000001
 40
0.0
 40
0.0
 40
0.0
 40
0.0
 40
0.132685072
 40
0.2622659469
 40
0.3888011872
 40
0.4510453146
 40
0.5126950596
 40
0.5738530462
 40
0.6346443251
 40
0.6952120231
 40
0.7557095046
 40
0.816295354
 40
0.8771218905
 40
1.0
 40
1.0
 40
1.0
 40
1.0
 10
-33.7017652268
 20
20.0955621958
 30
0.0
 10
-33.6987243261
 20
20.093806531
 30
0.0
 10
-33.6926169208
 20
20.0904989275
 30
0.0
 10
-33.6832528019
 20
20.0862145222
 30
0.0
 10
-33.6753209596
 20
20.0833379606
 30
0.0
 10
-33.6689420601
 20
20.0815317517
 30
0.0
 10
-33.6641657655
 20
20.080440091
 30
0.0
 10
-33.6593752793
 20
20.0796140925
 30
0.0
 10
-33.6545738956
 20
20.0790645139
 30
0.0
 10
-33.6497660315
 20
20.0787958215
 30
0.0
 10
-33.6449561294
 20
20.0788123723
 30
0.0
 10
-33.6401486275
 20
20.0791136792
 30
0.0
 10
-33.6337281412
 20
20.0798918171
 30
0.0
 10
-33.6289569082
 20
20.0808871204
 30
0.0
 10
-33.6258111433
 20
20.0817107575
 30
0.0
  0
SPLINE
  5
548
100
AcDbEntity
  8
0
100
AcDbSpline
 62
7
  6
CONTINUOUS
 70
0
 71
3
 72
11
 73
7
 74
0
 42
0.0000001
 43
0.0000001
 44
0.0000000001
 40
0.0
 40
0.0
 40
0.0
 40
0.0
 40
0.242525876
 40
0.489855189
 40
0.7423461086
 40
1.0
 40
1.0
 40
1.0
 40
1.0
 10
-33.6258111433
 20
20.0817107575
 30
0.0
 10
-33.6230550082
 20
20.0824323801
 30
0.0
 10
-33.6175503864
 20
20.0841363415
 30
0.0
 10
-33.6094366453
 20
20.0873515229
 30
0.0
 10
-33.6013949283
 20
20.091173728
 30
0.0
 10
-33.596133296
 20
20.0940488195
 30
0.0
 10
-33.5935120514
 20
20.0955621958
 30
0.0
  0
SPLINE
  5
549
100
AcDbEntity
  8
0
100
AcDbSpline
 62
7
  6
CONTINUOUS
 70
0
 71
3
 72
20
 73
16
 74
0
 42
0.0000001
 43
0.0000001
 44
0.0000000001
 40
0.0
 40
0.0
 40
0.0
 40
0.0
 40
0.0624510153
 40
0.1250358108
 40
0.1875892898
 40
0.2501131682
 40
0.3126275778
 40
0.3751444506
 40
0.437682982
 40
0.5002027013
 40
0.5627223417
 40
0.6252433535
 40
0.7501308459
 40
0.8751337096
 40
1.0
 40
1.0
 40
1.0
 40
1.0
 10
-22.3351818022
 20
20.2466266961
 30
0.0
 10
-22.3351818022
 20
20.2473986279
 30
0.0
 10
-22.33527792
 20
20.2489456867
 30
0.0
 10
-22.3356992528
 20
20.2512312115
 30
0.0
 10
-22.3363924566
 20
20.2534506711
 30
0.0
 10
-22.337339146
 20
20.2555728903
 30
0.0
 10
-22.3385178486
 20
20.2575747085
 30
0.0
 10
-22.3399071759
 20
20.2594362477
 30
0.0
 10
-22.3414811666
 20
20.2611440919
 30
0.0
 10
-22.3432175453
 20
20.2626861189
 30
0.0
 10
-22.3450929705
 20
20.2640549919
 30
0.0
 10
-22.3477471682
 20
20.2656425816
 30
0.0
 10
-22.3513136332
 20
20.2671774614
 30
0.0
 10
-22.3558320819
 20
20.2682805697
 30
0.0
 10
-22.3589263221
 20
20.2685266961
 30
0.0
 10
-22.360469744
 20
20.2685266961
 30
0.0
  0
SPLINE
  5
54A
100
AcDbEntity
  8
0
100
AcDbSpline
 62
7
  6
CONTINUOUS
 70
0
 71
3
 72
20
 73
16
 74
0
 42
0.0000001
 43
0.0000001
 44
0.0000000001
 40
0.0
 40
0.0
 40
0.0
 40
0.0
 40
0.0624510153
 40
0.1250358108
 40
0.1875892898
 40
0.2501131682
 40
0.3126275778
 40
0.3751444506
 40
0.437682982
 40
0.5002027013
 40
0.5627223417
 40
0.6252433535
 40
0.7501308459
 40
0.8751337096
 40
1.0
 40
1.0
 40
1.0
 40
1.0
 10
-21.9021691003
 20
20.2466266961
 30
0.0
 10
-21.9021691003
 20
20.2473986279
 30
0.0
 10
-21.9020729824
 20
20.2489456867
 30
0.0
 10
-21.9016516496
 20
20.2512312115
 30
0.0
 10
-21.9009584458
 20
20.2534506711
 30
0.0
 10
-21.9000117564
 20
20.2555728903
 30
0.0
 10
-21.8988330539
 20
20.2575747085
 30
0.0
 10
-21.8974437265
 20
20.2594362477
 30
0.0
 10
-21.8958697359
 20
20.2611440919
 30
0.0
 10
-21.8941333572
 20
20.2626861189
 30
0.0
 10
-21.8922579319
 20
20.2640549919
 30
0.0
 10
-21.8896037342
 20
20.2656425816
 30
0.0
 10
-21.8860372693
 20
20.2671774614
 30
0.0
 10
-21.8815188206
 20
20.2682805697
 30
0.0
 10
-21.8784245803
 20
20.2685266961
 30
0.0
 10
-21.8768811585
 20
20.2685266961
 30
0.0
  0
SPLINE
  5
54B
100
AcDbEntity
  8
0
100
AcDbSpline
 62
7
  6
CONTINUOUS
 70
0
 71
3
 72
21
 73
17
 74
0
 42
0.0000001
 43
0.0000001
 44
0.0000000001
 40
0.0
 40
0.0
 40
0.0
 40
0.0
 40
0.1249878024
 40
0.1874878899
 40
0.2499891327
 40
0.3124908104
 40
0.3749936014
 40
0.4374965966
 40
0.5
 40
0.5625034034
 40
0.6250063986
 40
0.6875091896
 40
0.7500108673
 40
0.8125121101
 40
0.8750121976
 40
1.0
 40
1.0
 40
1.0
 40
1.0
 10
-22.2269286267
 20
20.0955621958
 30
0.0
 10
-22.2181301895
 20
20.0930223058
 30
0.0
 10
-22.2048345721
 20
20.0895320968
 30
0.0
 10
-22.186923977
 20
20.0856861693
 30
0.0
 10
-22.1734009275
 20
20.0832486143
 30
0.0
 10
-22.1597984027
 20
20.0812993906
 30
0.0
 10
-22.1461302087
 20
20.0798764015
 30
0.0
 10
-22.1324150714
 20
20.0790098636
 30
0.0
 10
-22.1186754512
 20
20.0787181248
 30
0.0
 10
-22.104935831
 20
20.0790098636
 30
0.0
 10
-22.0912206937
 20
20.0798764015
 30
0.0
 10
-22.0775524997
 20
20.0812993906
 30
0.0
 10
-22.0639499749
 20
20.0832486143
 30
0.0
 10
-22.0504269255
 20
20.0856861693
 30
0.0
 10
-22.0325163304
 20
20.0895320968
 30
0.0
 10
-22.019220713
 20
20.0930223058
 30
0.0
 10
-22.0104222758
 20
20.0955621958
 30
0.0
  0
SPLINE
  5
54C
100
AcDbEntity
  8
0
100
AcDbSpline
 62
7
  6
CONTINUOUS
 70
0
 71
3
 72
20
 73
16
 74
0
 42
0.0000001
 43
0.0000001
 44
0.0000000001
 40
0.0
 40
0.0
 40
0.0
 40
0.0
 40
0.0837825316
 40
0.1668205226
 40
0.3265531609
 40
0.4737997088
 40
0.605775902
 40
0.6658290323
 40
0.7220447888
 40
0.7746430092
 40
0.824011642
 40
0.8706339298
 40
0.915072831
 40
0.9579636695
 40
1.0
 40
1.0
 40
1.0
 40
1.0
 10
-22.0104222758
 20
20.2466266961
 30
0.0
 10
-22.0104222758
 20
20.2473975373
 30
0.0
 10
-22.0103748398
 20
20.2489328439
 30
0.0
 10
-22.0101003839
 20
20.2519260548
 30
0.0
 10
-22.0094432088
 20
20.2554647309
 30
0.0
 10
-22.008186306
 20
20.259315278
 30
0.0
 10
-22.0067853539
 20
20.2621218358
 30
0.0
 10
-22.0054987448
 20
20.2640124882
 30
0.0
 10
-22.0045045219
 20
20.2652098114
 30
0.0
 10
-22.0034600701
 20
20.2662275634
 30
0.0
 10
-22.0023739463
 20
20.2670634006
 30
0.0
 10
-22.0012542154
 20
20.2677157377
 30
0.0
 10
-22.000108985
 20
20.2681828422
 30
0.0
 10
-21.9989477933
 20
20.2684637879
 30
0.0
 10
-21.9981650601
 20
20.2685266961
 30
0.0
 10
-21.9977783049
 20
20.2685266961
 30
0.0
  0
SPLINE
  5
54D
100
AcDbEntity
  8
0
100
AcDbSpline
 62
7
  6
CONTINUOUS
 70
0
 71
3
 72
11
 73
7
 74
0
 42
0.0000001
 43
0.0000001
 44
0.0000000001
 40
0.0
 40
0.0
 40
0.0
 40
0.0
 40
0.2572860881
 40
0.5096780896
 40
0.7571556577
 40
1.0
 40
1.0
 40
1.0
 40
1.0
 10
-22.3351818022
 20
20.0955621958
 30
0.0
 10
-22.3326879946
 20
20.0941223953
 30
0.0
 10
-22.327682974
 20
20.0913801178
 30
0.0
 10
-22.320040889
 20
20.0877072341
 30
0.0
 10
-22.312334074
 20
20.0845766254
 30
0.0
 10
-22.3071084952
 20
20.0828795909
 30
0.0
 10
-22.3044912313
 20
20.0821466053
 30
0.0
  0
SPLINE
  5
54E
100
AcDbEntity
  8
0
100
AcDbSpline
 62
7
  6
CONTINUOUS
 70
0
 71
3
 72
19
 73
15
 74
0
 42
0.0000001
 43
0.0000001
 44
0.0000000001
 40
0.0
 40
0.0
 40
0.0
 40
0.0
 40
0.1228781095
 40
0.183704646
 40
0.2442904954
 40
0.3047879769
 40
0.3653556749
 40
0.4261469538
 40
0.4873049404
 40
0.5489546854
 40
0.6111988128
 40
0.7377340531
 40
0.867314928
 40
1.0
 40
1.0
 40
1.0
 40
1.0
 10
-22.3028827102
 20
20.0817107575
 30
0.0
 10
-22.2997369453
 20
20.0808871204
 30
0.0
 10
-22.2949657124
 20
20.0798918171
 30
0.0
 10
-22.288545226
 20
20.0791136792
 30
0.0
 10
-22.2837377241
 20
20.0788123723
 30
0.0
 10
-22.2789278221
 20
20.0787958215
 30
0.0
 10
-22.2741199579
 20
20.0790645139
 30
0.0
 10
-22.2693185742
 20
20.0796140925
 30
0.0
 10
-22.2645280881
 20
20.080440091
 30
0.0
 10
-22.2597517935
 20
20.0815317517
 30
0.0
 10
-22.2533728939
 20
20.0833379606
 30
0.0
 10
-22.2454410517
 20
20.0862145222
 30
0.0
 10
-22.2360769327
 20
20.0904989275
 30
0.0
 10
-22.2299695274
 20
20.093806531
 30
0.0
 10
-22.2269286267
 20
20.0955621958
 30
0.0
  0
SPLINE
  5
54F
100
AcDbEntity
  8
0
100
AcDbSpline
 62
7
  6
CONTINUOUS
 70
0
 71
3
 72
20
 73
16
 74
0
 42
0.0000001
 43
0.0000001
 44
0.0000000001
 40
0.0
 40
0.0
 40
0.0
 40
0.0
 40
0.0837825316
 40
0.1668205226
 40
0.3265531609
 40
0.4737997088
 40
0.605775902
 40
0.6658290323
 40
0.7220447888
 40
0.7746430092
 40
0.824011642
 40
0.8706339298
 40
0.915072831
 40
0.9579636695
 40
1.0
 40
1.0
 40
1.0
 40
1.0
 10
-22.2269286267
 20
20.2466266961
 30
0.0
 10
-22.2269286267
 20
20.2473975373
 30
0.0
 10
-22.2269760627
 20
20.2489328439
 30
0.0
 10
-22.2272505186
 20
20.2519260548
 30
0.0
 10
-22.2279076936
 20
20.2554647309
 30
0.0
 10
-22.2291645964
 20
20.259315278
 30
0.0
 10
-22.2305655486
 20
20.2621218358
 30
0.0
 10
-22.2318521577
 20
20.2640124882
 30
0.0
 10
-22.2328463805
 20
20.2652098114
 30
0.0
 10
-22.2338908323
 20
20.2662275634
 30
0.0
 10
-22.2349769562
 20
20.2670634006
 30
0.0
 10
-22.236096687
 20
20.2677157377
 30
0.0
 10
-22.2372419175
 20
20.2681828422
 30
0.0
 10
-22.2384031092
 20
20.2684637879
 30
0.0
 10
-22.2391858423
 20
20.2685266961
 30
0.0
 10
-22.2395725976
 20
20.2685266961
 30
0.0
  0
SPLINE
  5
550
100
AcDbEntity
  8
0
100
AcDbSpline
 62
7
  6
CONTINUOUS
 70
0
 71
3
 72
19
 73
15
 74
0
 42
0.0000001
 43
0.0000001
 44
0.0000000001
 40
0.0
 40
0.0
 40
0.0
 40
0.0
 40
0.132685072
 40
0.2622659469
 40
0.3888011872
 40
0.4510453146
 40
0.5126950596
 40
0.5738530462
 40
0.6346443251
 40
0.6952120231
 40
0.7557095046
 40
0.816295354
 40
0.8771218905
 40
1.0
 40
1.0
 40
1.0
 40
1.0
 10
-22.0104222758
 20
20.0955621958
 30
0.0
 10
-22.007381375
 20
20.093806531
 30
0.0
 10
-22.0012739697
 20
20.0904989275
 30
0.0
 10
-21.9919098508
 20
20.0862145222
 30
0.0
 10
-21.9839780085
 20
20.0833379606
 30
0.0
 10
-21.977599109
 20
20.0815317517
 30
0.0
 10
-21.9728228144
 20
20.080440091
 30
0.0
 10
-21.9680323282
 20
20.0796140925
 30
0.0
 10
-21.9632309445
 20
20.0790645139
 30
0.0
 10
-21.9584230804
 20
20.0787958215
 30
0.0
 10
-21.9536131783
 20
20.0788123723
 30
0.0
 10
-21.9488056764
 20
20.0791136792
 30
0.0
 10
-21.9423851901
 20
20.0798918171
 30
0.0
 10
-21.9376139571
 20
20.0808871204
 30
0.0
 10
-21.9344681922
 20
20.0817107575
 30
0.0
  0
SPLINE
  5
551
100
AcDbEntity
  8
0
100
AcDbSpline
 62
7
  6
CONTINUOUS
 70
0
 71
3
 72
11
 73
7
 74
0
 42
0.0000001
 43
0.0000001
 44
0.0000000001
 40
0.0
 40
0.0
 40
0.0
 40
0.0
 40
0.242525876
 40
0.489855189
 40
0.7423461086
 40
1.0
 40
1.0
 40
1.0
 40
1.0
 10
-21.9344681922
 20
20.0817107575
 30
0.0
 10
-21.9317120572
 20
20.0824323801
 30
0.0
 10
-21.9262074354
 20
20.0841363415
 30
0.0
 10
-21.9180936942
 20
20.0873515229
 30
0.0
 10
-21.9100519772
 20
20.091173728
 30
0.0
 10
-21.9047903449
 20
20.0940488195
 30
0.0
 10
-21.9021691003
 20
20.0955621958
 30
0.0
  0
SPLINE
  5
552
100
AcDbEntity
  8
0
100
AcDbSpline
 62
7
  6
CONTINUOUS
 70
0
 71
3
 72
61
 73
57
 74
0
 42
0.0000001
 43
0.0000001
 44
0.0000000001
 40
0.0
 40
0.0
 40
0.0
 40
0.0
 40
0.0334291029
 40
0.0501292469
 40
0.0667963495
 40
0.0999901962
 40
0.1165096459
 40
0.1329636835
 40
0.1493438214
 40
0.165642522
 40
0.1979621793
 40
0.2139807246
 40
0.2298965263
 40
0.245706158
 40
0.2614073778
 40
0.2769989851
 40
0.2924805968
 40
0.3078531257
 40
0.3231185188
 40
0.3382796167
 40
0.3533405906
 40
0.3683065699
 40
0.3831835726
 40
0.4126893505
 40
0.427345898
 40
0.4419471963
 40
0.4565034442
 40
0.4710253968
 40
0.5
 40
0.5289746032
 40
0.5434965558
 40
0.5580528037
 40
0.572654102
 40
0.5873106495
 40
0.6168164274
 40
0.6316934301
 40
0.6466594094
 40
0.6617203833
 40
0.6768814812
 40
0.6921468743
 40
0.7075194032
 40
0.7230010149
 40
0.7385926222
 40
0.754293842
 40
0.7701034737
 40
0.7860192754
 40
0.8020378207
 40
0.834357478
 40
0.8506561786
 40
0.8670363165
 40
0.8834903541
 40
0.9000098038
 40
0.9332036505
 40
0.9498707531
 40
0.9665708971
 40
1.0
 40
1.0
 40
1.0
 40
1.0
 10
3.2046019629
 20
20.2635266961
 30
0.0
 10
3.2046019629
 20
20.2699027351
 30
0.0
 10
3.2050091832
 20
20.279470528
 30
0.0
 10
3.2063614096
 20
20.2921417068
 30
0.0
 10
3.2082480233
 20
20.3046993624
 30
0.0
 10
3.2109327676
 20
20.3170915528
 30
0.0
 10
3.2144045293
 20
20.3292281308
 30
0.0
 10
3.2173870985
 20
20.3381598206
 30
0.0
 10
3.2207456553
 20
20.3469120718
 30
0.0
 10
3.2256998355
 20
20.3582798056
 30
0.0
 10
3.2313828489
 20
20.3692432662
 30
0.0
 10
3.2377650661
 20
20.3797096041
 30
0.0
 10
3.2428648219
 20
20.3872582958
 30
0.0
 10
3.2482793931
 20
20.3945088518
 30
0.0
 10
3.2539959827
 20
20.4014439575
 30
0.0
 10
3.2600001179
 20
20.4080474252
 30
0.0
 10
3.2662780835
 20
20.4143027529
 30
0.0
 10
3.2728146785
 20
20.4201948705
 30
0.0
 10
3.2795936569
 20
20.4257101836
 30
0.0
 10
3.2865994237
 20
20.4308345785
 30
0.0
 10
3.2938147471
 20
20.4355558537
 30
0.0
 10
3.3012223903
 20
20.4398633623
 30
0.0
 10
3.3113016858
 20
20.4450242691
 30
0.0
 10
3.32173149
 20
20.4493404716
 30
0.0
 10
3.3324118025
 20
20.452754155
 30
0.0
 10
3.3405052869
 20
20.4548535567
 30
0.0
 10
3.3486783039
 20
20.4564920803
 30
0.0
 10
3.35964509
 20
20.4580543031
 30
0.0
 10
3.3734769166
 20
20.458841374
 30
0.0
 10
3.3873087432
 20
20.4580543031
 30
0.0
 10
3.3982755293
 20
20.4564920803
 30
0.0
 10
3.4064485463
 20
20.4548535567
 30
0.0
 10
3.4145420307
 20
20.452754155
 30
0.0
 10
3.4252223432
 20
20.4493404716
 30
0.0
 10
3.4356521474
 20
20.4450242691
 30
0.0
 10
3.445731443
 20
20.4398633623
 30
0.0
 10
3.4531390861
 20
20.4355558537
 30
0.0
 10
3.4603544095
 20
20.4308345785
 30
0.0
 10
3.4673601763
 20
20.4257101836
 30
0.0
 10
3.4741391547
 20
20.4201948705
 30
0.0
 10
3.4806757497
 20
20.4143027529
 30
0.0
 10
3.4869537153
 20
20.4080474252
 30
0.0
 10
3.4929578505
 20
20.4014439575
 30
0.0
 10
3.4986744401
 20
20.3945088518
 30
0.0
 10
3.5040890113
 20
20.3872582958
 30
0.0
 10
3.5091887671
 20
20.3797096041
 30
0.0
 10
3.5155709843
 20
20.3692432662
 30
0.0
 10
3.5212539977
 20
20.3582798056
 30
0.0
 10
3.5262081779
 20
20.3469120718
 30
0.0
 10
3.5295667347
 20
20.3381598206
 30
0.0
 10
3.5325493039
 20
20.3292281308
 30
0.0
 10
3.5360210656
 20
20.3170915528
 30
0.0
 10
3.5387058099
 20
20.3046993624
 30
0.0
 10
3.5405924236
 20
20.2921417068
 30
0.0
 10
3.54194465
 20
20.279470528
 30
0.0
 10
3.5423518703
 20
20.2699027351
 30
0.0
 10
3.5423518703
 20
20.2635266961
 30
0.0
  0
SPLINE
  5
553
100
AcDbEntity
  8
0
100
AcDbSpline
 62
7
  6
CONTINUOUS
 70
0
 71
3
 72
61
 73
57
 74
0
 42
0.0000001
 43
0.0000001
 44
0.0000000001
 40
0.0
 40
0.0
 40
0.0
 40
0.0
 40
0.0334291029
 40
0.0501292469
 40
0.0667963495
 40
0.0999901962
 40
0.1165096459
 40
0.1329636835
 40
0.1493438214
 40
0.165642522
 40
0.1979621793
 40
0.2139807246
 40
0.2298965263
 40
0.245706158
 40
0.2614073778
 40
0.2769989851
 40
0.2924805968
 40
0.3078531257
 40
0.3231185188
 40
0.3382796167
 40
0.3533405906
 40
0.3683065699
 40
0.3831835726
 40
0.4126893505
 40
0.427345898
 40
0.4419471963
 40
0.4565034442
 40
0.4710253968
 40
0.5
 40
0.5289746032
 40
0.5434965558
 40
0.5580528037
 40
0.572654102
 40
0.5873106495
 40
0.6168164274
 40
0.6316934301
 40
0.6466594094
 40
0.6617203833
 40
0.6768814812
 40
0.6921468743
 40
0.7075194032
 40
0.7230010149
 40
0.7385926222
 40
0.754293842
 40
0.7701034737
 40
0.7860192754
 40
0.8020378207
 40
0.834357478
 40
0.8506561786
 40
0.8670363165
 40
0.8834903541
 40
0.9000098038
 40
0.9332036505
 40
0.9498707531
 40
0.9665708971
 40
1.0
 40
1.0
 40
1.0
 40
1.0
 10
3.2046019629
 20
20.2635266961
 30
0.0
 10
3.2046019629
 20
20.2571506572
 30
0.0
 10
3.2050091832
 20
20.2475828643
 30
0.0
 10
3.2063614096
 20
20.2349116855
 30
0.0
 10
3.2082480233
 20
20.2223540299
 30
0.0
 10
3.2109327676
 20
20.2099618395
 30
0.0
 10
3.2144045293
 20
20.1978252615
 30
0.0
 10
3.2173870985
 20
20.1888935717
 30
0.0
 10
3.2207456553
 20
20.1801413205
 30
0.0
 10
3.2256998355
 20
20.1687735867
 30
0.0
 10
3.2313828489
 20
20.1578101261
 30
0.0
 10
3.2377650661
 20
20.1473437882
 30
0.0
 10
3.2428648219
 20
20.1397950965
 30
0.0
 10
3.2482793931
 20
20.1325445405
 30
0.0
 10
3.2539959827
 20
20.1256094348
 30
0.0
 10
3.2600001179
 20
20.1190059671
 30
0.0
 10
3.2662780835
 20
20.1127506394
 30
0.0
 10
3.2728146785
 20
20.1068585218
 30
0.0
 10
3.2795936569
 20
20.1013432087
 30
0.0
 10
3.2865994237
 20
20.0962188138
 30
0.0
 10
3.2938147471
 20
20.0914975386
 30
0.0
 10
3.3012223903
 20
20.08719003
 30
0.0
 10
3.3113016858
 20
20.0820291232
 30
0.0
 10
3.32173149
 20
20.0777129207
 30
0.0
 10
3.3324118025
 20
20.0742992373
 30
0.0
 10
3.3405052869
 20
20.0721998356
 30
0.0
 10
3.3486783039
 20
20.070561312
 30
0.0
 10
3.35964509
 20
20.0689990892
 30
0.0
 10
3.3734769166
 20
20.0682120183
 30
0.0
 10
3.3873087432
 20
20.0689990892
 30
0.0
 10
3.3982755293
 20
20.070561312
 30
0.0
 10
3.4064485463
 20
20.0721998356
 30
0.0
 10
3.4145420307
 20
20.0742992373
 30
0.0
 10
3.4252223432
 20
20.0777129207
 30
0.0
 10
3.4356521474
 20
20.0820291232
 30
0.0
 10
3.445731443
 20
20.08719003
 30
0.0
 10
3.4531390861
 20
20.0914975386
 30
0.0
 10
3.4603544095
 20
20.0962188138
 30
0.0
 10
3.4673601763
 20
20.1013432087
 30
0.0
 10
3.4741391547
 20
20.1068585218
 30
0.0
 10
3.4806757497
 20
20.1127506394
 30
0.0
 10
3.4869537153
 20
20.1190059671
 30
0.0
 10
3.4929578505
 20
20.1256094348
 30
0.0
 10
3.4986744401
 20
20.1325445405
 30
0.0
 10
3.5040890113
 20
20.1397950965
 30
0.0
 10
3.5091887671
 20
20.1473437882
 30
0.0
 10
3.5155709843
 20
20.1578101261
 30
0.0
 10
3.5212539977
 20
20.1687735867
 30
0.0
 10
3.5262081779
 20
20.1801413205
 30
0.0
 10
3.5295667347
 20
20.1888935717
 30
0.0
 10
3.5325493039
 20
20.1978252615
 30
0.0
 10
3.5360210656
 20
20.2099618395
 30
0.0
 10
3.5387058099
 20
20.2223540299
 30
0.0
 10
3.5405924236
 20
20.2349116855
 30
0.0
 10
3.54194465
 20
20.2475828643
 30
0.0
 10
3.5423518703
 20
20.2571506572
 30
0.0
 10
3.5423518703
 20
20.2635266961
 30
0.0
  0
SPLINE
  5
554
100
AcDbEntity
  8
0
100
AcDbSpline
 62
7
  6
CONTINUOUS
 70
0
 71
3
 72
27
 73
23
 74
0
 42
0.0000001
 43
0.0000001
 44
0.0000000001
 40
0.0
 40
0.0
 40
0.0
 40
0.0
 40
0.0579569598
 40
0.1160979835
 40
0.1745991265
 40
0.2040458858
 40
0.233640349
 40
0.2933131198
 40
0.3234389392
 40
0.3537653947
 40
0.4150296126
 40
0.4771657405
 40
0.5401774468
 40
0.6040371569
 40
0.6362760515
 40
0.668702891
 40
0.7340535674
 40
0.7669634255
 40
0.8000036843
 40
0.866404583
 40
0.9331458294
 40
1.0
 40
1.0
 40
1.0
 40
1.0
 10
3.6334769166
 20
20.1685266961
 30
0.0
 10
3.6361692729
 20
20.1685266961
 30
0.0
 10
3.6415675424
 20
20.1688337529
 30
0.0
 10
3.6495774929
 20
20.1702074046
 30
0.0
 10
3.6561105363
 20
20.1721006108
 30
0.0
 10
3.6612143467
 20
20.1740479531
 30
0.0
 10
3.6662536498
 20
20.1762936397
 30
0.0
 10
3.6711307337
 20
20.1789610654
 30
0.0
 10
3.6758018573
 20
20.1820176629
 30
0.0
 10
3.6803671807
 20
20.1853574817
 30
0.0
 10
3.6857985495
 20
20.1900146116
 30
0.0
 10
3.6917855523
 20
20.1962902461
 30
0.0
 10
3.6972109449
 20
20.2032105473
 30
0.0
 10
3.7012073877
 20
20.2094420748
 30
0.0
 10
3.7040787321
 20
20.2146789057
 30
0.0
 10
3.7067388417
 20
20.2201032938
 30
0.0
 10
3.7090409403
 20
20.2257312031
 30
0.0
 10
3.7109738674
 20
20.2315179386
 30
0.0
 10
3.7126649085
 20
20.2374308888
 30
0.0
 10
3.7143023086
 20
20.2449859643
 30
0.0
 10
3.7154847287
 20
20.2542116811
 30
0.0
 10
3.71574933
 20
20.2604210252
 30
0.0
 10
3.71574933
 20
20.2635266961
 30
0.0
  0
SPLINE
  5
555
100
AcDbEntity
  8
0
100
AcDbSpline
 62
7
  6
CONTINUOUS
 70
0
 71
3
 72
27
 73
23
 74
0
 42
0.0000001
 43
0.0000001
 44
0.0000000001
 40
0.0
 40
0.0
 40
0.0
 40
0.0
 40
0.0579569598
 40
0.1160979835
 40
0.1745991265
 40
0.2040458858
 40
0.233640349
 40
0.2933131198
 40
0.3234389392
 40
0.3537653947
 40
0.4150296126
 40
0.4771657405
 40
0.5401774468
 40
0.6040371569
 40
0.6362760515
 40
0.668702891
 40
0.7340535674
 40
0.7669634255
 40
0.8000036843
 40
0.866404583
 40
0.9331458294
 40
1.0
 40
1.0
 40
1.0
 40
1.0
 10
3.6334769166
 20
20.3585266961
 30
0.0
 10
3.6361692729
 20
20.3585266961
 30
0.0
 10
3.6415675424
 20
20.3582196394
 30
0.0
 10
3.6495774929
 20
20.3568459877
 30
0.0
 10
3.6561105363
 20
20.3549527815
 30
0.0
 10
3.6612143467
 20
20.3530054392
 30
0.0
 10
3.6662536498
 20
20.3507597526
 30
0.0
 10
3.6711307337
 20
20.3480923269
 30
0.0
 10
3.6758018573
 20
20.3450357294
 30
0.0
 10
3.6803671807
 20
20.3416959106
 30
0.0
 10
3.6857985495
 20
20.3370387807
 30
0.0
 10
3.6917855523
 20
20.3307631462
 30
0.0
 10
3.6972109449
 20
20.323842845
 30
0.0
 10
3.7012073877
 20
20.3176113175
 30
0.0
 10
3.7040787321
 20
20.3123744866
 30
0.0
 10
3.7067388417
 20
20.3069500985
 30
0.0
 10
3.7090409403
 20
20.3013221892
 30
0.0
 10
3.7109738674
 20
20.2955354537
 30
0.0
 10
3.7126649085
 20
20.2896225035
 30
0.0
 10
3.7143023086
 20
20.282067428
 30
0.0
 10
3.7154847287
 20
20.2728417112
 30
0.0
 10
3.71574933
 20
20.2666323671
 30
0.0
 10
3.71574933
 20
20.2635266961
 30
0.0
  0
SPLINE
  5
556
100
AcDbEntity
  8
0
100
AcDbSpline
 62
7
  6
CONTINUOUS
 70
0
 71
3
 72
61
 73
57
 74
0
 42
0.0000001
 43
0.0000001
 44
0.0000000001
 40
0.0
 40
0.0
 40
0.0
 40
0.0
 40
0.0334291029
 40
0.0501292469
 40
0.0667963495
 40
0.0999901962
 40
0.1165096459
 40
0.1329636835
 40
0.1493438214
 40
0.165642522
 40
0.1979621793
 40
0.2139807246
 40
0.2298965263
 40
0.245706158
 40
0.2614073778
 40
0.2769989851
 40
0.2924805968
 40
0.3078531257
 40
0.3231185188
 40
0.3382796167
 40
0.3533405906
 40
0.3683065699
 40
0.3831835726
 40
0.4126893505
 40
0.427345898
 40
0.4419471963
 40
0.4565034442
 40
0.4710253968
 40
0.5
 40
0.5289746032
 40
0.5434965558
 40
0.5580528037
 40
0.572654102
 40
0.5873106495
 40
0.6168164274
 40
0.6316934301
 40
0.6466594094
 40
0.6617203833
 40
0.6768814812
 40
0.6921468743
 40
0.7075194032
 40
0.7230010149
 40
0.7385926222
 40
0.754293842
 40
0.7701034737
 40
0.7860192754
 40
0.8020378207
 40
0.834357478
 40
0.8506561786
 40
0.8670363165
 40
0.8834903541
 40
0.9000098038
 40
0.9332036505
 40
0.9498707531
 40
0.9665708971
 40
1.0
 40
1.0
 40
1.0
 40
1.0
 10
3.2046019629
 20
22.5635266961
 30
0.0
 10
3.2046019629
 20
22.5699027351
 30
0.0
 10
3.2050091832
 20
22.579470528
 30
0.0
 10
3.2063614096
 20
22.5921417068
 30
0.0
 10
3.2082480233
 20
22.6046993624
 30
0.0
 10
3.2109327676
 20
22.6170915528
 30
0.0
 10
3.2144045293
 20
22.6292281308
 30
0.0
 10
3.2173870985
 20
22.6381598206
 30
0.0
 10
3.2207456553
 20
22.6469120718
 30
0.0
 10
3.2256998355
 20
22.6582798056
 30
0.0
 10
3.2313828489
 20
22.6692432662
 30
0.0
 10
3.2377650661
 20
22.6797096041
 30
0.0
 10
3.2428648219
 20
22.6872582958
 30
0.0
 10
3.2482793931
 20
22.6945088518
 30
0.0
 10
3.2539959827
 20
22.7014439575
 30
0.0
 10
3.2600001179
 20
22.7080474252
 30
0.0
 10
3.2662780835
 20
22.7143027529
 30
0.0
 10
3.2728146785
 20
22.7201948705
 30
0.0
 10
3.2795936569
 20
22.7257101836
 30
0.0
 10
3.2865994237
 20
22.7308345785
 30
0.0
 10
3.2938147471
 20
22.7355558537
 30
0.0
 10
3.3012223903
 20
22.7398633623
 30
0.0
 10
3.3113016858
 20
22.7450242691
 30
0.0
 10
3.32173149
 20
22.7493404716
 30
0.0
 10
3.3324118025
 20
22.752754155
 30
0.0
 10
3.3405052869
 20
22.7548535567
 30
0.0
 10
3.3486783039
 20
22.7564920803
 30
0.0
 10
3.35964509
 20
22.7580543031
 30
0.0
 10
3.3734769166
 20
22.758841374
 30
0.0
 10
3.3873087432
 20
22.7580543031
 30
0.0
 10
3.3982755293
 20
22.7564920803
 30
0.0
 10
3.4064485463
 20
22.7548535567
 30
0.0
 10
3.4145420307
 20
22.752754155
 30
0.0
 10
3.4252223432
 20
22.7493404716
 30
0.0
 10
3.4356521474
 20
22.7450242691
 30
0.0
 10
3.445731443
 20
22.7398633623
 30
0.0
 10
3.4531390861
 20
22.7355558537
 30
0.0
 10
3.4603544095
 20
22.7308345785
 30
0.0
 10
3.4673601763
 20
22.7257101836
 30
0.0
 10
3.4741391547
 20
22.7201948705
 30
0.0
 10
3.4806757497
 20
22.7143027529
 30
0.0
 10
3.4869537153
 20
22.7080474252
 30
0.0
 10
3.4929578505
 20
22.7014439575
 30
0.0
 10
3.4986744401
 20
22.6945088518
 30
0.0
 10
3.5040890113
 20
22.6872582958
 30
0.0
 10
3.5091887671
 20
22.6797096041
 30
0.0
 10
3.5155709843
 20
22.6692432662
 30
0.0
 10
3.5212539977
 20
22.6582798056
 30
0.0
 10
3.5262081779
 20
22.6469120718
 30
0.0
 10
3.5295667347
 20
22.6381598206
 30
0.0
 10
3.5325493039
 20
22.6292281308
 30
0.0
 10
3.5360210656
 20
22.6170915528
 30
0.0
 10
3.5387058099
 20
22.6046993624
 30
0.0
 10
3.5405924236
 20
22.5921417068
 30
0.0
 10
3.54194465
 20
22.579470528
 30
0.0
 10
3.5423518703
 20
22.5699027351
 30
0.0
 10
3.5423518703
 20
22.5635266961
 30
0.0
  0
SPLINE
  5
557
100
AcDbEntity
  8
0
100
AcDbSpline
 62
7
  6
CONTINUOUS
 70
0
 71
3
 72
61
 73
57
 74
0
 42
0.0000001
 43
0.0000001
 44
0.0000000001
 40
0.0
 40
0.0
 40
0.0
 40
0.0
 40
0.0334291029
 40
0.0501292469
 40
0.0667963495
 40
0.0999901962
 40
0.1165096459
 40
0.1329636835
 40
0.1493438214
 40
0.165642522
 40
0.1979621793
 40
0.2139807246
 40
0.2298965263
 40
0.245706158
 40
0.2614073778
 40
0.2769989851
 40
0.2924805968
 40
0.3078531257
 40
0.3231185188
 40
0.3382796167
 40
0.3533405906
 40
0.3683065699
 40
0.3831835726
 40
0.4126893505
 40
0.427345898
 40
0.4419471963
 40
0.4565034442
 40
0.4710253968
 40
0.5
 40
0.5289746032
 40
0.5434965558
 40
0.5580528037
 40
0.572654102
 40
0.5873106495
 40
0.6168164274
 40
0.6316934301
 40
0.6466594094
 40
0.6617203833
 40
0.6768814812
 40
0.6921468743
 40
0.7075194032
 40
0.7230010149
 40
0.7385926222
 40
0.754293842
 40
0.7701034737
 40
0.7860192754
 40
0.8020378207
 40
0.834357478
 40
0.8506561786
 40
0.8670363165
 40
0.8834903541
 40
0.9000098038
 40
0.9332036505
 40
0.9498707531
 40
0.9665708971
 40
1.0
 40
1.0
 40
1.0
 40
1.0
 10
3.2046019629
 20
22.5635266961
 30
0.0
 10
3.2046019629
 20
22.5571506572
 30
0.0
 10
3.2050091832
 20
22.5475828643
 30
0.0
 10
3.2063614096
 20
22.5349116855
 30
0.0
 10
3.2082480233
 20
22.5223540299
 30
0.0
 10
3.2109327676
 20
22.5099618395
 30
0.0
 10
3.2144045293
 20
22.4978252615
 30
0.0
 10
3.2173870985
 20
22.4888935717
 30
0.0
 10
3.2207456553
 20
22.4801413205
 30
0.0
 10
3.2256998355
 20
22.4687735867
 30
0.0
 10
3.2313828489
 20
22.4578101261
 30
0.0
 10
3.2377650661
 20
22.4473437882
 30
0.0
 10
3.2428648219
 20
22.4397950965
 30
0.0
 10
3.2482793931
 20
22.4325445405
 30
0.0
 10
3.2539959827
 20
22.4256094348
 30
0.0
 10
3.2600001179
 20
22.4190059671
 30
0.0
 10
3.2662780835
 20
22.4127506394
 30
0.0
 10
3.2728146785
 20
22.4068585218
 30
0.0
 10
3.2795936569
 20
22.4013432087
 30
0.0
 10
3.2865994237
 20
22.3962188138
 30
0.0
 10
3.2938147471
 20
22.3914975386
 30
0.0
 10
3.3012223903
 20
22.38719003
 30
0.0
 10
3.3113016858
 20
22.3820291232
 30
0.0
 10
3.32173149
 20
22.3777129207
 30
0.0
 10
3.3324118025
 20
22.3742992373
 30
0.0
 10
3.3405052869
 20
22.3721998356
 30
0.0
 10
3.3486783039
 20
22.370561312
 30
0.0
 10
3.35964509
 20
22.3689990892
 30
0.0
 10
3.3734769166
 20
22.3682120183
 30
0.0
 10
3.3873087432
 20
22.3689990892
 30
0.0
 10
3.3982755293
 20
22.370561312
 30
0.0
 10
3.4064485463
 20
22.3721998356
 30
0.0
 10
3.4145420307
 20
22.3742992373
 30
0.0
 10
3.4252223432
 20
22.3777129207
 30
0.0
 10
3.4356521474
 20
22.3820291232
 30
0.0
 10
3.445731443
 20
22.38719003
 30
0.0
 10
3.4531390861
 20
22.3914975386
 30
0.0
 10
3.4603544095
 20
22.3962188138
 30
0.0
 10
3.4673601763
 20
22.4013432087
 30
0.0
 10
3.4741391547
 20
22.4068585218
 30
0.0
 10
3.4806757497
 20
22.4127506394
 30
0.0
 10
3.4869537153
 20
22.4190059671
 30
0.0
 10
3.4929578505
 20
22.4256094348
 30
0.0
 10
3.4986744401
 20
22.4325445405
 30
0.0
 10
3.5040890113
 20
22.4397950965
 30
0.0
 10
3.5091887671
 20
22.4473437882
 30
0.0
 10
3.5155709843
 20
22.4578101261
 30
0.0
 10
3.5212539977
 20
22.4687735867
 30
0.0
 10
3.5262081779
 20
22.4801413205
 30
0.0
 10
3.5295667347
 20
22.4888935717
 30
0.0
 10
3.5325493039
 20
22.4978252615
 30
0.0
 10
3.5360210656
 20
22.5099618395
 30
0.0
 10
3.5387058099
 20
22.5223540299
 30
0.0
 10
3.5405924236
 20
22.5349116855
 30
0.0
 10
3.54194465
 20
22.5475828643
 30
0.0
 10
3.5423518703
 20
22.5571506572
 30
0.0
 10
3.5423518703
 20
22.5635266961
 30
0.0
  0
SPLINE
  5
558
100
AcDbEntity
  8
0
100
AcDbSpline
 62
7
  6
CONTINUOUS
 70
0
 71
3
 72
27
 73
23
 74
0
 42
0.0000001
 43
0.0000001
 44
0.0000000001
 40
0.0
 40
0.0
 40
0.0
 40
0.0
 40
0.0579569598
 40
0.1160979835
 40
0.1745991265
 40
0.2040458858
 40
0.233640349
 40
0.2933131198
 40
0.3234389392
 40
0.3537653947
 40
0.4150296126
 40
0.4771657405
 40
0.5401774468
 40
0.6040371569
 40
0.6362760515
 40
0.668702891
 40
0.7340535674
 40
0.7669634255
 40
0.8000036843
 40
0.866404583
 40
0.9331458294
 40
1.0
 40
1.0
 40
1.0
 40
1.0
 10
3.6334769166
 20
22.4685266961
 30
0.0
 10
3.6361692729
 20
22.4685266961
 30
0.0
 10
3.6415675424
 20
22.4688337529
 30
0.0
 10
3.6495774929
 20
22.4702074046
 30
0.0
 10
3.6561105363
 20
22.4721006108
 30
0.0
 10
3.6612143467
 20
22.4740479531
 30
0.0
 10
3.6662536498
 20
22.4762936397
 30
0.0
 10
3.6711307337
 20
22.4789610654
 30
0.0
 10
3.6758018573
 20
22.4820176629
 30
0.0
 10
3.6803671807
 20
22.4853574817
 30
0.0
 10
3.6857985495
 20
22.4900146116
 30
0.0
 10
3.6917855523
 20
22.4962902461
 30
0.0
 10
3.6972109449
 20
22.5032105473
 30
0.0
 10
3.7012073877
 20
22.5094420748
 30
0.0
 10
3.7040787321
 20
22.5146789057
 30
0.0
 10
3.7067388417
 20
22.5201032938
 30
0.0
 10
3.7090409403
 20
22.5257312031
 30
0.0
 10
3.7109738674
 20
22.5315179386
 30
0.0
 10
3.7126649085
 20
22.5374308888
 30
0.0
 10
3.7143023086
 20
22.5449859643
 30
0.0
 10
3.7154847287
 20
22.5542116811
 30
0.0
 10
3.71574933
 20
22.5604210252
 30
0.0
 10
3.71574933
 20
22.5635266961
 30
0.0
  0
SPLINE
  5
559
100
AcDbEntity
  8
0
100
AcDbSpline
 62
7
  6
CONTINUOUS
 70
0
 71
3
 72
27
 73
23
 74
0
 42
0.0000001
 43
0.0000001
 44
0.0000000001
 40
0.0
 40
0.0
 40
0.0
 40
0.0
 40
0.0579569598
 40
0.1160979835
 40
0.1745991265
 40
0.2040458858
 40
0.233640349
 40
0.2933131198
 40
0.3234389392
 40
0.3537653947
 40
0.4150296126
 40
0.4771657405
 40
0.5401774468
 40
0.6040371569
 40
0.6362760515
 40
0.668702891
 40
0.7340535674
 40
0.7669634255
 40
0.8000036843
 40
0.866404583
 40
0.9331458294
 40
1.0
 40
1.0
 40
1.0
 40
1.0
 10
3.6334769166
 20
22.6585266961
 30
0.0
 10
3.6361692729
 20
22.6585266961
 30
0.0
 10
3.6415675424
 20
22.6582196394
 30
0.0
 10
3.6495774929
 20
22.6568459877
 30
0.0
 10
3.6561105363
 20
22.6549527815
 30
0.0
 10
3.6612143467
 20
22.6530054392
 30
0.0
 10
3.6662536498
 20
22.6507597526
 30
0.0
 10
3.6711307337
 20
22.6480923269
 30
0.0
 10
3.6758018573
 20
22.6450357294
 30
0.0
 10
3.6803671807
 20
22.6416959106
 30
0.0
 10
3.6857985495
 20
22.6370387807
 30
0.0
 10
3.6917855523
 20
22.6307631462
 30
0.0
 10
3.6972109449
 20
22.623842845
 30
0.0
 10
3.7012073877
 20
22.6176113175
 30
0.0
 10
3.7040787321
 20
22.6123744866
 30
0.0
 10
3.7067388417
 20
22.6069500985
 30
0.0
 10
3.7090409403
 20
22.6013221892
 30
0.0
 10
3.7109738674
 20
22.5955354537
 30
0.0
 10
3.7126649085
 20
22.5896225035
 30
0.0
 10
3.7143023086
 20
22.582067428
 30
0.0
 10
3.7154847287
 20
22.5728417112
 30
0.0
 10
3.71574933
 20
22.5666323671
 30
0.0
 10
3.71574933
 20
22.5635266961
 30
0.0
  0
SPLINE
  5
55A
100
AcDbEntity
  8
0
100
AcDbSpline
 62
7
  6
CONTINUOUS
 70
0
 71
3
 72
21
 73
17
 74
0
 42
0.0000001
 43
0.0000001
 44
0.0000000001
 40
0.0
 40
0.0
 40
0.0
 40
0.0
 40
0.1256853361
 40
0.1883323231
 40
0.2508510309
 40
0.3132535003
 40
0.3755604261
 40
0.4377981636
 40
0.5
 40
0.5622018364
 40
0.6244395739
 40
0.6867464997
 40
0.7491489691
 40
0.8116676769
 40
0.8743146639
 40
1.0
 40
1.0
 40
1.0
 40
1.0
 10
12.9297269166
 20
20.0955621958
 30
0.0
 10
12.9373299733
 20
20.0930278436
 30
0.0
 10
12.9488318654
 20
20.0895397124
 30
0.0
 10
12.9643598278
 20
20.0856889329
 30
0.0
 10
12.9760722564
 20
20.0832506621
 30
0.0
 10
12.9878541964
 20
20.0813006861
 30
0.0
 10
12.9996937555
 20
20.0798770145
 30
0.0
 10
13.0115745666
 20
20.0790099977
 30
0.0
 10
13.0234769166
 20
20.0787180862
 30
0.0
 10
13.0353792666
 20
20.0790099977
 30
0.0
 10
13.0472600777
 20
20.0798770145
 30
0.0
 10
13.0590996368
 20
20.0813006861
 30
0.0
 10
13.0708815768
 20
20.0832506621
 30
0.0
 10
13.0825940054
 20
20.0856889329
 30
0.0
 10
13.0981219678
 20
20.0895397124
 30
0.0
 10
13.1096238599
 20
20.0930278436
 30
0.0
 10
13.1172269166
 20
20.0955621958
 30
0.0
  0
SPLINE
  5
55B
100
AcDbEntity
  8
0
100
AcDbSpline
 62
7
  6
CONTINUOUS
 70
0
 71
3
 72
21
 73
17
 74
0
 42
0.0000001
 43
0.0000001
 44
0.0000000001
 40
0.0
 40
0.0
 40
0.0
 40
0.0
 40
0.1256853361
 40
0.1883323231
 40
0.2508510309
 40
0.3132535003
 40
0.3755604261
 40
0.4377981636
 40
0.5
 40
0.5622018364
 40
0.6244395739
 40
0.6867464997
 40
0.7491489691
 40
0.8116676769
 40
0.8743146639
 40
1.0
 40
1.0
 40
1.0
 40
1.0
 10
13.1172269166
 20
20.0955621958
 30
0.0
 10
13.1248299733
 20
20.0930278436
 30
0.0
 10
13.1363318654
 20
20.0895397124
 30
0.0
 10
13.1518598278
 20
20.0856889329
 30
0.0
 10
13.1635722564
 20
20.0832506621
 30
0.0
 10
13.1753541964
 20
20.0813006861
 30
0.0
 10
13.1871937555
 20
20.0798770145
 30
0.0
 10
13.1990745666
 20
20.0790099977
 30
0.0
 10
13.2109769166
 20
20.0787180862
 30
0.0
 10
13.2228792666
 20
20.0790099977
 30
0.0
 10
13.2347600777
 20
20.0798770145
 30
0.0
 10
13.2465996368
 20
20.0813006861
 30
0.0
 10
13.2583815768
 20
20.0832506621
 30
0.0
 10
13.2700940054
 20
20.0856889329
 30
0.0
 10
13.2856219678
 20
20.0895397124
 30
0.0
 10
13.2971238599
 20
20.0930278436
 30
0.0
 10
13.3047269166
 20
20.0955621958
 30
0.0
  0
LINE
  5
55C
100
AcDbEntity
  8
0
100
AcDbLine
 62
7
  6
CONTINUOUS
 10
13.1172269166
 20
20.2466266961
 11
13.1172269166
 21
20.2685266961
  0
SPLINE
  5
55D
100
AcDbEntity
  8
0
100
AcDbSpline
 62
7
  6
CONTINUOUS
 70
0
 71
3
 72
21
 73
17
 74
0
 42
0.0000001
 43
0.0000001
 44
0.0000000001
 40
0.0
 40
0.0
 40
0.0
 40
0.0
 40
0.1256853361
 40
0.1883323231
 40
0.2508510309
 40
0.3132535003
 40
0.3755604261
 40
0.4377981636
 40
0.5
 40
0.5622018364
 40
0.6244395739
 40
0.6867464997
 40
0.7491489691
 40
0.8116676769
 40
0.8743146639
 40
1.0
 40
1.0
 40
1.0
 40
1.0
 10
13.9297269166
 20
20.0955621958
 30
0.0
 10
13.9373299733
 20
20.0930278436
 30
0.0
 10
13.9488318654
 20
20.0895397124
 30
0.0
 10
13.9643598278
 20
20.0856889329
 30
0.0
 10
13.9760722564
 20
20.0832506621
 30
0.0
 10
13.9878541964
 20
20.0813006861
 30
0.0
 10
13.9996937555
 20
20.0798770145
 30
0.0
 10
14.0115745666
 20
20.0790099977
 30
0.0
 10
14.0234769166
 20
20.0787180862
 30
0.0
 10
14.0353792666
 20
20.0790099977
 30
0.0
 10
14.0472600777
 20
20.0798770145
 30
0.0
 10
14.0590996368
 20
20.0813006861
 30
0.0
 10
14.0708815768
 20
20.0832506621
 30
0.0
 10
14.0825940054
 20
20.0856889329
 30
0.0
 10
14.0981219678
 20
20.0895397124
 30
0.0
 10
14.1096238599
 20
20.0930278436
 30
0.0
 10
14.1172269166
 20
20.0955621958
 30
0.0
  0
SPLINE
  5
55E
100
AcDbEntity
  8
0
100
AcDbSpline
 62
7
  6
CONTINUOUS
 70
0
 71
3
 72
21
 73
17
 74
0
 42
0.0000001
 43
0.0000001
 44
0.0000000001
 40
0.0
 40
0.0
 40
0.0
 40
0.0
 40
0.1256853361
 40
0.1883323231
 40
0.2508510309
 40
0.3132535003
 40
0.3755604261
 40
0.4377981636
 40
0.5
 40
0.5622018364
 40
0.6244395739
 40
0.6867464997
 40
0.7491489691
 40
0.8116676769
 40
0.8743146639
 40
1.0
 40
1.0
 40
1.0
 40
1.0
 10
14.1172269166
 20
20.0955621958
 30
0.0
 10
14.1248299733
 20
20.0930278436
 30
0.0
 10
14.1363318654
 20
20.0895397124
 30
0.0
 10
14.1518598278
 20
20.0856889329
 30
0.0
 10
14.1635722564
 20
20.0832506621
 30
0.0
 10
14.1753541964
 20
20.0813006861
 30
0.0
 10
14.1871937555
 20
20.0798770145
 30
0.0
 10
14.1990745666
 20
20.0790099977
 30
0.0
 10
14.2109769166
 20
20.0787180862
 30
0.0
 10
14.2228792666
 20
20.0790099977
 30
0.0
 10
14.2347600777
 20
20.0798770145
 30
0.0
 10
14.2465996368
 20
20.0813006861
 30
0.0
 10
14.2583815768
 20
20.0832506621
 30
0.0
 10
14.2700940054
 20
20.0856889329
 30
0.0
 10
14.2856219678
 20
20.0895397124
 30
0.0
 10
14.2971238599
 20
20.0930278436
 30
0.0
 10
14.3047269166
 20
20.0955621958
 30
0.0
  0
LINE
  5
55F
100
AcDbEntity
  8
0
100
AcDbLine
 62
7
  6
CONTINUOUS
 10
14.1172269166
 20
20.2466266961
 11
14.1172269166
 21
20.2685266961
  0
SPLINE
  5
560
100
AcDbEntity
  8
0
100
AcDbSpline
 62
7
  6
CONTINUOUS
 70
0
 71
3
 72
21
 73
17
 74
0
 42
0.0000001
 43
0.0000001
 44
0.0000000001
 40
0.0
 40
0.0
 40
0.0
 40
0.0
 40
0.1256853361
 40
0.1883323231
 40
0.2508510309
 40
0.3132535003
 40
0.3755604261
 40
0.4377981636
 40
0.5
 40
0.5622018364
 40
0.6244395739
 40
0.6867464997
 40
0.7491489691
 40
0.8116676769
 40
0.8743146639
 40
1.0
 40
1.0
 40
1.0
 40
1.0
 10
4.3047269166
 20
20.0955621958
 30
0.0
 10
4.3123299733
 20
20.0930278436
 30
0.0
 10
4.3238318654
 20
20.0895397124
 30
0.0
 10
4.3393598278
 20
20.0856889329
 30
0.0
 10
4.3510722564
 20
20.0832506621
 30
0.0
 10
4.3628541964
 20
20.0813006861
 30
0.0
 10
4.3746937555
 20
20.0798770145
 30
0.0
 10
4.3865745666
 20
20.0790099977
 30
0.0
 10
4.3984769166
 20
20.0787180862
 30
0.0
 10
4.4103792666
 20
20.0790099977
 30
0.0
 10
4.4222600777
 20
20.0798770145
 30
0.0
 10
4.4340996368
 20
20.0813006861
 30
0.0
 10
4.4458815768
 20
20.0832506621
 30
0.0
 10
4.4575940054
 20
20.0856889329
 30
0.0
 10
4.4731219678
 20
20.0895397124
 30
0.0
 10
4.4846238599
 20
20.0930278436
 30
0.0
 10
4.4922269166
 20
20.0955621958
 30
0.0
  0
SPLINE
  5
561
100
AcDbEntity
  8
0
100
AcDbSpline
 62
7
  6
CONTINUOUS
 70
0
 71
3
 72
21
 73
17
 74
0
 42
0.0000001
 43
0.0000001
 44
0.0000000001
 40
0.0
 40
0.0
 40
0.0
 40
0.0
 40
0.1256853361
 40
0.1883323231
 40
0.2508510309
 40
0.3132535003
 40
0.3755604261
 40
0.4377981636
 40
0.5
 40
0.5622018364
 40
0.6244395739
 40
0.6867464997
 40
0.7491489691
 40
0.8116676769
 40
0.8743146639
 40
1.0
 40
1.0
 40
1.0
 40
1.0
 10
4.4922269166
 20
20.0955621958
 30
0.0
 10
4.4998299733
 20
20.0930278436
 30
0.0
 10
4.5113318654
 20
20.0895397124
 30
0.0
 10
4.5268598278
 20
20.0856889329
 30
0.0
 10
4.5385722564
 20
20.0832506621
 30
0.0
 10
4.5503541964
 20
20.0813006861
 30
0.0
 10
4.5621937555
 20
20.0798770145
 30
0.0
 10
4.5740745666
 20
20.0790099977
 30
0.0
 10
4.5859769166
 20
20.0787180862
 30
0.0
 10
4.5978792666
 20
20.0790099977
 30
0.0
 10
4.6097600777
 20
20.0798770145
 30
0.0
 10
4.6215996368
 20
20.0813006861
 30
0.0
 10
4.6333815768
 20
20.0832506621
 30
0.0
 10
4.6450940054
 20
20.0856889329
 30
0.0
 10
4.6606219678
 20
20.0895397124
 30
0.0
 10
4.6721238599
 20
20.0930278436
 30
0.0
 10
4.6797269166
 20
20.0955621958
 30
0.0
  0
LINE
  5
562
100
AcDbEntity
  8
0
100
AcDbLine
 62
7
  6
CONTINUOUS
 10
4.4922269166
 20
20.2466266961
 11
4.4922269166
 21
20.2685266961
  0
SPLINE
  5
563
100
AcDbEntity
  8
0
100
AcDbSpline
 62
7
  6
CONTINUOUS
 70
0
 71
3
 72
21
 73
17
 74
0
 42
0.0000001
 43
0.0000001
 44
0.0000000001
 40
0.0
 40
0.0
 40
0.0
 40
0.0
 40
0.1256853361
 40
0.1883323231
 40
0.2508510309
 40
0.3132535003
 40
0.3755604261
 40
0.4377981636
 40
0.5
 40
0.5622018364
 40
0.6244395739
 40
0.6867464997
 40
0.7491489691
 40
0.8116676769
 40
0.8743146639
 40
1.0
 40
1.0
 40
1.0
 40
1.0
 10
3.8047269166
 20
20.0955621958
 30
0.0
 10
3.8123299733
 20
20.0930278436
 30
0.0
 10
3.8238318654
 20
20.0895397124
 30
0.0
 10
3.8393598278
 20
20.0856889329
 30
0.0
 10
3.8510722564
 20
20.0832506621
 30
0.0
 10
3.8628541964
 20
20.0813006861
 30
0.0
 10
3.8746937555
 20
20.0798770145
 30
0.0
 10
3.8865745666
 20
20.0790099977
 30
0.0
 10
3.8984769166
 20
20.0787180862
 30
0.0
 10
3.9103792666
 20
20.0790099977
 30
0.0
 10
3.9222600777
 20
20.0798770145
 30
0.0
 10
3.9340996368
 20
20.0813006861
 30
0.0
 10
3.9458815768
 20
20.0832506621
 30
0.0
 10
3.9575940054
 20
20.0856889329
 30
0.0
 10
3.9731219678
 20
20.0895397124
 30
0.0
 10
3.9846238599
 20
20.0930278436
 30
0.0
 10
3.9922269166
 20
20.0955621958
 30
0.0
  0
SPLINE
  5
564
100
AcDbEntity
  8
0
100
AcDbSpline
 62
7
  6
CONTINUOUS
 70
0
 71
3
 72
21
 73
17
 74
0
 42
0.0000001
 43
0.0000001
 44
0.0000000001
 40
0.0
 40
0.0
 40
0.0
 40
0.0
 40
0.1256853361
 40
0.1883323231
 40
0.2508510309
 40
0.3132535003
 40
0.3755604261
 40
0.4377981636
 40
0.5
 40
0.5622018364
 40
0.6244395739
 40
0.6867464997
 40
0.7491489691
 40
0.8116676769
 40
0.8743146639
 40
1.0
 40
1.0
 40
1.0
 40
1.0
 10
3.9922269166
 20
20.0955621958
 30
0.0
 10
3.9998299733
 20
20.0930278436
 30
0.0
 10
4.0113318654
 20
20.0895397124
 30
0.0
 10
4.0268598278
 20
20.0856889329
 30
0.0
 10
4.0385722564
 20
20.0832506621
 30
0.0
 10
4.0503541964
 20
20.0813006861
 30
0.0
 10
4.0621937555
 20
20.0798770145
 30
0.0
 10
4.0740745666
 20
20.0790099977
 30
0.0
 10
4.0859769166
 20
20.0787180862
 30
0.0
 10
4.0978792666
 20
20.0790099977
 30
0.0
 10
4.1097600777
 20
20.0798770145
 30
0.0
 10
4.1215996368
 20
20.0813006861
 30
0.0
 10
4.1333815768
 20
20.0832506621
 30
0.0
 10
4.1450940054
 20
20.0856889329
 30
0.0
 10
4.1606219678
 20
20.0895397124
 30
0.0
 10
4.1721238599
 20
20.0930278436
 30
0.0
 10
4.1797269166
 20
20.0955621958
 30
0.0
  0
LINE
  5
565
100
AcDbEntity
  8
0
100
AcDbLine
 62
7
  6
CONTINUOUS
 10
3.9922269166
 20
20.2466266961
 11
3.9922269166
 21
20.2685266961
  0
ELLIPSE
  5
566
100
AcDbEntity
  8
0
100
AcDbEllipse
 62
7
  6
CONTINUOUS
 10
-28.3545204682
 20
3.5989495907
 30
0.0
 11
0.1342339376
 21
-0.0775
 31
0.0
 40
0.0524077793
 41
-0.0
 42
3.1415926536
  0
ELLIPSE
  5
567
100
AcDbEntity
  8
0
100
AcDbEllipse
 62
7
  6
CONTINUOUS
 10
-27.784344964
 20
4.1708258065
 30
0.0
 11
0.5404450325
 21
-0.312026085
 31
0.0
 40
0.942904759
 41
-1.5662361117
 42
-1.5031998078
  0
ELLIPSE
  5
568
100
AcDbEntity
  8
0
100
AcDbEllipse
 62
7
  6
CONTINUOUS
 10
-28.1443488895
 20
4.3786741698
 30
0.0
 11
0.5404450325
 21
-0.312026085
 31
0.0
 40
0.942904759
 41
-1.6383928458
 42
-1.5753565419
  0
ENDSEC
  0
SECTION
  2
OBJECTS
  0
DICTIONARY
  5
C
100
AcDbDictionary
280
0
281
1
  3
ACAD_GROUP
350
D
  3
ACAD_MLINESTYLE
350
17
  3
ACAD_LAYOUT
350
1A
  3
ACAD_PLOTSETTINGS
350
19
  3
ACAD_PLOTSTYLENAME
350
E
  0
DICTIONARY
  5
D
102
{ACAD_REACTORS
330
C
102
}
100
AcDbDictionary
280
0
281
1
  0
ACDBDICTIONARYWDFLT
  5
E
102
{ACAD_REACTORS
330
C
102
}
100
AcDbDictionary
281
1
  3
Normal
350
F
100
AcDbDictionaryWithDefault
340
F
  0
DICTIONARY
  5
17
102
{ACAD_REACTORS
330
C
102
}
100
AcDbDictionary
280
0
281
1
  3
Standard
350
18
  0
DICTIONARY
  5
19
102
{ACAD_REACTORS
330
C
102
}
100
AcDbDictionary
281
1
  0
DICTIONARY
  5
1A
102
{ACAD_REACTORS
330
C
102
}
100
AcDbDictionary
281
1
  3
Model
350
569
  3
Layout1
350
56A
  0
ACDBPLACEHOLDER
  5
F
102
{ACAD_REACTORS
330
E
102
}
  0
MLINESTYLE
  5
18
102
{ACAD_REACTORS
330
17
102
}
100
AcDbMlineStyle
  2
STANDARD
 70
0
  3

 62
256
 51
90.0
 52
90.0
 71
2
 49
0.5
 62
256
  6
BYLAYER
 49
-0.5
 62
256
  6
BYLAYER
  0
LAYOUT
  5
569
102
{ACAD_REACTORS
330
1A
102
}
100
AcDbPlotSettings
  1

  2
none_device
  4

  6

 40
0.0
 41
0.0
 42
0.0
 43
0.0
 44
431.8
 45
279.4
 46
0.0
 47
0.0
 48
0.0
 49
0.0
140
0.0
141
0.0
142
1.0
143
1.0
 70
1024
 72
0
 73
0
 74
0
  7

 75
0
147
1.0
148
0.0
149
0.0
100
AcDbLayout
  1
Model
 70
0
 71
0
 10
0.0
 20
0.0
 11
17.0
 21
11.0
 12
0.0
 22
0.0
 32
0.0
 14
0.0
 24
0.0
 34
0.0
 15
0.0
 25
0.0
 35
0.0
146
0.0
 13
0.0
 23
0.0
 33
0.0
 16
1.0
 26
0.0
 36
0.0
 17
0.0
 27
1.0
 37
0.0
 76
0
330
22A
345
0
346
0
  0
LAYOUT
  5
56A
102
{ACAD_REACTORS
330
1A
102
}
100
AcDbPlotSettings
  1

  2
none_device
  4

  6

 40
0.0
 41
0.0
 42
0.0
 43
0.0
 44
431.8
 45
279.4
 46
0.0
 47
0.0
 48
0.0
 49
0.0
140
0.0
141
0.0
142
1.0
143
1.0
 70
0
 72
0
 73
0
 74
0
  7

 75
0
147
1.0
148
0.0
149
0.0
100
AcDbLayout
  1
Layout1
 70
0
 71
1
 10
0.0
 20
0.0
 11
17.0
 21
11.0
 12
0.0
 22
0.0
 32
0.0
 14
0.0
 24
0.0
 34
0.0
 15
0.0
 25
0.0
 35
0.0
146
0.0
 13
0.0
 23
0.0
 33
0.0
 16
1.0
 26
0.0
 36
0.0
 17
0.0
 27
1.0
 37
0.0
 76
0
330
22B
345
0
346
0
  0
ENDSEC
  0
EOF
