999
DXF file: N:\Master\master\M3_ProE_files\Lenexa\MADAM DXF\47387.dxf
999
Pro/ENGINEER 2010280 by Parametric Technology Corporation
  0
SECTION
  2
HEADER
  9
$ACADVER
  1
AC1021
  9
$DWGCODEPAGE
  3
ANSI_1252
  9
$EXTMAX
 10
17.0
 20
11.0
 30
0.0
  9
$EXTMIN
 10
0.0
 20
-0.0
 30
0.0
  9
$LIMMIN
 10
0.0
 20
-0.0
  9
$LIMMAX
 10
17.0
 20
11.0
  9
$VIEWCTR
 10
8.5
 20
5.5
  9
$VIEWSIZE
 40
11.0
  9
$CLAYER
  8
0
  9
$LTSCALE
 40
0.935
  9
$CELTYPE
  6
BYLAYER
  9
$DIMSCALE
 40
1.0
  9
$DIMASZ
 40
0.125
  9
$DIMEXO
 40
0.10625
  9
$DIMDLI
 40
0.646
  9
$DIMEXE
 40
0.306
  9
$DIMCEN
 40
0.153
  9
$DIMLFAC
 40
1.0
  9
$DIMBLK
  1
_FILLED
  9
$DIMTXT
 40
0.15625
  9
$DIMTOL
 70
1
  9
$DIMLIM
 70
0
  9
$DIMTFAC
 40
1.0
  9
$DIMTP
 40
0.7
  9
$DIMTM
 40
0.7
  9
$PDMODE
 70
3
  9
$PDSIZE
 40
0.3125
  9
$HANDSEED
  5
575
  9
$TILEMODE
 70
1
  9
$MEASUREMENT
 70
0
  9
$INSUNITS
 70
1
  0
ENDSEC
  0
SECTION
  2
CLASSES
  0
CLASS
  1
ACDBDICTIONARYWDFLT
  2
AcDbDictionaryWithDefault
  3
AutoCAD 2000
 90
0
 91
1
280
0
281
0
  0
CLASS
  1
ACDBPLACEHOLDER
  2
AcDbPlaceHolder
  3
AutoCAD 2000
 90
0
 91
1
280
0
281
0
  0
CLASS
  1
LAYOUT
  2
AcDbLayout
  3
AutoCAD 2000
 90
0
 91
0
280
0
281
0
  0
ENDSEC
  0
SECTION
  2
TABLES
  0
TABLE
  2
VPORT
  5
8
100
AcDbSymbolTable
 70
2
  0
VPORT
  5
1F4
100
AcDbSymbolTableRecord
100
AcDbViewportTableRecord
  2
*ACTIVE
 70
0
 10
0.0
 20
0.0
 11
1.0
 21
1.0
 12
8.5
 22
5.5
 13
0.0
 23
0.0
 14
1.0
 24
1.0
 15
0.0
 25
0.0
 16
0.0
 26
0.0
 36
1.0
 17
0.0
 27
0.0
 37
0.0
 40
11.0
 41
1.5454545455
 42
50.0
 43
0.0
 44
0.0
 50
0.0
 51
0.0
 71
0
 72
100
 73
1
 74
1
 75
0
 76
0
 77
0
 78
0
  0
ENDTAB
  0
TABLE
  2
LTYPE
  5
5
100
AcDbSymbolTable
 70
6
  0
LTYPE
  5
14
100
AcDbSymbolTableRecord
100
AcDbLinetypeTableRecord
  2
BYBLOCK
 70
0
  3

 72
65
 73
0
 40
0.0
  0
LTYPE
  5
15
100
AcDbSymbolTableRecord
100
AcDbLinetypeTableRecord
  2
BYLAYER
 70
0
  3

 72
65
 73
0
 40
0.0
  0
LTYPE
  5
16
100
AcDbSymbolTableRecord
100
AcDbLinetypeTableRecord
  2
CONTINUOUS
 70
64
  3
Solid line
 72
65
 73
0
 40
0.0
  0
LTYPE
  5
1F5
100
AcDbSymbolTableRecord
100
AcDbLinetypeTableRecord
  2
CENTER
 70
64
  3
____ _ ____ _ ____ _ ____ _ ____ _ ____ _ ____
 72
65
 73
4
 40
0.6
 49
0.375
 74
0
 49
-0.075
 74
0
 49
0.075
 74
0
 49
-0.075
 74
0
  0
LTYPE
  5
1F6
100
AcDbSymbolTableRecord
100
AcDbLinetypeTableRecord
  2
HIDDEN
 70
64
  3
- - - - - - - - - - - - - - - - - - - -
 72
65
 73
2
 40
0.2
 49
0.1
 74
0
 49
-0.1
 74
0
  0
LTYPE
  5
1F7
100
AcDbSymbolTableRecord
100
AcDbLinetypeTableRecord
  2
PHANTOM
 70
64
  3
_____ _ _ _____ _ _ _____ _ _ _____
 72
65
 73
6
 40
0.8
 49
0.45
 74
0
 49
-0.05
 74
0
 49
0.1
 74
0
 49
-0.05
 74
0
 49
0.1
 74
0
 49
-0.05
 74
0
  0
LTYPE
  5
1F8
100
AcDbSymbolTableRecord
100
AcDbLinetypeTableRecord
  2
DOT
 70
64
  3
. . . . . . . . . . . . . . . . . . . .
 72
65
 73
2
 40
0.2
 49
0.1
 74
0
 49
-0.1
 74
0
  0
LTYPE
  5
1F9
100
AcDbSymbolTableRecord
100
AcDbLinetypeTableRecord
  2
DASHED
 70
64
  3
- - - - - - - - - - - - - - - - - - - -
 72
65
 73
2
 40
0.2
 49
0.1
 74
0
 49
-0.1
 74
0
  0
ENDTAB
  0
TABLE
  2
LAYER
  5
2
100
AcDbSymbolTable
 70
36
  0
LAYER
  5
10
100
AcDbSymbolTableRecord
100
AcDbLayerTableRecord
  2
0
 70
0
 62
7
  6
CONTINUOUS
370
-3
390
F
  0
LAYER
  5
1FA
100
AcDbSymbolTableRecord
100
AcDbLayerTableRecord
  2
DEFAULT_1
 70
0
 62
7
  6
CENTER
370
-3
390
F
  0
LAYER
  5
1FB
100
AcDbSymbolTableRecord
100
AcDbLayerTableRecord
  2
DEFAULT_2
 70
0
 62
8
  6
HIDDEN
370
-3
390
F
  0
LAYER
  5
1FC
100
AcDbSymbolTableRecord
100
AcDbLayerTableRecord
  2
DEFAULT_3
 70
0
 62
7
  6
PHANTOM
370
-3
390
F
  0
LAYER
  5
1FD
100
AcDbSymbolTableRecord
100
AcDbLayerTableRecord
  2
01_ALL_DTM_PLN
 70
0
 62
7
  6
CONTINUOUS
370
-3
390
F
  0
LAYER
  5
1FE
100
AcDbSymbolTableRecord
100
AcDbLayerTableRecord
  2
01__ASM_ALL_DTM_PLN
 70
0
 62
7
  6
CONTINUOUS
370
-3
390
F
  0
LAYER
  5
1FF
100
AcDbSymbolTableRecord
100
AcDbLayerTableRecord
  2
01__ASM_DEF_DTM_PLN
 70
0
 62
7
  6
CONTINUOUS
370
-3
390
F
  0
LAYER
  5
200
100
AcDbSymbolTableRecord
100
AcDbLayerTableRecord
  2
01___PRT_ALL_DTM_PLN
 70
0
 62
7
  6
CONTINUOUS
370
-3
390
F
  0
LAYER
  5
201
100
AcDbSymbolTableRecord
100
AcDbLayerTableRecord
  2
01___PRT_DEF_DTM_PLN
 70
0
 62
7
  6
CONTINUOUS
370
-3
390
F
  0
LAYER
  5
202
100
AcDbSymbolTableRecord
100
AcDbLayerTableRecord
  2
02_ALL_AXES
 70
0
 62
7
  6
CONTINUOUS
370
-3
390
F
  0
LAYER
  5
203
100
AcDbSymbolTableRecord
100
AcDbLayerTableRecord
  2
02__ASM_ALL_AXES
 70
0
 62
7
  6
CONTINUOUS
370
-3
390
F
  0
LAYER
  5
204
100
AcDbSymbolTableRecord
100
AcDbLayerTableRecord
  2
02___PRT_ALL_AXES
 70
0
 62
7
  6
CONTINUOUS
370
-3
390
F
  0
LAYER
  5
205
100
AcDbSymbolTableRecord
100
AcDbLayerTableRecord
  2
03_ALL_CURVES
 70
0
 62
7
  6
CONTINUOUS
370
-3
390
F
  0
LAYER
  5
206
100
AcDbSymbolTableRecord
100
AcDbLayerTableRecord
  2
03__ASM_ALL_CURVES
 70
0
 62
7
  6
CONTINUOUS
370
-3
390
F
  0
LAYER
  5
207
100
AcDbSymbolTableRecord
100
AcDbLayerTableRecord
  2
03___PRT_ALL_CURVES
 70
0
 62
7
  6
CONTINUOUS
370
-3
390
F
  0
LAYER
  5
208
100
AcDbSymbolTableRecord
100
AcDbLayerTableRecord
  2
04_ALL_DTM_PNT
 70
0
 62
7
  6
CONTINUOUS
370
-3
390
F
  0
LAYER
  5
209
100
AcDbSymbolTableRecord
100
AcDbLayerTableRecord
  2
04__ASM_ALL_DTM_PNT
 70
0
 62
7
  6
CONTINUOUS
370
-3
390
F
  0
LAYER
  5
20A
100
AcDbSymbolTableRecord
100
AcDbLayerTableRecord
  2
04___PRT_ALL_DTM_PNT
 70
0
 62
7
  6
CONTINUOUS
370
-3
390
F
  0
LAYER
  5
20B
100
AcDbSymbolTableRecord
100
AcDbLayerTableRecord
  2
05_ALL_DTM_CSYS
 70
0
 62
7
  6
CONTINUOUS
370
-3
390
F
  0
LAYER
  5
20C
100
AcDbSymbolTableRecord
100
AcDbLayerTableRecord
  2
05__ASM_ALL_DTM_CSYS
 70
0
 62
7
  6
CONTINUOUS
370
-3
390
F
  0
LAYER
  5
20D
100
AcDbSymbolTableRecord
100
AcDbLayerTableRecord
  2
05__ASM_DEF_DTM_CSYS
 70
0
 62
7
  6
CONTINUOUS
370
-3
390
F
  0
LAYER
  5
20E
100
AcDbSymbolTableRecord
100
AcDbLayerTableRecord
  2
05___PRT_ALL_DTM_CSYS
 70
0
 62
7
  6
CONTINUOUS
370
-3
390
F
  0
LAYER
  5
20F
100
AcDbSymbolTableRecord
100
AcDbLayerTableRecord
  2
05___PRT_DEF_DTM_CSYS
 70
0
 62
7
  6
CONTINUOUS
370
-3
390
F
  0
LAYER
  5
210
100
AcDbSymbolTableRecord
100
AcDbLayerTableRecord
  2
06_ALL_SURFS
 70
0
 62
7
  6
CONTINUOUS
370
-3
390
F
  0
LAYER
  5
211
100
AcDbSymbolTableRecord
100
AcDbLayerTableRecord
  2
06__ASM_ALL_SURFS
 70
0
 62
7
  6
CONTINUOUS
370
-3
390
F
  0
LAYER
  5
212
100
AcDbSymbolTableRecord
100
AcDbLayerTableRecord
  2
06___PRT_ALL_SURFS
 70
0
 62
7
  6
CONTINUOUS
370
-3
390
F
  0
LAYER
  5
213
100
AcDbSymbolTableRecord
100
AcDbLayerTableRecord
  2
07__ASM_ALL_SKELETONS
 70
0
 62
7
  6
CONTINUOUS
370
-3
390
F
  0
LAYER
  5
214
100
AcDbSymbolTableRecord
100
AcDbLayerTableRecord
  2
AXIS
 70
0
 62
7
  6
CONTINUOUS
370
-3
390
F
  0
LAYER
  5
215
100
AcDbSymbolTableRecord
100
AcDbLayerTableRecord
  2
BAFFLE_DTMS
 70
0
 62
7
  6
CONTINUOUS
370
-3
390
F
  0
LAYER
  5
216
100
AcDbSymbolTableRecord
100
AcDbLayerTableRecord
  2
BD_ANGLE
 70
0
 62
7
  6
CONTINUOUS
370
-3
390
F
  0
LAYER
  5
217
100
AcDbSymbolTableRecord
100
AcDbLayerTableRecord
  2
CONDUIT_DTMS
 70
0
 62
7
  6
CONTINUOUS
370
-3
390
F
  0
LAYER
  5
218
100
AcDbSymbolTableRecord
100
AcDbLayerTableRecord
  2
CS
 70
0
 62
7
  6
CONTINUOUS
370
-3
390
F
  0
LAYER
  5
219
100
AcDbSymbolTableRecord
100
AcDbLayerTableRecord
  2
CSYS
 70
0
 62
7
  6
CONTINUOUS
370
-3
390
F
  0
LAYER
  5
21A
100
AcDbSymbolTableRecord
100
AcDbLayerTableRecord
  2
CURVE
 70
0
 62
7
  6
CONTINUOUS
370
-3
390
F
  0
LAYER
  5
21B
100
AcDbSymbolTableRecord
100
AcDbLayerTableRecord
  2
DATUM_PLANES
 70
0
 62
7
  6
CONTINUOUS
370
-3
390
F
  0
LAYER
  5
21C
100
AcDbSymbolTableRecord
100
AcDbLayerTableRecord
  2
DEF_DTMS
 70
0
 62
7
  6
CONTINUOUS
370
-3
390
F
  0
LAYER
  5
21D
100
AcDbSymbolTableRecord
100
AcDbLayerTableRecord
  2
HEAD
 70
0
 62
7
  6
CONTINUOUS
370
-3
390
F
  0
LAYER
  5
21E
100
AcDbSymbolTableRecord
100
AcDbLayerTableRecord
  2
J_BOX_ANGLE
 70
0
 62
7
  6
CONTINUOUS
370
-3
390
F
  0
LAYER
  5
21F
100
AcDbSymbolTableRecord
100
AcDbLayerTableRecord
  2
MTR_HOLE_ANG_DTM
 70
0
 62
7
  6
CONTINUOUS
370
-3
390
F
  0
LAYER
  5
220
100
AcDbSymbolTableRecord
100
AcDbLayerTableRecord
  2
NEW
 70
0
 62
7
  6
CONTINUOUS
370
-3
390
F
  0
LAYER
  5
221
100
AcDbSymbolTableRecord
100
AcDbLayerTableRecord
  2
PARTDTMS
 70
0
 62
7
  6
CONTINUOUS
370
-3
390
F
  0
LAYER
  5
222
100
AcDbSymbolTableRecord
100
AcDbLayerTableRecord
  2
PLANE
 70
0
 62
7
  6
CONTINUOUS
370
-3
390
F
  0
LAYER
  5
223
100
AcDbSymbolTableRecord
100
AcDbLayerTableRecord
  2
PLANES
 70
0
 62
7
  6
CONTINUOUS
370
-3
390
F
  0
LAYER
  5
224
100
AcDbSymbolTableRecord
100
AcDbLayerTableRecord
  2
POINT
 70
0
 62
7
  6
CONTINUOUS
370
-3
390
F
  0
LAYER
  5
225
100
AcDbSymbolTableRecord
100
AcDbLayerTableRecord
  2
ROUND
 70
0
 62
7
  6
CONTINUOUS
370
-3
390
F
  0
LAYER
  5
226
100
AcDbSymbolTableRecord
100
AcDbLayerTableRecord
  2
STANDOFF_DTMS
 70
0
 62
7
  6
CONTINUOUS
370
-3
390
F
  0
LAYER
  5
227
100
AcDbSymbolTableRecord
100
AcDbLayerTableRecord
  2
STIFF_ANGLE
 70
0
 62
7
  6
CONTINUOUS
370
-3
390
F
  0
ENDTAB
  0
TABLE
  2
STYLE
  5
3
100
AcDbSymbolTable
 70
1
  0
STYLE
  5
11
100
AcDbSymbolTableRecord
100
AcDbTextStyleTableRecord
  2
STANDARD
 70
0
 40
0.0
 41
0.8
 50
0.0
 71
0
 42
0.2
  3
txt
  4

  0
STYLE
  5
228
100
AcDbSymbolTableRecord
100
AcDbTextStyleTableRecord
  2
TEXTSTYLE_1
 70
0
 40
0.0
 41
0.8
 50
0.0
 71
0
 42
0.2
  3
gdt
  4

  0
ENDTAB
  0
TABLE
  2
VIEW
  5
6
100
AcDbSymbolTable
 70
0
  0
ENDTAB
  0
TABLE
  2
UCS
  5
7
100
AcDbSymbolTable
 70
0
  0
ENDTAB
  0
TABLE
  2
APPID
  5
9
100
AcDbSymbolTable
 70
1
  0
APPID
  5
229
100
AcDbSymbolTableRecord
100
AcDbRegAppTableRecord
  2
ACAD
 70
0
  0
ENDTAB
  0
TABLE
  2
BLOCK_RECORD
  5
1
100
AcDbSymbolTable
 70
0
  0
BLOCK_RECORD
  5
22A
100
AcDbSymbolTableRecord
100
AcDbBlockTableRecord
  2
*Model_Space
  0
BLOCK_RECORD
  5
22B
100
AcDbSymbolTableRecord
100
AcDbBlockTableRecord
  2
*Paper_Space
  0
ENDTAB
  0
TABLE
  2
DIMSTYLE
  5
A
100
AcDbSymbolTable
 70
1
100
AcDbDimStyleTable
 71
0
  0
DIMSTYLE
105
22C
100
AcDbSymbolTableRecord
100
AcDbDimStyleTableRecord
  2
STANDARD
 70
0
  3

  4

 40
1.0
 41
0.125
 42
0.0625
 43
0.38
 44
0.18
 45
0.0
 46
0.0
 47
0.7
 48
0.7
140
0.15625
141
0.09
142
0.0
143
25.4
144
1.0
145
0.0
146
1.0
147
0.09
 71
1.0
 72
0.0
 73
1
 74
1
 75
0
 76
0
 77
0
 78
4
170
0
171
2
172
0
173
0
174
0
175
0
176
0
177
0
178
0
270
2
271
2
272
2
273
2
274
2
275
0
280
0
281
0
282
0
283
1
284
4
285
0
286
0
287
3
288
0
340
11
  0
ENDTAB
  0
ENDSEC
  0
SECTION
  2
BLOCKS
  0
BLOCK
  5
20
100
AcDbEntity
  8
0
100
AcDbBlockBegin
  2
*Model_Space
 70
0
 10
0.0
 20
0.0
 30
0.0
  3
*Model_Space
  1

  0
ENDBLK
  5
21
100
AcDbEntity
  8
0
100
AcDbBlockEnd
  0
BLOCK
  5
1C
100
AcDbEntity
  8
0
100
AcDbBlockBegin
  2
*Paper_Space
 70
0
 10
0.0
 20
0.0
 30
0.0
  3
*Paper_Space
  1

  0
ENDBLK
  5
1D
100
AcDbEntity
  8
0
100
AcDbBlockEnd
  0
ENDSEC
  0
SECTION
  2
ENTITIES
  0
MTEXT
  5
22D
100
AcDbEntity
  8
0
100
AcDbMText
 62
2
  6
CONTINUOUS
  7
STANDARD
 71
1
 72
1
 10
25.618523815
 20
10.8988506162
 30
0.0
 11
1.0
 21
0.0
 31
0.0
 44
0.9
  1
47387
 40
4.0
 41
16.0
  0
LINE
  5
22E
100
AcDbEntity
  8
0
100
AcDbLine
 62
7
  6
CONTINUOUS
 10
-12.6222913571
 20
9.3660214903
 11
-12.6222913571
 21
9.618323558
  0
LINE
  5
22F
100
AcDbEntity
  8
0
100
AcDbLine
 62
7
  6
CONTINUOUS
 10
-12.1852913571
 20
9.618323558
 11
-12.1852913571
 21
9.3660214903
  0
LINE
  5
230
100
AcDbEntity
  8
0
100
AcDbLine
 62
7
  6
CONTINUOUS
 10
-10.965676953
 20
14.056588571
 11
-10.770676953
 21
14.3943384785
  0
LINE
  5
231
100
AcDbEntity
  8
0
100
AcDbLine
 62
7
  6
CONTINUOUS
 10
-10.465343743
 20
13.8831911114
 11
-10.370343743
 21
14.0477359381
  0
LINE
  5
232
100
AcDbEntity
  8
0
100
AcDbLine
 62
7
  6
CONTINUOUS
 10
15.4192009597
 20
-5.2032864753
 11
12.4192009597
 21
-5.2032864753
  0
LINE
  5
233
100
AcDbEntity
  8
0
100
AcDbLine
 62
7
  6
CONTINUOUS
 10
15.4192009597
 20
-5.1382864753
 11
12.4192009597
 21
-5.1382864753
  0
LINE
  5
234
100
AcDbEntity
  8
0
100
AcDbLine
 62
7
  6
CONTINUOUS
 10
-10.0129768668
 20
13.6067135247
 11
-9.9047236913
 21
13.7942135247
  0
LINE
  5
235
100
AcDbEntity
  8
0
100
AcDbLine
 62
7
  6
CONTINUOUS
 10
-9.5799641649
 20
13.6067135247
 11
-9.6882173404
 21
13.4192135247
  0
LINE
  5
236
100
AcDbEntity
  8
0
100
AcDbLine
 62
7
  6
CONTINUOUS
 10
-9.146951463
 20
13.1067135247
 11
-9.0386982875
 21
13.2942135247
  0
LINE
  5
237
100
AcDbEntity
  8
0
100
AcDbLine
 62
7
  6
CONTINUOUS
 10
-8.7139387611
 20
13.1067135247
 11
-8.8221919366
 21
12.9192135247
  0
LINE
  5
238
100
AcDbEntity
  8
0
100
AcDbLine
 62
7
  6
CONTINUOUS
 10
-0.5832641755
 20
18.0481411432
 11
-0.3647641755
 21
18.174292177
  0
LINE
  5
239
100
AcDbEntity
  8
0
100
AcDbLine
 62
7
  6
CONTINUOUS
 10
-0.1462641755
 20
17.7958390756
 11
-0.3647641755
 21
17.6696880418
  0
LINE
  5
23A
100
AcDbEntity
  8
0
100
AcDbLine
 62
7
  6
CONTINUOUS
 10
-12.6222913571
 20
9.618323558
 11
-12.4037913571
 21
9.7444745918
  0
LINE
  5
23B
100
AcDbEntity
  8
0
100
AcDbLine
 62
7
  6
CONTINUOUS
 10
-12.1852913571
 20
9.3660214903
 11
-12.4037913571
 21
9.2398704565
  0
LINE
  5
23C
100
AcDbEntity
  8
0
100
AcDbLine
 62
7
  6
CONTINUOUS
 10
2.8992009597
 20
1.0117135247
 11
1.7492009597
 21
1.0117135247
  0
LINE
  5
23D
100
AcDbEntity
  8
0
100
AcDbLine
 62
7
  6
CONTINUOUS
 10
3.0492009597
 20
1.0117135247
 11
5.5492009597
 21
1.0117135247
  0
LINE
  5
23E
100
AcDbEntity
  8
0
100
AcDbLine
 62
7
  6
CONTINUOUS
 10
-5.1692990403
 20
10.1055624909
 11
-5.1692990403
 21
10.3578645586
  0
LINE
  5
23F
100
AcDbEntity
  8
0
100
AcDbLine
 62
7
  6
CONTINUOUS
 10
-3.7557990403
 20
2.1942135247
 11
-4.1457990403
 21
2.1942135247
  0
LINE
  5
240
100
AcDbEntity
  8
0
100
AcDbLine
 62
7
  6
CONTINUOUS
 10
-3.8557990403
 20
2.7142135247
 11
-4.0457990403
 21
2.7142135247
  0
LINE
  5
241
100
AcDbEntity
  8
0
100
AcDbLine
 62
7
  6
CONTINUOUS
 10
-12.4037913571
 20
9.2398704565
 11
-12.6222913571
 21
9.3660214903
  0
LINE
  5
242
100
AcDbEntity
  8
0
100
AcDbLine
 62
7
  6
CONTINUOUS
 10
-4.0590522158
 20
3.2942135247
 11
-4.1673053912
 21
3.4817135247
  0
LINE
  5
243
100
AcDbEntity
  8
0
100
AcDbLine
 62
7
  6
CONTINUOUS
 10
-9.9047236913
 20
13.4192135247
 11
-10.0129768668
 21
13.6067135247
  0
LINE
  5
244
100
AcDbEntity
  8
0
100
AcDbLine
 62
7
  6
CONTINUOUS
 10
-9.6882173404
 20
13.7942135247
 11
-9.5799641649
 21
13.6067135247
  0
LINE
  5
245
100
AcDbEntity
  8
0
100
AcDbLine
 62
7
  6
CONTINUOUS
 10
-3.8425458648
 20
3.6692135247
 11
-3.7342926893
 21
3.4817135247
  0
LINE
  5
246
100
AcDbEntity
  8
0
100
AcDbLine
 62
7
  6
CONTINUOUS
 10
-4.0590522158
 20
4.2942135247
 11
-4.1673053912
 21
4.4817135247
  0
LINE
  5
247
100
AcDbEntity
  8
0
100
AcDbLine
 62
7
  6
CONTINUOUS
 10
-9.0386982875
 20
12.9192135247
 11
-9.146951463
 21
13.1067135247
  0
LINE
  5
248
100
AcDbEntity
  8
0
100
AcDbLine
 62
7
  6
CONTINUOUS
 10
-4.7322990403
 20
10.3578645586
 11
-4.7322990403
 21
10.1055624909
  0
LINE
  5
249
100
AcDbEntity
  8
0
100
AcDbLine
 62
7
  6
CONTINUOUS
 10
-4.0457990403
 20
2.7142135247
 11
-4.0457990403
 21
2.1942135247
  0
LINE
  5
24A
100
AcDbEntity
  8
0
100
AcDbLine
 62
7
  6
CONTINUOUS
 10
-3.8557990403
 20
2.7142135247
 11
-3.8557990403
 21
2.1942135247
  0
LINE
  5
24B
100
AcDbEntity
  8
0
100
AcDbLine
 62
7
  6
CONTINUOUS
 10
-4.5673053912
 20
9.6638932017
 11
-4.4608443603
 21
9.8482891163
  0
LINE
  5
24C
100
AcDbEntity
  8
0
100
AcDbLine
 62
7
  6
CONTINUOUS
 10
-4.7056344954
 20
9.3627063695
 11
-4.8099171426
 21
9.1820835262
  0
LINE
  5
24D
100
AcDbEntity
  8
0
100
AcDbLine
 62
7
  6
CONTINUOUS
 10
-4.5136126228
 20
9.6782801356
 11
-4.4274733614
 21
9.8274777129
  0
LINE
  5
24E
100
AcDbEntity
  8
0
100
AcDbLine
 62
7
  6
CONTINUOUS
 10
-4.4752065193
 20
9.6334131273
 11
-4.6500329779
 21
9.3306048185
  0
LINE
  5
24F
100
AcDbEntity
  8
0
100
AcDbLine
 62
7
  6
CONTINUOUS
 10
-4.5157990403
 20
9.2531048185
 11
-4.6200816875
 21
9.0724819752
  0
LINE
  5
250
100
AcDbEntity
  8
0
100
AcDbLine
 62
4
  6
CONTINUOUS
 10
-4.7007990403
 20
8.9326754191
 11
-4.8257990403
 21
8.7161690681
  0
LINE
  5
251
100
AcDbEntity
  8
0
100
AcDbLine
 62
7
  6
CONTINUOUS
 10
-4.2067386441
 20
9.4784131273
 11
-4.3815651027
 21
9.1756048185
  0
LINE
  5
252
100
AcDbEntity
  8
0
100
AcDbLine
 62
7
  6
CONTINUOUS
 10
-4.1486796233
 20
9.4675859701
 11
-4.0625403619
 21
9.6167835474
  0
LINE
  5
253
100
AcDbEntity
  8
0
100
AcDbLine
 62
7
  6
CONTINUOUS
 10
-4.3259635852
 20
9.1435032674
 11
-4.4302462324
 21
8.9628804241
  0
LINE
  5
254
100
AcDbEntity
  8
0
100
AcDbLine
 62
7
  6
CONTINUOUS
 10
-4.1342926893
 20
9.4138932017
 11
-4.0278316584
 21
9.5982891163
  0
LINE
  5
255
100
AcDbEntity
  8
0
100
AcDbLine
 62
7
  6
CONTINUOUS
 10
-5.1692990403
 20
10.3578645586
 11
-4.9507990403
 21
10.4840155924
  0
LINE
  5
256
100
AcDbEntity
  8
0
100
AcDbLine
 62
7
  6
CONTINUOUS
 10
-3.6692990403
 20
11.2238899623
 11
-3.4507990403
 21
11.3500409962
  0
LINE
  5
257
100
AcDbEntity
  8
0
100
AcDbLine
 62
7
  6
CONTINUOUS
 10
-3.2322990403
 20
10.9715878947
 11
-3.4507990403
 21
10.8454368609
  0
LINE
  5
258
100
AcDbEntity
  8
0
100
AcDbLine
 62
7
  6
CONTINUOUS
 10
-4.7322990403
 20
10.1055624909
 11
-4.9507990403
 21
9.9794114571
  0
LINE
  5
259
100
AcDbEntity
  8
0
100
AcDbLine
 62
7
  6
CONTINUOUS
 10
2.9190788724
 20
14.3077359381
 11
2.4687456625
 21
14.0477359381
  0
LINE
  5
25A
100
AcDbEntity
  8
0
100
AcDbLine
 62
7
  6
CONTINUOUS
 10
1.7492009597
 20
3.0117135247
 11
2.8992009597
 21
3.0117135247
  0
LINE
  5
25B
100
AcDbEntity
  8
0
100
AcDbLine
 62
7
  6
CONTINUOUS
 10
-3.8425458648
 20
3.2942135247
 11
-4.0590522158
 21
3.2942135247
  0
LINE
  5
25C
100
AcDbEntity
  8
0
100
AcDbLine
 62
7
  6
CONTINUOUS
 10
-4.0590522158
 20
3.6692135247
 11
-3.8425458648
 21
3.6692135247
  0
LINE
  5
25D
100
AcDbEntity
  8
0
100
AcDbLine
 62
7
  6
CONTINUOUS
 10
-12.4037913571
 20
9.7444745918
 11
-12.1852913571
 21
9.618323558
  0
LINE
  5
25E
100
AcDbEntity
  8
0
100
AcDbLine
 62
7
  6
CONTINUOUS
 10
0.9161584118
 20
3.028675873
 11
0.6976584118
 21
3.1548269068
  0
LINE
  5
25F
100
AcDbEntity
  8
0
100
AcDbLine
 62
7
  6
CONTINUOUS
 10
-8.8221919366
 20
13.2942135247
 11
-8.7139387611
 21
13.1067135247
  0
LINE
  5
260
100
AcDbEntity
  8
0
100
AcDbLine
 62
7
  6
CONTINUOUS
 10
-3.8425458648
 20
4.6692135247
 11
-3.7342926893
 21
4.4817135247
  0
LINE
  5
261
100
AcDbEntity
  8
0
100
AcDbLine
 62
7
  6
CONTINUOUS
 10
-3.6692990403
 20
9.2395370871
 11
-3.6692990403
 21
9.4918391548
  0
LINE
  5
262
100
AcDbEntity
  8
0
100
AcDbLine
 62
7
  6
CONTINUOUS
 10
-3.6692990403
 20
10.9715878947
 11
-3.6692990403
 21
11.2238899623
  0
LINE
  5
263
100
AcDbEntity
  8
0
100
AcDbLine
 62
7
  6
CONTINUOUS
 10
-3.2322990403
 20
11.2238899623
 11
-3.2322990403
 21
10.9715878947
  0
LINE
  5
264
100
AcDbEntity
  8
0
100
AcDbLine
 62
7
  6
CONTINUOUS
 10
-3.2322990403
 20
9.4918391548
 11
-3.2322990403
 21
9.2395370871
  0
LINE
  5
265
100
AcDbEntity
  8
0
100
AcDbLine
 62
7
  6
CONTINUOUS
 10
3.0140788724
 20
14.1431911114
 11
2.5637456625
 21
13.8831911114
  0
LINE
  5
266
100
AcDbEntity
  8
0
100
AcDbLine
 62
7
  6
CONTINUOUS
 10
-3.6692990403
 20
9.4918391548
 11
-3.4507990403
 21
9.6179901886
  0
LINE
  5
267
100
AcDbEntity
  8
0
100
AcDbLine
 62
7
  6
CONTINUOUS
 10
-3.2322990403
 20
9.2395370871
 11
-3.4507990403
 21
9.1133860533
  0
LINE
  5
268
100
AcDbEntity
  8
0
100
AcDbLine
 62
7
  6
CONTINUOUS
 10
-3.8425458648
 20
4.2942135247
 11
-4.0590522158
 21
4.2942135247
  0
LINE
  5
269
100
AcDbEntity
  8
0
100
AcDbLine
 62
7
  6
CONTINUOUS
 10
5.5492009597
 20
4.5117135247
 11
3.0492009597
 21
4.5117135247
  0
LINE
  5
26A
100
AcDbEntity
  8
0
100
AcDbLine
 62
7
  6
CONTINUOUS
 10
5.4992009597
 20
4.6117135247
 11
2.8492009597
 21
4.6117135247
  0
LINE
  5
26B
100
AcDbEntity
  8
0
100
AcDbLine
 62
7
  6
CONTINUOUS
 10
-4.0590522158
 20
4.6692135247
 11
-3.8425458648
 21
4.6692135247
  0
LINE
  5
26C
100
AcDbEntity
  8
0
100
AcDbLine
 62
7
  6
CONTINUOUS
 10
0.9161584118
 20
3.5332800083
 11
1.1346584118
 21
3.4071289745
  0
LINE
  5
26D
100
AcDbEntity
  8
0
100
AcDbLine
 62
7
  6
CONTINUOUS
 10
-4.1486796233
 20
9.4675859701
 11
-4.1342926893
 21
9.4138932017
  0
LINE
  5
26E
100
AcDbEntity
  8
0
100
AcDbLine
 62
7
  6
CONTINUOUS
 10
-4.1673053912
 20
4.4817135247
 11
-4.0590522158
 21
4.6692135247
  0
LINE
  5
26F
100
AcDbEntity
  8
0
100
AcDbLine
 62
7
  6
CONTINUOUS
 10
0.8123406805
 20
13.1067135247
 11
0.920593856
 21
13.2942135247
  0
LINE
  5
270
100
AcDbEntity
  8
0
100
AcDbLine
 62
7
  6
CONTINUOUS
 10
1.2453533824
 20
13.1067135247
 11
1.1371002069
 21
12.9192135247
  0
LINE
  5
271
100
AcDbEntity
  8
0
100
AcDbLine
 62
7
  6
CONTINUOUS
 10
-3.7342926893
 20
4.4817135247
 11
-3.8425458648
 21
4.2942135247
  0
LINE
  5
272
100
AcDbEntity
  8
0
100
AcDbLine
 62
7
  6
CONTINUOUS
 10
-4.1673053912
 20
3.4817135247
 11
-4.0590522158
 21
3.6692135247
  0
LINE
  5
273
100
AcDbEntity
  8
0
100
AcDbLine
 62
7
  6
CONTINUOUS
 10
1.6783660843
 20
13.6067135247
 11
1.7866192598
 21
13.7942135247
  0
LINE
  5
274
100
AcDbEntity
  8
0
100
AcDbLine
 62
7
  6
CONTINUOUS
 10
2.8492009597
 20
6.2317135247
 11
5.4992009597
 21
6.2317135247
  0
LINE
  5
275
100
AcDbEntity
  8
0
100
AcDbLine
 62
7
  6
CONTINUOUS
 10
-4.3259635852
 20
9.1435032674
 11
-4.7056344954
 21
9.3627063695
  0
LINE
  5
276
100
AcDbEntity
  8
0
100
AcDbLine
 62
7
  6
CONTINUOUS
 10
-0.5832641755
 20
17.7958390756
 11
-0.5832641755
 21
18.0481411432
  0
LINE
  5
277
100
AcDbEntity
  8
0
100
AcDbLine
 62
7
  6
CONTINUOUS
 10
-0.1462641755
 20
18.0481411432
 11
-0.1462641755
 21
17.7958390756
  0
LINE
  5
278
100
AcDbEntity
  8
0
100
AcDbLine
 62
7
  6
CONTINUOUS
 10
2.1113787862
 20
13.6067135247
 11
2.0031256107
 21
13.4192135247
  0
LINE
  5
279
100
AcDbEntity
  8
0
100
AcDbLine
 62
7
  6
CONTINUOUS
 10
-3.7342926893
 20
3.4817135247
 11
-3.8425458648
 21
3.2942135247
  0
LINE
  5
27A
100
AcDbEntity
  8
0
100
AcDbLine
 62
7
  6
CONTINUOUS
 10
-4.1342926893
 20
9.4138932017
 11
-4.2165651027
 21
9.4613932017
  0
LINE
  5
27B
100
AcDbEntity
  8
0
100
AcDbLine
 62
7
  6
CONTINUOUS
 10
-4.4850329779
 20
9.6163932017
 11
-4.5673053912
 21
9.6638932017
  0
LINE
  5
27C
100
AcDbEntity
  8
0
100
AcDbLine
 62
7
  6
CONTINUOUS
 10
-4.5136126228
 20
9.6782801356
 11
-4.1486796233
 21
9.4675859701
  0
LINE
  5
27D
100
AcDbEntity
  8
0
100
AcDbLine
 62
7
  6
CONTINUOUS
 10
-3.4507990403
 20
9.1133860533
 11
-3.6692990403
 21
9.2395370871
  0
LINE
  5
27E
100
AcDbEntity
  8
0
100
AcDbLine
 62
7
  6
CONTINUOUS
 10
-4.9507990403
 20
9.9794114571
 11
-5.1692990403
 21
10.1055624909
  0
LINE
  5
27F
100
AcDbEntity
  8
0
100
AcDbLine
 62
7
  6
CONTINUOUS
 10
-4.9507990403
 20
10.4840155924
 11
-4.7322990403
 21
10.3578645586
  0
LINE
  5
280
100
AcDbEntity
  8
0
100
AcDbLine
 62
7
  6
CONTINUOUS
 10
-3.4507990403
 20
9.6179901886
 11
-3.2322990403
 21
9.4918391548
  0
LINE
  5
281
100
AcDbEntity
  8
0
100
AcDbLine
 62
7
  6
CONTINUOUS
 10
-4.080195492
 20
10.0177454664
 11
-4.0714025885
 21
10.0126688812
  0
LINE
  5
282
100
AcDbEntity
  8
0
100
AcDbLine
 62
7
  6
CONTINUOUS
 10
-10.915676953
 20
14.1431911114
 11
-10.465343743
 21
13.8831911114
  0
LINE
  5
283
100
AcDbEntity
  8
0
100
AcDbLine
 62
7
  6
CONTINUOUS
 10
-10.820676953
 20
14.3077359381
 11
-10.370343743
 21
14.0477359381
  0
LINE
  5
284
100
AcDbEntity
  8
0
100
AcDbLine
 62
7
  6
CONTINUOUS
 10
0.6976584118
 20
3.1548269068
 11
0.6976584118
 21
3.4071289745
  0
LINE
  5
285
100
AcDbEntity
  8
0
100
AcDbLine
 62
7
  6
CONTINUOUS
 10
1.1346584118
 20
3.4071289745
 11
1.1346584118
 21
3.1548269068
  0
LINE
  5
286
100
AcDbEntity
  8
0
100
AcDbLine
 62
7
  6
CONTINUOUS
 10
-3.4507990403
 20
10.8454368609
 11
-3.6692990403
 21
10.9715878947
  0
LINE
  5
287
100
AcDbEntity
  8
0
100
AcDbLine
 62
7
  6
CONTINUOUS
 10
-3.4507990403
 20
11.3500409962
 11
-3.2322990403
 21
11.2238899623
  0
LINE
  5
288
100
AcDbEntity
  8
03___PRT_ALL_CURVES
100
AcDbLine
 62
4
  6
CONTINUOUS
 10
5.5335610607
 20
4.6262335134
 11
5.5492009597
 21
4.6117135247
  0
LINE
  5
289
100
AcDbEntity
  8
0
100
AcDbLine
 62
7
  6
CONTINUOUS
 10
1.6992009597
 20
1.0617135247
 11
1.6992009597
 21
2.9617135247
  0
LINE
  5
28A
100
AcDbEntity
  8
0
100
AcDbLine
 62
7
  6
CONTINUOUS
 10
2.7992009597
 20
4.6617135247
 11
2.7992009597
 21
6.1817135247
  0
LINE
  5
28B
100
AcDbEntity
  8
0
100
AcDbLine
 62
7
  6
CONTINUOUS
 10
2.9492009597
 20
2.9617135247
 11
2.9492009597
 21
1.0617135247
  0
LINE
  5
28C
100
AcDbEntity
  8
0
100
AcDbLine
 62
7
  6
CONTINUOUS
 10
-4.5673053912
 20
9.6638932017
 11
-4.5136126228
 21
9.6782801356
  0
LINE
  5
28D
100
AcDbEntity
  8
0
100
AcDbLine
 62
7
  6
CONTINUOUS
 10
3.0492009597
 20
4.5117135247
 11
3.0492009597
 21
1.0117135247
  0
LINE
  5
28E
100
AcDbEntity
  8
0
100
AcDbLine
 62
7
  6
CONTINUOUS
 10
0.920593856
 20
12.9192135247
 11
0.8123406805
 21
13.1067135247
  0
LINE
  5
28F
100
AcDbEntity
  8
0
100
AcDbLine
 62
7
  6
CONTINUOUS
 10
1.1371002069
 20
13.2942135247
 11
1.2453533824
 21
13.1067135247
  0
LINE
  5
290
100
AcDbEntity
  8
0
100
AcDbLine
 62
7
  6
CONTINUOUS
 10
1.7866192598
 20
13.4192135247
 11
1.6783660843
 21
13.6067135247
  0
LINE
  5
291
100
AcDbEntity
  8
0
100
AcDbLine
 62
7
  6
CONTINUOUS
 10
5.5492009597
 20
6.1817135247
 11
5.5492009597
 21
4.6617135247
  0
LINE
  5
292
100
AcDbEntity
  8
0
100
AcDbLine
 62
7
  6
CONTINUOUS
 10
5.5492009597
 20
1.0117135247
 11
5.5492009597
 21
4.5117135247
  0
LINE
  5
293
100
AcDbEntity
  8
03___PRT_ALL_CURVES
100
AcDbLine
 62
4
  6
CONTINUOUS
 10
2.8063572329
 20
4.6117135247
 11
2.8199347564
 21
4.6211999732
  0
LINE
  5
294
100
AcDbEntity
  8
0
100
AcDbLine
 62
7
  6
CONTINUOUS
 10
0.6976584118
 20
3.4071289745
 11
0.9161584118
 21
3.5332800083
  0
LINE
  5
295
100
AcDbEntity
  8
0
100
AcDbLine
 62
7
  6
CONTINUOUS
 10
1.1346584118
 20
3.1548269068
 11
0.9161584118
 21
3.028675873
  0
LINE
  5
296
100
AcDbEntity
  8
0
100
AcDbLine
 62
7
  6
CONTINUOUS
 10
1.1371002069
 20
12.9192135247
 11
0.920593856
 21
12.9192135247
  0
LINE
  5
297
100
AcDbEntity
  8
0
100
AcDbLine
 62
7
  6
CONTINUOUS
 10
-8.8221919366
 20
12.9192135247
 11
-9.0386982875
 21
12.9192135247
  0
LINE
  5
298
100
AcDbEntity
  8
0
100
AcDbLine
 62
7
  6
CONTINUOUS
 10
-9.0386982875
 20
13.2942135247
 11
-8.8221919366
 21
13.2942135247
  0
LINE
  5
299
100
AcDbEntity
  8
0
100
AcDbLine
 62
7
  6
CONTINUOUS
 10
0.920593856
 20
13.2942135247
 11
1.1371002069
 21
13.2942135247
  0
LINE
  5
29A
100
AcDbEntity
  8
0
100
AcDbLine
 62
7
  6
CONTINUOUS
 10
2.0031256107
 20
13.4192135247
 11
1.7866192598
 21
13.4192135247
  0
LINE
  5
29B
100
AcDbEntity
  8
0
100
AcDbLine
 62
7
  6
CONTINUOUS
 10
-9.6882173404
 20
13.4192135247
 11
-9.9047236913
 21
13.4192135247
  0
LINE
  5
29C
100
AcDbEntity
  8
0
100
AcDbLine
 62
7
  6
CONTINUOUS
 10
2.0031256107
 20
13.7942135247
 11
2.1113787862
 21
13.6067135247
  0
LINE
  5
29D
100
AcDbEntity
  8
0
100
AcDbLine
 62
7
  6
CONTINUOUS
 10
2.4687456625
 20
14.0477359381
 11
2.5637456625
 21
13.8831911114
  0
LINE
  5
29E
100
AcDbEntity
  8
0
100
AcDbLine
 62
7
  6
CONTINUOUS
 10
2.8690788724
 20
14.3943384785
 11
3.0640788724
 21
14.056588571
  0
LINE
  5
29F
100
AcDbEntity
  8
0
100
AcDbLine
 62
7
  6
CONTINUOUS
 10
-9.9047236913
 20
13.7942135247
 11
-9.6882173404
 21
13.7942135247
  0
LINE
  5
2A0
100
AcDbEntity
  8
0
100
AcDbLine
 62
7
  6
CONTINUOUS
 10
1.7866192598
 20
13.7942135247
 11
2.0031256107
 21
13.7942135247
  0
LINE
  5
2A1
100
AcDbEntity
  8
AXIS
100
AcDbLine
 62
7
  6
CONTINUOUS
 10
-7.1423256512
 20
15.4615635558
 11
-7.1127814186
 21
15.4563541105
  0
LINE
  5
2A2
100
AcDbEntity
  8
0
100
AcDbLine
 62
7
  6
CONTINUOUS
 10
-8.215766102
 20
15.6508400694
 11
-8.2453103345
 21
15.6560495148
  0
LINE
  5
2A3
100
AcDbEntity
  8
0
100
AcDbLine
 62
7
  6
CONTINUOUS
 10
-0.3647641755
 20
17.6696880418
 11
-0.5832641755
 21
17.7958390756
  0
LINE
  5
2A4
100
AcDbEntity
  8
AXIS
100
AcDbLine
 62
7
  6
CONTINUOUS
 10
-7.1423256512
 20
15.6508400694
 11
-7.1127814186
 21
15.6560495148
  0
LINE
  5
2A5
100
AcDbEntity
  8
0
100
AcDbLine
 62
7
  6
CONTINUOUS
 10
-8.215766102
 20
15.4615635558
 11
-8.2453103345
 21
15.4563541105
  0
LINE
  5
2A6
100
AcDbEntity
  8
0
100
AcDbLine
 62
7
  6
CONTINUOUS
 10
-0.3647641755
 20
18.174292177
 11
-0.1462641755
 21
18.0481411432
  0
LINE
  5
2A7
100
AcDbEntity
  8
0
100
AcDbLine
 62
7
  6
CONTINUOUS
 10
12.4192009597
 20
-5.1382864753
 11
12.4192009597
 21
-5.2032864753
  0
LINE
  5
2A8
100
AcDbEntity
  8
0
100
AcDbLine
 62
7
  6
CONTINUOUS
 10
15.4192009597
 20
-5.1382864753
 11
15.4192009597
 21
-5.2032864753
  0
LINE
  5
2A9
100
AcDbEntity
  8
0
100
AcDbLine
 62
7
  6
CONTINUOUS
 10
-13.0287913571
 20
35.3570575621
 11
-13.0287913571
 21
35.2920575621
  0
LINE
  5
2AA
100
AcDbEntity
  8
0
100
AcDbLine
 62
3
  6
CONTINUOUS
 10
-14.5632586384
 20
30.8580575621
 11
-13.1404916611
 21
34.7670777054
  0
LINE
  5
2AB
100
AcDbEntity
  8
0
100
AcDbLine
 62
7
  6
CONTINUOUS
 10
-11.5126383679
 20
35.4900575621
 11
-11.5126383679
 21
35.4250575621
  0
LINE
  5
2AC
100
AcDbEntity
  8
0
100
AcDbLine
 62
7
  6
CONTINUOUS
 10
-11.3841383679
 20
35.4900575621
 11
-11.3841383679
 21
35.6700575621
  0
LINE
  5
2AD
100
AcDbEntity
  8
0
100
AcDbLine
 62
7
  6
CONTINUOUS
 10
-11.1676383679
 20
35.4900575621
 11
-11.1676383679
 21
35.6700575621
  0
LINE
  5
2AE
100
AcDbEntity
  8
0
100
AcDbLine
 62
7
  6
CONTINUOUS
 10
-9.9834705158
 20
26.3270575621
 11
-10.0129768668
 21
26.3440930617
  0
LINE
  5
2AF
100
AcDbEntity
  8
0
100
AcDbLine
 62
7
  6
CONTINUOUS
 10
-10.9511383679
 20
35.4900575621
 11
-10.9511383679
 21
35.6700575621
  0
LINE
  5
2B0
100
AcDbEntity
  8
0
100
AcDbLine
 62
7
  6
CONTINUOUS
 10
-10.8226383679
 20
35.4900575621
 11
-10.8226383679
 21
35.4250575621
  0
LINE
  5
2B1
100
AcDbEntity
  8
0
100
AcDbLine
 62
7
  6
CONTINUOUS
 10
-10.1614705158
 20
26.6320575621
 11
-10.1614705158
 21
26.5670575621
  0
LINE
  5
2B2
100
AcDbEntity
  8
0
100
AcDbLine
 62
7
  6
CONTINUOUS
 10
-10.0564705158
 20
26.5170575621
 11
-10.0564705158
 21
26.5670575621
  0
LINE
  5
2B3
100
AcDbEntity
  8
0
100
AcDbLine
 62
7
  6
CONTINUOUS
 10
-10.0129768668
 20
26.3440930617
 11
-10.0129768668
 21
26.4951575621
  0
LINE
  5
2B4
100
AcDbEntity
  8
0
100
AcDbLine
 62
3
  6
CONTINUOUS
 10
-10.7309527299
 20
35.7540474904
 11
-8.840844306
 21
40.9470777054
  0
LINE
  5
2B5
100
AcDbEntity
  8
0
100
AcDbLine
 62
7
  6
CONTINUOUS
 10
-9.117445112
 20
26.3270575621
 11
-9.146951463
 21
26.3440930617
  0
LINE
  5
2B6
100
AcDbEntity
  8
0
100
AcDbLine
 62
7
  6
CONTINUOUS
 10
-9.7069705158
 20
27.3170575621
 11
-9.6869705158
 21
27.1740575621
  0
LINE
  5
2B7
100
AcDbEntity
  8
0
100
AcDbLine
 62
7
  6
CONTINUOUS
 10
-9.9059705158
 20
26.6320575621
 11
-9.9059705158
 21
27.1740575621
  0
LINE
  5
2B8
100
AcDbEntity
  8
0
100
AcDbLine
 62
7
  6
CONTINUOUS
 10
-9.9047236913
 20
26.3440930617
 11
-9.9047236913
 21
26.4951575621
  0
LINE
  5
2B9
100
AcDbEntity
  8
0
100
AcDbLine
 62
7
  6
CONTINUOUS
 10
-9.6882173404
 20
26.3440930617
 11
-9.6882173404
 21
26.4951575621
  0
LINE
  5
2BA
100
AcDbEntity
  8
0
100
AcDbLine
 62
7
  6
CONTINUOUS
 10
-9.6869705158
 20
26.6320575621
 11
-9.6869705158
 21
27.1740575621
  0
LINE
  5
2BB
100
AcDbEntity
  8
0
100
AcDbLine
 62
7
  6
CONTINUOUS
 10
-9.5799641649
 20
26.3440930617
 11
-9.5799641649
 21
26.4951575621
  0
LINE
  5
2BC
100
AcDbEntity
  8
0
100
AcDbLine
 62
7
  6
CONTINUOUS
 10
-9.5364705158
 20
26.5170575621
 11
-9.5364705158
 21
26.5670575621
  0
LINE
  5
2BD
100
AcDbEntity
  8
0
100
AcDbLine
 62
7
  6
CONTINUOUS
 10
-9.4314705158
 20
26.6320575621
 11
-9.4314705158
 21
26.5670575621
  0
LINE
  5
2BE
100
AcDbEntity
  8
0
100
AcDbLine
 62
7
  6
CONTINUOUS
 10
-9.3287300748
 20
29.0920575621
 11
-9.3287300748
 21
29.0420575621
  0
LINE
  5
2BF
100
AcDbEntity
  8
0
100
AcDbLine
 62
7
  6
CONTINUOUS
 10
-9.295445112
 20
26.6320575621
 11
-9.295445112
 21
26.5670575621
  0
LINE
  5
2C0
100
AcDbEntity
  8
0
100
AcDbLine
 62
7
  6
CONTINUOUS
 10
-9.2070219168
 20
29.1296782517
 11
-9.2070219168
 21
29.0920575621
  0
LINE
  5
2C1
100
AcDbEntity
  8
0
100
AcDbLine
 62
7
  6
CONTINUOUS
 10
-9.190445112
 20
26.5170575621
 11
-9.190445112
 21
26.5670575621
  0
LINE
  5
2C2
100
AcDbEntity
  8
0
100
AcDbLine
 62
7
  6
CONTINUOUS
 10
-9.1665050768
 20
30.3520575621
 11
-9.1665050768
 21
29.1296782517
  0
LINE
  5
2C3
100
AcDbEntity
  8
0
100
AcDbLine
 62
7
  6
CONTINUOUS
 10
-9.146951463
 20
26.3440930617
 11
-9.146951463
 21
26.4951575621
  0
LINE
  5
2C4
100
AcDbEntity
  8
0
100
AcDbLine
 62
7
  6
CONTINUOUS
 10
-9.1364085127
 20
30.3520575621
 11
-9.1364085127
 21
29.0920575621
  0
LINE
  5
2C5
100
AcDbEntity
  8
0
100
AcDbLine
 62
7
  6
CONTINUOUS
 10
-9.039945112
 20
26.6320575621
 11
-9.039945112
 21
27.1740575621
  0
LINE
  5
2C6
100
AcDbEntity
  8
0
100
AcDbLine
 62
7
  6
CONTINUOUS
 10
-9.0386982875
 20
26.3440930617
 11
-9.0386982875
 21
26.4951575621
  0
LINE
  5
2C7
100
AcDbEntity
  8
0
100
AcDbLine
 62
7
  6
CONTINUOUS
 10
-9.0056098741
 20
29.0920575621
 11
-9.0056098741
 21
29.1296782517
  0
LINE
  5
2C8
100
AcDbEntity
  8
0
100
AcDbLine
 62
7
  6
CONTINUOUS
 10
-8.9306098741
 20
29.4320575621
 11
-8.9306098741
 21
29.1296782517
  0
LINE
  5
2C9
100
AcDbEntity
  8
0
100
AcDbLine
 62
7
  6
CONTINUOUS
 10
-8.8741623007
 20
29.1296782517
 11
-8.8741623007
 21
29.0920575621
  0
LINE
  5
2CA
100
AcDbEntity
  8
0
100
AcDbLine
 62
7
  6
CONTINUOUS
 10
-9.8859705158
 20
27.3170575621
 11
-9.9059705158
 21
27.1740575621
  0
LINE
  5
2CB
100
AcDbEntity
  8
0
100
AcDbLine
 62
7
  6
CONTINUOUS
 10
-8.840945112
 20
27.3170575621
 11
-8.820945112
 21
27.1740575621
  0
LINE
  5
2CC
100
AcDbEntity
  8
0
100
AcDbLine
 62
7
  6
CONTINUOUS
 10
-8.8221919366
 20
26.3440930617
 11
-8.8221919366
 21
26.4951575621
  0
LINE
  5
2CD
100
AcDbEntity
  8
0
100
AcDbLine
 62
7
  6
CONTINUOUS
 10
-8.820945112
 20
26.6320575621
 11
-8.820945112
 21
27.1740575621
  0
LINE
  5
2CE
100
AcDbEntity
  8
0
100
AcDbLine
 62
7
  6
CONTINUOUS
 10
-8.8006098741
 20
29.4320575621
 11
-8.8006098741
 21
29.1296782517
  0
LINE
  5
2CF
100
AcDbEntity
  8
0
100
AcDbLine
 62
7
  6
CONTINUOUS
 10
-8.779614694
 20
30.3520575621
 11
-8.779614694
 21
29.1296782517
  0
LINE
  5
2D0
100
AcDbEntity
  8
0
100
AcDbLine
 62
7
  6
CONTINUOUS
 10
-8.7406871296
 20
30.3520575621
 11
-8.7406871296
 21
29.0920575621
  0
LINE
  5
2D1
100
AcDbEntity
  8
0
100
AcDbLine
 62
7
  6
CONTINUOUS
 10
-8.7139387611
 20
26.3440930617
 11
-8.7139387611
 21
26.4951575621
  0
LINE
  5
2D2
100
AcDbEntity
  8
0
100
AcDbLine
 62
7
  6
CONTINUOUS
 10
-8.670445112
 20
26.5170575621
 11
-8.670445112
 21
26.5670575621
  0
LINE
  5
2D3
100
AcDbEntity
  8
0
100
AcDbLine
 62
7
  6
CONTINUOUS
 10
-8.565445112
 20
26.6320575621
 11
-8.565445112
 21
26.5670575621
  0
LINE
  5
2D4
100
AcDbEntity
  8
0
100
AcDbLine
 62
7
  6
CONTINUOUS
 10
-8.1390458766
 20
26.6720575621
 11
-8.1390458766
 21
30.3520575621
  0
LINE
  5
2D5
100
AcDbEntity
  8
0
100
AcDbLine
 62
7
  6
CONTINUOUS
 10
-9.019945112
 20
27.3170575621
 11
-9.039945112
 21
27.1740575621
  0
LINE
  5
2D6
100
AcDbEntity
  8
0
100
AcDbLine
 62
7
  6
CONTINUOUS
 10
-4.1377990403
 20
26.3270575621
 11
-4.1673053912
 21
26.3440930617
  0
LINE
  5
2D7
100
AcDbEntity
  8
0
100
AcDbLine
 62
7
  6
CONTINUOUS
 10
-7.2190458766
 20
26.6720575621
 11
-7.2190458766
 21
30.3520575621
  0
LINE
  5
2D8
100
AcDbEntity
  8
0
100
AcDbLine
 62
7
  6
CONTINUOUS
 10
-7.1283191839
 20
29.0920575621
 11
-7.1283191839
 21
29.1296782517
  0
LINE
  5
2D9
100
AcDbEntity
  8
0
100
AcDbLine
 62
7
  6
CONTINUOUS
 10
-7.0533191839
 20
29.4320575621
 11
-7.0533191839
 21
29.1296782517
  0
LINE
  5
2DA
100
AcDbEntity
  8
0
100
AcDbLine
 62
7
  6
CONTINUOUS
 10
-6.9233191839
 20
29.4320575621
 11
-6.9233191839
 21
29.1296782517
  0
LINE
  5
2DB
100
AcDbEntity
  8
0
100
AcDbLine
 62
7
  6
CONTINUOUS
 10
15.4192009597
 20
25.9220575621
 11
12.4192009597
 21
25.9220575621
  0
LINE
  5
2DC
100
AcDbEntity
  8
0
100
AcDbLine
 62
7
  6
CONTINUOUS
 10
-9.9834693124
 20
26.3270575621
 11
-9.6094717193
 21
26.3270575621
  0
LINE
  5
2DD
100
AcDbEntity
  8
0
100
AcDbLine
 62
7
  6
CONTINUOUS
 10
-9.1174439086
 20
26.3270575621
 11
-8.7434463155
 21
26.3270575621
  0
LINE
  5
2DE
100
AcDbEntity
  8
0
100
AcDbLine
 62
7
  6
CONTINUOUS
 10
-4.1377978369
 20
26.3270575621
 11
-3.7638002437
 21
26.3270575621
  0
LINE
  5
2DF
100
AcDbEntity
  8
0
100
AcDbLine
 62
7
  6
CONTINUOUS
 10
0.8418482349
 20
26.3270575621
 11
1.2158458281
 21
26.3270575621
  0
LINE
  5
2E0
100
AcDbEntity
  8
0
100
AcDbLine
 62
7
  6
CONTINUOUS
 10
1.7078736387
 20
26.3270575621
 11
2.0818712318
 21
26.3270575621
  0
LINE
  5
2E1
100
AcDbEntity
  8
0
100
AcDbLine
 62
7
  6
CONTINUOUS
 10
2.5162456625
 20
26.4170575621
 11
2.8817104237
 21
26.4170575621
  0
LINE
  5
2E2
100
AcDbEntity
  8
0
100
AcDbLine
 62
7
  6
CONTINUOUS
 10
-10.417843743
 20
26.4170575621
 11
-10.7833085043
 21
26.4170575621
  0
LINE
  5
2E3
100
AcDbEntity
  8
0
100
AcDbLine
 62
7
  6
CONTINUOUS
 10
0.7688487047
 20
26.5170575621
 11
1.2888453583
 21
26.5170575621
  0
LINE
  5
2E4
100
AcDbEntity
  8
0
100
AcDbLine
 62
7
  6
CONTINUOUS
 10
1.6348741085
 20
26.5170575621
 11
2.154870762
 21
26.5170575621
  0
LINE
  5
2E5
100
AcDbEntity
  8
0
100
AcDbLine
 62
7
  6
CONTINUOUS
 10
-3.6908007135
 20
26.5170575621
 11
-4.2107973671
 21
26.5170575621
  0
LINE
  5
2E6
100
AcDbEntity
  8
0
100
AcDbLine
 62
7
  6
CONTINUOUS
 10
-8.6704467853
 20
26.5170575621
 11
-9.1904434388
 21
26.5170575621
  0
LINE
  5
2E7
100
AcDbEntity
  8
0
100
AcDbLine
 62
7
  6
CONTINUOUS
 10
-9.536472189
 20
26.5170575621
 11
-10.0564688426
 21
26.5170575621
  0
LINE
  5
2E8
100
AcDbEntity
  8
0
100
AcDbLine
 62
7
  6
CONTINUOUS
 10
2.2598724353
 20
26.5670575621
 11
1.5298724353
 21
26.5670575621
  0
LINE
  5
2E9
100
AcDbEntity
  8
0
100
AcDbLine
 62
7
  6
CONTINUOUS
 10
1.3938470315
 20
26.5670575621
 11
0.6638470315
 21
26.5670575621
  0
LINE
  5
2EA
100
AcDbEntity
  8
0
100
AcDbLine
 62
7
  6
CONTINUOUS
 10
-3.5857990403
 20
26.5670575621
 11
-4.3157990403
 21
26.5670575621
  0
LINE
  5
2EB
100
AcDbEntity
  8
0
100
AcDbLine
 62
7
  6
CONTINUOUS
 10
-8.565445112
 20
26.5670575621
 11
-9.295445112
 21
26.5670575621
  0
LINE
  5
2EC
100
AcDbEntity
  8
0
100
AcDbLine
 62
7
  6
CONTINUOUS
 10
-9.4314705158
 20
26.5670575621
 11
-10.1614705158
 21
26.5670575621
  0
LINE
  5
2ED
100
AcDbEntity
  8
0
100
AcDbLine
 62
7
  6
CONTINUOUS
 10
2.5162456625
 20
26.6070575621
 11
2.8817104237
 21
26.6070575621
  0
LINE
  5
2EE
100
AcDbEntity
  8
0
100
AcDbLine
 62
7
  6
CONTINUOUS
 10
-10.417843743
 20
26.6070575621
 11
-10.7833085043
 21
26.6070575621
  0
LINE
  5
2EF
100
AcDbEntity
  8
0
100
AcDbLine
 62
7
  6
CONTINUOUS
 10
2.2598724353
 20
26.6320575621
 11
1.5298724353
 21
26.6320575621
  0
LINE
  5
2F0
100
AcDbEntity
  8
0
100
AcDbLine
 62
7
  6
CONTINUOUS
 10
1.3938470315
 20
26.6320575621
 11
0.6638470315
 21
26.6320575621
  0
LINE
  5
2F1
100
AcDbEntity
  8
0
100
AcDbLine
 62
7
  6
CONTINUOUS
 10
-3.5857990403
 20
26.6320575621
 11
-4.3157990403
 21
26.6320575621
  0
LINE
  5
2F2
100
AcDbEntity
  8
0
100
AcDbLine
 62
7
  6
CONTINUOUS
 10
-8.565445112
 20
26.6320575621
 11
-9.295445112
 21
26.6320575621
  0
LINE
  5
2F3
100
AcDbEntity
  8
0
100
AcDbLine
 62
7
  6
CONTINUOUS
 10
-9.4314705158
 20
26.6320575621
 11
-10.1614705158
 21
26.6320575621
  0
LINE
  5
2F4
100
AcDbEntity
  8
0
100
AcDbLine
 62
7
  6
CONTINUOUS
 10
-8.1390458766
 20
26.6720575621
 11
-7.2190458766
 21
26.6720575621
  0
LINE
  5
2F5
100
AcDbEntity
  8
0
100
AcDbLine
 62
7
  6
CONTINUOUS
 10
2.7992009597
 20
26.6720575621
 11
2.9111650238
 21
26.6720575621
  0
LINE
  5
2F6
100
AcDbEntity
  8
0
100
AcDbLine
 62
7
  6
CONTINUOUS
 10
3.0219927211
 20
26.6720575621
 11
5.5492009597
 21
26.6720575621
  0
LINE
  5
2F7
100
AcDbEntity
  8
0
100
AcDbLine
 62
7
  6
CONTINUOUS
 10
1.6992009597
 20
26.6770575621
 11
1.7853724353
 21
26.6770575621
  0
LINE
  5
2F8
100
AcDbEntity
  8
0
100
AcDbLine
 62
7
  6
CONTINUOUS
 10
2.0043724353
 20
26.6770575621
 11
2.7992009597
 21
26.6770575621
  0
LINE
  5
2F9
100
AcDbEntity
  8
0
100
AcDbLine
 62
7
  6
CONTINUOUS
 10
1.6992009597
 20
26.6820575621
 11
1.7853724353
 21
26.6820575621
  0
LINE
  5
2FA
100
AcDbEntity
  8
0
100
AcDbLine
 62
7
  6
CONTINUOUS
 10
2.0043724353
 20
26.6820575621
 11
2.7992009597
 21
26.6820575621
  0
LINE
  5
2FB
100
AcDbEntity
  8
0
100
AcDbLine
 62
7
  6
CONTINUOUS
 10
2.7992009597
 20
26.7220575621
 11
5.5492009597
 21
26.7220575621
  0
LINE
  5
2FC
100
AcDbEntity
  8
0
100
AcDbLine
 62
7
  6
CONTINUOUS
 10
5.5492009597
 20
26.7395575621
 11
3.0492009597
 21
26.7395575621
  0
LINE
  5
2FD
100
AcDbEntity
  8
0
100
AcDbLine
 62
7
  6
CONTINUOUS
 10
-6.548280857
 20
30.3520575621
 11
-6.548280857
 21
29.1296782517
  0
LINE
  5
2FE
100
AcDbEntity
  8
0
100
AcDbLine
 62
7
  6
CONTINUOUS
 10
-6.5153912986
 20
30.3520575621
 11
-6.5153912986
 21
29.0920575621
  0
LINE
  5
2FF
100
AcDbEntity
  8
0
100
AcDbLine
 62
7
  6
CONTINUOUS
 10
-9.9059705158
 20
27.1740575621
 11
-9.6869705158
 21
27.1740575621
  0
LINE
  5
300
100
AcDbEntity
  8
0
100
AcDbLine
 62
7
  6
CONTINUOUS
 10
-9.039945112
 20
27.1740575621
 11
-8.820945112
 21
27.1740575621
  0
LINE
  5
301
100
AcDbEntity
  8
0
100
AcDbLine
 62
7
  6
CONTINUOUS
 10
-4.0602990403
 20
27.1740575621
 11
-3.8412990403
 21
27.1740575621
  0
LINE
  5
302
100
AcDbEntity
  8
0
100
AcDbLine
 62
7
  6
CONTINUOUS
 10
0.9193470315
 20
27.1740575621
 11
1.1383470315
 21
27.1740575621
  0
LINE
  5
303
100
AcDbEntity
  8
0
100
AcDbLine
 62
7
  6
CONTINUOUS
 10
1.7853724353
 20
27.1740575621
 11
2.0043724353
 21
27.1740575621
  0
LINE
  5
304
100
AcDbEntity
  8
0
100
AcDbLine
 62
7
  6
CONTINUOUS
 10
1.9843724353
 20
27.3170575621
 11
1.8053724353
 21
27.3170575621
  0
LINE
  5
305
100
AcDbEntity
  8
0
100
AcDbLine
 62
7
  6
CONTINUOUS
 10
1.1183470315
 20
27.3170575621
 11
0.9393470315
 21
27.3170575621
  0
LINE
  5
306
100
AcDbEntity
  8
0
100
AcDbLine
 62
7
  6
CONTINUOUS
 10
-3.8612990403
 20
27.3170575621
 11
-4.0402990403
 21
27.3170575621
  0
LINE
  5
307
100
AcDbEntity
  8
0
100
AcDbLine
 62
7
  6
CONTINUOUS
 10
-8.840945112
 20
27.3170575621
 11
-9.019945112
 21
27.3170575621
  0
LINE
  5
308
100
AcDbEntity
  8
0
100
AcDbLine
 62
7
  6
CONTINUOUS
 10
-9.7069705158
 20
27.3170575621
 11
-9.8859705158
 21
27.3170575621
  0
LINE
  5
309
100
AcDbEntity
  8
0
100
AcDbLine
 62
7
  6
CONTINUOUS
 10
12.4192009597
 20
27.6720575621
 11
15.4192009597
 21
27.6720575621
  0
LINE
  5
30A
100
AcDbEntity
  8
0
100
AcDbLine
 62
7
  6
CONTINUOUS
 10
0.8418470315
 20
26.3270575621
 11
0.8123406805
 21
26.3440930617
  0
LINE
  5
30B
100
AcDbEntity
  8
0
100
AcDbLine
 62
7
  6
CONTINUOUS
 10
1.7078724353
 20
26.3270575621
 11
1.6783660843
 21
26.3440930617
  0
LINE
  5
30C
100
AcDbEntity
  8
0
100
AcDbLine
 62
7
  6
CONTINUOUS
 10
-5.3526235542
 20
29.1296782517
 11
-5.3526235542
 21
29.0920575621
  0
LINE
  5
30D
100
AcDbEntity
  8
0
100
AcDbLine
 62
7
  6
CONTINUOUS
 10
-5.3175440193
 20
30.3520575621
 11
-5.3175440193
 21
29.1296782517
  0
LINE
  5
30E
100
AcDbEntity
  8
0
100
AcDbLine
 62
7
  6
CONTINUOUS
 10
-5.3010795462
 20
29.0920575621
 11
-5.3010795462
 21
29.1296782517
  0
LINE
  5
30F
100
AcDbEntity
  8
0
100
AcDbLine
 62
7
  6
CONTINUOUS
 10
-5.2260795462
 20
29.4320575621
 11
-5.2260795462
 21
29.1296782517
  0
LINE
  5
310
100
AcDbEntity
  8
0
100
AcDbLine
 62
7
  6
CONTINUOUS
 10
-5.0960795462
 20
29.4320575621
 11
-5.0960795462
 21
29.1296782517
  0
LINE
  5
311
100
AcDbEntity
  8
0
100
AcDbLine
 62
7
  6
CONTINUOUS
 10
-4.3157990403
 20
26.6320575621
 11
-4.3157990403
 21
26.5670575621
  0
LINE
  5
312
100
AcDbEntity
  8
0
100
AcDbLine
 62
7
  6
CONTINUOUS
 10
0.1856352504
 20
28.6440575621
 11
-7.2190458766
 21
28.6440575621
  0
LINE
  5
313
100
AcDbEntity
  8
0
100
AcDbLine
 62
7
  6
CONTINUOUS
 10
2.5162456625
 20
28.7170575621
 11
2.8817104237
 21
28.7170575621
  0
LINE
  5
314
100
AcDbEntity
  8
0
100
AcDbLine
 62
7
  6
CONTINUOUS
 10
-10.417843743
 20
28.7170575621
 11
-10.7833085043
 21
28.7170575621
  0
LINE
  5
315
100
AcDbEntity
  8
0
100
AcDbLine
 62
7
  6
CONTINUOUS
 10
2.5162456625
 20
28.9070575621
 11
2.8817104237
 21
28.9070575621
  0
LINE
  5
316
100
AcDbEntity
  8
0
100
AcDbLine
 62
7
  6
CONTINUOUS
 10
-10.417843743
 20
28.9070575621
 11
-10.7833085043
 21
28.9070575621
  0
LINE
  5
317
100
AcDbEntity
  8
0
100
AcDbLine
 62
7
  6
CONTINUOUS
 10
1.4271319942
 20
29.0420575621
 11
-7.2190458766
 21
29.0420575621
  0
LINE
  5
318
100
AcDbEntity
  8
0
100
AcDbLine
 62
7
  6
CONTINUOUS
 10
-8.1390458766
 20
29.0420575621
 11
-9.3287300748
 21
29.0420575621
  0
LINE
  5
319
100
AcDbEntity
  8
0
100
AcDbLine
 62
7
  6
CONTINUOUS
 10
1.4271319942
 20
29.0920575621
 11
-7.2190458766
 21
29.0920575621
  0
LINE
  5
31A
100
AcDbEntity
  8
0
100
AcDbLine
 62
7
  6
CONTINUOUS
 10
-8.1390458766
 20
29.0920575621
 11
-9.3287300748
 21
29.0920575621
  0
LINE
  5
31B
100
AcDbEntity
  8
0
100
AcDbLine
 62
7
  6
CONTINUOUS
 10
1.3054143785
 20
29.1296782517
 11
-2.7140762076
 21
29.1296782517
  0
LINE
  5
31C
100
AcDbEntity
  8
0
100
AcDbLine
 62
7
  6
CONTINUOUS
 10
-3.3247972511
 20
29.1296782517
 11
-5.3526224852
 21
29.1296782517
  0
LINE
  5
31D
100
AcDbEntity
  8
0
100
AcDbLine
 62
7
  6
CONTINUOUS
 10
-6.548280857
 20
29.1296782517
 11
-7.2190458766
 21
29.1296782517
  0
LINE
  5
31E
100
AcDbEntity
  8
0
100
AcDbLine
 62
7
  6
CONTINUOUS
 10
-8.779614694
 20
29.1296782517
 11
-9.0055961039
 21
29.1296782517
  0
LINE
  5
31F
100
AcDbEntity
  8
0
100
AcDbLine
 62
7
  6
CONTINUOUS
 10
-9.1665050768
 20
29.1296782517
 11
-9.207012459
 21
29.1296782517
  0
LINE
  5
320
100
AcDbEntity
  8
0
100
AcDbLine
 62
7
  6
CONTINUOUS
 10
-3.8612990403
 20
27.3170575621
 11
-3.8412990403
 21
27.1740575621
  0
LINE
  5
321
100
AcDbEntity
  8
0
100
AcDbLine
 62
7
  6
CONTINUOUS
 10
-4.2107990403
 20
26.5170575621
 11
-4.2107990403
 21
26.5670575621
  0
LINE
  5
322
100
AcDbEntity
  8
0
100
AcDbLine
 62
7
  6
CONTINUOUS
 10
-4.1673053912
 20
26.3440930617
 11
-4.1673053912
 21
26.4951575621
  0
LINE
  5
323
100
AcDbEntity
  8
0
100
AcDbLine
 62
7
  6
CONTINUOUS
 10
-4.0907990403
 20
29.0920575621
 11
-4.0907990403
 21
29.1296782517
  0
LINE
  5
324
100
AcDbEntity
  8
0
100
AcDbLine
 62
7
  6
CONTINUOUS
 10
-4.0602990403
 20
26.6320575621
 11
-4.0602990403
 21
27.1740575621
  0
LINE
  5
325
100
AcDbEntity
  8
0
100
AcDbLine
 62
7
  6
CONTINUOUS
 10
-4.0590522158
 20
26.3440930617
 11
-4.0590522158
 21
26.4951575621
  0
LINE
  5
326
100
AcDbEntity
  8
0
100
AcDbLine
 62
7
  6
CONTINUOUS
 10
-4.0157990403
 20
29.4320575621
 11
-4.0157990403
 21
29.1296782517
  0
LINE
  5
327
100
AcDbEntity
  8
0
100
AcDbLine
 62
7
  6
CONTINUOUS
 10
-3.8857990403
 20
29.4320575621
 11
-3.8857990403
 21
29.1296782517
  0
LINE
  5
328
100
AcDbEntity
  8
0
100
AcDbLine
 62
7
  6
CONTINUOUS
 10
-3.8425458648
 20
26.3440930617
 11
-3.8425458648
 21
26.4951575621
  0
LINE
  5
329
100
AcDbEntity
  8
0
100
AcDbLine
 62
7
  6
CONTINUOUS
 10
-3.8412990403
 20
26.6320575621
 11
-3.8412990403
 21
27.1740575621
  0
LINE
  5
32A
100
AcDbEntity
  8
0
100
AcDbLine
 62
7
  6
CONTINUOUS
 10
-3.7342926893
 20
26.3440930617
 11
-3.7342926893
 21
26.4951575621
  0
LINE
  5
32B
100
AcDbEntity
  8
0
100
AcDbLine
 62
7
  6
CONTINUOUS
 10
-3.6907990403
 20
26.5170575621
 11
-3.6907990403
 21
26.5670575621
  0
LINE
  5
32C
100
AcDbEntity
  8
0
100
AcDbLine
 62
7
  6
CONTINUOUS
 10
-3.5857990403
 20
26.6320575621
 11
-3.5857990403
 21
26.5670575621
  0
LINE
  5
32D
100
AcDbEntity
  8
0
100
AcDbLine
 62
7
  6
CONTINUOUS
 10
-3.3247972511
 20
30.3520575621
 11
-3.3247972511
 21
29.1296782517
  0
LINE
  5
32E
100
AcDbEntity
  8
0
100
AcDbLine
 62
7
  6
CONTINUOUS
 10
-3.3105083923
 20
30.3520575621
 11
-3.3105083923
 21
29.0920575621
  0
LINE
  5
32F
100
AcDbEntity
  8
0
100
AcDbLine
 62
7
  6
CONTINUOUS
 10
1.0290117935
 20
29.4320575621
 11
0.8990117935
 21
29.4320575621
  0
LINE
  5
330
100
AcDbEntity
  8
0
100
AcDbLine
 62
7
  6
CONTINUOUS
 10
-0.1213752156
 20
29.4320575621
 11
-0.2513752156
 21
29.4320575621
  0
LINE
  5
331
100
AcDbEntity
  8
0
100
AcDbLine
 62
7
  6
CONTINUOUS
 10
-0.8482788967
 20
29.4320575621
 11
-0.9782788967
 21
29.4320575621
  0
LINE
  5
332
100
AcDbEntity
  8
0
100
AcDbLine
 62
7
  6
CONTINUOUS
 10
-2.3072516571
 20
29.4320575621
 11
-2.4372516571
 21
29.4320575621
  0
LINE
  5
333
100
AcDbEntity
  8
0
100
AcDbLine
 62
7
  6
CONTINUOUS
 10
-3.8857990403
 20
29.4320575621
 11
-4.0157990403
 21
29.4320575621
  0
LINE
  5
334
100
AcDbEntity
  8
0
100
AcDbLine
 62
7
  6
CONTINUOUS
 10
-5.0960795462
 20
29.4320575621
 11
-5.2260795462
 21
29.4320575621
  0
LINE
  5
335
100
AcDbEntity
  8
0
100
AcDbLine
 62
7
  6
CONTINUOUS
 10
-6.9233191839
 20
29.4320575621
 11
-7.0533191839
 21
29.4320575621
  0
LINE
  5
336
100
AcDbEntity
  8
0
100
AcDbLine
 62
7
  6
CONTINUOUS
 10
-8.8006098741
 20
29.4320575621
 11
-8.9306098741
 21
29.4320575621
  0
LINE
  5
337
100
AcDbEntity
  8
0
100
AcDbLine
 62
7
  6
CONTINUOUS
 10
-14.8525128734
 20
30.3520575621
 11
6.9509147929
 21
30.3520575621
  0
LINE
  5
338
100
AcDbEntity
  8
0
100
AcDbLine
 62
7
  6
CONTINUOUS
 10
-2.7140823421
 20
29.1296782517
 11
-2.7140823421
 21
29.0920575621
  0
LINE
  5
339
100
AcDbEntity
  8
0
100
AcDbLine
 62
7
  6
CONTINUOUS
 10
-2.7107808409
 20
30.3520575621
 11
-2.7107808409
 21
29.1296782517
  0
LINE
  5
33A
100
AcDbEntity
  8
0
100
AcDbLine
 62
7
  6
CONTINUOUS
 10
-2.4372516571
 20
29.4320575621
 11
-2.4372516571
 21
29.1296782517
  0
LINE
  5
33B
100
AcDbEntity
  8
0
100
AcDbLine
 62
7
  6
CONTINUOUS
 10
-2.3072516571
 20
29.4320575621
 11
-2.3072516571
 21
29.1296782517
  0
LINE
  5
33C
100
AcDbEntity
  8
0
100
AcDbLine
 62
7
  6
CONTINUOUS
 10
-4.0402990403
 20
27.3170575621
 11
-4.0602990403
 21
27.1740575621
  0
LINE
  5
33D
100
AcDbEntity
  8
0
100
AcDbLine
 62
7
  6
CONTINUOUS
 10
-14.8525128734
 20
30.8580575621
 11
6.9509147929
 21
30.8580575621
  0
LINE
  5
33E
100
AcDbEntity
  8
0
100
AcDbLine
 62
7
  6
CONTINUOUS
 10
-0.9782788967
 20
29.4320575621
 11
-0.9782788967
 21
29.1296782517
  0
LINE
  5
33F
100
AcDbEntity
  8
0
100
AcDbLine
 62
7
  6
CONTINUOUS
 10
-0.8482788967
 20
29.4320575621
 11
-0.8482788967
 21
29.1296782517
  0
LINE
  5
340
100
AcDbEntity
  8
0
100
AcDbLine
 62
7
  6
CONTINUOUS
 10
-0.3404250517
 20
30.3520575621
 11
-0.3404250517
 21
29.1296782517
  0
LINE
  5
341
100
AcDbEntity
  8
0
100
AcDbLine
 62
7
  6
CONTINUOUS
 10
-0.335038093
 20
29.1296782517
 11
-0.335038093
 21
29.0920575621
  0
LINE
  5
342
100
AcDbEntity
  8
0
100
AcDbLine
 62
7
  6
CONTINUOUS
 10
-0.2513752156
 20
29.4320575621
 11
-0.2513752156
 21
29.1296782517
  0
LINE
  5
343
100
AcDbEntity
  8
0
100
AcDbLine
 62
7
  6
CONTINUOUS
 10
-0.1213752156
 20
29.4320575621
 11
-0.1213752156
 21
29.1296782517
  0
LINE
  5
344
100
AcDbEntity
  8
0
100
AcDbLine
 62
7
  6
CONTINUOUS
 10
-0.0463752156
 20
29.0920575621
 11
-0.0463752156
 21
29.1296782517
  0
LINE
  5
345
100
AcDbEntity
  8
0
100
AcDbLine
 62
7
  6
CONTINUOUS
 10
0.1856837183
 20
29.0420575621
 11
0.1856837183
 21
28.6440575621
  0
LINE
  5
346
100
AcDbEntity
  8
0
100
AcDbLine
 62
7
  6
CONTINUOUS
 10
0.2602358245
 20
35.3570575621
 11
0.2602358245
 21
35.2920575621
  0
LINE
  5
347
100
AcDbEntity
  8
0
100
AcDbLine
 62
7
  6
CONTINUOUS
 10
1.1183470315
 20
27.3170575621
 11
1.1383470315
 21
27.1740575621
  0
LINE
  5
348
100
AcDbEntity
  8
0
100
AcDbLine
 62
7
  6
CONTINUOUS
 10
0.6638470315
 20
26.6320575621
 11
0.6638470315
 21
26.5670575621
  0
LINE
  5
349
100
AcDbEntity
  8
0
100
AcDbLine
 62
7
  6
CONTINUOUS
 10
0.7688470315
 20
26.5170575621
 11
0.7688470315
 21
26.5670575621
  0
LINE
  5
34A
100
AcDbEntity
  8
0
100
AcDbLine
 62
7
  6
CONTINUOUS
 10
0.8123406805
 20
26.3440930617
 11
0.8123406805
 21
26.4951575621
  0
LINE
  5
34B
100
AcDbEntity
  8
0
100
AcDbLine
 62
7
  6
CONTINUOUS
 10
0.8990117935
 20
29.4320575621
 11
0.8990117935
 21
29.1296782517
  0
LINE
  5
34C
100
AcDbEntity
  8
0
100
AcDbLine
 62
7
  6
CONTINUOUS
 10
0.9193470315
 20
26.6320575621
 11
0.9193470315
 21
27.1740575621
  0
LINE
  5
34D
100
AcDbEntity
  8
0
100
AcDbLine
 62
7
  6
CONTINUOUS
 10
0.920593856
 20
26.3440930617
 11
0.920593856
 21
26.4951575621
  0
LINE
  5
34E
100
AcDbEntity
  8
0
100
AcDbLine
 62
7
  6
CONTINUOUS
 10
1.0290117935
 20
29.4320575621
 11
1.0290117935
 21
29.1296782517
  0
LINE
  5
34F
100
AcDbEntity
  8
0
100
AcDbLine
 62
7
  6
CONTINUOUS
 10
1.1040117935
 20
29.0920575621
 11
1.1040117935
 21
29.1296782517
  0
LINE
  5
350
100
AcDbEntity
  8
0
100
AcDbLine
 62
7
  6
CONTINUOUS
 10
1.1371002069
 20
26.3440930617
 11
1.1371002069
 21
26.4951575621
  0
LINE
  5
351
100
AcDbEntity
  8
0
100
AcDbLine
 62
7
  6
CONTINUOUS
 10
1.1383470315
 20
26.6320575621
 11
1.1383470315
 21
27.1740575621
  0
LINE
  5
352
100
AcDbEntity
  8
0
100
AcDbLine
 62
7
  6
CONTINUOUS
 10
1.2453533824
 20
26.3440930617
 11
1.2453533824
 21
26.4951575621
  0
LINE
  5
353
100
AcDbEntity
  8
0
100
AcDbLine
 62
7
  6
CONTINUOUS
 10
1.2649069962
 20
30.3520575621
 11
1.2649069962
 21
29.1296782517
  0
LINE
  5
354
100
AcDbEntity
  8
0
100
AcDbLine
 62
7
  6
CONTINUOUS
 10
1.2888470315
 20
26.5170575621
 11
1.2888470315
 21
26.5670575621
  0
LINE
  5
355
100
AcDbEntity
  8
0
100
AcDbLine
 62
7
  6
CONTINUOUS
 10
1.3054238363
 20
29.1296782517
 11
1.3054238363
 21
29.0920575621
  0
LINE
  5
356
100
AcDbEntity
  8
0
100
AcDbLine
 62
7
  6
CONTINUOUS
 10
1.3938470315
 20
26.6320575621
 11
1.3938470315
 21
26.5670575621
  0
LINE
  5
357
100
AcDbEntity
  8
0
100
AcDbLine
 62
7
  6
CONTINUOUS
 10
1.4271319942
 20
29.0920575621
 11
1.4271319942
 21
29.0420575621
  0
LINE
  5
358
100
AcDbEntity
  8
0
100
AcDbLine
 62
7
  6
CONTINUOUS
 10
1.9843724353
 20
27.3170575621
 11
2.0043724353
 21
27.1740575621
  0
LINE
  5
359
100
AcDbEntity
  8
0
100
AcDbLine
 62
7
  6
CONTINUOUS
 10
1.5298724353
 20
26.6320575621
 11
1.5298724353
 21
26.5670575621
  0
LINE
  5
35A
100
AcDbEntity
  8
0
100
AcDbLine
 62
7
  6
CONTINUOUS
 10
1.5874222829
 20
35.4900575621
 11
1.5874222829
 21
35.4250575621
  0
LINE
  5
35B
100
AcDbEntity
  8
0
100
AcDbLine
 62
7
  6
CONTINUOUS
 10
1.6348724353
 20
26.5170575621
 11
1.6348724353
 21
26.5670575621
  0
LINE
  5
35C
100
AcDbEntity
  8
0
100
AcDbLine
 62
7
  6
CONTINUOUS
 10
1.6783660843
 20
26.3440930617
 11
1.6783660843
 21
26.4951575621
  0
LINE
  5
35D
100
AcDbEntity
  8
0
100
AcDbLine
 62
7
  6
CONTINUOUS
 10
1.6992009597
 20
26.6770575621
 11
1.6992009597
 21
26.6820575621
  0
LINE
  5
35E
100
AcDbEntity
  8
0
100
AcDbLine
 62
7
  6
CONTINUOUS
 10
1.7159222829
 20
35.4900575621
 11
1.7159222829
 21
35.6700575621
  0
LINE
  5
35F
100
AcDbEntity
  8
0
100
AcDbLine
 62
7
  6
CONTINUOUS
 10
1.7853724353
 20
26.6320575621
 11
1.7853724353
 21
27.1740575621
  0
LINE
  5
360
100
AcDbEntity
  8
0
100
AcDbLine
 62
7
  6
CONTINUOUS
 10
1.7866192598
 20
26.3440930617
 11
1.7866192598
 21
26.4951575621
  0
LINE
  5
361
100
AcDbEntity
  8
0
100
AcDbLine
 62
7
  6
CONTINUOUS
 10
1.9324222829
 20
35.4900575621
 11
1.9324222829
 21
35.6700575621
  0
LINE
  5
362
100
AcDbEntity
  8
0
100
AcDbLine
 62
7
  6
CONTINUOUS
 10
2.0031256107
 20
26.3440930617
 11
2.0031256107
 21
26.4951575621
  0
LINE
  5
363
100
AcDbEntity
  8
0
100
AcDbLine
 62
7
  6
CONTINUOUS
 10
2.0043724353
 20
26.6320575621
 11
2.0043724353
 21
27.1740575621
  0
LINE
  5
364
100
AcDbEntity
  8
0
100
AcDbLine
 62
7
  6
CONTINUOUS
 10
2.1113787862
 20
26.3440930617
 11
2.1113787862
 21
26.4951575621
  0
LINE
  5
365
100
AcDbEntity
  8
0
100
AcDbLine
 62
7
  6
CONTINUOUS
 10
2.1489222829
 20
35.4900575621
 11
2.1489222829
 21
35.6700575621
  0
LINE
  5
366
100
AcDbEntity
  8
0
100
AcDbLine
 62
7
  6
CONTINUOUS
 10
2.1548724353
 20
26.5170575621
 11
2.1548724353
 21
26.5670575621
  0
LINE
  5
367
100
AcDbEntity
  8
0
100
AcDbLine
 62
7
  6
CONTINUOUS
 10
2.2598724353
 20
26.6320575621
 11
2.2598724353
 21
26.5670575621
  0
LINE
  5
368
100
AcDbEntity
  8
0
100
AcDbLine
 62
7
  6
CONTINUOUS
 10
2.2774222829
 20
35.4900575621
 11
2.2774222829
 21
35.4250575621
  0
LINE
  5
369
100
AcDbEntity
  8
0
100
AcDbLine
 62
7
  6
CONTINUOUS
 10
0.9393470315
 20
27.3170575621
 11
0.9193470315
 21
27.1740575621
  0
LINE
  5
36A
100
AcDbEntity
  8
0
100
AcDbLine
 62
7
  6
CONTINUOUS
 10
-9.6094705158
 20
26.3270575621
 11
-9.5799641649
 21
26.3440930617
  0
LINE
  5
36B
100
AcDbEntity
  8
0
100
AcDbLine
 62
7
  6
CONTINUOUS
 10
-8.743445112
 20
26.3270575621
 11
-8.7139387611
 21
26.3440930617
  0
LINE
  5
36C
100
AcDbEntity
  8
0
100
AcDbLine
 62
7
  6
CONTINUOUS
 10
0.2602358245
 20
35.2920575621
 11
-0.9897641755
 21
35.2920575621
  0
LINE
  5
36D
100
AcDbEntity
  8
0
100
AcDbLine
 62
7
  6
CONTINUOUS
 10
-12.693046126
 20
35.2920575621
 11
-13.0287913571
 21
35.2920575621
  0
LINE
  5
36E
100
AcDbEntity
  8
0
100
AcDbLine
 62
7
  6
CONTINUOUS
 10
0.2602358245
 20
35.3570575621
 11
-0.9897641755
 21
35.3570575621
  0
LINE
  5
36F
100
AcDbEntity
  8
0
100
AcDbLine
 62
7
  6
CONTINUOUS
 10
-12.5424847136
 20
35.3570575621
 11
-13.0287913571
 21
35.3570575621
  0
LINE
  5
370
100
AcDbEntity
  8
0
100
AcDbLine
 62
3
  6
CONTINUOUS
 10
4.2991934474
 20
35.4250575621
 11
-12.200791528
 21
35.4250575621
  0
LINE
  5
371
100
AcDbEntity
  8
0
100
AcDbLine
 62
7
  6
CONTINUOUS
 10
2.2774222829
 20
35.4900575621
 11
1.5874222829
 21
35.4900575621
  0
LINE
  5
372
100
AcDbEntity
  8
0
100
AcDbLine
 62
7
  6
CONTINUOUS
 10
-10.8226410198
 20
35.4900575621
 11
-11.5126357161
 21
35.4900575621
  0
LINE
  5
373
100
AcDbEntity
  8
0
100
AcDbLine
 62
7
  6
CONTINUOUS
 10
-11.3841383679
 20
35.6700575621
 11
-10.9511383679
 21
35.6700575621
  0
LINE
  5
374
100
AcDbEntity
  8
0
100
AcDbLine
 62
7
  6
CONTINUOUS
 10
1.7159222829
 20
35.6700575621
 11
2.1489222829
 21
35.6700575621
  0
LINE
  5
375
100
AcDbEntity
  8
0
100
AcDbLine
 62
7
  6
CONTINUOUS
 10
2.7992009597
 20
26.6720575621
 11
2.7992009597
 21
26.7220575621
  0
LINE
  5
376
100
AcDbEntity
  8
0
100
AcDbLine
 62
7
  6
CONTINUOUS
 10
3.0492009597
 20
26.7395575621
 11
3.0492009597
 21
26.7220575621
  0
LINE
  5
377
100
AcDbEntity
  8
0
100
AcDbLine
 62
7
  6
CONTINUOUS
 10
1.8053724353
 20
27.3170575621
 11
1.7853724353
 21
27.1740575621
  0
LINE
  5
378
100
AcDbEntity
  8
0
100
AcDbLine
 62
3
  6
CONTINUOUS
 10
2.8293546493
 20
35.7540474904
 11
0.9392462254
 21
40.9470777054
  0
LINE
  5
379
100
AcDbEntity
  8
0
100
AcDbLine
 62
7
  6
CONTINUOUS
 10
-3.7637990403
 20
26.3270575621
 11
-3.7342926893
 21
26.3440930617
  0
LINE
  5
37A
100
AcDbEntity
  8
0
100
AcDbLine
 62
7
  6
CONTINUOUS
 10
5.5492009597
 20
26.6720575621
 11
5.5492009597
 21
26.7395575621
  0
LINE
  5
37B
100
AcDbEntity
  8
0
100
AcDbLine
 62
3
  6
CONTINUOUS
 10
6.6616605578
 20
30.8580575621
 11
5.2388935805
 21
34.7670777054
  0
LINE
  5
37C
100
AcDbEntity
  8
0
100
AcDbLine
 62
7
  6
CONTINUOUS
 10
1.2158470315
 20
26.3270575621
 11
1.2453533824
 21
26.3440930617
  0
LINE
  5
37D
100
AcDbEntity
  8
0
100
AcDbLine
 62
7
  6
CONTINUOUS
 10
2.0818724353
 20
26.3270575621
 11
2.1113787862
 21
26.3440930617
  0
LINE
  5
37E
100
AcDbEntity
  8
0
100
AcDbLine
 62
3
  6
CONTINUOUS
 10
-7.9011516852
 20
41.6050575621
 11
-0.0004463954
 21
41.6050575621
  0
LINE
  5
37F
100
AcDbEntity
  8
0
100
AcDbLine
 62
7
  6
CONTINUOUS
 10
12.4192009597
 20
25.9220575621
 11
12.4192009597
 21
27.6720575621
  0
LINE
  5
380
100
AcDbEntity
  8
0
100
AcDbLine
 62
7
  6
CONTINUOUS
 10
15.4192009597
 20
27.6720575621
 11
15.4192009597
 21
25.9220575621
  0
LINE
  5
381
100
AcDbEntity
  8
0
100
AcDbLine
 62
7
  6
CONTINUOUS
 10
25.812746469
 20
35.3570575621
 11
25.812746469
 21
35.2920575621
  0
LINE
  5
382
100
AcDbEntity
  8
0
100
AcDbLine
 62
3
  6
CONTINUOUS
 10
23.5155634555
 20
30.8580575621
 11
24.9383304328
 21
34.7670777054
  0
LINE
  5
383
100
AcDbEntity
  8
0
100
AcDbLine
 62
7
  6
CONTINUOUS
 10
30.5660230536
 20
26.3270575621
 11
30.5655230536
 21
26.3273462372
  0
LINE
  5
384
100
AcDbEntity
  8
0
100
AcDbLine
 62
3
  6
CONTINUOUS
 10
27.347869364
 20
35.7540474904
 11
29.2379777879
 21
40.9470777054
  0
LINE
  5
385
100
AcDbEntity
  8
0
100
AcDbLine
 62
7
  6
CONTINUOUS
 10
31.0660230536
 20
26.3270575621
 11
31.0655230536
 21
26.3273462372
  0
LINE
  5
386
100
AcDbEntity
  8
0
100
AcDbLine
 62
7
  6
CONTINUOUS
 10
28.3435347657
 20
26.6720575621
 11
28.3435347657
 21
30.3520575621
  0
LINE
  5
387
100
AcDbEntity
  8
0
100
AcDbLine
 62
7
  6
CONTINUOUS
 10
28.7500920191
 20
29.0920575621
 11
28.7500920191
 21
29.0420575621
  0
LINE
  5
388
100
AcDbEntity
  8
0
100
AcDbLine
 62
7
  6
CONTINUOUS
 10
28.7809295131
 20
29.1296782517
 11
28.7809295131
 21
29.0920575621
  0
LINE
  5
389
100
AcDbEntity
  8
0
100
AcDbLine
 62
7
  6
CONTINUOUS
 10
28.8464142112
 20
35.4900575621
 11
28.8464142112
 21
35.4250575621
  0
LINE
  5
38A
100
AcDbEntity
  8
0
100
AcDbLine
 62
7
  6
CONTINUOUS
 10
28.8473054947
 20
30.3520575621
 11
28.8473054947
 21
29.1296782517
  0
LINE
  5
38B
100
AcDbEntity
  8
0
100
AcDbLine
 62
7
  6
CONTINUOUS
 10
28.8835936266
 20
30.3520575621
 11
28.8835936266
 21
29.0920575621
  0
LINE
  5
38C
100
AcDbEntity
  8
0
100
AcDbLine
 62
7
  6
CONTINUOUS
 10
28.9414215447
 20
35.4900575621
 11
28.9414215447
 21
35.6700575621
  0
LINE
  5
38D
100
AcDbEntity
  8
0
100
AcDbLine
 62
7
  6
CONTINUOUS
 10
29.066417878
 20
35.4900575621
 11
29.066417878
 21
35.6700575621
  0
LINE
  5
38E
100
AcDbEntity
  8
0
100
AcDbLine
 62
7
  6
CONTINUOUS
 10
49.4980230536
 20
25.9220575621
 11
49.5630230536
 21
25.9220575621
  0
LINE
  5
38F
100
AcDbEntity
  8
0
100
AcDbLine
 62
7
  6
CONTINUOUS
 10
30.5660235236
 20
26.3270575621
 11
30.9400225837
 21
26.3270575621
  0
LINE
  5
390
100
AcDbEntity
  8
0
100
AcDbLine
 62
7
  6
CONTINUOUS
 10
31.0660235236
 20
26.3270575621
 11
31.4400225837
 21
26.3270575621
  0
LINE
  5
391
100
AcDbEntity
  8
0
100
AcDbLine
 62
7
  6
CONTINUOUS
 10
39.6910235236
 20
26.3270575621
 11
40.0650225837
 21
26.3270575621
  0
LINE
  5
392
100
AcDbEntity
  8
0
100
AcDbLine
 62
7
  6
CONTINUOUS
 10
40.6910235236
 20
26.3270575621
 11
41.0650225837
 21
26.3270575621
  0
LINE
  5
393
100
AcDbEntity
  8
0
100
AcDbLine
 62
7
  6
CONTINUOUS
 10
30.3942730536
 20
26.4170575621
 11
30.2812695187
 21
26.4170575621
  0
LINE
  5
394
100
AcDbEntity
  8
0
100
AcDbLine
 62
7
  6
CONTINUOUS
 10
41.6455230536
 20
26.4170575621
 11
42.1655230536
 21
26.4170575621
  0
LINE
  5
395
100
AcDbEntity
  8
0
100
AcDbLine
 62
7
  6
CONTINUOUS
 10
30.493023707
 20
26.5170575621
 11
31.5130224002
 21
26.5170575621
  0
LINE
  5
396
100
AcDbEntity
  8
0
100
AcDbLine
 62
7
  6
CONTINUOUS
 10
39.618023707
 20
26.5170575621
 11
40.1380224002
 21
26.5170575621
  0
LINE
  5
397
100
AcDbEntity
  8
0
100
AcDbLine
 62
7
  6
CONTINUOUS
 10
40.618023707
 20
26.5170575621
 11
41.1380224002
 21
26.5170575621
  0
LINE
  5
398
100
AcDbEntity
  8
0
100
AcDbLine
 62
7
  6
CONTINUOUS
 10
41.2430230536
 20
26.5670575621
 11
40.5130230536
 21
26.5670575621
  0
LINE
  5
399
100
AcDbEntity
  8
0
100
AcDbLine
 62
7
  6
CONTINUOUS
 10
40.2430230536
 20
26.5670575621
 11
39.5130230536
 21
26.5670575621
  0
LINE
  5
39A
100
AcDbEntity
  8
0
100
AcDbLine
 62
7
  6
CONTINUOUS
 10
31.6180230536
 20
26.5670575621
 11
30.4609750723
 21
26.5670575621
  0
LINE
  5
39B
100
AcDbEntity
  8
0
100
AcDbLine
 62
7
  6
CONTINUOUS
 10
30.3942730536
 20
26.6070575621
 11
30.2812695187
 21
26.6070575621
  0
LINE
  5
39C
100
AcDbEntity
  8
0
100
AcDbLine
 62
7
  6
CONTINUOUS
 10
41.6455230536
 20
26.6070575621
 11
42.1655230536
 21
26.6070575621
  0
LINE
  5
39D
100
AcDbEntity
  8
0
100
AcDbLine
 62
7
  6
CONTINUOUS
 10
41.2430230536
 20
26.6320575621
 11
40.5130230536
 21
26.6320575621
  0
LINE
  5
39E
100
AcDbEntity
  8
0
100
AcDbLine
 62
7
  6
CONTINUOUS
 10
40.2430230536
 20
26.6320575621
 11
39.5130230536
 21
26.6320575621
  0
LINE
  5
39F
100
AcDbEntity
  8
0
100
AcDbLine
 62
7
  6
CONTINUOUS
 10
31.6180230536
 20
26.6320575621
 11
30.3880230536
 21
26.6320575621
  0
LINE
  5
3A0
100
AcDbEntity
  8
0
100
AcDbLine
 62
7
  6
CONTINUOUS
 10
28.3435347657
 20
26.6720575621
 11
29.2635347657
 21
26.6720575621
  0
LINE
  5
3A1
100
AcDbEntity
  8
0
100
AcDbLine
 62
7
  6
CONTINUOUS
 10
38.1280230536
 20
26.6720575621
 11
39.7480230536
 21
26.6720575621
  0
LINE
  5
3A2
100
AcDbEntity
  8
0
100
AcDbLine
 62
7
  6
CONTINUOUS
 10
43.3480230536
 20
26.6770575621
 11
39.8480230536
 21
26.6770575621
  0
LINE
  5
3A3
100
AcDbEntity
  8
0
100
AcDbLine
 62
7
  6
CONTINUOUS
 10
29.2635347657
 20
26.6720575621
 11
29.2635347657
 21
29.0420575621
  0
LINE
  5
3A4
100
AcDbEntity
  8
0
100
AcDbLine
 62
7
  6
CONTINUOUS
 10
29.3164105445
 20
35.4900575621
 11
29.3164105445
 21
35.6700575621
  0
LINE
  5
3A5
100
AcDbEntity
  8
0
100
AcDbLine
 62
7
  6
CONTINUOUS
 10
29.4414068778
 20
35.4900575621
 11
29.4414068778
 21
35.6700575621
  0
LINE
  5
3A6
100
AcDbEntity
  8
0
100
AcDbLine
 62
7
  6
CONTINUOUS
 10
29.5364142112
 20
35.4900575621
 11
29.5364142112
 21
35.4250575621
  0
LINE
  5
3A7
100
AcDbEntity
  8
0
100
AcDbLine
 62
7
  6
CONTINUOUS
 10
29.7562867935
 20
29.0920575621
 11
29.7562867935
 21
29.1296782517
  0
LINE
  5
3A8
100
AcDbEntity
  8
0
100
AcDbLine
 62
7
  6
CONTINUOUS
 10
29.8072352449
 20
29.0920575621
 11
29.8072352449
 21
29.1296782517
  0
LINE
  5
3A9
100
AcDbEntity
  8
0
100
AcDbLine
 62
7
  6
CONTINUOUS
 10
29.8312867935
 20
29.4320575621
 11
29.8312867935
 21
29.1296782517
  0
LINE
  5
3AA
100
AcDbEntity
  8
0
100
AcDbLine
 62
7
  6
CONTINUOUS
 10
29.8822352449
 20
29.4320575621
 11
29.8822352449
 21
29.1296782517
  0
LINE
  5
3AB
100
AcDbEntity
  8
0
100
AcDbLine
 62
7
  6
CONTINUOUS
 10
29.9913247566
 20
30.3520575621
 11
29.9913247566
 21
29.4320575621
  0
LINE
  5
3AC
100
AcDbEntity
  8
0
100
AcDbLine
 62
7
  6
CONTINUOUS
 10
29.991540295
 20
29.0070350444
 11
29.991540295
 21
28.9160739205
  0
LINE
  5
3AD
100
AcDbEntity
  8
0
100
AcDbLine
 62
7
  6
CONTINUOUS
 10
29.991540295
 20
28.7080412036
 11
29.991540295
 21
28.6440575621
  0
LINE
  5
3AE
100
AcDbEntity
  8
0
100
AcDbLine
 62
7
  6
CONTINUOUS
 10
30.0122352449
 20
29.4320575621
 11
30.0122352449
 21
29.1296782517
  0
LINE
  5
3AF
100
AcDbEntity
  8
0
100
AcDbLine
 62
7
  6
CONTINUOUS
 10
30.2237874256
 20
30.3520575621
 11
30.2237874256
 21
29.1296782517
  0
LINE
  5
3B0
100
AcDbEntity
  8
0
100
AcDbLine
 62
7
  6
CONTINUOUS
 10
38.1280230536
 20
26.7220575621
 11
39.7480230536
 21
26.7220575621
  0
LINE
  5
3B1
100
AcDbEntity
  8
0
100
AcDbLine
 62
7
  6
CONTINUOUS
 10
43.3480230536
 20
26.7395575621
 11
39.8480230536
 21
26.7395575621
  0
LINE
  5
3B2
100
AcDbEntity
  8
0
100
AcDbLine
 62
7
  6
CONTINUOUS
 10
30.6435230536
 20
27.1740575621
 11
30.8625230536
 21
27.1740575621
  0
LINE
  5
3B3
100
AcDbEntity
  8
0
100
AcDbLine
 62
7
  6
CONTINUOUS
 10
31.1435230536
 20
27.1740575621
 11
31.3625230536
 21
27.1740575621
  0
LINE
  5
3B4
100
AcDbEntity
  8
0
100
AcDbLine
 62
7
  6
CONTINUOUS
 10
39.7685230536
 20
27.1740575621
 11
39.9875230536
 21
27.1740575621
  0
LINE
  5
3B5
100
AcDbEntity
  8
0
100
AcDbLine
 62
7
  6
CONTINUOUS
 10
40.7685230536
 20
27.1740575621
 11
40.9875230536
 21
27.1740575621
  0
LINE
  5
3B6
100
AcDbEntity
  8
0
100
AcDbLine
 62
7
  6
CONTINUOUS
 10
40.9675190322
 20
27.3170575621
 11
40.7885270751
 21
27.3170575621
  0
LINE
  5
3B7
100
AcDbEntity
  8
0
100
AcDbLine
 62
7
  6
CONTINUOUS
 10
39.9675190322
 20
27.3170575621
 11
39.7885270751
 21
27.3170575621
  0
LINE
  5
3B8
100
AcDbEntity
  8
0
100
AcDbLine
 62
7
  6
CONTINUOUS
 10
31.3425190322
 20
27.3170575621
 11
31.1635270751
 21
27.3170575621
  0
LINE
  5
3B9
100
AcDbEntity
  8
0
100
AcDbLine
 62
7
  6
CONTINUOUS
 10
30.8425190322
 20
27.3170575621
 11
30.6635270751
 21
27.3170575621
  0
LINE
  5
3BA
100
AcDbEntity
  8
0
100
AcDbLine
 62
7
  6
CONTINUOUS
 10
49.4980230536
 20
27.6720575621
 11
49.5630230536
 21
27.6720575621
  0
LINE
  5
3BB
100
AcDbEntity
  8
0
100
AcDbLine
 62
7
  6
CONTINUOUS
 10
30.8425230536
 20
27.3170575621
 11
30.8625230536
 21
27.1740575621
  0
LINE
  5
3BC
100
AcDbEntity
  8
0
100
AcDbLine
 62
7
  6
CONTINUOUS
 10
30.2615439214
 20
30.3520575621
 11
30.2615439214
 21
29.0920575621
  0
LINE
  5
3BD
100
AcDbEntity
  8
0
100
AcDbLine
 62
7
  6
CONTINUOUS
 10
30.3880230536
 20
26.6320575621
 11
30.3880230536
 21
26.6070575621
  0
LINE
  5
3BE
100
AcDbEntity
  8
0
100
AcDbLine
 62
7
  6
CONTINUOUS
 10
30.4930230536
 20
26.5170575621
 11
30.4930230536
 21
26.5670575621
  0
LINE
  5
3BF
100
AcDbEntity
  8
0
100
AcDbLine
 62
7
  6
CONTINUOUS
 10
30.5655230536
 20
26.3273462372
 11
30.5655230536
 21
26.4951575621
  0
LINE
  5
3C0
100
AcDbEntity
  8
0
100
AcDbLine
 62
7
  6
CONTINUOUS
 10
30.6435230536
 20
26.6320575621
 11
30.6435230536
 21
27.1740575621
  0
LINE
  5
3C1
100
AcDbEntity
  8
0
100
AcDbLine
 62
7
  6
CONTINUOUS
 10
30.7530230536
 20
26.3440930617
 11
30.7530230536
 21
26.4951575621
  0
LINE
  5
3C2
100
AcDbEntity
  8
0
100
AcDbLine
 62
7
  6
CONTINUOUS
 10
30.8625230536
 20
26.6320575621
 11
30.8625230536
 21
27.1740575621
  0
LINE
  5
3C3
100
AcDbEntity
  8
0
100
AcDbLine
 62
7
  6
CONTINUOUS
 10
30.9405230536
 20
26.3273462372
 11
30.9405230536
 21
26.4951575621
  0
LINE
  5
3C4
100
AcDbEntity
  8
0
100
AcDbLine
 62
7
  6
CONTINUOUS
 10
31.0130230536
 20
26.5170575621
 11
31.0130230536
 21
26.5670575621
  0
LINE
  5
3C5
100
AcDbEntity
  8
0
100
AcDbLine
 62
7
  6
CONTINUOUS
 10
31.0655230536
 20
26.3273462372
 11
31.0655230536
 21
26.4951575621
  0
LINE
  5
3C6
100
AcDbEntity
  8
0
100
AcDbLine
 62
7
  6
CONTINUOUS
 10
31.1180230536
 20
26.6320575621
 11
31.1180230536
 21
26.5670575621
  0
LINE
  5
3C7
100
AcDbEntity
  8
0
100
AcDbLine
 62
7
  6
CONTINUOUS
 10
31.1435230536
 20
26.6320575621
 11
31.1435230536
 21
27.1740575621
  0
LINE
  5
3C8
100
AcDbEntity
  8
0
100
AcDbLine
 62
7
  6
CONTINUOUS
 10
31.2530230536
 20
26.3440930617
 11
31.2530230536
 21
26.4951575621
  0
LINE
  5
3C9
100
AcDbEntity
  8
0
100
AcDbLine
 62
7
  6
CONTINUOUS
 10
29.991540295
 20
28.6440575621
 11
30.0492459086
 21
28.6440575621
  0
LINE
  5
3CA
100
AcDbEntity
  8
0
100
AcDbLine
 62
7
  6
CONTINUOUS
 10
30.2193001986
 20
28.6440575621
 11
38.2645058122
 21
28.6440575621
  0
LINE
  5
3CB
100
AcDbEntity
  8
0
100
AcDbLine
 62
7
  6
CONTINUOUS
 10
30.3942730536
 20
28.7170575621
 11
30.2812695187
 21
28.7170575621
  0
LINE
  5
3CC
100
AcDbEntity
  8
0
100
AcDbLine
 62
7
  6
CONTINUOUS
 10
41.6455230536
 20
28.7170575621
 11
42.1655230536
 21
28.7170575621
  0
LINE
  5
3CD
100
AcDbEntity
  8
0
100
AcDbLine
 62
7
  6
CONTINUOUS
 10
31.3425230536
 20
27.3170575621
 11
31.3625230536
 21
27.1740575621
  0
LINE
  5
3CE
100
AcDbEntity
  8
0
100
AcDbLine
 62
7
  6
CONTINUOUS
 10
31.3625230536
 20
26.6320575621
 11
31.3625230536
 21
27.1740575621
  0
LINE
  5
3CF
100
AcDbEntity
  8
0
100
AcDbLine
 62
7
  6
CONTINUOUS
 10
31.4405230536
 20
26.3273462372
 11
31.4405230536
 21
26.4951575621
  0
LINE
  5
3D0
100
AcDbEntity
  8
0
100
AcDbLine
 62
7
  6
CONTINUOUS
 10
31.4923233753
 20
29.0920575621
 11
31.4923233753
 21
29.1296782517
  0
LINE
  5
3D1
100
AcDbEntity
  8
0
100
AcDbLine
 62
7
  6
CONTINUOUS
 10
31.5130230536
 20
26.5170575621
 11
31.5130230536
 21
26.5670575621
  0
LINE
  5
3D2
100
AcDbEntity
  8
0
100
AcDbLine
 62
7
  6
CONTINUOUS
 10
31.5673233753
 20
29.4320575621
 11
31.5673233753
 21
29.1296782517
  0
LINE
  5
3D3
100
AcDbEntity
  8
0
100
AcDbLine
 62
7
  6
CONTINUOUS
 10
31.5949438276
 20
30.3520575621
 11
31.5949438276
 21
29.4320575621
  0
LINE
  5
3D4
100
AcDbEntity
  8
0
100
AcDbLine
 62
7
  6
CONTINUOUS
 10
31.6180230536
 20
26.6320575621
 11
31.6180230536
 21
26.5670575621
  0
LINE
  5
3D5
100
AcDbEntity
  8
0
100
AcDbLine
 62
7
  6
CONTINUOUS
 10
31.6973233753
 20
29.4320575621
 11
31.6973233753
 21
29.1296782517
  0
LINE
  5
3D6
100
AcDbEntity
  8
0
100
AcDbLine
 62
7
  6
CONTINUOUS
 10
30.6635230536
 20
27.3170575621
 11
30.6435230536
 21
27.1740575621
  0
LINE
  5
3D7
100
AcDbEntity
  8
0
100
AcDbLine
 62
7
  6
CONTINUOUS
 10
31.1635230536
 20
27.3170575621
 11
31.1435230536
 21
27.1740575621
  0
LINE
  5
3D8
100
AcDbEntity
  8
0
100
AcDbLine
 62
7
  6
CONTINUOUS
 10
30.3942730536
 20
28.9070575621
 11
30.2812695187
 21
28.9070575621
  0
LINE
  5
3D9
100
AcDbEntity
  8
0
100
AcDbLine
 62
7
  6
CONTINUOUS
 10
41.6455230536
 20
28.9070575621
 11
42.1655230536
 21
28.9070575621
  0
LINE
  5
3DA
100
AcDbEntity
  8
0
100
AcDbLine
 62
7
  6
CONTINUOUS
 10
28.7500920191
 20
29.0420575621
 11
39.5059540881
 21
29.0420575621
  0
LINE
  5
3DB
100
AcDbEntity
  8
0
100
AcDbLine
 62
7
  6
CONTINUOUS
 10
28.7500920191
 20
29.0920575621
 11
39.5059540881
 21
29.0920575621
  0
LINE
  5
3DC
100
AcDbEntity
  8
0
100
AcDbLine
 62
7
  6
CONTINUOUS
 10
28.7809365236
 20
29.1296782517
 11
28.8473054947
 21
29.1296782517
  0
LINE
  5
3DD
100
AcDbEntity
  8
0
100
AcDbLine
 62
7
  6
CONTINUOUS
 10
29.7563059545
 20
29.1296782517
 11
30.2237874256
 21
29.1296782517
  0
LINE
  5
3DE
100
AcDbEntity
  8
0
100
AcDbLine
 62
7
  6
CONTINUOUS
 10
31.4923311478
 20
29.1296782517
 11
33.0915546662
 21
29.1296782517
  0
LINE
  5
3DF
100
AcDbEntity
  8
0
100
AcDbLine
 62
7
  6
CONTINUOUS
 10
34.0458529845
 20
29.1296782517
 11
36.3552176026
 21
29.1296782517
  0
LINE
  5
3E0
100
AcDbEntity
  8
0
100
AcDbLine
 62
7
  6
CONTINUOUS
 10
36.5533020421
 20
29.1296782517
 11
39.4751095836
 21
29.1296782517
  0
LINE
  5
3E1
100
AcDbEntity
  8
0
100
AcDbLine
 62
7
  6
CONTINUOUS
 10
29.8312867935
 20
29.4320575621
 11
30.0122352449
 21
29.4320575621
  0
LINE
  5
3E2
100
AcDbEntity
  8
0
100
AcDbLine
 62
7
  6
CONTINUOUS
 10
31.5673233753
 20
29.4320575621
 11
31.6973233753
 21
29.4320575621
  0
LINE
  5
3E3
100
AcDbEntity
  8
0
100
AcDbLine
 62
7
  6
CONTINUOUS
 10
32.4661042105
 20
29.4320575621
 11
32.5961042105
 21
29.4320575621
  0
LINE
  5
3E4
100
AcDbEntity
  8
0
100
AcDbLine
 62
7
  6
CONTINUOUS
 10
34.2566324085
 20
29.4320575621
 11
34.3866324085
 21
29.4320575621
  0
LINE
  5
3E5
100
AcDbEntity
  8
0
100
AcDbLine
 62
7
  6
CONTINUOUS
 10
35.6599418968
 20
29.4320575621
 11
35.7899418968
 21
29.4320575621
  0
LINE
  5
3E6
100
AcDbEntity
  8
0
100
AcDbLine
 62
7
  6
CONTINUOUS
 10
36.8719892487
 20
29.4320575621
 11
37.0019892487
 21
29.4320575621
  0
LINE
  5
3E7
100
AcDbEntity
  8
0
100
AcDbLine
 62
7
  6
CONTINUOUS
 10
38.2438108623
 20
29.4320575621
 11
38.3738108623
 21
29.4320575621
  0
LINE
  5
3E8
100
AcDbEntity
  8
0
100
AcDbLine
 62
7
  6
CONTINUOUS
 10
39.2307609847
 20
29.4320575621
 11
39.3607609847
 21
29.4320575621
  0
LINE
  5
3E9
100
AcDbEntity
  8
0
100
AcDbLine
 62
7
  6
CONTINUOUS
 10
39.6910230536
 20
26.3270575621
 11
39.6905230536
 21
26.3273462372
  0
LINE
  5
3EA
100
AcDbEntity
  8
0
100
AcDbLine
 62
7
  6
CONTINUOUS
 10
40.6910230536
 20
26.3270575621
 11
40.6905230536
 21
26.3273462372
  0
LINE
  5
3EB
100
AcDbEntity
  8
0
100
AcDbLine
 62
7
  6
CONTINUOUS
 10
32.3911042105
 20
29.0920575621
 11
32.3911042105
 21
29.1296782517
  0
LINE
  5
3EC
100
AcDbEntity
  8
0
100
AcDbLine
 62
7
  6
CONTINUOUS
 10
32.4661042105
 20
29.4320575621
 11
32.4661042105
 21
29.1296782517
  0
LINE
  5
3ED
100
AcDbEntity
  8
0
100
AcDbLine
 62
7
  6
CONTINUOUS
 10
32.5961042105
 20
29.4320575621
 11
32.5961042105
 21
29.1296782517
  0
LINE
  5
3EE
100
AcDbEntity
  8
0
100
AcDbLine
 62
7
  6
CONTINUOUS
 10
33.0915546662
 20
30.3520575621
 11
33.0915546662
 21
29.1296782517
  0
LINE
  5
3EF
100
AcDbEntity
  8
0
100
AcDbLine
 62
7
  6
CONTINUOUS
 10
33.1163578279
 20
30.3520575621
 11
33.1163578279
 21
29.0920575621
  0
LINE
  5
3F0
100
AcDbEntity
  8
0
100
AcDbLine
 62
7
  6
CONTINUOUS
 10
23.2316660072
 20
30.3520575621
 11
45.0243801001
 21
30.3520575621
  0
LINE
  5
3F1
100
AcDbEntity
  8
0
100
AcDbLine
 62
7
  6
CONTINUOUS
 10
34.0458523382
 20
29.1296782517
 11
34.0458523382
 21
29.0920575621
  0
LINE
  5
3F2
100
AcDbEntity
  8
0
100
AcDbLine
 62
7
  6
CONTINUOUS
 10
34.0613988428
 20
30.3520575621
 11
34.0613988428
 21
29.1296782517
  0
LINE
  5
3F3
100
AcDbEntity
  8
0
100
AcDbLine
 62
7
  6
CONTINUOUS
 10
34.1816324085
 20
29.0920575621
 11
34.1816324085
 21
29.1296782517
  0
LINE
  5
3F4
100
AcDbEntity
  8
0
100
AcDbLine
 62
7
  6
CONTINUOUS
 10
34.2566324085
 20
29.4320575621
 11
34.2566324085
 21
29.1296782517
  0
LINE
  5
3F5
100
AcDbEntity
  8
0
100
AcDbLine
 62
7
  6
CONTINUOUS
 10
23.2316660072
 20
30.8580575621
 11
45.0243801001
 21
30.8580575621
  0
LINE
  5
3F6
100
AcDbEntity
  8
0
100
AcDbLine
 62
7
  6
CONTINUOUS
 10
34.3866324085
 20
29.4320575621
 11
34.3866324085
 21
29.1296782517
  0
LINE
  5
3F7
100
AcDbEntity
  8
0
100
AcDbLine
 62
7
  6
CONTINUOUS
 10
35.6599418968
 20
29.4320575621
 11
35.6599418968
 21
29.1296782517
  0
LINE
  5
3F8
100
AcDbEntity
  8
0
100
AcDbLine
 62
7
  6
CONTINUOUS
 10
35.7899418968
 20
29.4320575621
 11
35.7899418968
 21
29.1296782517
  0
LINE
  5
3F9
100
AcDbEntity
  8
0
100
AcDbLine
 62
7
  6
CONTINUOUS
 10
36.3552176026
 20
30.3520575621
 11
36.3552176026
 21
29.1296782517
  0
LINE
  5
3FA
100
AcDbEntity
  8
0
100
AcDbLine
 62
7
  6
CONTINUOUS
 10
36.3575934654
 20
30.3520575621
 11
36.3575934654
 21
29.0920575621
  0
LINE
  5
3FB
100
AcDbEntity
  8
0
100
AcDbLine
 62
7
  6
CONTINUOUS
 10
36.5483519057
 20
30.3520575621
 11
36.5483519057
 21
29.0920575621
  0
LINE
  5
3FC
100
AcDbEntity
  8
0
100
AcDbLine
 62
7
  6
CONTINUOUS
 10
36.5533020421
 20
30.3520575621
 11
36.5533020421
 21
29.1296782517
  0
LINE
  5
3FD
100
AcDbEntity
  8
0
100
AcDbLine
 62
7
  6
CONTINUOUS
 10
36.8719892487
 20
29.4320575621
 11
36.8719892487
 21
29.1296782517
  0
LINE
  5
3FE
100
AcDbEntity
  8
0
100
AcDbLine
 62
7
  6
CONTINUOUS
 10
37.0019892487
 20
29.4320575621
 11
37.0019892487
 21
29.1296782517
  0
LINE
  5
3FF
100
AcDbEntity
  8
0
100
AcDbLine
 62
7
  6
CONTINUOUS
 10
37.0769892487
 20
29.0920575621
 11
37.0769892487
 21
29.1296782517
  0
LINE
  5
400
100
AcDbEntity
  8
0
100
AcDbLine
 62
7
  6
CONTINUOUS
 10
38.1280230536
 20
26.6720575621
 11
38.1280230536
 21
26.7220575621
  0
LINE
  5
401
100
AcDbEntity
  8
0
100
AcDbLine
 62
7
  6
CONTINUOUS
 10
38.2438108623
 20
29.4320575621
 11
38.2438108623
 21
29.1296782517
  0
LINE
  5
402
100
AcDbEntity
  8
0
100
AcDbLine
 62
7
  6
CONTINUOUS
 10
38.2645058122
 20
29.0070350444
 11
38.2645058122
 21
28.6440575621
  0
LINE
  5
403
100
AcDbEntity
  8
0
100
AcDbLine
 62
7
  6
CONTINUOUS
 10
38.3738108623
 20
29.4320575621
 11
38.3738108623
 21
29.1296782517
  0
LINE
  5
404
100
AcDbEntity
  8
0
100
AcDbLine
 62
7
  6
CONTINUOUS
 10
38.4488108623
 20
29.0920575621
 11
38.4488108623
 21
29.1296782517
  0
LINE
  5
405
100
AcDbEntity
  8
0
100
AcDbLine
 62
7
  6
CONTINUOUS
 10
41.7037586377
 20
35.2920575621
 11
41.0787586377
 21
35.2920575621
  0
LINE
  5
406
100
AcDbEntity
  8
0
100
AcDbLine
 62
7
  6
CONTINUOUS
 10
26.437746469
 20
35.2920575621
 11
25.812746469
 21
35.2920575621
  0
LINE
  5
407
100
AcDbEntity
  8
0
100
AcDbLine
 62
7
  6
CONTINUOUS
 10
41.7037586377
 20
35.3570575621
 11
41.0787586377
 21
35.3570575621
  0
LINE
  5
408
100
AcDbEntity
  8
0
100
AcDbLine
 62
7
  6
CONTINUOUS
 10
26.437746469
 20
35.3570575621
 11
25.812746469
 21
35.3570575621
  0
LINE
  5
409
100
AcDbEntity
  8
0
100
AcDbLine
 62
3
  6
CONTINUOUS
 10
25.8780665676
 20
35.4250575621
 11
42.3779795396
 21
35.4250575621
  0
LINE
  5
40A
100
AcDbEntity
  8
0
100
AcDbLine
 62
7
  6
CONTINUOUS
 10
42.0363439449
 20
35.4900575621
 11
41.3463492486
 21
35.4900575621
  0
LINE
  5
40B
100
AcDbEntity
  8
0
100
AcDbLine
 62
7
  6
CONTINUOUS
 10
29.5364142112
 20
35.4900575621
 11
28.8464142112
 21
35.4900575621
  0
LINE
  5
40C
100
AcDbEntity
  8
0
100
AcDbLine
 62
7
  6
CONTINUOUS
 10
28.9414215447
 20
35.6700575621
 11
29.4414068778
 21
35.6700575621
  0
LINE
  5
40D
100
AcDbEntity
  8
0
100
AcDbLine
 62
7
  6
CONTINUOUS
 10
41.4413539302
 20
35.6700575621
 11
41.9413392633
 21
35.6700575621
  0
LINE
  5
40E
100
AcDbEntity
  8
0
100
AcDbLine
 62
7
  6
CONTINUOUS
 10
38.7681679209
 20
30.3520575621
 11
38.7681679209
 21
29.1296782517
  0
LINE
  5
40F
100
AcDbEntity
  8
0
100
AcDbLine
 62
7
  6
CONTINUOUS
 10
38.7876693758
 20
29.1296782517
 11
38.7876693758
 21
29.0920575621
  0
LINE
  5
410
100
AcDbEntity
  8
0
100
AcDbLine
 62
7
  6
CONTINUOUS
 10
39.2307609847
 20
29.4320575621
 11
39.2307609847
 21
29.1296782517
  0
LINE
  5
411
100
AcDbEntity
  8
0
100
AcDbLine
 62
7
  6
CONTINUOUS
 10
39.3607609847
 20
29.4320575621
 11
39.3607609847
 21
29.1296782517
  0
LINE
  5
412
100
AcDbEntity
  8
0
100
AcDbLine
 62
7
  6
CONTINUOUS
 10
39.4087406125
 20
30.3520575621
 11
39.4087406125
 21
29.1296782517
  0
LINE
  5
413
100
AcDbEntity
  8
0
100
AcDbLine
 62
7
  6
CONTINUOUS
 10
39.4357609847
 20
29.0920575621
 11
39.4357609847
 21
29.1296782517
  0
LINE
  5
414
100
AcDbEntity
  8
0
100
AcDbLine
 62
7
  6
CONTINUOUS
 10
39.4751165942
 20
29.1296782517
 11
39.4751165942
 21
29.0920575621
  0
LINE
  5
415
100
AcDbEntity
  8
0
100
AcDbLine
 62
7
  6
CONTINUOUS
 10
39.9675230536
 20
27.3170575621
 11
39.9875230536
 21
27.1740575621
  0
LINE
  5
416
100
AcDbEntity
  8
0
100
AcDbLine
 62
7
  6
CONTINUOUS
 10
39.5059540881
 20
29.0920575621
 11
39.5059540881
 21
29.0420575621
  0
LINE
  5
417
100
AcDbEntity
  8
0
100
AcDbLine
 62
7
  6
CONTINUOUS
 10
39.5130230536
 20
26.6320575621
 11
39.5130230536
 21
26.5670575621
  0
LINE
  5
418
100
AcDbEntity
  8
0
100
AcDbLine
 62
7
  6
CONTINUOUS
 10
39.6180230536
 20
26.5170575621
 11
39.6180230536
 21
26.5670575621
  0
LINE
  5
419
100
AcDbEntity
  8
0
100
AcDbLine
 62
7
  6
CONTINUOUS
 10
39.6905230536
 20
26.3273462372
 11
39.6905230536
 21
26.4951575621
  0
LINE
  5
41A
100
AcDbEntity
  8
0
100
AcDbLine
 62
7
  6
CONTINUOUS
 10
39.7480230536
 20
26.6720575621
 11
39.7480230536
 21
26.7220575621
  0
LINE
  5
41B
100
AcDbEntity
  8
0
100
AcDbLine
 62
7
  6
CONTINUOUS
 10
39.7685230536
 20
26.6320575621
 11
39.7685230536
 21
27.1740575621
  0
LINE
  5
41C
100
AcDbEntity
  8
0
100
AcDbLine
 62
7
  6
CONTINUOUS
 10
39.8480230536
 20
26.7395575621
 11
39.8480230536
 21
26.6770575621
  0
LINE
  5
41D
100
AcDbEntity
  8
0
100
AcDbLine
 62
7
  6
CONTINUOUS
 10
39.8780230536
 20
26.3440930617
 11
39.8780230536
 21
26.4951575621
  0
LINE
  5
41E
100
AcDbEntity
  8
0
100
AcDbLine
 62
7
  6
CONTINUOUS
 10
39.9875230536
 20
26.6320575621
 11
39.9875230536
 21
26.6770575621
  0
LINE
  5
41F
100
AcDbEntity
  8
0
100
AcDbLine
 62
7
  6
CONTINUOUS
 10
39.9875230536
 20
26.7395575621
 11
39.9875230536
 21
27.1740575621
  0
LINE
  5
420
100
AcDbEntity
  8
0
100
AcDbLine
 62
7
  6
CONTINUOUS
 10
40.0655230536
 20
26.3273462372
 11
40.0655230536
 21
26.4951575621
  0
LINE
  5
421
100
AcDbEntity
  8
0
100
AcDbLine
 62
7
  6
CONTINUOUS
 10
40.1380230536
 20
26.5170575621
 11
40.1380230536
 21
26.5670575621
  0
LINE
  5
422
100
AcDbEntity
  8
0
100
AcDbLine
 62
7
  6
CONTINUOUS
 10
40.2430230536
 20
26.6320575621
 11
40.2430230536
 21
26.5670575621
  0
LINE
  5
423
100
AcDbEntity
  8
0
100
AcDbLine
 62
7
  6
CONTINUOUS
 10
40.5130230536
 20
26.6320575621
 11
40.5130230536
 21
26.5670575621
  0
LINE
  5
424
100
AcDbEntity
  8
0
100
AcDbLine
 62
7
  6
CONTINUOUS
 10
30.9400230536
 20
26.3270575621
 11
30.9405230536
 21
26.3273462372
  0
LINE
  5
425
100
AcDbEntity
  8
0
100
AcDbLine
 62
7
  6
CONTINUOUS
 10
31.4400230536
 20
26.3270575621
 11
31.4405230536
 21
26.3273462372
  0
LINE
  5
426
100
AcDbEntity
  8
0
100
AcDbLine
 62
7
  6
CONTINUOUS
 10
40.9675230536
 20
27.3170575621
 11
40.9875230536
 21
27.1740575621
  0
LINE
  5
427
100
AcDbEntity
  8
0
100
AcDbLine
 62
7
  6
CONTINUOUS
 10
40.6180230536
 20
26.5170575621
 11
40.6180230536
 21
26.5670575621
  0
LINE
  5
428
100
AcDbEntity
  8
0
100
AcDbLine
 62
7
  6
CONTINUOUS
 10
40.6905230536
 20
26.3273462372
 11
40.6905230536
 21
26.4951575621
  0
LINE
  5
429
100
AcDbEntity
  8
0
100
AcDbLine
 62
7
  6
CONTINUOUS
 10
40.7685230536
 20
26.6320575621
 11
40.7685230536
 21
26.6770575621
  0
LINE
  5
42A
100
AcDbEntity
  8
0
100
AcDbLine
 62
7
  6
CONTINUOUS
 10
40.7685230536
 20
26.7395575621
 11
40.7685230536
 21
27.1740575621
  0
LINE
  5
42B
100
AcDbEntity
  8
0
100
AcDbLine
 62
7
  6
CONTINUOUS
 10
40.8780230536
 20
26.3440930617
 11
40.8780230536
 21
26.4951575621
  0
LINE
  5
42C
100
AcDbEntity
  8
0
100
AcDbLine
 62
7
  6
CONTINUOUS
 10
40.9875230536
 20
26.6320575621
 11
40.9875230536
 21
26.6770575621
  0
LINE
  5
42D
100
AcDbEntity
  8
0
100
AcDbLine
 62
7
  6
CONTINUOUS
 10
40.9875230536
 20
26.7395575621
 11
40.9875230536
 21
27.1740575621
  0
LINE
  5
42E
100
AcDbEntity
  8
0
100
AcDbLine
 62
7
  6
CONTINUOUS
 10
41.0655230536
 20
26.3273462372
 11
41.0655230536
 21
26.4951575621
  0
LINE
  5
42F
100
AcDbEntity
  8
0
100
AcDbLine
 62
7
  6
CONTINUOUS
 10
41.1380230536
 20
26.5170575621
 11
41.1380230536
 21
26.5670575621
  0
LINE
  5
430
100
AcDbEntity
  8
0
100
AcDbLine
 62
7
  6
CONTINUOUS
 10
41.2430230536
 20
26.6320575621
 11
41.2430230536
 21
26.5670575621
  0
LINE
  5
431
100
AcDbEntity
  8
0
100
AcDbLine
 62
7
  6
CONTINUOUS
 10
41.3463465968
 20
35.4900575621
 11
41.3463465968
 21
35.4250575621
  0
LINE
  5
432
100
AcDbEntity
  8
0
100
AcDbLine
 62
7
  6
CONTINUOUS
 10
41.4413539302
 20
35.4900575621
 11
41.4413539302
 21
35.6700575621
  0
LINE
  5
433
100
AcDbEntity
  8
0
100
AcDbLine
 62
7
  6
CONTINUOUS
 10
39.7885230536
 20
27.3170575621
 11
39.7685230536
 21
27.1740575621
  0
LINE
  5
434
100
AcDbEntity
  8
0
100
AcDbLine
 62
3
  6
CONTINUOUS
 10
40.9081767432
 20
35.7540474904
 11
39.0180683193
 21
40.9470777054
  0
LINE
  5
435
100
AcDbEntity
  8
0
100
AcDbLine
 62
7
  6
CONTINUOUS
 10
41.5663502635
 20
35.4900575621
 11
41.5663502635
 21
35.6700575621
  0
LINE
  5
436
100
AcDbEntity
  8
0
100
AcDbLine
 62
7
  6
CONTINUOUS
 10
41.6455230536
 20
26.4170575621
 11
41.6455230536
 21
26.6070575621
  0
LINE
  5
437
100
AcDbEntity
  8
0
100
AcDbLine
 62
7
  6
CONTINUOUS
 10
41.6455230536
 20
28.7170575621
 11
41.6455230536
 21
28.9070575621
  0
LINE
  5
438
100
AcDbEntity
  8
0
100
AcDbLine
 62
7
  6
CONTINUOUS
 10
41.7037586377
 20
35.3570575621
 11
41.7037586377
 21
35.2920575621
  0
LINE
  5
439
100
AcDbEntity
  8
0
100
AcDbLine
 62
7
  6
CONTINUOUS
 10
41.81634293
 20
35.4900575621
 11
41.81634293
 21
35.6700575621
  0
LINE
  5
43A
100
AcDbEntity
  8
0
100
AcDbLine
 62
7
  6
CONTINUOUS
 10
41.9413392633
 20
35.4900575621
 11
41.9413392633
 21
35.6700575621
  0
LINE
  5
43B
100
AcDbEntity
  8
0
100
AcDbLine
 62
7
  6
CONTINUOUS
 10
42.0363465968
 20
35.4900575621
 11
42.0363465968
 21
35.4250575621
  0
LINE
  5
43C
100
AcDbEntity
  8
0
100
AcDbLine
 62
7
  6
CONTINUOUS
 10
42.1655230536
 20
26.3170575621
 11
42.1655230536
 21
26.6770575621
  0
LINE
  5
43D
100
AcDbEntity
  8
0
100
AcDbLine
 62
7
  6
CONTINUOUS
 10
42.1655230536
 20
28.6170575621
 11
42.1655230536
 21
29.0070575621
  0
LINE
  5
43E
100
AcDbEntity
  8
0
100
AcDbLine
 62
7
  6
CONTINUOUS
 10
40.7885230536
 20
27.3170575621
 11
40.7685230536
 21
27.1740575621
  0
LINE
  5
43F
100
AcDbEntity
  8
0
100
AcDbLine
 62
7
  6
CONTINUOUS
 10
43.3480230536
 20
26.7395575621
 11
43.3480230536
 21
26.6770575621
  0
LINE
  5
440
100
AcDbEntity
  8
0
100
AcDbLine
 62
3
  6
CONTINUOUS
 10
44.7404826517
 20
30.8580575621
 11
43.3177156744
 21
34.7670777054
  0
LINE
  5
441
100
AcDbEntity
  8
0
100
AcDbLine
 62
7
  6
CONTINUOUS
 10
40.0650230536
 20
26.3270575621
 11
40.0655230536
 21
26.3273462372
  0
LINE
  5
442
100
AcDbEntity
  8
0
100
AcDbLine
 62
3
  6
CONTINUOUS
 10
30.177679182
 20
41.6050575621
 11
38.0783669252
 21
41.6050575621
  0
LINE
  5
443
100
AcDbEntity
  8
0
100
AcDbLine
 62
7
  6
CONTINUOUS
 10
41.0650230536
 20
26.3270575621
 11
41.0655230536
 21
26.3273462372
  0
LINE
  5
444
100
AcDbEntity
  8
0
100
AcDbLine
 62
7
  6
CONTINUOUS
 10
49.4980230536
 20
27.6720575621
 11
49.4980230536
 21
25.9220575621
  0
LINE
  5
445
100
AcDbEntity
  8
0
100
AcDbLine
 62
7
  6
CONTINUOUS
 10
49.5630230536
 20
27.6720575621
 11
49.5630230536
 21
25.9220575621
  0
ARC
  5
446
100
AcDbEntity
  8
0
100
AcDbCircle
 62
7
  6
CONTINUOUS
 10
-4.5210471198
 20
9.4577954803
 40
0.3993281503
100
AcDbArc
 50
223.6649142479
 51
228.6576625913
  0
CIRCLE
  5
447
100
AcDbEntity
  8
0
100
AcDbCircle
 62
7
  6
CONTINUOUS
 10
-3.9507990403
 20
3.4817135247
 40
0.365
  0
CIRCLE
  5
448
100
AcDbEntity
  8
0
100
AcDbCircle
 62
7
  6
CONTINUOUS
 10
-3.9507990403
 20
4.4817135247
 40
0.365
  0
ARC
  5
449
100
AcDbEntity
  8
0
100
AcDbCircle
 62
7
  6
CONTINUOUS
 10
-3.9507990403
 20
2.4308206676
 40
0.3066071429
100
AcDbArc
 50
230.5063267891
 51
309.4936732109
  0
CIRCLE
  5
44A
100
AcDbEntity
  8
0
100
AcDbCircle
 62
7
  6
CONTINUOUS
 10
-3.9507990403
 20
3.4817135247
 40
0.26
  0
CIRCLE
  5
44B
100
AcDbEntity
  8
0
100
AcDbCircle
 62
7
  6
CONTINUOUS
 10
-3.9507990403
 20
4.4817135247
 40
0.26
  0
CIRCLE
  5
44C
100
AcDbEntity
  8
0
100
AcDbCircle
 62
7
  6
CONTINUOUS
 10
-3.9507990403
 20
3.4817135247
 40
0.187
  0
CIRCLE
  5
44D
100
AcDbEntity
  8
0
100
AcDbCircle
 62
7
  6
CONTINUOUS
 10
-3.9507990403
 20
4.4817135247
 40
0.187
  0
CIRCLE
  5
44E
100
AcDbEntity
  8
0
100
AcDbCircle
 62
7
  6
CONTINUOUS
 10
-8.8656098741
 20
8.6347946816
 40
0.125
  0
CIRCLE
  5
44F
100
AcDbEntity
  8
0
100
AcDbCircle
 62
7
  6
CONTINUOUS
 10
-7.715222865
 20
7.7360138464
 40
0.125
  0
CIRCLE
  5
450
100
AcDbEntity
  8
0
100
AcDbCircle
 62
7
  6
CONTINUOUS
 10
-6.9883191839
 20
6.0509257161
 40
0.125
  0
CIRCLE
  5
451
100
AcDbEntity
  8
0
100
AcDbCircle
 62
7
  6
CONTINUOUS
 10
-5.5293464234
 20
5.9999772646
 40
0.125
  0
CIRCLE
  5
452
100
AcDbEntity
  8
0
100
AcDbCircle
 62
7
  6
CONTINUOUS
 10
-3.9507990403
 20
5.0639755937
 40
0.125
  0
CIRCLE
  5
453
100
AcDbEntity
  8
0
100
AcDbCircle
 62
7
  6
CONTINUOUS
 10
-3.9507990403
 20
7.4317135247
 40
0.07
  0
CIRCLE
  5
454
100
AcDbEntity
  8
0
100
AcDbCircle
 62
7
  6
CONTINUOUS
 10
-6.6137572859
 20
9.3664659405
 40
0.07
  0
CIRCLE
  5
455
100
AcDbEntity
  8
0
100
AcDbCircle
 62
7
  6
CONTINUOUS
 10
-6.6137572859
 20
9.3664659405
 40
0.065
  0
CIRCLE
  5
456
100
AcDbEntity
  8
0
100
AcDbCircle
 62
7
  6
CONTINUOUS
 10
-3.9507990403
 20
7.4317135247
 40
0.065
  0
ARC
  5
457
100
AcDbEntity
  8
0
100
AcDbCircle
 62
7
  6
CONTINUOUS
 10
-12.4037913571
 20
9.4921725241
 40
0.625
100
AcDbArc
 50
78.9166828378
 51
180.0
  0
ARC
  5
458
100
AcDbEntity
  8
PARTDTMS
100
AcDbCircle
 62
7
  6
CONTINUOUS
 10
-12.4037913571
 20
9.4921725241
 40
0.28
100
AcDbArc
 50
63.5886160172
 51
310.0917073536
  0
CIRCLE
  5
459
100
AcDbEntity
  8
0
100
AcDbCircle
 62
7
  6
CONTINUOUS
 10
-12.4037913571
 20
9.4921725241
 40
0.2655
  0
CIRCLE
  5
45A
100
AcDbEntity
  8
0
100
AcDbCircle
 62
7
  6
CONTINUOUS
 10
-12.4037913571
 20
9.4921725241
 40
0.218
  0
CIRCLE
  5
45B
100
AcDbEntity
  8
0
100
AcDbCircle
 62
7
  6
CONTINUOUS
 10
-8.4632173536
 20
10.4253228797
 40
0.125
  0
CIRCLE
  5
45C
100
AcDbEntity
  8
0
100
AcDbCircle
 62
7
  6
CONTINUOUS
 10
-8.8656098741
 20
11.8286323679
 40
0.125
  0
CIRCLE
  5
45D
100
AcDbEntity
  8
0
100
AcDbCircle
 62
7
  6
CONTINUOUS
 10
-9.7964705158
 20
13.6067135247
 40
0.365
  0
CIRCLE
  5
45E
100
AcDbEntity
  8
0
100
AcDbCircle
 62
7
  6
CONTINUOUS
 10
-8.930445112
 20
13.1067135247
 40
0.365
  0
ARC
  5
45F
100
AcDbEntity
  8
0
100
AcDbCircle
 62
7
  6
CONTINUOUS
 10
-10.6632691566
 20
14.1071599533
 40
0.3066071429
100
AcDbArc
 50
110.5063267891
 51
189.4936732109
  0
CIRCLE
  5
460
100
AcDbEntity
  8
0
100
AcDbCircle
 62
7
  6
CONTINUOUS
 10
-9.7964705158
 20
13.6067135247
 40
0.26
  0
CIRCLE
  5
461
100
AcDbEntity
  8
0
100
AcDbCircle
 62
7
  6
CONTINUOUS
 10
-8.930445112
 20
13.1067135247
 40
0.26
  0
CIRCLE
  5
462
100
AcDbEntity
  8
0
100
AcDbCircle
 62
7
  6
CONTINUOUS
 10
-9.7964705158
 20
13.6067135247
 40
0.187
  0
CIRCLE
  5
463
100
AcDbEntity
  8
0
100
AcDbCircle
 62
7
  6
CONTINUOUS
 10
-8.930445112
 20
13.1067135247
 40
0.187
  0
CIRCLE
  5
464
100
AcDbEntity
  8
0
100
AcDbCircle
 62
7
  6
CONTINUOUS
 10
-11.1676383679
 20
12.8584282255
 40
0.135
  0
CIRCLE
  5
465
100
AcDbEntity
  8
0
100
AcDbCircle
 62
7
  6
CONTINUOUS
 10
-11.1676383679
 20
12.8584282255
 40
0.125
  0
CIRCLE
  5
466
100
AcDbEntity
  8
0
100
AcDbCircle
 62
7
  6
CONTINUOUS
 10
-4.9507990403
 20
10.2317135247
 40
0.2655
  0
CIRCLE
  5
467
100
AcDbEntity
  8
0
100
AcDbCircle
 62
7
  6
CONTINUOUS
 10
-4.9507990403
 20
10.2317135247
 40
0.218
  0
CIRCLE
  5
468
100
AcDbEntity
  8
0
100
AcDbCircle
 62
7
  6
CONTINUOUS
 10
-5.5965977467
 20
12.496961109
 40
0.07
  0
CIRCLE
  5
469
100
AcDbEntity
  8
0
100
AcDbCircle
 62
7
  6
CONTINUOUS
 10
-5.5965977467
 20
12.496961109
 40
0.065
  0
ARC
  5
46A
100
AcDbEntity
  8
0
100
AcDbCircle
 62
7
  6
CONTINUOUS
 10
-3.9507990403
 20
10.2317135247
 40
11.1597378441
100
AcDbArc
 50
308.2901565415
 51
308.9368652212
  0
ARC
  5
46B
100
AcDbEntity
  8
0
100
AcDbCircle
 62
7
  6
CONTINUOUS
 10
-3.9507990403
 20
10.2317135247
 40
11.1597378441
100
AcDbArc
 50
328.4898528142
 51
304.2252506366
  0
ARC
  5
46C
100
AcDbEntity
  8
0
100
AcDbCircle
 62
7
  6
CONTINUOUS
 10
-3.9507990403
 20
10.2317135247
 40
8.349
100
AcDbArc
 50
306.5108306377
 51
324.105468659
  0
ARC
  5
46D
100
AcDbEntity
  8
0
100
AcDbCircle
 62
7
  6
CONTINUOUS
 10
-3.9507990403
 20
10.2317135247
 40
8.349
100
AcDbArc
 50
186.4510891981
 51
303.5203311523
  0
ARC
  5
46E
100
AcDbEntity
  8
0
100
AcDbCircle
 62
7
  6
CONTINUOUS
 10
-3.9507990403
 20
10.2317135247
 40
8.349
100
AcDbArc
 50
66.4880421847
 51
183.4850824871
  0
ARC
  5
46F
100
AcDbEntity
  8
0
100
AcDbCircle
 62
7
  6
CONTINUOUS
 10
-3.9507990403
 20
10.2317135247
 40
8.349
100
AcDbArc
 50
331.3393967463
 51
63.544100159
  0
CIRCLE
  5
470
100
AcDbEntity
  8
0
100
AcDbCircle
 62
7
  6
CONTINUOUS
 10
-3.9507990403
 20
10.2317135247
 40
5.3779310345
  0
CIRCLE
  5
471
100
AcDbEntity
  8
0
100
AcDbCircle
 62
7
  6
CONTINUOUS
 10
-3.9507990403
 20
10.2317135247
 40
4.1364827586
  0
CIRCLE
  5
472
100
AcDbEntity
  8
0
100
AcDbCircle
 62
7
  6
CONTINUOUS
 10
-3.9507990403
 20
10.2317135247
 40
4.0464827586
  0
ARC
  5
473
100
AcDbEntity
  8
0
100
AcDbCircle
 62
7
  6
CONTINUOUS
 10
-3.9507990403
 20
10.2317135247
 40
1.25
100
AcDbArc
 50
184.7539852488
 51
229.8964730224
  0
ARC
  5
474
100
AcDbEntity
  8
0
100
AcDbCircle
 62
7
  6
CONTINUOUS
 10
-3.9507990403
 20
10.2317135247
 40
1.25
100
AcDbArc
 50
250.1235393399
 51
295.1891239858
  0
ARC
  5
475
100
AcDbEntity
  8
0
100
AcDbCircle
 62
7
  6
CONTINUOUS
 10
-3.9507990403
 20
10.2317135247
 40
1.25
100
AcDbArc
 50
304.874742549
 51
55.1335038411
  0
ARC
  5
476
100
AcDbEntity
  8
0
100
AcDbCircle
 62
7
  6
CONTINUOUS
 10
-3.9507990403
 20
10.2317135247
 40
1.25
100
AcDbArc
 50
64.7353544735
 51
175.4991229413
  0
ARC
  5
477
100
AcDbEntity
  8
0
100
AcDbCircle
 62
7
  6
CONTINUOUS
 10
-3.9507990403
 20
10.2317135247
 40
1.2368456474
100
AcDbArc
 50
306.3295727514
 51
53.838642764
  0
ARC
  5
478
100
AcDbEntity
  8
0
100
AcDbCircle
 62
7
  6
CONTINUOUS
 10
-3.9507990403
 20
10.2317135247
 40
1.2368456474
100
AcDbArc
 50
250.2322042645
 51
293.7760638916
  0
ARC
  5
479
100
AcDbEntity
  8
0
100
AcDbCircle
 62
7
  6
CONTINUOUS
 10
-3.9507990403
 20
10.2317135247
 40
1.2368456474
100
AcDbArc
 50
186.1576446527
 51
229.786641295
  0
ARC
  5
47A
100
AcDbEntity
  8
0
100
AcDbCircle
 62
7
  6
CONTINUOUS
 10
-3.9507990403
 20
10.2317135247
 40
1.2368456474
100
AcDbArc
 50
66.1405136236
 51
173.6750871004
  0
ARC
  5
47B
100
AcDbEntity
  8
0
100
AcDbCircle
 62
7
  6
CONTINUOUS
 10
-4.2457990403
 20
9.7207585365
 40
0.78
100
AcDbArc
 50
223.6783348578
 51
256.3216651422
  0
ARC
  5
47C
100
AcDbEntity
  8
0
100
AcDbCircle
 62
7
  6
CONTINUOUS
 10
-3.9507990403
 20
10.2317135247
 40
0.6380912987
100
AcDbArc
 50
263.0661400609
 51
216.9338599391
  0
ARC
  5
47D
100
AcDbEntity
  8
0
100
AcDbCircle
 62
7
  6
CONTINUOUS
 10
-3.9507990403
 20
10.2317135247
 40
0.625
100
AcDbArc
 50
259.7009376039
 51
220.2990623961
  0
CIRCLE
  5
47E
100
AcDbEntity
  8
0
100
AcDbCircle
 62
7
  6
CONTINUOUS
 10
-3.9507990403
 20
10.2317135247
 40
0.25
  0
ARC
  5
47F
100
AcDbEntity
  8
0
100
AcDbCircle
 62
7
  6
CONTINUOUS
 10
-7.6790458766
 20
15.5562018126
 40
0.575
100
AcDbArc
 50
170.0
 51
190.0
  0
ARC
  5
480
100
AcDbEntity
  8
AXIS
100
AcDbCircle
 62
7
  6
CONTINUOUS
 10
-7.6790458766
 20
15.5562018126
 40
0.575
100
AcDbArc
 50
350.0
 51
10.0
  0
ARC
  5
481
100
AcDbEntity
  8
0
100
AcDbCircle
 62
7
  6
CONTINUOUS
 10
-7.6790458766
 20
15.5562018126
 40
0.575
100
AcDbArc
 50
10.019147818
 51
169.980852182
  0
ARC
  5
482
100
AcDbEntity
  8
0
100
AcDbCircle
 62
7
  6
CONTINUOUS
 10
-7.6790458766
 20
15.5562018126
 40
0.575
100
AcDbArc
 50
190.019147818
 51
349.980852182
  0
CIRCLE
  5
483
100
AcDbEntity
  8
AXIS
100
AcDbCircle
 62
7
  6
CONTINUOUS
 10
-7.6790458766
 20
15.5562018126
 40
0.545
  0
CIRCLE
  5
484
100
AcDbEntity
  8
AXIS
100
AcDbCircle
 62
7
  6
CONTINUOUS
 10
-7.6790458766
 20
15.5562018126
 40
0.47
  0
CIRCLE
  5
485
100
AcDbEntity
  8
0
100
AcDbCircle
 62
7
  6
CONTINUOUS
 10
-7.6790458766
 20
15.5562018126
 40
0.46
  0
CIRCLE
  5
486
100
AcDbEntity
  8
0
100
AcDbCircle
 62
7
  6
CONTINUOUS
 10
-7.6790458766
 20
15.5562018126
 40
0.41
  0
CIRCLE
  5
487
100
AcDbEntity
  8
0
100
AcDbCircle
 62
7
  6
CONTINUOUS
 10
-7.4876214179
 20
13.0406797198
 40
0.125
  0
CIRCLE
  5
488
100
AcDbEntity
  8
0
100
AcDbCircle
 62
7
  6
CONTINUOUS
 10
-6.9883191839
 20
14.4125013334
 40
0.125
  0
CIRCLE
  5
489
100
AcDbEntity
  8
0
100
AcDbCircle
 62
7
  6
CONTINUOUS
 10
-5.1610795462
 20
14.5831069468
 40
0.125
  0
CIRCLE
  5
48A
100
AcDbEntity
  8
0
100
AcDbCircle
 62
7
  6
CONTINUOUS
 10
-3.9507990403
 20
15.3994514558
 40
0.125
  0
CIRCLE
  5
48B
100
AcDbEntity
  8
0
100
AcDbCircle
 62
7
  6
CONTINUOUS
 10
-3.9507990403
 20
13.0340135247
 40
0.065
  0
ARC
  5
48C
100
AcDbEntity
  8
0
100
AcDbCircle
 62
7
  6
CONTINUOUS
 10
0.9161584118
 20
3.2809779407
 40
0.625
100
AcDbArc
 50
0.0
 51
51.6587576491
  0
ARC
  5
48D
100
AcDbEntity
  8
PARTDTMS
100
AcDbCircle
 62
7
  6
CONTINUOUS
 10
0.9161584118
 20
3.2809779407
 40
0.28
100
AcDbArc
 50
181.2068382817
 51
67.4676305242
  0
CIRCLE
  5
48E
100
AcDbEntity
  8
0
100
AcDbCircle
 62
7
  6
CONTINUOUS
 10
-3.4507990403
 20
9.365688121
 40
0.2655
  0
CIRCLE
  5
48F
100
AcDbEntity
  8
0
100
AcDbCircle
 62
7
  6
CONTINUOUS
 10
0.9161584118
 20
3.2809779407
 40
0.2655
  0
CIRCLE
  5
490
100
AcDbEntity
  8
0
100
AcDbCircle
 62
7
  6
CONTINUOUS
 10
-3.4507990403
 20
9.365688121
 40
0.218
  0
CIRCLE
  5
491
100
AcDbEntity
  8
0
100
AcDbCircle
 62
7
  6
CONTINUOUS
 10
0.9161584118
 20
3.2809779407
 40
0.218
  0
CIRCLE
  5
492
100
AcDbEntity
  8
0
100
AcDbCircle
 62
7
  6
CONTINUOUS
 10
-2.6171810358
 20
2.6683899816
 40
0.135
  0
CIRCLE
  5
493
100
AcDbEntity
  8
0
100
AcDbCircle
 62
7
  6
CONTINUOUS
 10
0.9640117935
 20
8.6347946816
 40
0.125
  0
CIRCLE
  5
494
100
AcDbEntity
  8
0
100
AcDbCircle
 62
7
  6
CONTINUOUS
 10
-0.4139766626
 20
7.4227473296
 40
0.125
  0
CIRCLE
  5
495
100
AcDbEntity
  8
0
100
AcDbCircle
 62
7
  6
CONTINUOUS
 10
-0.9132788967
 20
6.0509257161
 40
0.125
  0
CIRCLE
  5
496
100
AcDbEntity
  8
0
100
AcDbCircle
 62
7
  6
CONTINUOUS
 10
-2.7405185344
 20
5.8803201027
 40
0.125
  0
CIRCLE
  5
497
100
AcDbEntity
  8
0
100
AcDbCircle
 62
7
  6
CONTINUOUS
 10
-1.2878407947
 20
9.3664659405
 40
0.07
  0
CIRCLE
  5
498
100
AcDbEntity
  8
0
100
AcDbCircle
 62
7
  6
CONTINUOUS
 10
-1.2878407947
 20
9.3664659405
 40
0.065
  0
ARC
  5
499
100
AcDbEntity
  8
0
100
AcDbCircle
 62
7
  6
CONTINUOUS
 10
2.8992009597
 20
1.0617135247
 40
0.05
100
AcDbArc
 50
270.0
 51
360.0
  0
ARC
  5
49A
100
AcDbEntity
  8
0
100
AcDbCircle
 62
7
  6
CONTINUOUS
 10
1.7492009597
 20
1.0617135247
 40
0.05
100
AcDbArc
 50
180.0
 51
270.0
  0
ARC
  5
49B
100
AcDbEntity
  8
0
100
AcDbCircle
 62
7
  6
CONTINUOUS
 10
1.7492009597
 20
2.9617135247
 40
0.05
100
AcDbArc
 50
90.0
 51
180.0
  0
ARC
  5
49C
100
AcDbEntity
  8
0
100
AcDbCircle
 62
7
  6
CONTINUOUS
 10
2.8992009597
 20
2.9617135247
 40
0.05
100
AcDbArc
 50
0.0
 51
90.0
  0
ARC
  5
49D
100
AcDbEntity
  8
0
100
AcDbCircle
 62
7
  6
CONTINUOUS
 10
5.4992009597
 20
4.6617135247
 40
0.05
100
AcDbArc
 50
270.0
 51
360.0
  0
ARC
  5
49E
100
AcDbEntity
  8
0
100
AcDbCircle
 62
7
  6
CONTINUOUS
 10
2.8492009597
 20
4.6617135247
 40
0.05
100
AcDbArc
 50
180.0
 51
270.0
  0
ARC
  5
49F
100
AcDbEntity
  8
0
100
AcDbCircle
 62
7
  6
CONTINUOUS
 10
2.8492009597
 20
6.1817135247
 40
0.05
100
AcDbArc
 50
90.0
 51
180.0
  0
ARC
  5
4A0
100
AcDbEntity
  8
0
100
AcDbCircle
 62
7
  6
CONTINUOUS
 10
5.4992009597
 20
6.1817135247
 40
0.05
100
AcDbArc
 50
0.0
 51
90.0
  0
CIRCLE
  5
4A1
100
AcDbEntity
  8
0
100
AcDbCircle
 62
7
  6
CONTINUOUS
 10
-3.4507990403
 20
11.0977389285
 40
0.2655
  0
CIRCLE
  5
4A2
100
AcDbEntity
  8
0
100
AcDbCircle
 62
7
  6
CONTINUOUS
 10
-3.4507990403
 20
11.0977389285
 40
0.218
  0
CIRCLE
  5
4A3
100
AcDbEntity
  8
0
100
AcDbCircle
 62
7
  6
CONTINUOUS
 10
-2.3050003339
 20
12.496961109
 40
0.07
  0
CIRCLE
  5
4A4
100
AcDbEntity
  8
0
100
AcDbCircle
 62
7
  6
CONTINUOUS
 10
-2.3050003339
 20
12.496961109
 40
0.065
  0
ARC
  5
4A5
100
AcDbEntity
  8
0
100
AcDbCircle
 62
7
  6
CONTINUOUS
 10
-0.3647641755
 20
17.9219901094
 40
0.625
100
AcDbArc
 50
319.5825405381
 51
360.0
  0
ARC
  5
4A6
100
AcDbEntity
  8
PARTDTMS
100
AcDbCircle
 62
7
  6
CONTINUOUS
 10
-0.3647641755
 20
17.9219901094
 40
0.28
100
AcDbArc
 50
300.0330023833
 51
188.1537401189
  0
CIRCLE
  5
4A7
100
AcDbEntity
  8
0
100
AcDbCircle
 62
7
  6
CONTINUOUS
 10
-0.3647641755
 20
17.9219901094
 40
0.2655
  0
CIRCLE
  5
4A8
100
AcDbEntity
  8
0
100
AcDbCircle
 62
7
  6
CONTINUOUS
 10
-0.3647641755
 20
17.9219901094
 40
0.218
  0
CIRCLE
  5
4A9
100
AcDbEntity
  8
0
100
AcDbCircle
 62
7
  6
CONTINUOUS
 10
-2.3722516571
 20
14.4634497849
 40
0.125
  0
CIRCLE
  5
4AA
100
AcDbEntity
  8
0
100
AcDbCircle
 62
7
  6
CONTINUOUS
 10
-0.9132788967
 20
14.4125013334
 40
0.125
  0
CIRCLE
  5
4AB
100
AcDbEntity
  8
0
100
AcDbCircle
 62
7
  6
CONTINUOUS
 10
1.8948724353
 20
13.6067135247
 40
0.365
  0
CIRCLE
  5
4AC
100
AcDbEntity
  8
0
100
AcDbCircle
 62
7
  6
CONTINUOUS
 10
1.0288470315
 20
13.1067135247
 40
0.365
  0
CIRCLE
  5
4AD
100
AcDbEntity
  8
0
100
AcDbCircle
 62
7
  6
CONTINUOUS
 10
1.8948724353
 20
13.6067135247
 40
0.26
  0
CIRCLE
  5
4AE
100
AcDbEntity
  8
0
100
AcDbCircle
 62
7
  6
CONTINUOUS
 10
1.0288470315
 20
13.1067135247
 40
0.26
  0
CIRCLE
  5
4AF
100
AcDbEntity
  8
0
100
AcDbCircle
 62
7
  6
CONTINUOUS
 10
1.8948724353
 20
13.6067135247
 40
0.187
  0
CIRCLE
  5
4B0
100
AcDbEntity
  8
0
100
AcDbCircle
 62
7
  6
CONTINUOUS
 10
1.0288470315
 20
13.1067135247
 40
0.187
  0
CIRCLE
  5
4B1
100
AcDbEntity
  8
0
100
AcDbCircle
 62
7
  6
CONTINUOUS
 10
-0.1863752156
 20
12.7274132031
 40
0.125
  0
CIRCLE
  5
4B2
100
AcDbEntity
  8
0
100
AcDbCircle
 62
7
  6
CONTINUOUS
 10
0.9640117935
 20
11.8286323679
 40
0.125
  0
CIRCLE
  5
4B3
100
AcDbEntity
  8
0
100
AcDbCircle
 62
7
  6
CONTINUOUS
 10
0.561619273
 20
10.0381041698
 40
0.125
  0
ARC
  5
4B4
100
AcDbEntity
  8
0
100
AcDbCircle
 62
7
  6
CONTINUOUS
 10
2.761671076
 20
14.1071599533
 40
0.3066071429
100
AcDbArc
 50
350.5063267891
 51
69.4936732109
  0
CIRCLE
  5
4B5
100
AcDbEntity
  8
0
100
AcDbCircle
 62
7
  6
CONTINUOUS
 10
1.9324222829
 20
15.1683223671
 40
0.135
  0
CIRCLE
  5
4B6
100
AcDbEntity
  8
0
100
AcDbCircle
 62
7
  6
CONTINUOUS
 10
1.9324222829
 20
15.1683223671
 40
0.125
  0
ARC
  5
4B7
100
AcDbEntity
  8
0
100
AcDbCircle
 62
7
  6
CONTINUOUS
 10
-10.6632689682
 20
26.5120576073
 40
0.3066073313
100
AcDbArc
 50
153.0089741008
 51
206.9911690151
  0
ARC
  5
4B8
100
AcDbEntity
  8
0
100
AcDbCircle
 62
7
  6
CONTINUOUS
 10
-10.6632689682
 20
28.8120576073
 40
0.3066073313
100
AcDbArc
 50
153.0089741008
 51
206.9911690151
  0
ARC
  5
4B9
100
AcDbEntity
  8
0
100
AcDbCircle
 62
7
  6
CONTINUOUS
 10
-14.8575368844
 20
30.6050575621
 40
0.253
100
AcDbArc
 50
90.0
 51
270.0
  0
ARC
  5
4BA
100
AcDbEntity
  8
0
100
AcDbCircle
 62
7
  6
CONTINUOUS
 10
-8.4632173536
 20
29.2173700621
 40
0.2153125
100
AcDbArc
 50
234.5106567499
 51
305.4893432501
  0
ARC
  5
4BB
100
AcDbEntity
  8
0
100
AcDbCircle
 62
7
  6
CONTINUOUS
 10
-8.8656098741
 20
29.2173700621
 40
0.2153125
100
AcDbArc
 50
234.5106567499
 51
305.4893432501
  0
ARC
  5
4BC
100
AcDbEntity
  8
0
100
AcDbCircle
 62
7
  6
CONTINUOUS
 10
-6.9883191839
 20
29.2173700621
 40
0.2153125
100
AcDbArc
 50
234.5106567499
 51
305.4893432501
  0
ARC
  5
4BD
100
AcDbEntity
  8
0
100
AcDbCircle
 62
7
  6
CONTINUOUS
 10
-5.1610795462
 20
29.2173700621
 40
0.2153125
100
AcDbArc
 50
234.5106567499
 51
305.4893432501
  0
ARC
  5
4BE
100
AcDbEntity
  8
0
100
AcDbCircle
 62
7
  6
CONTINUOUS
 10
-4.1100938472
 20
26.4253685358
 40
0.0983349365
100
AcDbArc
 50
254.3535594722
 51
255.3245872145
  0
ARC
  5
4BF
100
AcDbEntity
  8
0
100
AcDbCircle
 62
7
  6
CONTINUOUS
 10
-9.089739919
 20
26.4253685358
 40
0.0983349365
100
AcDbArc
 50
254.3535594721
 51
255.3245872148
  0
ARC
  5
4C0
100
AcDbEntity
  8
0
100
AcDbCircle
 62
7
  6
CONTINUOUS
 10
-9.9557653228
 20
26.4253685358
 40
0.0983349365
100
AcDbArc
 50
254.3535594721
 51
255.3245872148
  0
ARC
  5
4C1
100
AcDbEntity
  8
0
100
AcDbCircle
 62
3
  6
CONTINUOUS
 10
-7.9011516852
 20
40.6050575621
 40
1.0
100
AcDbArc
 50
90.0
 51
160.0
  0
ARC
  5
4C2
100
AcDbEntity
  8
0
100
AcDbCircle
 62
3
  6
CONTINUOUS
 10
-12.2007990403
 20
34.4250575621
 40
1.0
100
AcDbArc
 50
90.0
 51
160.0
  0
ARC
  5
4C3
100
AcDbEntity
  8
0
100
AcDbCircle
 62
3
  6
CONTINUOUS
 10
-11.2007990403
 20
35.9250575621
 40
0.5
100
AcDbArc
 50
299.8310233096
 51
340.0
  0
ARC
  5
4C4
100
AcDbEntity
  8
AXIS
100
AcDbCircle
 62
7
  6
CONTINUOUS
 10
-11.1676383679
 20
35.6700575621
 40
0.2
100
AcDbArc
 50
0.0
 51
180.0
  0
ARC
  5
4C5
100
AcDbEntity
  8
0
100
AcDbCircle
 62
7
  6
CONTINUOUS
 10
2.7616708876
 20
28.8120575169
 40
0.3066073313
100
AcDbArc
 50
333.0089741002
 51
26.9911690151
  0
ARC
  5
4C6
100
AcDbEntity
  8
0
100
AcDbCircle
 62
7
  6
CONTINUOUS
 10
2.7616708876
 20
26.5120575169
 40
0.3066073313
100
AcDbArc
 50
333.0089741001
 51
26.9911690151
  0
ARC
  5
4C7
100
AcDbEntity
  8
0
100
AcDbCircle
 62
7
  6
CONTINUOUS
 10
6.9559388039
 20
30.6050575621
 40
0.253
100
AcDbArc
 50
270.0
 51
90.0
  0
ARC
  5
4C8
100
AcDbEntity
  8
0
100
AcDbCircle
 62
7
  6
CONTINUOUS
 10
0.561619273
 20
29.2173700621
 40
0.2153125
100
AcDbArc
 50
234.5106567499
 51
305.4893432501
  0
ARC
  5
4C9
100
AcDbEntity
  8
0
100
AcDbCircle
 62
7
  6
CONTINUOUS
 10
0.9640117935
 20
29.2173700621
 40
0.2153125
100
AcDbArc
 50
234.5106567499
 51
305.4893432501
  0
ARC
  5
4CA
100
AcDbEntity
  8
0
100
AcDbCircle
 62
7
  6
CONTINUOUS
 10
-0.1863752156
 20
29.2173700621
 40
0.2153125
100
AcDbArc
 50
234.5106567499
 51
305.4893432501
  0
ARC
  5
4CB
100
AcDbEntity
  8
0
100
AcDbCircle
 62
7
  6
CONTINUOUS
 10
-0.9132788967
 20
29.2173700621
 40
0.2153125
100
AcDbArc
 50
234.5106567499
 51
305.4893432501
  0
ARC
  5
4CC
100
AcDbEntity
  8
0
100
AcDbCircle
 62
7
  6
CONTINUOUS
 10
-2.3722516571
 20
29.2173700621
 40
0.2153125
100
AcDbArc
 50
234.5106567499
 51
305.4893432501
  0
ARC
  5
4CD
100
AcDbEntity
  8
0
100
AcDbCircle
 62
7
  6
CONTINUOUS
 10
-3.9507990403
 20
29.2173700621
 40
0.2153125
100
AcDbArc
 50
234.5106567499
 51
305.4893432501
  0
ARC
  5
4CE
100
AcDbEntity
  8
0
100
AcDbCircle
 62
7
  6
CONTINUOUS
 10
-3.9507990403
 20
28.8120575621
 40
0.195
100
AcDbArc
 50
239.6975552136
 51
300.3024447864
  0
ARC
  5
4CF
100
AcDbEntity
  8
0
100
AcDbCircle
 62
7
  6
CONTINUOUS
 10
-3.9507990403
 20
26.5120575621
 40
0.195
100
AcDbArc
 50
38.0832769074
 51
55.7784219345
  0
ARC
  5
4D0
100
AcDbEntity
  8
0
100
AcDbCircle
 62
7
  6
CONTINUOUS
 10
-3.9507990403
 20
26.5120575621
 40
0.195
100
AcDbArc
 50
124.2215780655
 51
141.9167230926
  0
ARC
  5
4D1
100
AcDbEntity
  8
0
100
AcDbCircle
 62
7
  6
CONTINUOUS
 10
-3.9507990403
 20
26.5120575621
 40
0.195
100
AcDbArc
 50
251.8709390998
 51
288.1290609002
  0
ARC
  5
4D2
100
AcDbEntity
  8
0
100
AcDbCircle
 62
7
  6
CONTINUOUS
 10
0.8695522245
 20
26.4253685358
 40
0.0983349365
100
AcDbArc
 50
254.3535594721
 51
255.3245872145
  0
ARC
  5
4D3
100
AcDbEntity
  8
0
100
AcDbCircle
 62
7
  6
CONTINUOUS
 10
1.7355776283
 20
26.4253685358
 40
0.0983349365
100
AcDbArc
 50
254.3535594721
 51
255.3245872148
  0
ARC
  5
4D4
100
AcDbEntity
  8
0
100
AcDbCircle
 62
3
  6
CONTINUOUS
 10
4.2992009597
 20
34.4250575621
 40
1.0
100
AcDbArc
 50
20.0
 51
90.0
  0
ARC
  5
4D5
100
AcDbEntity
  8
0
100
AcDbCircle
 62
3
  6
CONTINUOUS
 10
-0.0004463954
 20
40.6050575621
 40
1.0
100
AcDbArc
 50
20.0
 51
90.0
  0
ARC
  5
4D6
100
AcDbEntity
  8
0
100
AcDbCircle
 62
3
  6
CONTINUOUS
 10
3.2992009597
 20
35.9250575621
 40
0.5
100
AcDbArc
 50
200.0
 51
270.0
  0
ARC
  5
4D7
100
AcDbEntity
  8
AXIS
100
AcDbCircle
 62
7
  6
CONTINUOUS
 10
1.9324222829
 20
35.6700575621
 40
0.2
100
AcDbArc
 50
0.0
 51
180.0
  0
ARC
  5
4D8
100
AcDbEntity
  8
0
100
AcDbCircle
 62
7
  6
CONTINUOUS
 10
23.2212852095
 20
30.6050575621
 40
0.253
100
AcDbArc
 50
90.0
 51
270.0
  0
ARC
  5
4D9
100
AcDbEntity
  8
0
100
AcDbCircle
 62
7
  6
CONTINUOUS
 10
29.7766296316
 20
29.2173700621
 40
0.2153125
100
AcDbArc
 50
234.5106567499
 51
286.1601438523
  0
ARC
  5
4DA
100
AcDbEntity
  8
0
100
AcDbCircle
 62
7
  6
CONTINUOUS
 10
28.9602851226
 20
29.2173700621
 40
0.2153125
100
AcDbArc
 50
234.5106567499
 51
305.4893432501
  0
ARC
  5
4DB
100
AcDbEntity
  8
0
100
AcDbCircle
 62
7
  6
CONTINUOUS
 10
29.8962867935
 20
29.2173700621
 40
0.2153125
100
AcDbArc
 50
234.5106567499
 51
276.7961940475
  0
ARC
  5
4DC
100
AcDbEntity
  8
0
100
AcDbCircle
 62
7
  6
CONTINUOUS
 10
29.9472352449
 20
29.2173700621
 40
0.2153125
100
AcDbArc
 50
234.5106567499
 51
305.4893432501
  0
ARC
  5
4DD
100
AcDbEntity
  8
0
100
AcDbCircle
 62
7
  6
CONTINUOUS
 10
31.6323233753
 20
29.2173700621
 40
0.2153125
100
AcDbArc
 50
234.5106567499
 51
305.4893432501
  0
ARC
  5
4DE
100
AcDbEntity
  8
0
100
AcDbCircle
 62
7
  6
CONTINUOUS
 10
32.5311042105
 20
29.2173700621
 40
0.2153125
100
AcDbArc
 50
234.5106567499
 51
305.4893432501
  0
ARC
  5
4DF
100
AcDbEntity
  8
0
100
AcDbCircle
 62
7
  6
CONTINUOUS
 10
31.0436230536
 20
26.4951575621
 40
0.0219
100
AcDbArc
 50
0.0
 51
90.0
  0
ARC
  5
4E0
100
AcDbEntity
  8
0
100
AcDbCircle
 62
7
  6
CONTINUOUS
 10
31.4624230536
 20
26.4951575621
 40
0.0219
100
AcDbArc
 50
90.0
 51
180.0
  0
ARC
  5
4E1
100
AcDbEntity
  8
0
100
AcDbCircle
 62
7
  6
CONTINUOUS
 10
30.5436230536
 20
26.4951575621
 40
0.0219
100
AcDbArc
 50
0.0
 51
90.0
  0
ARC
  5
4E2
100
AcDbEntity
  8
0
100
AcDbCircle
 62
7
  6
CONTINUOUS
 10
30.9624230536
 20
26.4951575621
 40
0.0219
100
AcDbArc
 50
90.0
 51
180.0
  0
ARC
  5
4E3
100
AcDbEntity
  8
0
100
AcDbCircle
 62
3
  6
CONTINUOUS
 10
25.8780230536
 20
34.4250575621
 40
1.0
100
AcDbArc
 50
90.0
 51
160.0
  0
ARC
  5
4E4
100
AcDbEntity
  8
0
100
AcDbCircle
 62
3
  6
CONTINUOUS
 10
30.1776704087
 20
40.6050575621
 40
1.0
100
AcDbArc
 50
90.0
 51
160.0
  0
ARC
  5
4E5
100
AcDbEntity
  8
0
100
AcDbCircle
 62
3
  6
CONTINUOUS
 10
26.8780230536
 20
35.9250575621
 40
0.5
100
AcDbArc
 50
270.0
 51
340.0
  0
ARC
  5
4E6
100
AcDbEntity
  8
AXIS
100
AcDbCircle
 62
7
  6
CONTINUOUS
 10
29.1914142112
 20
35.6700575621
 40
0.2
100
AcDbArc
 50
0.0
 51
180.0
  0
ARC
  5
4E7
100
AcDbEntity
  8
0
100
AcDbCircle
 62
7
  6
CONTINUOUS
 10
41.9289159108
 20
28.8120575621
 40
0.3066071429
100
AcDbArc
 50
320.5063267891
 51
39.4936732109
  0
ARC
  5
4E8
100
AcDbEntity
  8
0
100
AcDbCircle
 62
7
  6
CONTINUOUS
 10
41.9289159108
 20
26.5120575621
 40
0.3066071429
100
AcDbArc
 50
320.5063267891
 51
32.5689103902
  0
ARC
  5
4E9
100
AcDbEntity
  8
0
100
AcDbCircle
 62
7
  6
CONTINUOUS
 10
45.0347608978
 20
30.6050575621
 40
0.253
100
AcDbArc
 50
270.0
 51
90.0
  0
ARC
  5
4EA
100
AcDbEntity
  8
0
100
AcDbCircle
 62
7
  6
CONTINUOUS
 10
38.3597593138
 20
29.2173700621
 40
0.2153125
100
AcDbArc
 50
263.2038059525
 51
286.1601438523
  0
ARC
  5
4EB
100
AcDbEntity
  8
0
100
AcDbCircle
 62
7
  6
CONTINUOUS
 10
39.2957609847
 20
29.2173700621
 40
0.2153125
100
AcDbArc
 50
234.5106567499
 51
305.4893432501
  0
ARC
  5
4EC
100
AcDbEntity
  8
0
100
AcDbCircle
 62
7
  6
CONTINUOUS
 10
38.4794164756
 20
29.2173700621
 40
0.2153125
100
AcDbArc
 50
246.6193427317
 51
305.4893432501
  0
ARC
  5
4ED
100
AcDbEntity
  8
0
100
AcDbCircle
 62
7
  6
CONTINUOUS
 10
38.3088108623
 20
29.2173700621
 40
0.2153125
100
AcDbArc
 50
234.5106567499
 51
305.4893432501
  0
ARC
  5
4EE
100
AcDbEntity
  8
0
100
AcDbCircle
 62
7
  6
CONTINUOUS
 10
36.9369892487
 20
29.2173700621
 40
0.2153125
100
AcDbArc
 50
234.5106567499
 51
305.4893432501
  0
ARC
  5
4EF
100
AcDbEntity
  8
0
100
AcDbCircle
 62
7
  6
CONTINUOUS
 10
34.3216324085
 20
29.2173700621
 40
0.2153125
100
AcDbArc
 50
234.5106567499
 51
305.4893432501
  0
ARC
  5
4F0
100
AcDbEntity
  8
0
100
AcDbCircle
 62
7
  6
CONTINUOUS
 10
35.7249418968
 20
29.2173700621
 40
0.2153125
100
AcDbArc
 50
234.5106567499
 51
305.4893432501
  0
ARC
  5
4F1
100
AcDbEntity
  8
0
100
AcDbCircle
 62
7
  6
CONTINUOUS
 10
39.6686230536
 20
26.4951575621
 40
0.0219
100
AcDbArc
 50
0.0
 51
90.0
  0
ARC
  5
4F2
100
AcDbEntity
  8
0
100
AcDbCircle
 62
7
  6
CONTINUOUS
 10
40.0874230536
 20
26.4951575621
 40
0.0219
100
AcDbArc
 50
90.0
 51
180.0
  0
ARC
  5
4F3
100
AcDbEntity
  8
0
100
AcDbCircle
 62
7
  6
CONTINUOUS
 10
40.6686230536
 20
26.4951575621
 40
0.0219
100
AcDbArc
 50
0.0
 51
90.0
  0
ARC
  5
4F4
100
AcDbEntity
  8
0
100
AcDbCircle
 62
7
  6
CONTINUOUS
 10
41.0874230536
 20
26.4951575621
 40
0.0219
100
AcDbArc
 50
90.0
 51
180.0
  0
ARC
  5
4F5
100
AcDbEntity
  8
0
100
AcDbCircle
 62
3
  6
CONTINUOUS
 10
38.0783756985
 20
40.6050575621
 40
1.0
100
AcDbArc
 50
20.0
 51
90.0
  0
ARC
  5
4F6
100
AcDbEntity
  8
0
100
AcDbCircle
 62
3
  6
CONTINUOUS
 10
42.3780230536
 20
34.4250575621
 40
1.0
100
AcDbArc
 50
20.0
 51
90.0
  0
ARC
  5
4F7
100
AcDbEntity
  8
0
100
AcDbCircle
 62
3
  6
CONTINUOUS
 10
41.3780230536
 20
35.9250575621
 40
0.5
100
AcDbArc
 50
200.0
 51
266.3882234634
  0
ARC
  5
4F8
100
AcDbEntity
  8
AXIS
100
AcDbCircle
 62
7
  6
CONTINUOUS
 10
41.6913465968
 20
35.6700575621
 40
0.2
100
AcDbArc
 50
0.0
 51
180.0
  0
LINE
  5
4F9
100
AcDbEntity
  8
0
100
AcDbLine
 62
7
  6
CONTINUOUS
 10
-9.6882173404
 20
13.7942135247
 11
-9.6755733695
 21
13.8161135247
  0
LINE
  5
4FA
100
AcDbEntity
  8
0
100
AcDbLine
 62
7
  6
CONTINUOUS
 10
-9.5799641649
 20
13.6067135247
 11
-9.5546762231
 21
13.6067135247
  0
LINE
  5
4FB
100
AcDbEntity
  8
0
100
AcDbLine
 62
7
  6
CONTINUOUS
 10
-9.9047236913
 20
13.7942135247
 11
-9.9173676622
 21
13.8161135247
  0
LINE
  5
4FC
100
AcDbEntity
  8
0
100
AcDbLine
 62
7
  6
CONTINUOUS
 10
-10.0129768668
 20
13.6067135247
 11
-10.0382648086
 21
13.6067135247
  0
LINE
  5
4FD
100
AcDbEntity
  8
0
100
AcDbLine
 62
7
  6
CONTINUOUS
 10
-9.9047236913
 20
13.4192135247
 11
-9.9173676622
 21
13.3973135247
  0
LINE
  5
4FE
100
AcDbEntity
  8
0
100
AcDbLine
 62
7
  6
CONTINUOUS
 10
-9.6882173404
 20
13.4192135247
 11
-9.6755733695
 21
13.3973135247
  0
LINE
  5
4FF
100
AcDbEntity
  8
0
100
AcDbLine
 62
7
  6
CONTINUOUS
 10
-8.8221919366
 20
13.2942135247
 11
-8.8095479657
 21
13.3161135247
  0
LINE
  5
500
100
AcDbEntity
  8
0
100
AcDbLine
 62
7
  6
CONTINUOUS
 10
-8.7139387611
 20
13.1067135247
 11
-8.6886508193
 21
13.1067135247
  0
LINE
  5
501
100
AcDbEntity
  8
0
100
AcDbLine
 62
7
  6
CONTINUOUS
 10
-9.0386982875
 20
13.2942135247
 11
-9.0513422584
 21
13.3161135247
  0
LINE
  5
502
100
AcDbEntity
  8
0
100
AcDbLine
 62
7
  6
CONTINUOUS
 10
-9.146951463
 20
13.1067135247
 11
-9.1722394048
 21
13.1067135247
  0
LINE
  5
503
100
AcDbEntity
  8
0
100
AcDbLine
 62
7
  6
CONTINUOUS
 10
-9.0386982875
 20
12.9192135247
 11
-9.0513422584
 21
12.8973135247
  0
LINE
  5
504
100
AcDbEntity
  8
0
100
AcDbLine
 62
7
  6
CONTINUOUS
 10
-8.8221919366
 20
12.9192135247
 11
-8.8095479657
 21
12.8973135247
  0
LINE
  5
505
100
AcDbEntity
  8
0
100
AcDbLine
 62
7
  6
CONTINUOUS
 10
2.0031256107
 20
13.7942135247
 11
2.0157695816
 21
13.8161135247
  0
LINE
  5
506
100
AcDbEntity
  8
0
100
AcDbLine
 62
7
  6
CONTINUOUS
 10
2.1113787862
 20
13.6067135247
 11
2.136666728
 21
13.6067135247
  0
LINE
  5
507
100
AcDbEntity
  8
0
100
AcDbLine
 62
7
  6
CONTINUOUS
 10
1.7866192598
 20
13.7942135247
 11
1.7739752889
 21
13.8161135247
  0
LINE
  5
508
100
AcDbEntity
  8
0
100
AcDbLine
 62
7
  6
CONTINUOUS
 10
1.6783660843
 20
13.6067135247
 11
1.6530781425
 21
13.6067135247
  0
LINE
  5
509
100
AcDbEntity
  8
0
100
AcDbLine
 62
7
  6
CONTINUOUS
 10
1.7866192598
 20
13.4192135247
 11
1.7739752889
 21
13.3973135247
  0
LINE
  5
50A
100
AcDbEntity
  8
0
100
AcDbLine
 62
7
  6
CONTINUOUS
 10
2.0031256107
 20
13.4192135247
 11
2.0157695816
 21
13.3973135247
  0
LINE
  5
50B
100
AcDbEntity
  8
0
100
AcDbLine
 62
7
  6
CONTINUOUS
 10
-3.8425458648
 20
3.6692135247
 11
-3.8299018939
 21
3.6911135247
  0
LINE
  5
50C
100
AcDbEntity
  8
0
100
AcDbLine
 62
7
  6
CONTINUOUS
 10
-3.7342926893
 20
3.4817135247
 11
-3.7090047475
 21
3.4817135247
  0
LINE
  5
50D
100
AcDbEntity
  8
0
100
AcDbLine
 62
7
  6
CONTINUOUS
 10
-4.0590522158
 20
3.6692135247
 11
-4.0716961867
 21
3.6911135247
  0
LINE
  5
50E
100
AcDbEntity
  8
0
100
AcDbLine
 62
7
  6
CONTINUOUS
 10
-4.1673053912
 20
3.4817135247
 11
-4.192593333
 21
3.4817135247
  0
LINE
  5
50F
100
AcDbEntity
  8
0
100
AcDbLine
 62
7
  6
CONTINUOUS
 10
-4.0590522158
 20
3.2942135247
 11
-4.0716961867
 21
3.2723135247
  0
LINE
  5
510
100
AcDbEntity
  8
0
100
AcDbLine
 62
7
  6
CONTINUOUS
 10
-3.8425458648
 20
3.2942135247
 11
-3.8299018939
 21
3.2723135247
  0
LINE
  5
511
100
AcDbEntity
  8
0
100
AcDbLine
 62
7
  6
CONTINUOUS
 10
1.1371002069
 20
13.2942135247
 11
1.1497441778
 21
13.3161135247
  0
LINE
  5
512
100
AcDbEntity
  8
0
100
AcDbLine
 62
7
  6
CONTINUOUS
 10
1.2453533824
 20
13.1067135247
 11
1.2706413242
 21
13.1067135247
  0
LINE
  5
513
100
AcDbEntity
  8
0
100
AcDbLine
 62
7
  6
CONTINUOUS
 10
0.920593856
 20
13.2942135247
 11
0.9079498851
 21
13.3161135247
  0
LINE
  5
514
100
AcDbEntity
  8
0
100
AcDbLine
 62
7
  6
CONTINUOUS
 10
0.8123406805
 20
13.1067135247
 11
0.7870527387
 21
13.1067135247
  0
LINE
  5
515
100
AcDbEntity
  8
0
100
AcDbLine
 62
7
  6
CONTINUOUS
 10
0.920593856
 20
12.9192135247
 11
0.9079498851
 21
12.8973135247
  0
LINE
  5
516
100
AcDbEntity
  8
0
100
AcDbLine
 62
7
  6
CONTINUOUS
 10
1.1371002069
 20
12.9192135247
 11
1.1497441778
 21
12.8973135247
  0
LINE
  5
517
100
AcDbEntity
  8
0
100
AcDbLine
 62
7
  6
CONTINUOUS
 10
-3.8425458648
 20
4.6692135247
 11
-3.8299018939
 21
4.6911135247
  0
LINE
  5
518
100
AcDbEntity
  8
0
100
AcDbLine
 62
7
  6
CONTINUOUS
 10
-3.7342926893
 20
4.4817135247
 11
-3.7090047475
 21
4.4817135247
  0
LINE
  5
519
100
AcDbEntity
  8
0
100
AcDbLine
 62
7
  6
CONTINUOUS
 10
-4.0590522158
 20
4.6692135247
 11
-4.0716961867
 21
4.6911135247
  0
LINE
  5
51A
100
AcDbEntity
  8
0
100
AcDbLine
 62
7
  6
CONTINUOUS
 10
-4.1673053912
 20
4.4817135247
 11
-4.192593333
 21
4.4817135247
  0
LINE
  5
51B
100
AcDbEntity
  8
0
100
AcDbLine
 62
7
  6
CONTINUOUS
 10
-4.0590522158
 20
4.2942135247
 11
-4.0716961867
 21
4.2723135247
  0
LINE
  5
51C
100
AcDbEntity
  8
0
100
AcDbLine
 62
7
  6
CONTINUOUS
 10
-3.8425458648
 20
4.2942135247
 11
-3.8299018939
 21
4.2723135247
  0
SPLINE
  5
51D
100
AcDbEntity
  8
0
100
AcDbSpline
 62
7
  6
CONTINUOUS
 70
0
 71
3
 72
15
 73
11
 74
0
 42
0.0000001
 43
0.0000001
 44
0.0000000001
 40
0.0
 40
0.0
 40
0.0
 40
0.0
 40
0.1252146822
 40
0.2499116931
 40
0.3743170529
 40
0.498661262
 40
0.6231754954
 40
0.7480888588
 40
0.8736249174
 40
1.0
 40
1.0
 40
1.0
 40
1.0
 10
-4.7848259719
 20
9.1579893949
 30
0.0
 10
-4.7789518507
 20
9.1528234441
 30
0.0
 10
-4.7669170455
 20
9.1428600469
 30
0.0
 10
-4.7480251569
 20
9.129054864
 30
0.0
 10
-4.728373863
 20
9.1164526466
 30
0.0
 10
-4.7080008386
 20
9.1050777977
 30
0.0
 10
-4.6869441557
 20
9.0949514553
 30
0.0
 10
-4.6652431305
 20
9.0860925493
 30
0.0
 10
-4.6429394927
 20
9.0785177877
 30
0.0
 10
-4.6277528206
 20
9.0743489231
 30
0.0
 10
-4.6200816875
 20
9.0724819752
 30
0.0
  0
SPLINE
  5
51E
100
AcDbEntity
  8
0
100
AcDbSpline
 62
7
  6
CONTINUOUS
 70
0
 71
3
 72
15
 73
11
 74
0
 42
0.0000001
 43
0.0000001
 44
0.0000000001
 40
0.0
 40
0.0
 40
0.0
 40
0.0
 40
0.1261099833
 40
0.2512738785
 40
0.3757984041
 40
0.5
 40
0.6242015959
 40
0.7487261215
 40
0.8738900167
 40
1.0
 40
1.0
 40
1.0
 40
1.0
 10
-4.6200816875
 20
9.0724819752
 30
0.0
 10
-4.6136310725
 20
9.06572668
 30
0.0
 10
-4.6003084735
 20
9.0527058841
 30
0.0
 10
-4.5790625152
 20
9.0346897095
 30
0.0
 10
-4.5566962767
 20
9.0183200543
 30
0.0
 10
-4.5332697296
 20
9.0036415947
 30
0.0
 10
-4.5088445372
 20
8.9906928396
 30
0.0
 10
-4.4834848807
 20
8.9795079365
 30
0.0
 10
-4.4572594366
 20
8.9701164841
 30
0.0
 10
-4.4393217971
 20
8.9650891729
 30
0.0
 10
-4.4302462324
 20
8.9628804241
 30
0.0
  0
SPLINE
  5
51F
100
AcDbEntity
  8
0
100
AcDbSpline
 62
7
  6
CONTINUOUS
 70
0
 71
3
 72
28
 73
24
 74
0
 42
0.0000001
 43
0.0000001
 44
0.0000000001
 40
0.0
 40
0.0
 40
0.0
 40
0.0
 40
0.0202877696
 40
0.0407212365
 40
0.0614410531
 40
0.0825803778
 40
0.1265503263
 40
0.1734715902
 40
0.1982361688
 40
0.2239263189
 40
0.2781916848
 40
0.3068187944
 40
0.3364387145
 40
0.3670446691
 40
0.398618862
 40
0.4645534343
 40
0.5339885155
 40
0.6065660192
 40
0.6818598826
 40
0.7593796862
 40
0.8386186356
 40
0.9190461709
 40
1.0
 40
1.0
 40
1.0
 40
1.0
 10
-10.417843743
 20
26.4170575621
 30
0.0
 10
-10.4170659032
 20
26.4170575621
 30
0.0
 10
-10.4155035646
 20
26.4171347078
 30
0.0
 10
-10.413169884
 20
26.4174803493
 30
0.0
 10
-10.4108479268
 20
26.4180548743
 30
0.0
 10
-10.4077363576
 20
26.4191381526
 30
0.0
 10
-10.4038858544
 20
26.4210908225
 30
0.0
 10
-10.4002802033
 20
26.4236994184
 30
0.0
 10
-10.3974881253
 20
26.4261809592
 30
0.0
 10
-10.394660012
 20
26.4290341726
 30
0.0
 10
-10.3919997158
 20
26.432249331
 30
0.0
 10
-10.3895048851
 20
26.4357696876
 30
0.0
 10
-10.3876684224
 20
26.4386405559
 30
0.0
 10
-10.385905033
 20
26.4416878344
 30
0.0
 10
-10.3836235294
 20
26.446039139
 30
0.0
 10
-10.3809905698
 20
26.4518803621
 30
0.0
 10
-10.3782287725
 20
26.459365496
 30
0.0
 10
-10.3758452127
 20
26.4673543167
 30
0.0
 10
-10.3738634405
 20
26.4757703148
 30
0.0
 10
-10.3723016735
 20
26.4845334304
 30
0.0
 10
-10.3711750696
 20
26.493561242
 30
0.0
 10
-10.3704956426
 20
26.5027652811
 30
0.0
 10
-10.370343743
 20
26.5089537652
 30
0.0
 10
-10.370343743
 20
26.5120575621
 30
0.0
  0
SPLINE
  5
520
100
AcDbEntity
  8
0
100
AcDbSpline
 62
7
  6
CONTINUOUS
 70
0
 71
3
 72
28
 73
24
 74
0
 42
0.0000001
 43
0.0000001
 44
0.0000000001
 40
0.0
 40
0.0
 40
0.0
 40
0.0
 40
0.0202877696
 40
0.0407212365
 40
0.0614410531
 40
0.0825803778
 40
0.1265503263
 40
0.1734715902
 40
0.1982361688
 40
0.2239263189
 40
0.2781916848
 40
0.3068187944
 40
0.3364387145
 40
0.3670446691
 40
0.398618862
 40
0.4645534343
 40
0.5339885155
 40
0.6065660192
 40
0.6818598826
 40
0.7593796862
 40
0.8386186356
 40
0.9190461709
 40
1.0
 40
1.0
 40
1.0
 40
1.0
 10
-10.417843743
 20
26.6070575621
 30
0.0
 10
-10.4170659032
 20
26.6070575621
 30
0.0
 10
-10.4155035646
 20
26.6069804164
 30
0.0
 10
-10.413169884
 20
26.6066347748
 30
0.0
 10
-10.4108479268
 20
26.6060602498
 30
0.0
 10
-10.4077363576
 20
26.6049769715
 30
0.0
 10
-10.4038858544
 20
26.6030243017
 30
0.0
 10
-10.4002802033
 20
26.6004157057
 30
0.0
 10
-10.3974881253
 20
26.5979341649
 30
0.0
 10
-10.394660012
 20
26.5950809516
 30
0.0
 10
-10.3919997158
 20
26.5918657932
 30
0.0
 10
-10.3895048851
 20
26.5883454365
 30
0.0
 10
-10.3876684224
 20
26.5854745682
 30
0.0
 10
-10.385905033
 20
26.5824272897
 30
0.0
 10
-10.3836235294
 20
26.5780759851
 30
0.0
 10
-10.3809905698
 20
26.572234762
 30
0.0
 10
-10.3782287725
 20
26.5647496282
 30
0.0
 10
-10.3758452127
 20
26.5567608075
 30
0.0
 10
-10.3738634405
 20
26.5483448093
 30
0.0
 10
-10.3723016735
 20
26.5395816938
 30
0.0
 10
-10.3711750696
 20
26.5305538821
 30
0.0
 10
-10.3704956426
 20
26.521349843
 30
0.0
 10
-10.370343743
 20
26.5151613589
 30
0.0
 10
-10.370343743
 20
26.5120575621
 30
0.0
  0
SPLINE
  5
521
100
AcDbEntity
  8
0
100
AcDbSpline
 62
7
  6
CONTINUOUS
 70
0
 71
3
 72
48
 73
44
 74
0
 42
0.0000001
 43
0.0000001
 44
0.0000000001
 40
0.0
 40
0.0
 40
0.0
 40
0.0
 40
0.0334179923
 40
0.0652649576
 40
0.0955198217
 40
0.1100548361
 40
0.1241993503
 40
0.1379608929
 40
0.1513493687
 40
0.1643781899
 40
0.1770642332
 40
0.2014794699
 40
0.2248025374
 40
0.2361382423
 40
0.2472999614
 40
0.2583268681
 40
0.2692602216
 40
0.280142678
 40
0.2910178729
 40
0.3019296266
 40
0.3129209701
 40
0.3240336671
 40
0.3353077171
 40
0.3584733844
 40
0.3826928299
 40
0.4081742117
 40
0.4350713894
 40
0.44908838
 40
0.4634936212
 40
0.4934852627
 40
0.5250698598
 40
0.5582309524
 40
0.5929218775
 40
0.6290721128
 40
0.6665885028
 40
0.7053610256
 40
0.7452636781
 40
0.7861587047
 40
0.8278940323
 40
0.8703105866
 40
0.9132510557
 40
0.9565494392
 40
1.0
 40
1.0
 40
1.0
 40
1.0
 10
-10.9364794811
 20
26.3729030439
 30
0.0
 10
-10.9348170874
 20
26.3696391209
 30
0.0
 10
-10.9313851246
 20
26.3633563573
 30
0.0
 10
-10.9257762862
 20
26.3545069251
 30
0.0
 10
-10.9207781569
 20
26.3477444714
 30
0.0
 10
-10.9166297903
 20
26.3427907499
 30
0.0
 10
-10.9134946183
 20
26.3393520535
 30
0.0
 10
-10.9102983334
 20
26.3361450725
 30
0.0
 10
-10.907044918
 20
26.333174424
 30
0.0
 10
-10.9037385022
 20
26.330444056
 30
0.0
 10
-10.8993226567
 20
26.3271708365
 30
0.0
 10
-10.8936844415
 20
26.3236666612
 30
0.0
 10
-10.8877916024
 20
26.3209373321
 30
0.0
 10
-10.8830425303
 20
26.3192930631
 30
0.0
 10
-10.8794929037
 20
26.3183313056
 30
0.0
 10
-10.875927537
 20
26.3176309506
 30
0.0
 10
-10.8723512957
 20
26.3171926745
 30
0.0
 10
-10.8687691684
 20
26.3170172713
 30
0.0
 10
-10.8651861954
 20
26.3171055718
 30
0.0
 10
-10.8616074554
 20
26.3174570506
 30
0.0
 10
-10.8580379603
 20
26.3180708708
 30
0.0
 10
-10.8544825237
 20
26.3189463137
 30
0.0
 10
-10.849725666
 20
26.3204744951
 30
0.0
 10
-10.8438172546
 20
26.3230600836
 30
0.0
 10
-10.8369377834
 20
26.3271527114
 30
0.0
 10
-10.8302366712
 20
26.3322370177
 30
0.0
 10
-10.82490383
 20
26.3372063627
 30
0.0
 10
-10.8207534083
 20
26.3416287608
 30
0.0
 10
-10.8165748057
 20
26.3464822101
 30
0.0
 10
-10.8115352658
 20
26.3531240387
 30
0.0
 10
-10.8058729798
 20
26.3618378901
 30
0.0
 10
-10.8005461594
 20
26.371354876
 30
0.0
 10
-10.7955820392
 20
26.3816236787
 30
0.0
 10
-10.7910075401
 20
26.3925902622
 30
0.0
 10
-10.7868459241
 20
26.404195879
 30
0.0
 10
-10.783120309
 20
26.4163790051
 30
0.0
 10
-10.7798495364
 20
26.4290744467
 30
0.0
 10
-10.7770523241
 20
26.4422144744
 30
0.0
 10
-10.7747423538
 20
26.4557282469
 30
0.0
 10
-10.7729330315
 20
26.4695440716
 30
0.0
 10
-10.7716332665
 20
26.4835891127
 30
0.0
 10
-10.7708514406
 20
26.4977857065
 30
0.0
 10
-10.770676953
 20
26.5072950221
 30
0.0
 10
-10.770676953
 20
26.5120575621
 30
0.0
  0
SPLINE
  5
522
100
AcDbEntity
  8
0
100
AcDbSpline
 62
7
  6
CONTINUOUS
 70
0
 71
3
 72
48
 73
44
 74
0
 42
0.0000001
 43
0.0000001
 44
0.0000000001
 40
0.0
 40
0.0
 40
0.0
 40
0.0
 40
0.0334179923
 40
0.0652649576
 40
0.0955198217
 40
0.1100548361
 40
0.1241993503
 40
0.1379608929
 40
0.1513493687
 40
0.1643781899
 40
0.1770642332
 40
0.2014794699
 40
0.2248025374
 40
0.2361382423
 40
0.2472999614
 40
0.2583268681
 40
0.2692602216
 40
0.280142678
 40
0.2910178729
 40
0.3019296266
 40
0.3129209701
 40
0.3240336671
 40
0.3353077171
 40
0.3584733844
 40
0.3826928299
 40
0.4081742117
 40
0.4350713894
 40
0.44908838
 40
0.4634936212
 40
0.4934852627
 40
0.5250698598
 40
0.5582309524
 40
0.5929218775
 40
0.6290721128
 40
0.6665885028
 40
0.7053610256
 40
0.7452636781
 40
0.7861587047
 40
0.8278940323
 40
0.8703105866
 40
0.9132510557
 40
0.9565494392
 40
1.0
 40
1.0
 40
1.0
 40
1.0
 10
-10.9364794811
 20
26.6512120802
 30
0.0
 10
-10.9348170874
 20
26.6544760033
 30
0.0
 10
-10.9313851246
 20
26.6607587669
 30
0.0
 10
-10.9257762862
 20
26.6696081991
 30
0.0
 10
-10.9207781569
 20
26.6763706527
 30
0.0
 10
-10.9166297903
 20
26.6813243742
 30
0.0
 10
-10.9134946183
 20
26.6847630707
 30
0.0
 10
-10.9102983334
 20
26.6879700516
 30
0.0
 10
-10.907044918
 20
26.6909407002
 30
0.0
 10
-10.9037385022
 20
26.6936710681
 30
0.0
 10
-10.8993226567
 20
26.6969442877
 30
0.0
 10
-10.8936844415
 20
26.7004484629
 30
0.0
 10
-10.8877916024
 20
26.7031777921
 30
0.0
 10
-10.8830425303
 20
26.704822061
 30
0.0
 10
-10.8794929037
 20
26.7057838186
 30
0.0
 10
-10.875927537
 20
26.7064841735
 30
0.0
 10
-10.8723512957
 20
26.7069224496
 30
0.0
 10
-10.8687691684
 20
26.7070978528
 30
0.0
 10
-10.8651861954
 20
26.7070095523
 30
0.0
 10
-10.8616074554
 20
26.7066580735
 30
0.0
 10
-10.8580379603
 20
26.7060442534
 30
0.0
 10
-10.8544825237
 20
26.7051688104
 30
0.0
 10
-10.849725666
 20
26.7036406291
 30
0.0
 10
-10.8438172546
 20
26.7010550405
 30
0.0
 10
-10.8369377834
 20
26.6969624127
 30
0.0
 10
-10.8302366712
 20
26.6918781065
 30
0.0
 10
-10.82490383
 20
26.6869087615
 30
0.0
 10
-10.8207534083
 20
26.6824863633
 30
0.0
 10
-10.8165748057
 20
26.677632914
 30
0.0
 10
-10.8115352658
 20
26.6709910855
 30
0.0
 10
-10.8058729798
 20
26.6622772341
 30
0.0
 10
-10.8005461594
 20
26.6527602482
 30
0.0
 10
-10.7955820392
 20
26.6424914455
 30
0.0
 10
-10.7910075401
 20
26.6315248619
 30
0.0
 10
-10.7868459241
 20
26.6199192452
 30
0.0
 10
-10.783120309
 20
26.6077361191
 30
0.0
 10
-10.7798495364
 20
26.5950406775
 30
0.0
 10
-10.7770523241
 20
26.5819006498
 30
0.0
 10
-10.7747423538
 20
26.5683868772
 30
0.0
 10
-10.7729330315
 20
26.5545710526
 30
0.0
 10
-10.7716332665
 20
26.5405260115
 30
0.0
 10
-10.7708514406
 20
26.5263294176
 30
0.0
 10
-10.770676953
 20
26.5168201021
 30
0.0
 10
-10.770676953
 20
26.5120575621
 30
0.0
  0
SPLINE
  5
523
100
AcDbEntity
  8
0
100
AcDbSpline
 62
7
  6
CONTINUOUS
 70
0
 71
3
 72
28
 73
24
 74
0
 42
0.0000001
 43
0.0000001
 44
0.0000000001
 40
0.0
 40
0.0
 40
0.0
 40
0.0
 40
0.0202877696
 40
0.0407212365
 40
0.0614410531
 40
0.0825803778
 40
0.1265503263
 40
0.1734715902
 40
0.1982361688
 40
0.2239263189
 40
0.2781916848
 40
0.3068187944
 40
0.3364387145
 40
0.3670446691
 40
0.398618862
 40
0.4645534343
 40
0.5339885155
 40
0.6065660192
 40
0.6818598826
 40
0.7593796862
 40
0.8386186356
 40
0.9190461709
 40
1.0
 40
1.0
 40
1.0
 40
1.0
 10
-10.417843743
 20
28.7170575621
 30
0.0
 10
-10.4170659032
 20
28.7170575621
 30
0.0
 10
-10.4155035646
 20
28.7171347078
 30
0.0
 10
-10.413169884
 20
28.7174803493
 30
0.0
 10
-10.4108479268
 20
28.7180548743
 30
0.0
 10
-10.4077363576
 20
28.7191381526
 30
0.0
 10
-10.4038858544
 20
28.7210908225
 30
0.0
 10
-10.4002802033
 20
28.7236994184
 30
0.0
 10
-10.3974881253
 20
28.7261809592
 30
0.0
 10
-10.394660012
 20
28.7290341726
 30
0.0
 10
-10.3919997158
 20
28.732249331
 30
0.0
 10
-10.3895048851
 20
28.7357696876
 30
0.0
 10
-10.3876684224
 20
28.7386405559
 30
0.0
 10
-10.385905033
 20
28.7416878344
 30
0.0
 10
-10.3836235294
 20
28.746039139
 30
0.0
 10
-10.3809905698
 20
28.7518803621
 30
0.0
 10
-10.3782287725
 20
28.759365496
 30
0.0
 10
-10.3758452127
 20
28.7673543167
 30
0.0
 10
-10.3738634405
 20
28.7757703148
 30
0.0
 10
-10.3723016735
 20
28.7845334304
 30
0.0
 10
-10.3711750696
 20
28.793561242
 30
0.0
 10
-10.3704956426
 20
28.8027652811
 30
0.0
 10
-10.370343743
 20
28.8089537652
 30
0.0
 10
-10.370343743
 20
28.8120575621
 30
0.0
  0
SPLINE
  5
524
100
AcDbEntity
  8
0
100
AcDbSpline
 62
7
  6
CONTINUOUS
 70
0
 71
3
 72
28
 73
24
 74
0
 42
0.0000001
 43
0.0000001
 44
0.0000000001
 40
0.0
 40
0.0
 40
0.0
 40
0.0
 40
0.0202877696
 40
0.0407212365
 40
0.0614410531
 40
0.0825803778
 40
0.1265503263
 40
0.1734715902
 40
0.1982361688
 40
0.2239263189
 40
0.2781916848
 40
0.3068187944
 40
0.3364387145
 40
0.3670446691
 40
0.398618862
 40
0.4645534343
 40
0.5339885155
 40
0.6065660192
 40
0.6818598826
 40
0.7593796862
 40
0.8386186356
 40
0.9190461709
 40
1.0
 40
1.0
 40
1.0
 40
1.0
 10
-10.417843743
 20
28.9070575621
 30
0.0
 10
-10.4170659032
 20
28.9070575621
 30
0.0
 10
-10.4155035646
 20
28.9069804164
 30
0.0
 10
-10.413169884
 20
28.9066347748
 30
0.0
 10
-10.4108479268
 20
28.9060602498
 30
0.0
 10
-10.4077363576
 20
28.9049769715
 30
0.0
 10
-10.4038858544
 20
28.9030243017
 30
0.0
 10
-10.4002802033
 20
28.9004157057
 30
0.0
 10
-10.3974881253
 20
28.8979341649
 30
0.0
 10
-10.394660012
 20
28.8950809516
 30
0.0
 10
-10.3919997158
 20
28.8918657932
 30
0.0
 10
-10.3895048851
 20
28.8883454365
 30
0.0
 10
-10.3876684224
 20
28.8854745682
 30
0.0
 10
-10.385905033
 20
28.8824272897
 30
0.0
 10
-10.3836235294
 20
28.8780759851
 30
0.0
 10
-10.3809905698
 20
28.872234762
 30
0.0
 10
-10.3782287725
 20
28.8647496282
 30
0.0
 10
-10.3758452127
 20
28.8567608075
 30
0.0
 10
-10.3738634405
 20
28.8483448093
 30
0.0
 10
-10.3723016735
 20
28.8395816938
 30
0.0
 10
-10.3711750696
 20
28.8305538821
 30
0.0
 10
-10.3704956426
 20
28.821349843
 30
0.0
 10
-10.370343743
 20
28.8151613589
 30
0.0
 10
-10.370343743
 20
28.8120575621
 30
0.0
  0
SPLINE
  5
525
100
AcDbEntity
  8
0
100
AcDbSpline
 62
7
  6
CONTINUOUS
 70
0
 71
3
 72
48
 73
44
 74
0
 42
0.0000001
 43
0.0000001
 44
0.0000000001
 40
0.0
 40
0.0
 40
0.0
 40
0.0
 40
0.0334179923
 40
0.0652649576
 40
0.0955198217
 40
0.1100548361
 40
0.1241993503
 40
0.1379608929
 40
0.1513493687
 40
0.1643781899
 40
0.1770642332
 40
0.2014794699
 40
0.2248025374
 40
0.2361382423
 40
0.2472999614
 40
0.2583268681
 40
0.2692602216
 40
0.280142678
 40
0.2910178729
 40
0.3019296266
 40
0.3129209701
 40
0.3240336671
 40
0.3353077171
 40
0.3584733844
 40
0.3826928299
 40
0.4081742117
 40
0.4350713894
 40
0.44908838
 40
0.4634936212
 40
0.4934852627
 40
0.5250698598
 40
0.5582309524
 40
0.5929218775
 40
0.6290721128
 40
0.6665885028
 40
0.7053610256
 40
0.7452636781
 40
0.7861587047
 40
0.8278940323
 40
0.8703105866
 40
0.9132510557
 40
0.9565494392
 40
1.0
 40
1.0
 40
1.0
 40
1.0
 10
-10.9364794811
 20
28.6729030439
 30
0.0
 10
-10.9348170874
 20
28.6696391209
 30
0.0
 10
-10.9313851246
 20
28.6633563573
 30
0.0
 10
-10.9257762862
 20
28.6545069251
 30
0.0
 10
-10.9207781569
 20
28.6477444714
 30
0.0
 10
-10.9166297903
 20
28.6427907499
 30
0.0
 10
-10.9134946183
 20
28.6393520535
 30
0.0
 10
-10.9102983334
 20
28.6361450725
 30
0.0
 10
-10.907044918
 20
28.633174424
 30
0.0
 10
-10.9037385022
 20
28.630444056
 30
0.0
 10
-10.8993226567
 20
28.6271708365
 30
0.0
 10
-10.8936844415
 20
28.6236666612
 30
0.0
 10
-10.8877916024
 20
28.6209373321
 30
0.0
 10
-10.8830425303
 20
28.6192930631
 30
0.0
 10
-10.8794929037
 20
28.6183313056
 30
0.0
 10
-10.875927537
 20
28.6176309506
 30
0.0
 10
-10.8723512957
 20
28.6171926745
 30
0.0
 10
-10.8687691684
 20
28.6170172713
 30
0.0
 10
-10.8651861954
 20
28.6171055718
 30
0.0
 10
-10.8616074554
 20
28.6174570506
 30
0.0
 10
-10.8580379603
 20
28.6180708708
 30
0.0
 10
-10.8544825237
 20
28.6189463137
 30
0.0
 10
-10.849725666
 20
28.6204744951
 30
0.0
 10
-10.8438172546
 20
28.6230600836
 30
0.0
 10
-10.8369377834
 20
28.6271527114
 30
0.0
 10
-10.8302366712
 20
28.6322370177
 30
0.0
 10
-10.82490383
 20
28.6372063627
 30
0.0
 10
-10.8207534083
 20
28.6416287608
 30
0.0
 10
-10.8165748057
 20
28.6464822101
 30
0.0
 10
-10.8115352658
 20
28.6531240387
 30
0.0
 10
-10.8058729798
 20
28.6618378901
 30
0.0
 10
-10.8005461594
 20
28.671354876
 30
0.0
 10
-10.7955820392
 20
28.6816236787
 30
0.0
 10
-10.7910075401
 20
28.6925902622
 30
0.0
 10
-10.7868459241
 20
28.704195879
 30
0.0
 10
-10.783120309
 20
28.7163790051
 30
0.0
 10
-10.7798495364
 20
28.7290744467
 30
0.0
 10
-10.7770523241
 20
28.7422144744
 30
0.0
 10
-10.7747423538
 20
28.7557282469
 30
0.0
 10
-10.7729330315
 20
28.7695440716
 30
0.0
 10
-10.7716332665
 20
28.7835891127
 30
0.0
 10
-10.7708514406
 20
28.7977857065
 30
0.0
 10
-10.770676953
 20
28.8072950221
 30
0.0
 10
-10.770676953
 20
28.8120575621
 30
0.0
  0
SPLINE
  5
526
100
AcDbEntity
  8
0
100
AcDbSpline
 62
7
  6
CONTINUOUS
 70
0
 71
3
 72
48
 73
44
 74
0
 42
0.0000001
 43
0.0000001
 44
0.0000000001
 40
0.0
 40
0.0
 40
0.0
 40
0.0
 40
0.0334179923
 40
0.0652649576
 40
0.0955198217
 40
0.1100548361
 40
0.1241993503
 40
0.1379608929
 40
0.1513493687
 40
0.1643781899
 40
0.1770642332
 40
0.2014794699
 40
0.2248025374
 40
0.2361382423
 40
0.2472999614
 40
0.2583268681
 40
0.2692602216
 40
0.280142678
 40
0.2910178729
 40
0.3019296266
 40
0.3129209701
 40
0.3240336671
 40
0.3353077171
 40
0.3584733844
 40
0.3826928299
 40
0.4081742117
 40
0.4350713894
 40
0.44908838
 40
0.4634936212
 40
0.4934852627
 40
0.5250698598
 40
0.5582309524
 40
0.5929218775
 40
0.6290721128
 40
0.6665885028
 40
0.7053610256
 40
0.7452636781
 40
0.7861587047
 40
0.8278940323
 40
0.8703105866
 40
0.9132510557
 40
0.9565494392
 40
1.0
 40
1.0
 40
1.0
 40
1.0
 10
-10.9364794811
 20
28.9512120802
 30
0.0
 10
-10.9348170874
 20
28.9544760033
 30
0.0
 10
-10.9313851246
 20
28.9607587669
 30
0.0
 10
-10.9257762862
 20
28.9696081991
 30
0.0
 10
-10.9207781569
 20
28.9763706527
 30
0.0
 10
-10.9166297903
 20
28.9813243742
 30
0.0
 10
-10.9134946183
 20
28.9847630707
 30
0.0
 10
-10.9102983334
 20
28.9879700516
 30
0.0
 10
-10.907044918
 20
28.9909407002
 30
0.0
 10
-10.9037385022
 20
28.9936710681
 30
0.0
 10
-10.8993226567
 20
28.9969442877
 30
0.0
 10
-10.8936844415
 20
29.0004484629
 30
0.0
 10
-10.8877916024
 20
29.0031777921
 30
0.0
 10
-10.8830425303
 20
29.004822061
 30
0.0
 10
-10.8794929037
 20
29.0057838186
 30
0.0
 10
-10.875927537
 20
29.0064841735
 30
0.0
 10
-10.8723512957
 20
29.0069224496
 30
0.0
 10
-10.8687691684
 20
29.0070978528
 30
0.0
 10
-10.8651861954
 20
29.0070095523
 30
0.0
 10
-10.8616074554
 20
29.0066580735
 30
0.0
 10
-10.8580379603
 20
29.0060442534
 30
0.0
 10
-10.8544825237
 20
29.0051688104
 30
0.0
 10
-10.849725666
 20
29.0036406291
 30
0.0
 10
-10.8438172546
 20
29.0010550405
 30
0.0
 10
-10.8369377834
 20
28.9969624127
 30
0.0
 10
-10.8302366712
 20
28.9918781065
 30
0.0
 10
-10.82490383
 20
28.9869087615
 30
0.0
 10
-10.8207534083
 20
28.9824863633
 30
0.0
 10
-10.8165748057
 20
28.977632914
 30
0.0
 10
-10.8115352658
 20
28.9709910855
 30
0.0
 10
-10.8058729798
 20
28.9622772341
 30
0.0
 10
-10.8005461594
 20
28.9527602482
 30
0.0
 10
-10.7955820392
 20
28.9424914455
 30
0.0
 10
-10.7910075401
 20
28.9315248619
 30
0.0
 10
-10.7868459241
 20
28.9199192452
 30
0.0
 10
-10.783120309
 20
28.9077361191
 30
0.0
 10
-10.7798495364
 20
28.8950406775
 30
0.0
 10
-10.7770523241
 20
28.8819006498
 30
0.0
 10
-10.7747423538
 20
28.8683868772
 30
0.0
 10
-10.7729330315
 20
28.8545710526
 30
0.0
 10
-10.7716332665
 20
28.8405260115
 30
0.0
 10
-10.7708514406
 20
28.8263294176
 30
0.0
 10
-10.770676953
 20
28.8168201021
 30
0.0
 10
-10.770676953
 20
28.8120575621
 30
0.0
  0
SPLINE
  5
527
100
AcDbEntity
  8
0
100
AcDbSpline
 62
7
  6
CONTINUOUS
 70
0
 71
3
 72
28
 73
24
 74
0
 42
0.0000001
 43
0.0000001
 44
0.0000000001
 40
0.0
 40
0.0
 40
0.0
 40
0.0
 40
0.0809538291
 40
0.1613813644
 40
0.2406203138
 40
0.3181401174
 40
0.3934339808
 40
0.4660114845
 40
0.5354465657
 40
0.601381138
 40
0.6329553309
 40
0.6635612855
 40
0.6931812056
 40
0.7218083152
 40
0.7760736811
 40
0.8017638312
 40
0.8265284098
 40
0.8734496737
 40
0.9174196222
 40
0.9385589469
 40
0.9592787635
 40
0.9797122304
 40
1.0
 40
1.0
 40
1.0
 40
1.0
 10
2.4687456625
 20
28.8120575621
 30
0.0
 10
2.4687456625
 20
28.8151613589
 30
0.0
 10
2.4688975621
 20
28.821349843
 30
0.0
 10
2.469576989
 20
28.8305538821
 30
0.0
 10
2.470703593
 20
28.8395816938
 30
0.0
 10
2.4722653599
 20
28.8483448093
 30
0.0
 10
2.4742471321
 20
28.8567608075
 30
0.0
 10
2.4766306919
 20
28.8647496282
 30
0.0
 10
2.4793924892
 20
28.872234762
 30
0.0
 10
2.4820254489
 20
28.8780759851
 30
0.0
 10
2.4843069525
 20
28.8824272897
 30
0.0
 10
2.4860703419
 20
28.8854745682
 30
0.0
 10
2.4879068045
 20
28.8883454365
 30
0.0
 10
2.4904016353
 20
28.8918657932
 30
0.0
 10
2.4930619314
 20
28.8950809516
 30
0.0
 10
2.4958900448
 20
28.8979341649
 30
0.0
 10
2.4986821228
 20
28.9004157057
 30
0.0
 10
2.5022877739
 20
28.9030243017
 30
0.0
 10
2.506138277
 20
28.9049769715
 30
0.0
 10
2.5092498462
 20
28.9060602498
 30
0.0
 10
2.5115718035
 20
28.9066347748
 30
0.0
 10
2.513905484
 20
28.9069804164
 30
0.0
 10
2.5154678226
 20
28.9070575621
 30
0.0
 10
2.5162456625
 20
28.9070575621
 30
0.0
  0
SPLINE
  5
528
100
AcDbEntity
  8
0
100
AcDbSpline
 62
7
  6
CONTINUOUS
 70
0
 71
3
 72
28
 73
24
 74
0
 42
0.0000001
 43
0.0000001
 44
0.0000000001
 40
0.0
 40
0.0
 40
0.0
 40
0.0
 40
0.0809538291
 40
0.1613813644
 40
0.2406203138
 40
0.3181401174
 40
0.3934339808
 40
0.4660114845
 40
0.5354465657
 40
0.601381138
 40
0.6329553309
 40
0.6635612855
 40
0.6931812056
 40
0.7218083152
 40
0.7760736811
 40
0.8017638312
 40
0.8265284098
 40
0.8734496737
 40
0.9174196222
 40
0.9385589469
 40
0.9592787635
 40
0.9797122304
 40
1.0
 40
1.0
 40
1.0
 40
1.0
 10
2.4687456625
 20
28.8120575621
 30
0.0
 10
2.4687456625
 20
28.8089537652
 30
0.0
 10
2.4688975621
 20
28.8027652811
 30
0.0
 10
2.469576989
 20
28.793561242
 30
0.0
 10
2.470703593
 20
28.7845334304
 30
0.0
 10
2.4722653599
 20
28.7757703148
 30
0.0
 10
2.4742471321
 20
28.7673543167
 30
0.0
 10
2.4766306919
 20
28.759365496
 30
0.0
 10
2.4793924892
 20
28.7518803621
 30
0.0
 10
2.4820254489
 20
28.746039139
 30
0.0
 10
2.4843069525
 20
28.7416878344
 30
0.0
 10
2.4860703419
 20
28.7386405559
 30
0.0
 10
2.4879068045
 20
28.7357696876
 30
0.0
 10
2.4904016353
 20
28.732249331
 30
0.0
 10
2.4930619314
 20
28.7290341726
 30
0.0
 10
2.4958900448
 20
28.7261809592
 30
0.0
 10
2.4986821228
 20
28.7236994184
 30
0.0
 10
2.5022877739
 20
28.7210908225
 30
0.0
 10
2.506138277
 20
28.7191381526
 30
0.0
 10
2.5092498462
 20
28.7180548743
 30
0.0
 10
2.5115718035
 20
28.7174803493
 30
0.0
 10
2.513905484
 20
28.7171347078
 30
0.0
 10
2.5154678226
 20
28.7170575621
 30
0.0
 10
2.5162456625
 20
28.7170575621
 30
0.0
  0
SPLINE
  5
529
100
AcDbEntity
  8
0
100
AcDbSpline
 62
7
  6
CONTINUOUS
 70
0
 71
3
 72
48
 73
44
 74
0
 42
0.0000001
 43
0.0000001
 44
0.0000000001
 40
0.0
 40
0.0
 40
0.0
 40
0.0
 40
0.0434505608
 40
0.0867489443
 40
0.1296894134
 40
0.1721059677
 40
0.2138412953
 40
0.2547363219
 40
0.2946389744
 40
0.3334114972
 40
0.3709278872
 40
0.4070781225
 40
0.4417690476
 40
0.4749301402
 40
0.5065147373
 40
0.5365063788
 40
0.55091162
 40
0.5649286106
 40
0.5918257883
 40
0.6173071701
 40
0.6415266156
 40
0.6646922829
 40
0.6759663329
 40
0.6870790299
 40
0.6980703734
 40
0.7089821271
 40
0.719857322
 40
0.7307397784
 40
0.7416731319
 40
0.7527000386
 40
0.7638617577
 40
0.7751974626
 40
0.7985205301
 40
0.8229357668
 40
0.8356218101
 40
0.8486506313
 40
0.8620391071
 40
0.8758006497
 40
0.8899451639
 40
0.9044801783
 40
0.9347350424
 40
0.9665820077
 40
1.0
 40
1.0
 40
1.0
 40
1.0
 10
2.8690788724
 20
28.8120575621
 30
0.0
 10
2.8690788724
 20
28.8168201021
 30
0.0
 10
2.86925336
 20
28.8263294176
 30
0.0
 10
2.870035186
 20
28.8405260115
 30
0.0
 10
2.8713349509
 20
28.8545710526
 30
0.0
 10
2.8731442733
 20
28.8683868772
 30
0.0
 10
2.8754542435
 20
28.8819006498
 30
0.0
 10
2.8782514558
 20
28.8950406775
 30
0.0
 10
2.8815222284
 20
28.9077361191
 30
0.0
 10
2.8852478435
 20
28.9199192452
 30
0.0
 10
2.8894094595
 20
28.9315248619
 30
0.0
 10
2.8939839586
 20
28.9424914455
 30
0.0
 10
2.8989480788
 20
28.9527602482
 30
0.0
 10
2.9042748993
 20
28.9622772341
 30
0.0
 10
2.9099371853
 20
28.9709910855
 30
0.0
 10
2.9149767251
 20
28.977632914
 30
0.0
 10
2.9191553277
 20
28.9824863633
 30
0.0
 10
2.9233057494
 20
28.9869087615
 30
0.0
 10
2.9286385907
 20
28.9918781065
 30
0.0
 10
2.9353397029
 20
28.9969624127
 30
0.0
 10
2.942219174
 20
29.0010550405
 30
0.0
 10
2.9481275854
 20
29.0036406291
 30
0.0
 10
2.9528844431
 20
29.0051688104
 30
0.0
 10
2.9564398797
 20
29.0060442534
 30
0.0
 10
2.9600093748
 20
29.0066580735
 30
0.0
 10
2.9635881148
 20
29.0070095523
 30
0.0
 10
2.9671710879
 20
29.0070978528
 30
0.0
 10
2.9707532151
 20
29.0069224496
 30
0.0
 10
2.9743294564
 20
29.0064841735
 30
0.0
 10
2.9778948231
 20
29.0057838186
 30
0.0
 10
2.9814444498
 20
29.004822061
 30
0.0
 10
2.9861935218
 20
29.0031777921
 30
0.0
 10
2.9920863609
 20
29.0004484629
 30
0.0
 10
2.9977245761
 20
28.9969442877
 30
0.0
 10
3.0021404217
 20
28.9936710681
 30
0.0
 10
3.0054468374
 20
28.9909407002
 30
0.0
 10
3.0087002528
 20
28.9879700516
 30
0.0
 10
3.0118965377
 20
28.9847630707
 30
0.0
 10
3.0150317097
 20
28.9813243742
 30
0.0
 10
3.0191800763
 20
28.9763706527
 30
0.0
 10
3.0241782056
 20
28.9696081991
 30
0.0
 10
3.029787044
 20
28.9607587669
 30
0.0
 10
3.0332190069
 20
28.9544760033
 30
0.0
 10
3.0348814005
 20
28.9512120802
 30
0.0
  0
SPLINE
  5
52A
100
AcDbEntity
  8
0
100
AcDbSpline
 62
7
  6
CONTINUOUS
 70
0
 71
3
 72
48
 73
44
 74
0
 42
0.0000001
 43
0.0000001
 44
0.0000000001
 40
0.0
 40
0.0
 40
0.0
 40
0.0
 40
0.0434505608
 40
0.0867489443
 40
0.1296894134
 40
0.1721059677
 40
0.2138412953
 40
0.2547363219
 40
0.2946389744
 40
0.3334114972
 40
0.3709278872
 40
0.4070781225
 40
0.4417690476
 40
0.4749301402
 40
0.5065147373
 40
0.5365063788
 40
0.55091162
 40
0.5649286106
 40
0.5918257883
 40
0.6173071701
 40
0.6415266156
 40
0.6646922829
 40
0.6759663329
 40
0.6870790299
 40
0.6980703734
 40
0.7089821271
 40
0.719857322
 40
0.7307397784
 40
0.7416731319
 40
0.7527000386
 40
0.7638617577
 40
0.7751974626
 40
0.7985205301
 40
0.8229357668
 40
0.8356218101
 40
0.8486506313
 40
0.8620391071
 40
0.8758006497
 40
0.8899451639
 40
0.9044801783
 40
0.9347350424
 40
0.9665820077
 40
1.0
 40
1.0
 40
1.0
 40
1.0
 10
2.8690788724
 20
28.8120575621
 30
0.0
 10
2.8690788724
 20
28.8072950221
 30
0.0
 10
2.86925336
 20
28.7977857065
 30
0.0
 10
2.870035186
 20
28.7835891127
 30
0.0
 10
2.8713349509
 20
28.7695440716
 30
0.0
 10
2.8731442733
 20
28.7557282469
 30
0.0
 10
2.8754542435
 20
28.7422144744
 30
0.0
 10
2.8782514558
 20
28.7290744467
 30
0.0
 10
2.8815222284
 20
28.7163790051
 30
0.0
 10
2.8852478435
 20
28.704195879
 30
0.0
 10
2.8894094595
 20
28.6925902622
 30
0.0
 10
2.8939839586
 20
28.6816236787
 30
0.0
 10
2.8989480788
 20
28.671354876
 30
0.0
 10
2.9042748993
 20
28.6618378901
 30
0.0
 10
2.9099371853
 20
28.6531240387
 30
0.0
 10
2.9149767251
 20
28.6464822101
 30
0.0
 10
2.9191553277
 20
28.6416287608
 30
0.0
 10
2.9233057494
 20
28.6372063627
 30
0.0
 10
2.9286385907
 20
28.6322370177
 30
0.0
 10
2.9353397029
 20
28.6271527114
 30
0.0
 10
2.942219174
 20
28.6230600836
 30
0.0
 10
2.9481275854
 20
28.6204744951
 30
0.0
 10
2.9528844431
 20
28.6189463137
 30
0.0
 10
2.9564398797
 20
28.6180708708
 30
0.0
 10
2.9600093748
 20
28.6174570506
 30
0.0
 10
2.9635881148
 20
28.6171055718
 30
0.0
 10
2.9671710879
 20
28.6170172713
 30
0.0
 10
2.9707532151
 20
28.6171926745
 30
0.0
 10
2.9743294564
 20
28.6176309506
 30
0.0
 10
2.9778948231
 20
28.6183313056
 30
0.0
 10
2.9814444498
 20
28.6192930631
 30
0.0
 10
2.9861935218
 20
28.6209373321
 30
0.0
 10
2.9920863609
 20
28.6236666612
 30
0.0
 10
2.9977245761
 20
28.6271708365
 30
0.0
 10
3.0021404217
 20
28.630444056
 30
0.0
 10
3.0054468374
 20
28.633174424
 30
0.0
 10
3.0087002528
 20
28.6361450725
 30
0.0
 10
3.0118965377
 20
28.6393520535
 30
0.0
 10
3.0150317097
 20
28.6427907499
 30
0.0
 10
3.0191800763
 20
28.6477444714
 30
0.0
 10
3.0241782056
 20
28.6545069251
 30
0.0
 10
3.029787044
 20
28.6633563573
 30
0.0
 10
3.0332190069
 20
28.6696391209
 30
0.0
 10
3.0348814005
 20
28.6729030439
 30
0.0
  0
SPLINE
  5
52B
100
AcDbEntity
  8
0
100
AcDbSpline
 62
7
  6
CONTINUOUS
 70
0
 71
3
 72
28
 73
24
 74
0
 42
0.0000001
 43
0.0000001
 44
0.0000000001
 40
0.0
 40
0.0
 40
0.0
 40
0.0
 40
0.0809538291
 40
0.1613813644
 40
0.2406203138
 40
0.3181401174
 40
0.3934339808
 40
0.4660114845
 40
0.5354465657
 40
0.601381138
 40
0.6329553309
 40
0.6635612855
 40
0.6931812056
 40
0.7218083152
 40
0.7760736811
 40
0.8017638312
 40
0.8265284098
 40
0.8734496737
 40
0.9174196222
 40
0.9385589469
 40
0.9592787635
 40
0.9797122304
 40
1.0
 40
1.0
 40
1.0
 40
1.0
 10
2.4687456625
 20
26.5120575621
 30
0.0
 10
2.4687456625
 20
26.5151613589
 30
0.0
 10
2.4688975621
 20
26.521349843
 30
0.0
 10
2.469576989
 20
26.5305538821
 30
0.0
 10
2.470703593
 20
26.5395816938
 30
0.0
 10
2.4722653599
 20
26.5483448093
 30
0.0
 10
2.4742471321
 20
26.5567608075
 30
0.0
 10
2.4766306919
 20
26.5647496282
 30
0.0
 10
2.4793924892
 20
26.572234762
 30
0.0
 10
2.4820254489
 20
26.5780759851
 30
0.0
 10
2.4843069525
 20
26.5824272897
 30
0.0
 10
2.4860703419
 20
26.5854745682
 30
0.0
 10
2.4879068045
 20
26.5883454365
 30
0.0
 10
2.4904016353
 20
26.5918657932
 30
0.0
 10
2.4930619314
 20
26.5950809516
 30
0.0
 10
2.4958900448
 20
26.5979341649
 30
0.0
 10
2.4986821228
 20
26.6004157057
 30
0.0
 10
2.5022877739
 20
26.6030243017
 30
0.0
 10
2.506138277
 20
26.6049769715
 30
0.0
 10
2.5092498462
 20
26.6060602498
 30
0.0
 10
2.5115718035
 20
26.6066347748
 30
0.0
 10
2.513905484
 20
26.6069804164
 30
0.0
 10
2.5154678226
 20
26.6070575621
 30
0.0
 10
2.5162456625
 20
26.6070575621
 30
0.0
  0
SPLINE
  5
52C
100
AcDbEntity
  8
0
100
AcDbSpline
 62
7
  6
CONTINUOUS
 70
0
 71
3
 72
28
 73
24
 74
0
 42
0.0000001
 43
0.0000001
 44
0.0000000001
 40
0.0
 40
0.0
 40
0.0
 40
0.0
 40
0.0809538291
 40
0.1613813644
 40
0.2406203138
 40
0.3181401174
 40
0.3934339808
 40
0.4660114845
 40
0.5354465657
 40
0.601381138
 40
0.6329553309
 40
0.6635612855
 40
0.6931812056
 40
0.7218083152
 40
0.7760736811
 40
0.8017638312
 40
0.8265284098
 40
0.8734496737
 40
0.9174196222
 40
0.9385589469
 40
0.9592787635
 40
0.9797122304
 40
1.0
 40
1.0
 40
1.0
 40
1.0
 10
2.4687456625
 20
26.5120575621
 30
0.0
 10
2.4687456625
 20
26.5089537652
 30
0.0
 10
2.4688975621
 20
26.5027652811
 30
0.0
 10
2.469576989
 20
26.493561242
 30
0.0
 10
2.470703593
 20
26.4845334304
 30
0.0
 10
2.4722653599
 20
26.4757703148
 30
0.0
 10
2.4742471321
 20
26.4673543167
 30
0.0
 10
2.4766306919
 20
26.459365496
 30
0.0
 10
2.4793924892
 20
26.4518803621
 30
0.0
 10
2.4820254489
 20
26.446039139
 30
0.0
 10
2.4843069525
 20
26.4416878344
 30
0.0
 10
2.4860703419
 20
26.4386405559
 30
0.0
 10
2.4879068045
 20
26.4357696876
 30
0.0
 10
2.4904016353
 20
26.432249331
 30
0.0
 10
2.4930619314
 20
26.4290341726
 30
0.0
 10
2.4958900448
 20
26.4261809592
 30
0.0
 10
2.4986821228
 20
26.4236994184
 30
0.0
 10
2.5022877739
 20
26.4210908225
 30
0.0
 10
2.506138277
 20
26.4191381526
 30
0.0
 10
2.5092498462
 20
26.4180548743
 30
0.0
 10
2.5115718035
 20
26.4174803493
 30
0.0
 10
2.513905484
 20
26.4171347078
 30
0.0
 10
2.5154678226
 20
26.4170575621
 30
0.0
 10
2.5162456625
 20
26.4170575621
 30
0.0
  0
SPLINE
  5
52D
100
AcDbEntity
  8
0
100
AcDbSpline
 62
7
  6
CONTINUOUS
 70
0
 71
3
 72
48
 73
44
 74
0
 42
0.0000001
 43
0.0000001
 44
0.0000000001
 40
0.0
 40
0.0
 40
0.0
 40
0.0
 40
0.0434505608
 40
0.0867489443
 40
0.1296894134
 40
0.1721059677
 40
0.2138412953
 40
0.2547363219
 40
0.2946389744
 40
0.3334114972
 40
0.3709278872
 40
0.4070781225
 40
0.4417690476
 40
0.4749301402
 40
0.5065147373
 40
0.5365063788
 40
0.55091162
 40
0.5649286106
 40
0.5918257883
 40
0.6173071701
 40
0.6415266156
 40
0.6646922829
 40
0.6759663329
 40
0.6870790299
 40
0.6980703734
 40
0.7089821271
 40
0.719857322
 40
0.7307397784
 40
0.7416731319
 40
0.7527000386
 40
0.7638617577
 40
0.7751974626
 40
0.7985205301
 40
0.8229357668
 40
0.8356218101
 40
0.8486506313
 40
0.8620391071
 40
0.8758006497
 40
0.8899451639
 40
0.9044801783
 40
0.9347350424
 40
0.9665820077
 40
1.0
 40
1.0
 40
1.0
 40
1.0
 10
2.8690788724
 20
26.5120575621
 30
0.0
 10
2.8690788724
 20
26.5168201021
 30
0.0
 10
2.86925336
 20
26.5263294176
 30
0.0
 10
2.870035186
 20
26.5405260115
 30
0.0
 10
2.8713349509
 20
26.5545710526
 30
0.0
 10
2.8731442733
 20
26.5683868772
 30
0.0
 10
2.8754542435
 20
26.5819006498
 30
0.0
 10
2.8782514558
 20
26.5950406775
 30
0.0
 10
2.8815222284
 20
26.6077361191
 30
0.0
 10
2.8852478435
 20
26.6199192452
 30
0.0
 10
2.8894094595
 20
26.6315248619
 30
0.0
 10
2.8939839586
 20
26.6424914455
 30
0.0
 10
2.8989480788
 20
26.6527602482
 30
0.0
 10
2.9042748993
 20
26.6622772341
 30
0.0
 10
2.9099371853
 20
26.6709910855
 30
0.0
 10
2.9149767251
 20
26.677632914
 30
0.0
 10
2.9191553277
 20
26.6824863633
 30
0.0
 10
2.9233057494
 20
26.6869087615
 30
0.0
 10
2.9286385907
 20
26.6918781065
 30
0.0
 10
2.9353397029
 20
26.6969624127
 30
0.0
 10
2.942219174
 20
26.7010550405
 30
0.0
 10
2.9481275854
 20
26.7036406291
 30
0.0
 10
2.9528844431
 20
26.7051688104
 30
0.0
 10
2.9564398797
 20
26.7060442534
 30
0.0
 10
2.9600093748
 20
26.7066580735
 30
0.0
 10
2.9635881148
 20
26.7070095523
 30
0.0
 10
2.9671710879
 20
26.7070978528
 30
0.0
 10
2.9707532151
 20
26.7069224496
 30
0.0
 10
2.9743294564
 20
26.7064841735
 30
0.0
 10
2.9778948231
 20
26.7057838186
 30
0.0
 10
2.9814444498
 20
26.704822061
 30
0.0
 10
2.9861935218
 20
26.7031777921
 30
0.0
 10
2.9920863609
 20
26.7004484629
 30
0.0
 10
2.9977245761
 20
26.6969442877
 30
0.0
 10
3.0021404217
 20
26.6936710681
 30
0.0
 10
3.0054468374
 20
26.6909407002
 30
0.0
 10
3.0087002528
 20
26.6879700516
 30
0.0
 10
3.0118965377
 20
26.6847630707
 30
0.0
 10
3.0150317097
 20
26.6813243742
 30
0.0
 10
3.0191800763
 20
26.6763706527
 30
0.0
 10
3.0241782056
 20
26.6696081991
 30
0.0
 10
3.029787044
 20
26.6607587669
 30
0.0
 10
3.0332190069
 20
26.6544760033
 30
0.0
 10
3.0348814005
 20
26.6512120802
 30
0.0
  0
SPLINE
  5
52E
100
AcDbEntity
  8
0
100
AcDbSpline
 62
7
  6
CONTINUOUS
 70
0
 71
3
 72
48
 73
44
 74
0
 42
0.0000001
 43
0.0000001
 44
0.0000000001
 40
0.0
 40
0.0
 40
0.0
 40
0.0
 40
0.0434505608
 40
0.0867489443
 40
0.1296894134
 40
0.1721059677
 40
0.2138412953
 40
0.2547363219
 40
0.2946389744
 40
0.3334114972
 40
0.3709278872
 40
0.4070781225
 40
0.4417690476
 40
0.4749301402
 40
0.5065147373
 40
0.5365063788
 40
0.55091162
 40
0.5649286106
 40
0.5918257883
 40
0.6173071701
 40
0.6415266156
 40
0.6646922829
 40
0.6759663329
 40
0.6870790299
 40
0.6980703734
 40
0.7089821271
 40
0.719857322
 40
0.7307397784
 40
0.7416731319
 40
0.7527000386
 40
0.7638617577
 40
0.7751974626
 40
0.7985205301
 40
0.8229357668
 40
0.8356218101
 40
0.8486506313
 40
0.8620391071
 40
0.8758006497
 40
0.8899451639
 40
0.9044801783
 40
0.9347350424
 40
0.9665820077
 40
1.0
 40
1.0
 40
1.0
 40
1.0
 10
2.8690788724
 20
26.5120575621
 30
0.0
 10
2.8690788724
 20
26.5072950221
 30
0.0
 10
2.86925336
 20
26.4977857065
 30
0.0
 10
2.870035186
 20
26.4835891127
 30
0.0
 10
2.8713349509
 20
26.4695440716
 30
0.0
 10
2.8731442733
 20
26.4557282469
 30
0.0
 10
2.8754542435
 20
26.4422144744
 30
0.0
 10
2.8782514558
 20
26.4290744467
 30
0.0
 10
2.8815222284
 20
26.4163790051
 30
0.0
 10
2.8852478435
 20
26.404195879
 30
0.0
 10
2.8894094595
 20
26.3925902622
 30
0.0
 10
2.8939839586
 20
26.3816236787
 30
0.0
 10
2.8989480788
 20
26.371354876
 30
0.0
 10
2.9042748993
 20
26.3618378901
 30
0.0
 10
2.9099371853
 20
26.3531240387
 30
0.0
 10
2.9149767251
 20
26.3464822101
 30
0.0
 10
2.9191553277
 20
26.3416287608
 30
0.0
 10
2.9233057494
 20
26.3372063627
 30
0.0
 10
2.9286385907
 20
26.3322370177
 30
0.0
 10
2.9353397029
 20
26.3271527114
 30
0.0
 10
2.942219174
 20
26.3230600836
 30
0.0
 10
2.9481275854
 20
26.3204744951
 30
0.0
 10
2.9528844431
 20
26.3189463137
 30
0.0
 10
2.9564398797
 20
26.3180708708
 30
0.0
 10
2.9600093748
 20
26.3174570506
 30
0.0
 10
2.9635881148
 20
26.3171055718
 30
0.0
 10
2.9671710879
 20
26.3170172713
 30
0.0
 10
2.9707532151
 20
26.3171926745
 30
0.0
 10
2.9743294564
 20
26.3176309506
 30
0.0
 10
2.9778948231
 20
26.3183313056
 30
0.0
 10
2.9814444498
 20
26.3192930631
 30
0.0
 10
2.9861935218
 20
26.3209373321
 30
0.0
 10
2.9920863609
 20
26.3236666612
 30
0.0
 10
2.9977245761
 20
26.3271708365
 30
0.0
 10
3.0021404217
 20
26.330444056
 30
0.0
 10
3.0054468374
 20
26.333174424
 30
0.0
 10
3.0087002528
 20
26.3361450725
 30
0.0
 10
3.0118965377
 20
26.3393520535
 30
0.0
 10
3.0150317097
 20
26.3427907499
 30
0.0
 10
3.0191800763
 20
26.3477444714
 30
0.0
 10
3.0241782056
 20
26.3545069251
 30
0.0
 10
3.029787044
 20
26.3633563573
 30
0.0
 10
3.0332190069
 20
26.3696391209
 30
0.0
 10
3.0348814005
 20
26.3729030439
 30
0.0
  0
SPLINE
  5
52F
100
AcDbEntity
  8
0
100
AcDbSpline
 62
7
  6
CONTINUOUS
 70
0
 71
3
 72
20
 73
16
 74
0
 42
0.0000001
 43
0.0000001
 44
0.0000000001
 40
0.0
 40
0.0
 40
0.0
 40
0.0
 40
0.0624510153
 40
0.1250358108
 40
0.1875892898
 40
0.2501131682
 40
0.3126275778
 40
0.3751444506
 40
0.437682982
 40
0.5002027013
 40
0.5627223417
 40
0.6252433535
 40
0.7501308459
 40
0.8751337096
 40
1.0
 40
1.0
 40
1.0
 40
1.0
 10
-4.1673053912
 20
26.4951575621
 30
0.0
 10
-4.1673053912
 20
26.4959294939
 30
0.0
 10
-4.1674015091
 20
26.4974765526
 30
0.0
 10
-4.1678228419
 20
26.4997620775
 30
0.0
 10
-4.1685160457
 20
26.501981537
 30
0.0
 10
-4.1694627351
 20
26.5041037562
 30
0.0
 10
-4.1706414376
 20
26.5061055744
 30
0.0
 10
-4.172030765
 20
26.5079671136
 30
0.0
 10
-4.1736047556
 20
26.5096749579
 30
0.0
 10
-4.1753411343
 20
26.5112169848
 30
0.0
 10
-4.1772165596
 20
26.5125858578
 30
0.0
 10
-4.1798707573
 20
26.5141734475
 30
0.0
 10
-4.1834372222
 20
26.5157083273
 30
0.0
 10
-4.1879556709
 20
26.5168114356
 30
0.0
 10
-4.1910499112
 20
26.5170575621
 30
0.0
 10
-4.192593333
 20
26.5170575621
 30
0.0
  0
SPLINE
  5
530
100
AcDbEntity
  8
0
100
AcDbSpline
 62
7
  6
CONTINUOUS
 70
0
 71
3
 72
20
 73
16
 74
0
 42
0.0000001
 43
0.0000001
 44
0.0000000001
 40
0.0
 40
0.0
 40
0.0
 40
0.0
 40
0.0624510153
 40
0.1250358108
 40
0.1875892898
 40
0.2501131682
 40
0.3126275778
 40
0.3751444506
 40
0.437682982
 40
0.5002027013
 40
0.5627223417
 40
0.6252433535
 40
0.7501308459
 40
0.8751337096
 40
1.0
 40
1.0
 40
1.0
 40
1.0
 10
-3.7342926893
 20
26.4951575621
 30
0.0
 10
-3.7342926893
 20
26.4959294939
 30
0.0
 10
-3.7341965715
 20
26.4974765526
 30
0.0
 10
-3.7337752387
 20
26.4997620775
 30
0.0
 10
-3.7330820349
 20
26.501981537
 30
0.0
 10
-3.7321353455
 20
26.5041037562
 30
0.0
 10
-3.7309566429
 20
26.5061055744
 30
0.0
 10
-3.7295673156
 20
26.5079671136
 30
0.0
 10
-3.7279933249
 20
26.5096749579
 30
0.0
 10
-3.7262569462
 20
26.5112169848
 30
0.0
 10
-3.724381521
 20
26.5125858578
 30
0.0
 10
-3.7217273233
 20
26.5141734475
 30
0.0
 10
-3.7181608583
 20
26.5157083273
 30
0.0
 10
-3.7136424096
 20
26.5168114356
 30
0.0
 10
-3.7105481694
 20
26.5170575621
 30
0.0
 10
-3.7090047475
 20
26.5170575621
 30
0.0
  0
SPLINE
  5
531
100
AcDbEntity
  8
0
100
AcDbSpline
 62
7
  6
CONTINUOUS
 70
0
 71
3
 72
21
 73
17
 74
0
 42
0.0000001
 43
0.0000001
 44
0.0000000001
 40
0.0
 40
0.0
 40
0.0
 40
0.0
 40
0.1249878024
 40
0.1874878899
 40
0.2499891327
 40
0.3124908104
 40
0.3749936014
 40
0.4374965966
 40
0.5
 40
0.5625034034
 40
0.6250063986
 40
0.6875091896
 40
0.7500108673
 40
0.8125121101
 40
0.8750121976
 40
1.0
 40
1.0
 40
1.0
 40
1.0
 10
-4.0590522158
 20
26.3440930617
 30
0.0
 10
-4.0502537785
 20
26.3415531717
 30
0.0
 10
-4.0369581611
 20
26.3380629627
 30
0.0
 10
-4.019047566
 20
26.3342170352
 30
0.0
 10
-4.0055245166
 20
26.3317794802
 30
0.0
 10
-3.9919219918
 20
26.3298302565
 30
0.0
 10
-3.9782537978
 20
26.3284072674
 30
0.0
 10
-3.9645386605
 20
26.3275407295
 30
0.0
 10
-3.9507990403
 20
26.3272489907
 30
0.0
 10
-3.9370594201
 20
26.3275407295
 30
0.0
 10
-3.9233442828
 20
26.3284072674
 30
0.0
 10
-3.9096760888
 20
26.3298302565
 30
0.0
 10
-3.896073564
 20
26.3317794802
 30
0.0
 10
-3.8825505145
 20
26.3342170352
 30
0.0
 10
-3.8646399195
 20
26.3380629627
 30
0.0
 10
-3.851344302
 20
26.3415531717
 30
0.0
 10
-3.8425458648
 20
26.3440930617
 30
0.0
  0
SPLINE
  5
532
100
AcDbEntity
  8
0
100
AcDbSpline
 62
7
  6
CONTINUOUS
 70
0
 71
3
 72
20
 73
16
 74
0
 42
0.0000001
 43
0.0000001
 44
0.0000000001
 40
0.0
 40
0.0
 40
0.0
 40
0.0
 40
0.0837825316
 40
0.1668205226
 40
0.3265531609
 40
0.4737997088
 40
0.605775902
 40
0.6658290323
 40
0.7220447888
 40
0.7746430092
 40
0.824011642
 40
0.8706339298
 40
0.915072831
 40
0.9579636695
 40
1.0
 40
1.0
 40
1.0
 40
1.0
 10
-3.8425458648
 20
26.4951575621
 30
0.0
 10
-3.8425458648
 20
26.4959284032
 30
0.0
 10
-3.8424984288
 20
26.4974637098
 30
0.0
 10
-3.842223973
 20
26.5004569208
 30
0.0
 10
-3.8415667979
 20
26.5039955968
 30
0.0
 10
-3.8403098951
 20
26.507846144
 30
0.0
 10
-3.8389089429
 20
26.5106527018
 30
0.0
 10
-3.8376223338
 20
26.5125433541
 30
0.0
 10
-3.836628111
 20
26.5137406773
 30
0.0
 10
-3.8355836592
 20
26.5147584293
 30
0.0
 10
-3.8344975353
 20
26.5155942665
 30
0.0
 10
-3.8333778045
 20
26.5162466037
 30
0.0
 10
-3.832232574
 20
26.5167137081
 30
0.0
 10
-3.8310713823
 20
26.5169946538
 30
0.0
 10
-3.8302886492
 20
26.5170575621
 30
0.0
 10
-3.8299018939
 20
26.5170575621
 30
0.0
  0
SPLINE
  5
533
100
AcDbEntity
  8
0
100
AcDbSpline
 62
7
  6
CONTINUOUS
 70
0
 71
3
 72
11
 73
7
 74
0
 42
0.0000001
 43
0.0000001
 44
0.0000000001
 40
0.0
 40
0.0
 40
0.0
 40
0.0
 40
0.2572860881
 40
0.5096780896
 40
0.7571556577
 40
1.0
 40
1.0
 40
1.0
 40
1.0
 10
-4.1673053912
 20
26.3440930617
 30
0.0
 10
-4.1648115836
 20
26.3426532612
 30
0.0
 10
-4.1598065631
 20
26.3399109838
 30
0.0
 10
-4.152164478
 20
26.3362381
 30
0.0
 10
-4.1444576631
 20
26.3331074913
 30
0.0
 10
-4.1392320843
 20
26.3314104568
 30
0.0
 10
-4.1366148203
 20
26.3306774712
 30
0.0
  0
SPLINE
  5
534
100
AcDbEntity
  8
0
100
AcDbSpline
 62
7
  6
CONTINUOUS
 70
0
 71
3
 72
19
 73
15
 74
0
 42
0.0000001
 43
0.0000001
 44
0.0000000001
 40
0.0
 40
0.0
 40
0.0
 40
0.0
 40
0.1228781095
 40
0.183704646
 40
0.2442904954
 40
0.3047879769
 40
0.3653556749
 40
0.4261469538
 40
0.4873049404
 40
0.5489546854
 40
0.6111988128
 40
0.7377340531
 40
0.867314928
 40
1.0
 40
1.0
 40
1.0
 40
1.0
 10
-4.1350062993
 20
26.3302416234
 30
0.0
 10
-4.1318605344
 20
26.3294179863
 30
0.0
 10
-4.1270893014
 20
26.328422683
 30
0.0
 10
-4.1206688151
 20
26.3276445451
 30
0.0
 10
-4.1158613132
 20
26.3273432382
 30
0.0
 10
-4.1110514111
 20
26.3273266874
 30
0.0
 10
-4.106243547
 20
26.3275953799
 30
0.0
 10
-4.1014421633
 20
26.3281449584
 30
0.0
 10
-4.0966516771
 20
26.328970957
 30
0.0
 10
-4.0918753825
 20
26.3300626177
 30
0.0
 10
-4.085496483
 20
26.3318688266
 30
0.0
 10
-4.0775646407
 20
26.3347453881
 30
0.0
 10
-4.0682005218
 20
26.3390297934
 30
0.0
 10
-4.0620931165
 20
26.3423373969
 30
0.0
 10
-4.0590522158
 20
26.3440930617
 30
0.0
  0
SPLINE
  5
535
100
AcDbEntity
  8
0
100
AcDbSpline
 62
7
  6
CONTINUOUS
 70
0
 71
3
 72
20
 73
16
 74
0
 42
0.0000001
 43
0.0000001
 44
0.0000000001
 40
0.0
 40
0.0
 40
0.0
 40
0.0
 40
0.0837825316
 40
0.1668205226
 40
0.3265531609
 40
0.4737997088
 40
0.605775902
 40
0.6658290323
 40
0.7220447888
 40
0.7746430092
 40
0.824011642
 40
0.8706339298
 40
0.915072831
 40
0.9579636695
 40
1.0
 40
1.0
 40
1.0
 40
1.0
 10
-4.0590522158
 20
26.4951575621
 30
0.0
 10
-4.0590522158
 20
26.4959284032
 30
0.0
 10
-4.0590996517
 20
26.4974637098
 30
0.0
 10
-4.0593741076
 20
26.5004569208
 30
0.0
 10
-4.0600312827
 20
26.5039955968
 30
0.0
 10
-4.0612881855
 20
26.507846144
 30
0.0
 10
-4.0626891377
 20
26.5106527018
 30
0.0
 10
-4.0639757467
 20
26.5125433541
 30
0.0
 10
-4.0649699696
 20
26.5137406773
 30
0.0
 10
-4.0660144214
 20
26.5147584293
 30
0.0
 10
-4.0671005452
 20
26.5155942665
 30
0.0
 10
-4.0682202761
 20
26.5162466037
 30
0.0
 10
-4.0693655066
 20
26.5167137081
 30
0.0
 10
-4.0705266982
 20
26.5169946538
 30
0.0
 10
-4.0713094314
 20
26.5170575621
 30
0.0
 10
-4.0716961867
 20
26.5170575621
 30
0.0
  0
SPLINE
  5
536
100
AcDbEntity
  8
0
100
AcDbSpline
 62
7
  6
CONTINUOUS
 70
0
 71
3
 72
19
 73
15
 74
0
 42
0.0000001
 43
0.0000001
 44
0.0000000001
 40
0.0
 40
0.0
 40
0.0
 40
0.0
 40
0.132685072
 40
0.2622659469
 40
0.3888011872
 40
0.4510453146
 40
0.5126950596
 40
0.5738530462
 40
0.6346443251
 40
0.6952120231
 40
0.7557095046
 40
0.816295354
 40
0.8771218905
 40
1.0
 40
1.0
 40
1.0
 40
1.0
 10
-3.8425458648
 20
26.3440930617
 30
0.0
 10
-3.8395049641
 20
26.3423373969
 30
0.0
 10
-3.8333975588
 20
26.3390297934
 30
0.0
 10
-3.8240334399
 20
26.3347453881
 30
0.0
 10
-3.8161015976
 20
26.3318688266
 30
0.0
 10
-3.809722698
 20
26.3300626177
 30
0.0
 10
-3.8049464035
 20
26.328970957
 30
0.0
 10
-3.8001559173
 20
26.3281449584
 30
0.0
 10
-3.7953545336
 20
26.3275953799
 30
0.0
 10
-3.7905466694
 20
26.3273266874
 30
0.0
 10
-3.7857367674
 20
26.3273432382
 30
0.0
 10
-3.7809292655
 20
26.3276445451
 30
0.0
 10
-3.7745087791
 20
26.328422683
 30
0.0
 10
-3.7697375462
 20
26.3294179863
 30
0.0
 10
-3.7665917813
 20
26.3302416234
 30
0.0
  0
SPLINE
  5
537
100
AcDbEntity
  8
0
100
AcDbSpline
 62
7
  6
CONTINUOUS
 70
0
 71
3
 72
11
 73
7
 74
0
 42
0.0000001
 43
0.0000001
 44
0.0000000001
 40
0.0
 40
0.0
 40
0.0
 40
0.0
 40
0.242525876
 40
0.489855189
 40
0.7423461086
 40
1.0
 40
1.0
 40
1.0
 40
1.0
 10
-3.7665917813
 20
26.3302416234
 30
0.0
 10
-3.7638356462
 20
26.330963246
 30
0.0
 10
-3.7583310244
 20
26.3326672074
 30
0.0
 10
-3.7502172833
 20
26.3358823888
 30
0.0
 10
-3.7421755663
 20
26.3397045939
 30
0.0
 10
-3.736913934
 20
26.3425796854
 30
0.0
 10
-3.7342926893
 20
26.3440930617
 30
0.0
  0
SPLINE
  5
538
100
AcDbEntity
  8
0
100
AcDbSpline
 62
7
  6
CONTINUOUS
 70
0
 71
3
 72
20
 73
16
 74
0
 42
0.0000001
 43
0.0000001
 44
0.0000000001
 40
0.0
 40
0.0
 40
0.0
 40
0.0
 40
0.0624510153
 40
0.1250358108
 40
0.1875892898
 40
0.2501131682
 40
0.3126275778
 40
0.3751444506
 40
0.437682982
 40
0.5002027013
 40
0.5627223417
 40
0.6252433535
 40
0.7501308459
 40
0.8751337096
 40
1.0
 40
1.0
 40
1.0
 40
1.0
 10
0.8123406805
 20
26.4951575621
 30
0.0
 10
0.8123406805
 20
26.4959294939
 30
0.0
 10
0.8122445627
 20
26.4974765526
 30
0.0
 10
0.8118232299
 20
26.4997620775
 30
0.0
 10
0.8111300261
 20
26.501981537
 30
0.0
 10
0.8101833367
 20
26.5041037562
 30
0.0
 10
0.8090046341
 20
26.5061055744
 30
0.0
 10
0.8076153068
 20
26.5079671136
 30
0.0
 10
0.8060413161
 20
26.5096749579
 30
0.0
 10
0.8043049374
 20
26.5112169848
 30
0.0
 10
0.8024295122
 20
26.5125858578
 30
0.0
 10
0.7997753145
 20
26.5141734475
 30
0.0
 10
0.7962088495
 20
26.5157083273
 30
0.0
 10
0.7916904008
 20
26.5168114356
 30
0.0
 10
0.7885961606
 20
26.5170575621
 30
0.0
 10
0.7870527387
 20
26.5170575621
 30
0.0
  0
SPLINE
  5
539
100
AcDbEntity
  8
0
100
AcDbSpline
 62
7
  6
CONTINUOUS
 70
0
 71
3
 72
20
 73
16
 74
0
 42
0.0000001
 43
0.0000001
 44
0.0000000001
 40
0.0
 40
0.0
 40
0.0
 40
0.0
 40
0.0624510153
 40
0.1250358108
 40
0.1875892898
 40
0.2501131682
 40
0.3126275778
 40
0.3751444506
 40
0.437682982
 40
0.5002027013
 40
0.5627223417
 40
0.6252433535
 40
0.7501308459
 40
0.8751337096
 40
1.0
 40
1.0
 40
1.0
 40
1.0
 10
1.2453533824
 20
26.4951575621
 30
0.0
 10
1.2453533824
 20
26.4959294939
 30
0.0
 10
1.2454495003
 20
26.4974765526
 30
0.0
 10
1.2458708331
 20
26.4997620775
 30
0.0
 10
1.2465640369
 20
26.501981537
 30
0.0
 10
1.2475107263
 20
26.5041037562
 30
0.0
 10
1.2486894288
 20
26.5061055744
 30
0.0
 10
1.2500787562
 20
26.5079671136
 30
0.0
 10
1.2516527468
 20
26.5096749579
 30
0.0
 10
1.2533891255
 20
26.5112169848
 30
0.0
 10
1.2552645508
 20
26.5125858578
 30
0.0
 10
1.2579187485
 20
26.5141734475
 30
0.0
 10
1.2614852134
 20
26.5157083273
 30
0.0
 10
1.2660036621
 20
26.5168114356
 30
0.0
 10
1.2690979024
 20
26.5170575621
 30
0.0
 10
1.2706413242
 20
26.5170575621
 30
0.0
  0
SPLINE
  5
53A
100
AcDbEntity
  8
0
100
AcDbSpline
 62
7
  6
CONTINUOUS
 70
0
 71
3
 72
21
 73
17
 74
0
 42
0.0000001
 43
0.0000001
 44
0.0000000001
 40
0.0
 40
0.0
 40
0.0
 40
0.0
 40
0.1249878024
 40
0.1874878899
 40
0.2499891327
 40
0.3124908104
 40
0.3749936014
 40
0.4374965966
 40
0.5
 40
0.5625034034
 40
0.6250063986
 40
0.6875091896
 40
0.7500108673
 40
0.8125121101
 40
0.8750121976
 40
1.0
 40
1.0
 40
1.0
 40
1.0
 10
0.920593856
 20
26.3440930617
 30
0.0
 10
0.9293922932
 20
26.3415531717
 30
0.0
 10
0.9426879106
 20
26.3380629627
 30
0.0
 10
0.9605985057
 20
26.3342170352
 30
0.0
 10
0.9741215552
 20
26.3317794802
 30
0.0
 10
0.98772408
 20
26.3298302565
 30
0.0
 10
1.001392274
 20
26.3284072674
 30
0.0
 10
1.0151074113
 20
26.3275407295
 30
0.0
 10
1.0288470315
 20
26.3272489907
 30
0.0
 10
1.0425866517
 20
26.3275407295
 30
0.0
 10
1.056301789
 20
26.3284072674
 30
0.0
 10
1.069969983
 20
26.3298302565
 30
0.0
 10
1.0835725078
 20
26.3317794802
 30
0.0
 10
1.0970955572
 20
26.3342170352
 30
0.0
 10
1.1150061523
 20
26.3380629627
 30
0.0
 10
1.1283017697
 20
26.3415531717
 30
0.0
 10
1.1371002069
 20
26.3440930617
 30
0.0
  0
SPLINE
  5
53B
100
AcDbEntity
  8
0
100
AcDbSpline
 62
7
  6
CONTINUOUS
 70
0
 71
3
 72
20
 73
16
 74
0
 42
0.0000001
 43
0.0000001
 44
0.0000000001
 40
0.0
 40
0.0
 40
0.0
 40
0.0
 40
0.0837825316
 40
0.1668205226
 40
0.3265531609
 40
0.4737997088
 40
0.605775902
 40
0.6658290323
 40
0.7220447888
 40
0.7746430092
 40
0.824011642
 40
0.8706339298
 40
0.915072831
 40
0.9579636695
 40
1.0
 40
1.0
 40
1.0
 40
1.0
 10
1.1371002069
 20
26.4951575621
 30
0.0
 10
1.1371002069
 20
26.4959284032
 30
0.0
 10
1.1371476429
 20
26.4974637098
 30
0.0
 10
1.1374220988
 20
26.5004569208
 30
0.0
 10
1.1380792739
 20
26.5039955968
 30
0.0
 10
1.1393361767
 20
26.507846144
 30
0.0
 10
1.1407371288
 20
26.5106527018
 30
0.0
 10
1.1420237379
 20
26.5125433541
 30
0.0
 10
1.1430179608
 20
26.5137406773
 30
0.0
 10
1.1440624126
 20
26.5147584293
 30
0.0
 10
1.1451485364
 20
26.5155942665
 30
0.0
 10
1.1462682673
 20
26.5162466037
 30
0.0
 10
1.1474134977
 20
26.5167137081
 30
0.0
 10
1.1485746894
 20
26.5169946538
 30
0.0
 10
1.1493574226
 20
26.5170575621
 30
0.0
 10
1.1497441778
 20
26.5170575621
 30
0.0
  0
SPLINE
  5
53C
100
AcDbEntity
  8
0
100
AcDbSpline
 62
7
  6
CONTINUOUS
 70
0
 71
3
 72
11
 73
7
 74
0
 42
0.0000001
 43
0.0000001
 44
0.0000000001
 40
0.0
 40
0.0
 40
0.0
 40
0.0
 40
0.2572860881
 40
0.5096780896
 40
0.7571556577
 40
1.0
 40
1.0
 40
1.0
 40
1.0
 10
0.8123406805
 20
26.3440930617
 30
0.0
 10
0.8148344881
 20
26.3426532612
 30
0.0
 10
0.8198395087
 20
26.3399109838
 30
0.0
 10
0.8274815937
 20
26.3362381
 30
0.0
 10
0.8351884087
 20
26.3331074913
 30
0.0
 10
0.8404139875
 20
26.3314104568
 30
0.0
 10
0.8430312514
 20
26.3306774712
 30
0.0
  0
SPLINE
  5
53D
100
AcDbEntity
  8
0
100
AcDbSpline
 62
7
  6
CONTINUOUS
 70
0
 71
3
 72
19
 73
15
 74
0
 42
0.0000001
 43
0.0000001
 44
0.0000000001
 40
0.0
 40
0.0
 40
0.0
 40
0.0
 40
0.1228781095
 40
0.183704646
 40
0.2442904954
 40
0.3047879769
 40
0.3653556749
 40
0.4261469538
 40
0.4873049404
 40
0.5489546854
 40
0.6111988128
 40
0.7377340531
 40
0.867314928
 40
1.0
 40
1.0
 40
1.0
 40
1.0
 10
0.8446397725
 20
26.3302416234
 30
0.0
 10
0.8477855374
 20
26.3294179863
 30
0.0
 10
0.8525567703
 20
26.328422683
 30
0.0
 10
0.8589772567
 20
26.3276445451
 30
0.0
 10
0.8637847586
 20
26.3273432382
 30
0.0
 10
0.8685946606
 20
26.3273266874
 30
0.0
 10
0.8734025248
 20
26.3275953799
 30
0.0
 10
0.8782039085
 20
26.3281449584
 30
0.0
 10
0.8829943946
 20
26.328970957
 30
0.0
 10
0.8877706892
 20
26.3300626177
 30
0.0
 10
0.8941495888
 20
26.3318688266
 30
0.0
 10
0.902081431
 20
26.3347453881
 30
0.0
 10
0.91144555
 20
26.3390297934
 30
0.0
 10
0.9175529553
 20
26.3423373969
 30
0.0
 10
0.920593856
 20
26.3440930617
 30
0.0
  0
SPLINE
  5
53E
100
AcDbEntity
  8
0
100
AcDbSpline
 62
7
  6
CONTINUOUS
 70
0
 71
3
 72
20
 73
16
 74
0
 42
0.0000001
 43
0.0000001
 44
0.0000000001
 40
0.0
 40
0.0
 40
0.0
 40
0.0
 40
0.0837825316
 40
0.1668205226
 40
0.3265531609
 40
0.4737997088
 40
0.605775902
 40
0.6658290323
 40
0.7220447888
 40
0.7746430092
 40
0.824011642
 40
0.8706339298
 40
0.915072831
 40
0.9579636695
 40
1.0
 40
1.0
 40
1.0
 40
1.0
 10
0.920593856
 20
26.4951575621
 30
0.0
 10
0.920593856
 20
26.4959284032
 30
0.0
 10
0.92054642
 20
26.4974637098
 30
0.0
 10
0.9202719641
 20
26.5004569208
 30
0.0
 10
0.9196147891
 20
26.5039955968
 30
0.0
 10
0.9183578863
 20
26.507846144
 30
0.0
 10
0.9169569341
 20
26.5106527018
 30
0.0
 10
0.915670325
 20
26.5125433541
 30
0.0
 10
0.9146761022
 20
26.5137406773
 30
0.0
 10
0.9136316504
 20
26.5147584293
 30
0.0
 10
0.9125455265
 20
26.5155942665
 30
0.0
 10
0.9114257957
 20
26.5162466037
 30
0.0
 10
0.9102805652
 20
26.5167137081
 30
0.0
 10
0.9091193735
 20
26.5169946538
 30
0.0
 10
0.9083366404
 20
26.5170575621
 30
0.0
 10
0.9079498851
 20
26.5170575621
 30
0.0
  0
SPLINE
  5
53F
100
AcDbEntity
  8
0
100
AcDbSpline
 62
7
  6
CONTINUOUS
 70
0
 71
3
 72
19
 73
15
 74
0
 42
0.0000001
 43
0.0000001
 44
0.0000000001
 40
0.0
 40
0.0
 40
0.0
 40
0.0
 40
0.132685072
 40
0.2622659469
 40
0.3888011872
 40
0.4510453146
 40
0.5126950596
 40
0.5738530462
 40
0.6346443251
 40
0.6952120231
 40
0.7557095046
 40
0.816295354
 40
0.8771218905
 40
1.0
 40
1.0
 40
1.0
 40
1.0
 10
1.1371002069
 20
26.3440930617
 30
0.0
 10
1.1401411077
 20
26.3423373969
 30
0.0
 10
1.146248513
 20
26.3390297934
 30
0.0
 10
1.1556126319
 20
26.3347453881
 30
0.0
 10
1.1635444741
 20
26.3318688266
 30
0.0
 10
1.1699233737
 20
26.3300626177
 30
0.0
 10
1.1746996683
 20
26.328970957
 30
0.0
 10
1.1794901545
 20
26.3281449584
 30
0.0
 10
1.1842915382
 20
26.3275953799
 30
0.0
 10
1.1890994023
 20
26.3273266874
 30
0.0
 10
1.1939093044
 20
26.3273432382
 30
0.0
 10
1.1987168063
 20
26.3276445451
 30
0.0
 10
1.2051372926
 20
26.328422683
 30
0.0
 10
1.2099085256
 20
26.3294179863
 30
0.0
 10
1.2130542905
 20
26.3302416234
 30
0.0
  0
SPLINE
  5
540
100
AcDbEntity
  8
0
100
AcDbSpline
 62
7
  6
CONTINUOUS
 70
0
 71
3
 72
11
 73
7
 74
0
 42
0.0000001
 43
0.0000001
 44
0.0000000001
 40
0.0
 40
0.0
 40
0.0
 40
0.0
 40
0.242525876
 40
0.489855189
 40
0.7423461086
 40
1.0
 40
1.0
 40
1.0
 40
1.0
 10
1.2130542905
 20
26.3302416234
 30
0.0
 10
1.2158104255
 20
26.330963246
 30
0.0
 10
1.2213150473
 20
26.3326672074
 30
0.0
 10
1.2294287885
 20
26.3358823888
 30
0.0
 10
1.2374705055
 20
26.3397045939
 30
0.0
 10
1.2427321378
 20
26.3425796854
 30
0.0
 10
1.2453533824
 20
26.3440930617
 30
0.0
  0
SPLINE
  5
541
100
AcDbEntity
  8
0
100
AcDbSpline
 62
7
  6
CONTINUOUS
 70
0
 71
3
 72
20
 73
16
 74
0
 42
0.0000001
 43
0.0000001
 44
0.0000000001
 40
0.0
 40
0.0
 40
0.0
 40
0.0
 40
0.0624510153
 40
0.1250358108
 40
0.1875892898
 40
0.2501131682
 40
0.3126275778
 40
0.3751444506
 40
0.437682982
 40
0.5002027013
 40
0.5627223417
 40
0.6252433535
 40
0.7501308459
 40
0.8751337096
 40
1.0
 40
1.0
 40
1.0
 40
1.0
 10
-9.146951463
 20
26.4951575621
 30
0.0
 10
-9.146951463
 20
26.4959294939
 30
0.0
 10
-9.1470475809
 20
26.4974765526
 30
0.0
 10
-9.1474689136
 20
26.4997620775
 30
0.0
 10
-9.1481621174
 20
26.501981537
 30
0.0
 10
-9.1491088068
 20
26.5041037562
 30
0.0
 10
-9.1502875094
 20
26.5061055744
 30
0.0
 10
-9.1516768368
 20
26.5079671136
 30
0.0
 10
-9.1532508274
 20
26.5096749579
 30
0.0
 10
-9.1549872061
 20
26.5112169848
 30
0.0
 10
-9.1568626313
 20
26.5125858578
 30
0.0
 10
-9.1595168291
 20
26.5141734475
 30
0.0
 10
-9.163083294
 20
26.5157083273
 30
0.0
 10
-9.1676017427
 20
26.5168114356
 30
0.0
 10
-9.170695983
 20
26.5170575621
 30
0.0
 10
-9.1722394048
 20
26.5170575621
 30
0.0
  0
SPLINE
  5
542
100
AcDbEntity
  8
0
100
AcDbSpline
 62
7
  6
CONTINUOUS
 70
0
 71
3
 72
20
 73
16
 74
0
 42
0.0000001
 43
0.0000001
 44
0.0000000001
 40
0.0
 40
0.0
 40
0.0
 40
0.0
 40
0.0624510153
 40
0.1250358108
 40
0.1875892898
 40
0.2501131682
 40
0.3126275778
 40
0.3751444506
 40
0.437682982
 40
0.5002027013
 40
0.5627223417
 40
0.6252433535
 40
0.7501308459
 40
0.8751337096
 40
1.0
 40
1.0
 40
1.0
 40
1.0
 10
-8.7139387611
 20
26.4951575621
 30
0.0
 10
-8.7139387611
 20
26.4959294939
 30
0.0
 10
-8.7138426432
 20
26.4974765526
 30
0.0
 10
-8.7134213105
 20
26.4997620775
 30
0.0
 10
-8.7127281066
 20
26.501981537
 30
0.0
 10
-8.7117814172
 20
26.5041037562
 30
0.0
 10
-8.7106027147
 20
26.5061055744
 30
0.0
 10
-8.7092133873
 20
26.5079671136
 30
0.0
 10
-8.7076393967
 20
26.5096749579
 30
0.0
 10
-8.705903018
 20
26.5112169848
 30
0.0
 10
-8.7040275928
 20
26.5125858578
 30
0.0
 10
-8.701373395
 20
26.5141734475
 30
0.0
 10
-8.6978069301
 20
26.5157083273
 30
0.0
 10
-8.6932884814
 20
26.5168114356
 30
0.0
 10
-8.6901942411
 20
26.5170575621
 30
0.0
 10
-8.6886508193
 20
26.5170575621
 30
0.0
  0
SPLINE
  5
543
100
AcDbEntity
  8
0
100
AcDbSpline
 62
7
  6
CONTINUOUS
 70
0
 71
3
 72
21
 73
17
 74
0
 42
0.0000001
 43
0.0000001
 44
0.0000000001
 40
0.0
 40
0.0
 40
0.0
 40
0.0
 40
0.1249878024
 40
0.1874878899
 40
0.2499891327
 40
0.3124908104
 40
0.3749936014
 40
0.4374965966
 40
0.5
 40
0.5625034034
 40
0.6250063986
 40
0.6875091896
 40
0.7500108673
 40
0.8125121101
 40
0.8750121976
 40
1.0
 40
1.0
 40
1.0
 40
1.0
 10
-9.0386982875
 20
26.3440930617
 30
0.0
 10
-9.0298998503
 20
26.3415531717
 30
0.0
 10
-9.0166042329
 20
26.3380629627
 30
0.0
 10
-8.9986936378
 20
26.3342170352
 30
0.0
 10
-8.9851705884
 20
26.3317794802
 30
0.0
 10
-8.9715680636
 20
26.3298302565
 30
0.0
 10
-8.9578998696
 20
26.3284072674
 30
0.0
 10
-8.9441847323
 20
26.3275407295
 30
0.0
 10
-8.930445112
 20
26.3272489907
 30
0.0
 10
-8.9167054918
 20
26.3275407295
 30
0.0
 10
-8.9029903545
 20
26.3284072674
 30
0.0
 10
-8.8893221605
 20
26.3298302565
 30
0.0
 10
-8.8757196357
 20
26.3317794802
 30
0.0
 10
-8.8621965863
 20
26.3342170352
 30
0.0
 10
-8.8442859912
 20
26.3380629627
 30
0.0
 10
-8.8309903738
 20
26.3415531717
 30
0.0
 10
-8.8221919366
 20
26.3440930617
 30
0.0
  0
SPLINE
  5
544
100
AcDbEntity
  8
0
100
AcDbSpline
 62
7
  6
CONTINUOUS
 70
0
 71
3
 72
20
 73
16
 74
0
 42
0.0000001
 43
0.0000001
 44
0.0000000001
 40
0.0
 40
0.0
 40
0.0
 40
0.0
 40
0.0837825316
 40
0.1668205226
 40
0.3265531609
 40
0.4737997088
 40
0.605775902
 40
0.6658290323
 40
0.7220447888
 40
0.7746430092
 40
0.824011642
 40
0.8706339298
 40
0.915072831
 40
0.9579636695
 40
1.0
 40
1.0
 40
1.0
 40
1.0
 10
-8.8221919366
 20
26.4951575621
 30
0.0
 10
-8.8221919366
 20
26.4959284032
 30
0.0
 10
-8.8221445006
 20
26.4974637098
 30
0.0
 10
-8.8218700447
 20
26.5004569208
 30
0.0
 10
-8.8212128696
 20
26.5039955968
 30
0.0
 10
-8.8199559668
 20
26.507846144
 30
0.0
 10
-8.8185550147
 20
26.5106527018
 30
0.0
 10
-8.8172684056
 20
26.5125433541
 30
0.0
 10
-8.8162741827
 20
26.5137406773
 30
0.0
 10
-8.8152297309
 20
26.5147584293
 30
0.0
 10
-8.8141436071
 20
26.5155942665
 30
0.0
 10
-8.8130238763
 20
26.5162466037
 30
0.0
 10
-8.8118786458
 20
26.5167137081
 30
0.0
 10
-8.8107174541
 20
26.5169946538
 30
0.0
 10
-8.8099347209
 20
26.5170575621
 30
0.0
 10
-8.8095479657
 20
26.5170575621
 30
0.0
  0
SPLINE
  5
545
100
AcDbEntity
  8
0
100
AcDbSpline
 62
7
  6
CONTINUOUS
 70
0
 71
3
 72
11
 73
7
 74
0
 42
0.0000001
 43
0.0000001
 44
0.0000000001
 40
0.0
 40
0.0
 40
0.0
 40
0.0
 40
0.2572860881
 40
0.5096780896
 40
0.7571556577
 40
1.0
 40
1.0
 40
1.0
 40
1.0
 10
-9.146951463
 20
26.3440930617
 30
0.0
 10
-9.1444576554
 20
26.3426532612
 30
0.0
 10
-9.1394526348
 20
26.3399109838
 30
0.0
 10
-9.1318105498
 20
26.3362381
 30
0.0
 10
-9.1241037349
 20
26.3331074913
 30
0.0
 10
-9.118878156
 20
26.3314104568
 30
0.0
 10
-9.1162608921
 20
26.3306774712
 30
0.0
  0
SPLINE
  5
546
100
AcDbEntity
  8
0
100
AcDbSpline
 62
7
  6
CONTINUOUS
 70
0
 71
3
 72
19
 73
15
 74
0
 42
0.0000001
 43
0.0000001
 44
0.0000000001
 40
0.0
 40
0.0
 40
0.0
 40
0.0
 40
0.1228781095
 40
0.183704646
 40
0.2442904954
 40
0.3047879769
 40
0.3653556749
 40
0.4261469538
 40
0.4873049404
 40
0.5489546854
 40
0.6111988128
 40
0.7377340531
 40
0.867314928
 40
1.0
 40
1.0
 40
1.0
 40
1.0
 10
-9.1146523711
 20
26.3302416234
 30
0.0
 10
-9.1115066061
 20
26.3294179863
 30
0.0
 10
-9.1067353732
 20
26.328422683
 30
0.0
 10
-9.1003148868
 20
26.3276445451
 30
0.0
 10
-9.0955073849
 20
26.3273432382
 30
0.0
 10
-9.0906974829
 20
26.3273266874
 30
0.0
 10
-9.0858896188
 20
26.3275953799
 30
0.0
 10
-9.0810882351
 20
26.3281449584
 30
0.0
 10
-9.0762977489
 20
26.328970957
 30
0.0
 10
-9.0715214543
 20
26.3300626177
 30
0.0
 10
-9.0651425547
 20
26.3318688266
 30
0.0
 10
-9.0572107125
 20
26.3347453881
 30
0.0
 10
-9.0478465936
 20
26.3390297934
 30
0.0
 10
-9.0417391882
 20
26.3423373969
 30
0.0
 10
-9.0386982875
 20
26.3440930617
 30
0.0
  0
SPLINE
  5
547
100
AcDbEntity
  8
0
100
AcDbSpline
 62
7
  6
CONTINUOUS
 70
0
 71
3
 72
20
 73
16
 74
0
 42
0.0000001
 43
0.0000001
 44
0.0000000001
 40
0.0
 40
0.0
 40
0.0
 40
0.0
 40
0.0837825316
 40
0.1668205226
 40
0.3265531609
 40
0.4737997088
 40
0.605775902
 40
0.6658290323
 40
0.7220447888
 40
0.7746430092
 40
0.824011642
 40
0.8706339298
 40
0.915072831
 40
0.9579636695
 40
1.0
 40
1.0
 40
1.0
 40
1.0
 10
-9.0386982875
 20
26.4951575621
 30
0.0
 10
-9.0386982875
 20
26.4959284032
 30
0.0
 10
-9.0387457235
 20
26.4974637098
 30
0.0
 10
-9.0390201794
 20
26.5004569208
 30
0.0
 10
-9.0396773545
 20
26.5039955968
 30
0.0
 10
-9.0409342572
 20
26.507846144
 30
0.0
 10
-9.0423352094
 20
26.5106527018
 30
0.0
 10
-9.0436218185
 20
26.5125433541
 30
0.0
 10
-9.0446160414
 20
26.5137406773
 30
0.0
 10
-9.0456604932
 20
26.5147584293
 30
0.0
 10
-9.046746617
 20
26.5155942665
 30
0.0
 10
-9.0478663478
 20
26.5162466037
 30
0.0
 10
-9.0490115783
 20
26.5167137081
 30
0.0
 10
-9.05017277
 20
26.5169946538
 30
0.0
 10
-9.0509555032
 20
26.5170575621
 30
0.0
 10
-9.0513422584
 20
26.5170575621
 30
0.0
  0
SPLINE
  5
548
100
AcDbEntity
  8
0
100
AcDbSpline
 62
7
  6
CONTINUOUS
 70
0
 71
3
 72
19
 73
15
 74
0
 42
0.0000001
 43
0.0000001
 44
0.0000000001
 40
0.0
 40
0.0
 40
0.0
 40
0.0
 40
0.132685072
 40
0.2622659469
 40
0.3888011872
 40
0.4510453146
 40
0.5126950596
 40
0.5738530462
 40
0.6346443251
 40
0.6952120231
 40
0.7557095046
 40
0.816295354
 40
0.8771218905
 40
1.0
 40
1.0
 40
1.0
 40
1.0
 10
-8.8221919366
 20
26.3440930617
 30
0.0
 10
-8.8191510358
 20
26.3423373969
 30
0.0
 10
-8.8130436305
 20
26.3390297934
 30
0.0
 10
-8.8036795116
 20
26.3347453881
 30
0.0
 10
-8.7957476694
 20
26.3318688266
 30
0.0
 10
-8.7893687698
 20
26.3300626177
 30
0.0
 10
-8.7845924752
 20
26.328970957
 30
0.0
 10
-8.779801989
 20
26.3281449584
 30
0.0
 10
-8.7750006053
 20
26.3275953799
 30
0.0
 10
-8.7701927412
 20
26.3273266874
 30
0.0
 10
-8.7653828391
 20
26.3273432382
 30
0.0
 10
-8.7605753372
 20
26.3276445451
 30
0.0
 10
-8.7541548509
 20
26.328422683
 30
0.0
 10
-8.7493836179
 20
26.3294179863
 30
0.0
 10
-8.746237853
 20
26.3302416234
 30
0.0
  0
SPLINE
  5
549
100
AcDbEntity
  8
0
100
AcDbSpline
 62
7
  6
CONTINUOUS
 70
0
 71
3
 72
11
 73
7
 74
0
 42
0.0000001
 43
0.0000001
 44
0.0000000001
 40
0.0
 40
0.0
 40
0.0
 40
0.0
 40
0.242525876
 40
0.489855189
 40
0.7423461086
 40
1.0
 40
1.0
 40
1.0
 40
1.0
 10
-8.746237853
 20
26.3302416234
 30
0.0
 10
-8.743481718
 20
26.330963246
 30
0.0
 10
-8.7379770962
 20
26.3326672074
 30
0.0
 10
-8.729863355
 20
26.3358823888
 30
0.0
 10
-8.721821638
 20
26.3397045939
 30
0.0
 10
-8.7165600057
 20
26.3425796854
 30
0.0
 10
-8.7139387611
 20
26.3440930617
 30
0.0
  0
SPLINE
  5
54A
100
AcDbEntity
  8
0
100
AcDbSpline
 62
7
  6
CONTINUOUS
 70
0
 71
3
 72
20
 73
16
 74
0
 42
0.0000001
 43
0.0000001
 44
0.0000000001
 40
0.0
 40
0.0
 40
0.0
 40
0.0
 40
0.0624510153
 40
0.1250358108
 40
0.1875892898
 40
0.2501131682
 40
0.3126275778
 40
0.3751444506
 40
0.437682982
 40
0.5002027013
 40
0.5627223417
 40
0.6252433535
 40
0.7501308459
 40
0.8751337096
 40
1.0
 40
1.0
 40
1.0
 40
1.0
 10
1.6783660843
 20
26.4951575621
 30
0.0
 10
1.6783660843
 20
26.4959294939
 30
0.0
 10
1.6782699664
 20
26.4974765526
 30
0.0
 10
1.6778486337
 20
26.4997620775
 30
0.0
 10
1.6771554299
 20
26.501981537
 30
0.0
 10
1.6762087405
 20
26.5041037562
 30
0.0
 10
1.6750300379
 20
26.5061055744
 30
0.0
 10
1.6736407105
 20
26.5079671136
 30
0.0
 10
1.6720667199
 20
26.5096749579
 30
0.0
 10
1.6703303412
 20
26.5112169848
 30
0.0
 10
1.668454916
 20
26.5125858578
 30
0.0
 10
1.6658007183
 20
26.5141734475
 30
0.0
 10
1.6622342533
 20
26.5157083273
 30
0.0
 10
1.6577158046
 20
26.5168114356
 30
0.0
 10
1.6546215643
 20
26.5170575621
 30
0.0
 10
1.6530781425
 20
26.5170575621
 30
0.0
  0
SPLINE
  5
54B
100
AcDbEntity
  8
0
100
AcDbSpline
 62
7
  6
CONTINUOUS
 70
0
 71
3
 72
20
 73
16
 74
0
 42
0.0000001
 43
0.0000001
 44
0.0000000001
 40
0.0
 40
0.0
 40
0.0
 40
0.0
 40
0.0624510153
 40
0.1250358108
 40
0.1875892898
 40
0.2501131682
 40
0.3126275778
 40
0.3751444506
 40
0.437682982
 40
0.5002027013
 40
0.5627223417
 40
0.6252433535
 40
0.7501308459
 40
0.8751337096
 40
1.0
 40
1.0
 40
1.0
 40
1.0
 10
2.1113787862
 20
26.4951575621
 30
0.0
 10
2.1113787862
 20
26.4959294939
 30
0.0
 10
2.1114749041
 20
26.4974765526
 30
0.0
 10
2.1118962368
 20
26.4997620775
 30
0.0
 10
2.1125894407
 20
26.501981537
 30
0.0
 10
2.1135361301
 20
26.5041037562
 30
0.0
 10
2.1147148326
 20
26.5061055744
 30
0.0
 10
2.11610416
 20
26.5079671136
 30
0.0
 10
2.1176781506
 20
26.5096749579
 30
0.0
 10
2.1194145293
 20
26.5112169848
 30
0.0
 10
2.1212899545
 20
26.5125858578
 30
0.0
 10
2.1239441523
 20
26.5141734475
 30
0.0
 10
2.1275106172
 20
26.5157083273
 30
0.0
 10
2.1320290659
 20
26.5168114356
 30
0.0
 10
2.1351233062
 20
26.5170575621
 30
0.0
 10
2.136666728
 20
26.5170575621
 30
0.0
  0
SPLINE
  5
54C
100
AcDbEntity
  8
0
100
AcDbSpline
 62
7
  6
CONTINUOUS
 70
0
 71
3
 72
21
 73
17
 74
0
 42
0.0000001
 43
0.0000001
 44
0.0000000001
 40
0.0
 40
0.0
 40
0.0
 40
0.0
 40
0.1249878024
 40
0.1874878899
 40
0.2499891327
 40
0.3124908104
 40
0.3749936014
 40
0.4374965966
 40
0.5
 40
0.5625034034
 40
0.6250063986
 40
0.6875091896
 40
0.7500108673
 40
0.8125121101
 40
0.8750121976
 40
1.0
 40
1.0
 40
1.0
 40
1.0
 10
1.7866192598
 20
26.3440930617
 30
0.0
 10
1.795417697
 20
26.3415531717
 30
0.0
 10
1.8087133144
 20
26.3380629627
 30
0.0
 10
1.8266239095
 20
26.3342170352
 30
0.0
 10
1.840146959
 20
26.3317794802
 30
0.0
 10
1.8537494838
 20
26.3298302565
 30
0.0
 10
1.8674176777
 20
26.3284072674
 30
0.0
 10
1.881132815
 20
26.3275407295
 30
0.0
 10
1.8948724353
 20
26.3272489907
 30
0.0
 10
1.9086120555
 20
26.3275407295
 30
0.0
 10
1.9223271928
 20
26.3284072674
 30
0.0
 10
1.9359953868
 20
26.3298302565
 30
0.0
 10
1.9495979116
 20
26.3317794802
 30
0.0
 10
1.963120961
 20
26.3342170352
 30
0.0
 10
1.9810315561
 20
26.3380629627
 30
0.0
 10
1.9943271735
 20
26.3415531717
 30
0.0
 10
2.0031256107
 20
26.3440930617
 30
0.0
  0
SPLINE
  5
54D
100
AcDbEntity
  8
0
100
AcDbSpline
 62
7
  6
CONTINUOUS
 70
0
 71
3
 72
20
 73
16
 74
0
 42
0.0000001
 43
0.0000001
 44
0.0000000001
 40
0.0
 40
0.0
 40
0.0
 40
0.0
 40
0.0837825316
 40
0.1668205226
 40
0.3265531609
 40
0.4737997088
 40
0.605775902
 40
0.6658290323
 40
0.7220447888
 40
0.7746430092
 40
0.824011642
 40
0.8706339298
 40
0.915072831
 40
0.9579636695
 40
1.0
 40
1.0
 40
1.0
 40
1.0
 10
2.0031256107
 20
26.4951575621
 30
0.0
 10
2.0031256107
 20
26.4959284032
 30
0.0
 10
2.0031730467
 20
26.4974637098
 30
0.0
 10
2.0034475026
 20
26.5004569208
 30
0.0
 10
2.0041046777
 20
26.5039955968
 30
0.0
 10
2.0053615805
 20
26.507846144
 30
0.0
 10
2.0067625326
 20
26.5106527018
 30
0.0
 10
2.0080491417
 20
26.5125433541
 30
0.0
 10
2.0090433646
 20
26.5137406773
 30
0.0
 10
2.0100878164
 20
26.5147584293
 30
0.0
 10
2.0111739402
 20
26.5155942665
 30
0.0
 10
2.0122936711
 20
26.5162466037
 30
0.0
 10
2.0134389015
 20
26.5167137081
 30
0.0
 10
2.0146000932
 20
26.5169946538
 30
0.0
 10
2.0153828264
 20
26.5170575621
 30
0.0
 10
2.0157695816
 20
26.5170575621
 30
0.0
  0
SPLINE
  5
54E
100
AcDbEntity
  8
0
100
AcDbSpline
 62
7
  6
CONTINUOUS
 70
0
 71
3
 72
11
 73
7
 74
0
 42
0.0000001
 43
0.0000001
 44
0.0000000001
 40
0.0
 40
0.0
 40
0.0
 40
0.0
 40
0.2572860881
 40
0.5096780896
 40
0.7571556577
 40
1.0
 40
1.0
 40
1.0
 40
1.0
 10
1.6783660843
 20
26.3440930617
 30
0.0
 10
1.6808598919
 20
26.3426532612
 30
0.0
 10
1.6858649125
 20
26.3399109838
 30
0.0
 10
1.6935069975
 20
26.3362381
 30
0.0
 10
1.7012138124
 20
26.3331074913
 30
0.0
 10
1.7064393913
 20
26.3314104568
 30
0.0
 10
1.7090566552
 20
26.3306774712
 30
0.0
  0
SPLINE
  5
54F
100
AcDbEntity
  8
0
100
AcDbSpline
 62
7
  6
CONTINUOUS
 70
0
 71
3
 72
19
 73
15
 74
0
 42
0.0000001
 43
0.0000001
 44
0.0000000001
 40
0.0
 40
0.0
 40
0.0
 40
0.0
 40
0.1228781095
 40
0.183704646
 40
0.2442904954
 40
0.3047879769
 40
0.3653556749
 40
0.4261469538
 40
0.4873049404
 40
0.5489546854
 40
0.6111988128
 40
0.7377340531
 40
0.867314928
 40
1.0
 40
1.0
 40
1.0
 40
1.0
 10
1.7106651762
 20
26.3302416234
 30
0.0
 10
1.7138109412
 20
26.3294179863
 30
0.0
 10
1.7185821741
 20
26.328422683
 30
0.0
 10
1.7250026605
 20
26.3276445451
 30
0.0
 10
1.7298101624
 20
26.3273432382
 30
0.0
 10
1.7346200644
 20
26.3273266874
 30
0.0
 10
1.7394279285
 20
26.3275953799
 30
0.0
 10
1.7442293122
 20
26.3281449584
 30
0.0
 10
1.7490197984
 20
26.328970957
 30
0.0
 10
1.753796093
 20
26.3300626177
 30
0.0
 10
1.7601749926
 20
26.3318688266
 30
0.0
 10
1.7681068348
 20
26.3347453881
 30
0.0
 10
1.7774709537
 20
26.3390297934
 30
0.0
 10
1.7835783591
 20
26.3423373969
 30
0.0
 10
1.7866192598
 20
26.3440930617
 30
0.0
  0
SPLINE
  5
550
100
AcDbEntity
  8
0
100
AcDbSpline
 62
7
  6
CONTINUOUS
 70
0
 71
3
 72
20
 73
16
 74
0
 42
0.0000001
 43
0.0000001
 44
0.0000000001
 40
0.0
 40
0.0
 40
0.0
 40
0.0
 40
0.0837825316
 40
0.1668205226
 40
0.3265531609
 40
0.4737997088
 40
0.605775902
 40
0.6658290323
 40
0.7220447888
 40
0.7746430092
 40
0.824011642
 40
0.8706339298
 40
0.915072831
 40
0.9579636695
 40
1.0
 40
1.0
 40
1.0
 40
1.0
 10
1.7866192598
 20
26.4951575621
 30
0.0
 10
1.7866192598
 20
26.4959284032
 30
0.0
 10
1.7865718238
 20
26.4974637098
 30
0.0
 10
1.7862973679
 20
26.5004569208
 30
0.0
 10
1.7856401928
 20
26.5039955968
 30
0.0
 10
1.7843832901
 20
26.507846144
 30
0.0
 10
1.7829823379
 20
26.5106527018
 30
0.0
 10
1.7816957288
 20
26.5125433541
 30
0.0
 10
1.7807015059
 20
26.5137406773
 30
0.0
 10
1.7796570541
 20
26.5147584293
 30
0.0
 10
1.7785709303
 20
26.5155942665
 30
0.0
 10
1.7774511995
 20
26.5162466037
 30
0.0
 10
1.776305969
 20
26.5167137081
 30
0.0
 10
1.7751447773
 20
26.5169946538
 30
0.0
 10
1.7743620441
 20
26.5170575621
 30
0.0
 10
1.7739752889
 20
26.5170575621
 30
0.0
  0
SPLINE
  5
551
100
AcDbEntity
  8
0
100
AcDbSpline
 62
7
  6
CONTINUOUS
 70
0
 71
3
 72
19
 73
15
 74
0
 42
0.0000001
 43
0.0000001
 44
0.0000000001
 40
0.0
 40
0.0
 40
0.0
 40
0.0
 40
0.132685072
 40
0.2622659469
 40
0.3888011872
 40
0.4510453146
 40
0.5126950596
 40
0.5738530462
 40
0.6346443251
 40
0.6952120231
 40
0.7557095046
 40
0.816295354
 40
0.8771218905
 40
1.0
 40
1.0
 40
1.0
 40
1.0
 10
2.0031256107
 20
26.3440930617
 30
0.0
 10
2.0061665115
 20
26.3423373969
 30
0.0
 10
2.0122739168
 20
26.3390297934
 30
0.0
 10
2.0216380357
 20
26.3347453881
 30
0.0
 10
2.0295698779
 20
26.3318688266
 30
0.0
 10
2.0359487775
 20
26.3300626177
 30
0.0
 10
2.0407250721
 20
26.328970957
 30
0.0
 10
2.0455155583
 20
26.3281449584
 30
0.0
 10
2.050316942
 20
26.3275953799
 30
0.0
 10
2.0551248061
 20
26.3273266874
 30
0.0
 10
2.0599347082
 20
26.3273432382
 30
0.0
 10
2.0647422101
 20
26.3276445451
 30
0.0
 10
2.0711626964
 20
26.328422683
 30
0.0
 10
2.0759339294
 20
26.3294179863
 30
0.0
 10
2.0790796943
 20
26.3302416234
 30
0.0
  0
SPLINE
  5
552
100
AcDbEntity
  8
0
100
AcDbSpline
 62
7
  6
CONTINUOUS
 70
0
 71
3
 72
11
 73
7
 74
0
 42
0.0000001
 43
0.0000001
 44
0.0000000001
 40
0.0
 40
0.0
 40
0.0
 40
0.0
 40
0.242525876
 40
0.489855189
 40
0.7423461086
 40
1.0
 40
1.0
 40
1.0
 40
1.0
 10
2.0790796943
 20
26.3302416234
 30
0.0
 10
2.0818358293
 20
26.330963246
 30
0.0
 10
2.0873404511
 20
26.3326672074
 30
0.0
 10
2.0954541923
 20
26.3358823888
 30
0.0
 10
2.1034959093
 20
26.3397045939
 30
0.0
 10
2.1087575416
 20
26.3425796854
 30
0.0
 10
2.1113787862
 20
26.3440930617
 30
0.0
  0
SPLINE
  5
553
100
AcDbEntity
  8
0
100
AcDbSpline
 62
7
  6
CONTINUOUS
 70
0
 71
3
 72
20
 73
16
 74
0
 42
0.0000001
 43
0.0000001
 44
0.0000000001
 40
0.0
 40
0.0
 40
0.0
 40
0.0
 40
0.0624510153
 40
0.1250358108
 40
0.1875892898
 40
0.2501131682
 40
0.3126275778
 40
0.3751444506
 40
0.437682982
 40
0.5002027013
 40
0.5627223417
 40
0.6252433535
 40
0.7501308459
 40
0.8751337096
 40
1.0
 40
1.0
 40
1.0
 40
1.0
 10
-10.0129768668
 20
26.4951575621
 30
0.0
 10
-10.0129768668
 20
26.4959294939
 30
0.0
 10
-10.0130729847
 20
26.4974765526
 30
0.0
 10
-10.0134943174
 20
26.4997620775
 30
0.0
 10
-10.0141875212
 20
26.501981537
 30
0.0
 10
-10.0151342106
 20
26.5041037562
 30
0.0
 10
-10.0163129132
 20
26.5061055744
 30
0.0
 10
-10.0177022405
 20
26.5079671136
 30
0.0
 10
-10.0192762312
 20
26.5096749579
 30
0.0
 10
-10.0210126099
 20
26.5112169848
 30
0.0
 10
-10.0228880351
 20
26.5125858578
 30
0.0
 10
-10.0255422328
 20
26.5141734475
 30
0.0
 10
-10.0291086978
 20
26.5157083273
 30
0.0
 10
-10.0336271465
 20
26.5168114356
 30
0.0
 10
-10.0367213868
 20
26.5170575621
 30
0.0
 10
-10.0382648086
 20
26.5170575621
 30
0.0
  0
SPLINE
  5
554
100
AcDbEntity
  8
0
100
AcDbSpline
 62
7
  6
CONTINUOUS
 70
0
 71
3
 72
20
 73
16
 74
0
 42
0.0000001
 43
0.0000001
 44
0.0000000001
 40
0.0
 40
0.0
 40
0.0
 40
0.0
 40
0.0624510153
 40
0.1250358108
 40
0.1875892898
 40
0.2501131682
 40
0.3126275778
 40
0.3751444506
 40
0.437682982
 40
0.5002027013
 40
0.5627223417
 40
0.6252433535
 40
0.7501308459
 40
0.8751337096
 40
1.0
 40
1.0
 40
1.0
 40
1.0
 10
-9.5799641649
 20
26.4951575621
 30
0.0
 10
-9.5799641649
 20
26.4959294939
 30
0.0
 10
-9.579868047
 20
26.4974765526
 30
0.0
 10
-9.5794467142
 20
26.4997620775
 30
0.0
 10
-9.5787535104
 20
26.501981537
 30
0.0
 10
-9.577806821
 20
26.5041037562
 30
0.0
 10
-9.5766281185
 20
26.5061055744
 30
0.0
 10
-9.5752387911
 20
26.5079671136
 30
0.0
 10
-9.5736648005
 20
26.5096749579
 30
0.0
 10
-9.5719284218
 20
26.5112169848
 30
0.0
 10
-9.5700529965
 20
26.5125858578
 30
0.0
 10
-9.5673987988
 20
26.5141734475
 30
0.0
 10
-9.5638323339
 20
26.5157083273
 30
0.0
 10
-9.5593138852
 20
26.5168114356
 30
0.0
 10
-9.5562196449
 20
26.5170575621
 30
0.0
 10
-9.5546762231
 20
26.5170575621
 30
0.0
  0
SPLINE
  5
555
100
AcDbEntity
  8
0
100
AcDbSpline
 62
7
  6
CONTINUOUS
 70
0
 71
3
 72
21
 73
17
 74
0
 42
0.0000001
 43
0.0000001
 44
0.0000000001
 40
0.0
 40
0.0
 40
0.0
 40
0.0
 40
0.1249878024
 40
0.1874878899
 40
0.2499891327
 40
0.3124908104
 40
0.3749936014
 40
0.4374965966
 40
0.5
 40
0.5625034034
 40
0.6250063986
 40
0.6875091896
 40
0.7500108673
 40
0.8125121101
 40
0.8750121976
 40
1.0
 40
1.0
 40
1.0
 40
1.0
 10
-9.9047236913
 20
26.3440930617
 30
0.0
 10
-9.8959252541
 20
26.3415531717
 30
0.0
 10
-9.8826296367
 20
26.3380629627
 30
0.0
 10
-9.8647190416
 20
26.3342170352
 30
0.0
 10
-9.8511959921
 20
26.3317794802
 30
0.0
 10
-9.8375934673
 20
26.3298302565
 30
0.0
 10
-9.8239252733
 20
26.3284072674
 30
0.0
 10
-9.810210136
 20
26.3275407295
 30
0.0
 10
-9.7964705158
 20
26.3272489907
 30
0.0
 10
-9.7827308956
 20
26.3275407295
 30
0.0
 10
-9.7690157583
 20
26.3284072674
 30
0.0
 10
-9.7553475643
 20
26.3298302565
 30
0.0
 10
-9.7417450395
 20
26.3317794802
 30
0.0
 10
-9.7282219901
 20
26.3342170352
 30
0.0
 10
-9.710311395
 20
26.3380629627
 30
0.0
 10
-9.6970157776
 20
26.3415531717
 30
0.0
 10
-9.6882173404
 20
26.3440930617
 30
0.0
  0
SPLINE
  5
556
100
AcDbEntity
  8
0
100
AcDbSpline
 62
7
  6
CONTINUOUS
 70
0
 71
3
 72
20
 73
16
 74
0
 42
0.0000001
 43
0.0000001
 44
0.0000000001
 40
0.0
 40
0.0
 40
0.0
 40
0.0
 40
0.0837825316
 40
0.1668205226
 40
0.3265531609
 40
0.4737997088
 40
0.605775902
 40
0.6658290323
 40
0.7220447888
 40
0.7746430092
 40
0.824011642
 40
0.8706339298
 40
0.915072831
 40
0.9579636695
 40
1.0
 40
1.0
 40
1.0
 40
1.0
 10
-9.6882173404
 20
26.4951575621
 30
0.0
 10
-9.6882173404
 20
26.4959284032
 30
0.0
 10
-9.6881699044
 20
26.4974637098
 30
0.0
 10
-9.6878954485
 20
26.5004569208
 30
0.0
 10
-9.6872382734
 20
26.5039955968
 30
0.0
 10
-9.6859813706
 20
26.507846144
 30
0.0
 10
-9.6845804185
 20
26.5106527018
 30
0.0
 10
-9.6832938094
 20
26.5125433541
 30
0.0
 10
-9.6822995865
 20
26.5137406773
 30
0.0
 10
-9.6812551347
 20
26.5147584293
 30
0.0
 10
-9.6801690109
 20
26.5155942665
 30
0.0
 10
-9.67904928
 20
26.5162466037
 30
0.0
 10
-9.6779040496
 20
26.5167137081
 30
0.0
 10
-9.6767428579
 20
26.5169946538
 30
0.0
 10
-9.6759601247
 20
26.5170575621
 30
0.0
 10
-9.6755733695
 20
26.5170575621
 30
0.0
  0
SPLINE
  5
557
100
AcDbEntity
  8
0
100
AcDbSpline
 62
7
  6
CONTINUOUS
 70
0
 71
3
 72
11
 73
7
 74
0
 42
0.0000001
 43
0.0000001
 44
0.0000000001
 40
0.0
 40
0.0
 40
0.0
 40
0.0
 40
0.2572860881
 40
0.5096780896
 40
0.7571556577
 40
1.0
 40
1.0
 40
1.0
 40
1.0
 10
-10.0129768668
 20
26.3440930617
 30
0.0
 10
-10.0104830592
 20
26.3426532612
 30
0.0
 10
-10.0054780386
 20
26.3399109838
 30
0.0
 10
-9.9978359536
 20
26.3362381
 30
0.0
 10
-9.9901291386
 20
26.3331074913
 30
0.0
 10
-9.9849035598
 20
26.3314104568
 30
0.0
 10
-9.9822862959
 20
26.3306774712
 30
0.0
  0
SPLINE
  5
558
100
AcDbEntity
  8
0
100
AcDbSpline
 62
7
  6
CONTINUOUS
 70
0
 71
3
 72
19
 73
15
 74
0
 42
0.0000001
 43
0.0000001
 44
0.0000000001
 40
0.0
 40
0.0
 40
0.0
 40
0.0
 40
0.1228781095
 40
0.183704646
 40
0.2442904954
 40
0.3047879769
 40
0.3653556749
 40
0.4261469538
 40
0.4873049404
 40
0.5489546854
 40
0.6111988128
 40
0.7377340531
 40
0.867314928
 40
1.0
 40
1.0
 40
1.0
 40
1.0
 10
-9.9806777748
 20
26.3302416234
 30
0.0
 10
-9.9775320099
 20
26.3294179863
 30
0.0
 10
-9.972760777
 20
26.328422683
 30
0.0
 10
-9.9663402906
 20
26.3276445451
 30
0.0
 10
-9.9615327887
 20
26.3273432382
 30
0.0
 10
-9.9567228867
 20
26.3273266874
 30
0.0
 10
-9.9519150225
 20
26.3275953799
 30
0.0
 10
-9.9471136389
 20
26.3281449584
 30
0.0
 10
-9.9423231527
 20
26.328970957
 30
0.0
 10
-9.9375468581
 20
26.3300626177
 30
0.0
 10
-9.9311679585
 20
26.3318688266
 30
0.0
 10
-9.9232361163
 20
26.3347453881
 30
0.0
 10
-9.9138719973
 20
26.3390297934
 30
0.0
 10
-9.907764592
 20
26.3423373969
 30
0.0
 10
-9.9047236913
 20
26.3440930617
 30
0.0
  0
SPLINE
  5
559
100
AcDbEntity
  8
0
100
AcDbSpline
 62
7
  6
CONTINUOUS
 70
0
 71
3
 72
20
 73
16
 74
0
 42
0.0000001
 43
0.0000001
 44
0.0000000001
 40
0.0
 40
0.0
 40
0.0
 40
0.0
 40
0.0837825316
 40
0.1668205226
 40
0.3265531609
 40
0.4737997088
 40
0.605775902
 40
0.6658290323
 40
0.7220447888
 40
0.7746430092
 40
0.824011642
 40
0.8706339298
 40
0.915072831
 40
0.9579636695
 40
1.0
 40
1.0
 40
1.0
 40
1.0
 10
-9.9047236913
 20
26.4951575621
 30
0.0
 10
-9.9047236913
 20
26.4959284032
 30
0.0
 10
-9.9047711273
 20
26.4974637098
 30
0.0
 10
-9.9050455832
 20
26.5004569208
 30
0.0
 10
-9.9057027583
 20
26.5039955968
 30
0.0
 10
-9.906959661
 20
26.507846144
 30
0.0
 10
-9.9083606132
 20
26.5106527018
 30
0.0
 10
-9.9096472223
 20
26.5125433541
 30
0.0
 10
-9.9106414451
 20
26.5137406773
 30
0.0
 10
-9.9116858969
 20
26.5147584293
 30
0.0
 10
-9.9127720208
 20
26.5155942665
 30
0.0
 10
-9.9138917516
 20
26.5162466037
 30
0.0
 10
-9.9150369821
 20
26.5167137081
 30
0.0
 10
-9.9161981738
 20
26.5169946538
 30
0.0
 10
-9.916980907
 20
26.5170575621
 30
0.0
 10
-9.9173676622
 20
26.5170575621
 30
0.0
  0
SPLINE
  5
55A
100
AcDbEntity
  8
0
100
AcDbSpline
 62
7
  6
CONTINUOUS
 70
0
 71
3
 72
19
 73
15
 74
0
 42
0.0000001
 43
0.0000001
 44
0.0000000001
 40
0.0
 40
0.0
 40
0.0
 40
0.0
 40
0.132685072
 40
0.2622659469
 40
0.3888011872
 40
0.4510453146
 40
0.5126950596
 40
0.5738530462
 40
0.6346443251
 40
0.6952120231
 40
0.7557095046
 40
0.816295354
 40
0.8771218905
 40
1.0
 40
1.0
 40
1.0
 40
1.0
 10
-9.6882173404
 20
26.3440930617
 30
0.0
 10
-9.6851764396
 20
26.3423373969
 30
0.0
 10
-9.6790690343
 20
26.3390297934
 30
0.0
 10
-9.6697049154
 20
26.3347453881
 30
0.0
 10
-9.6617730732
 20
26.3318688266
 30
0.0
 10
-9.6553941736
 20
26.3300626177
 30
0.0
 10
-9.650617879
 20
26.328970957
 30
0.0
 10
-9.6458273928
 20
26.3281449584
 30
0.0
 10
-9.6410260091
 20
26.3275953799
 30
0.0
 10
-9.636218145
 20
26.3273266874
 30
0.0
 10
-9.6314082429
 20
26.3273432382
 30
0.0
 10
-9.626600741
 20
26.3276445451
 30
0.0
 10
-9.6201802547
 20
26.328422683
 30
0.0
 10
-9.6154090217
 20
26.3294179863
 30
0.0
 10
-9.6122632568
 20
26.3302416234
 30
0.0
  0
SPLINE
  5
55B
100
AcDbEntity
  8
0
100
AcDbSpline
 62
7
  6
CONTINUOUS
 70
0
 71
3
 72
11
 73
7
 74
0
 42
0.0000001
 43
0.0000001
 44
0.0000000001
 40
0.0
 40
0.0
 40
0.0
 40
0.0
 40
0.242525876
 40
0.489855189
 40
0.7423461086
 40
1.0
 40
1.0
 40
1.0
 40
1.0
 10
-9.6122632568
 20
26.3302416234
 30
0.0
 10
-9.6095071218
 20
26.330963246
 30
0.0
 10
-9.6040025
 20
26.3326672074
 30
0.0
 10
-9.5958887588
 20
26.3358823888
 30
0.0
 10
-9.5878470418
 20
26.3397045939
 30
0.0
 10
-9.5825854095
 20
26.3425796854
 30
0.0
 10
-9.5799641649
 20
26.3440930617
 30
0.0
  0
SPLINE
  5
55C
100
AcDbEntity
  8
0
100
AcDbSpline
 62
7
  6
CONTINUOUS
 70
0
 71
3
 72
61
 73
57
 74
0
 42
0.0000001
 43
0.0000001
 44
0.0000000001
 40
0.0
 40
0.0
 40
0.0
 40
0.0
 40
0.0334291029
 40
0.0501292469
 40
0.0667963495
 40
0.0999901962
 40
0.1165096459
 40
0.1329636835
 40
0.1493438214
 40
0.165642522
 40
0.1979621793
 40
0.2139807246
 40
0.2298965263
 40
0.245706158
 40
0.2614073778
 40
0.2769989851
 40
0.2924805968
 40
0.3078531257
 40
0.3231185188
 40
0.3382796167
 40
0.3533405906
 40
0.3683065699
 40
0.3831835726
 40
0.4126893505
 40
0.427345898
 40
0.4419471963
 40
0.4565034442
 40
0.4710253968
 40
0.5
 40
0.5289746032
 40
0.5434965558
 40
0.5580528037
 40
0.572654102
 40
0.5873106495
 40
0.6168164274
 40
0.6316934301
 40
0.6466594094
 40
0.6617203833
 40
0.6768814812
 40
0.6921468743
 40
0.7075194032
 40
0.7230010149
 40
0.7385926222
 40
0.754293842
 40
0.7701034737
 40
0.7860192754
 40
0.8020378207
 40
0.834357478
 40
0.8506561786
 40
0.8670363165
 40
0.8834903541
 40
0.9000098038
 40
0.9332036505
 40
0.9498707531
 40
0.9665708971
 40
1.0
 40
1.0
 40
1.0
 40
1.0
 10
29.9653980999
 20
26.5120575621
 30
0.0
 10
29.9653980999
 20
26.518433601
 30
0.0
 10
29.9658053202
 20
26.5280013939
 30
0.0
 10
29.9671575466
 20
26.5406725727
 30
0.0
 10
29.9690441603
 20
26.5532302283
 30
0.0
 10
29.9717289046
 20
26.5656224187
 30
0.0
 10
29.9752006663
 20
26.5777589968
 30
0.0
 10
29.9781832355
 20
26.5866906866
 30
0.0
 10
29.9815417923
 20
26.5954429377
 30
0.0
 10
29.9864959726
 20
26.6068106715
 30
0.0
 10
29.992178986
 20
26.6177741322
 30
0.0
 10
29.9985612032
 20
26.62824047
 30
0.0
 10
30.0036609589
 20
26.6357891617
 30
0.0
 10
30.0090755302
 20
26.6430397178
 30
0.0
 10
30.0147921197
 20
26.6499748234
 30
0.0
 10
30.0207962549
 20
26.6565782911
 30
0.0
 10
30.0270742206
 20
26.6628336188
 30
0.0
 10
30.0336108155
 20
26.6687257364
 30
0.0
 10
30.0403897939
 20
26.6742410495
 30
0.0
 10
30.0473955607
 20
26.6793654445
 30
0.0
 10
30.0546108841
 20
26.6840867196
 30
0.0
 10
30.0620185273
 20
26.6883942282
 30
0.0
 10
30.0720978229
 20
26.693555135
 30
0.0
 10
30.082527627
 20
26.6978713376
 30
0.0
 10
30.0932079395
 20
26.7012850209
 30
0.0
 10
30.1013014239
 20
26.7033844227
 30
0.0
 10
30.1094744409
 20
26.7050229462
 30
0.0
 10
30.120441227
 20
26.706585169
 30
0.0
 10
30.1342730536
 20
26.7073722399
 30
0.0
 10
30.1481048803
 20
26.706585169
 30
0.0
 10
30.1590716663
 20
26.7050229462
 30
0.0
 10
30.1672446833
 20
26.7033844227
 30
0.0
 10
30.1753381677
 20
26.7012850209
 30
0.0
 10
30.1860184802
 20
26.6978713376
 30
0.0
 10
30.1964482844
 20
26.693555135
 30
0.0
 10
30.20652758
 20
26.6883942282
 30
0.0
 10
30.2139352232
 20
26.6840867196
 30
0.0
 10
30.2211505465
 20
26.6793654445
 30
0.0
 10
30.2281563134
 20
26.6742410495
 30
0.0
 10
30.2349352917
 20
26.6687257364
 30
0.0
 10
30.2414718867
 20
26.6628336188
 30
0.0
 10
30.2477498523
 20
26.6565782911
 30
0.0
 10
30.2537539875
 20
26.6499748234
 30
0.0
 10
30.2594705771
 20
26.6430397178
 30
0.0
 10
30.2648851483
 20
26.6357891617
 30
0.0
 10
30.2699849041
 20
26.62824047
 30
0.0
 10
30.2763671213
 20
26.6177741322
 30
0.0
 10
30.2820501347
 20
26.6068106715
 30
0.0
 10
30.2870043149
 20
26.5954429377
 30
0.0
 10
30.2903628718
 20
26.5866906866
 30
0.0
 10
30.2933454409
 20
26.5777589968
 30
0.0
 10
30.2968172026
 20
26.5656224187
 30
0.0
 10
30.299501947
 20
26.5532302283
 30
0.0
 10
30.3013885606
 20
26.5406725727
 30
0.0
 10
30.302740787
 20
26.5280013939
 30
0.0
 10
30.3031480074
 20
26.518433601
 30
0.0
 10
30.3031480074
 20
26.5120575621
 30
0.0
  0
SPLINE
  5
55D
100
AcDbEntity
  8
0
100
AcDbSpline
 62
7
  6
CONTINUOUS
 70
0
 71
3
 72
61
 73
57
 74
0
 42
0.0000001
 43
0.0000001
 44
0.0000000001
 40
0.0
 40
0.0
 40
0.0
 40
0.0
 40
0.0334291029
 40
0.0501292469
 40
0.0667963495
 40
0.0999901962
 40
0.1165096459
 40
0.1329636835
 40
0.1493438214
 40
0.165642522
 40
0.1979621793
 40
0.2139807246
 40
0.2298965263
 40
0.245706158
 40
0.2614073778
 40
0.2769989851
 40
0.2924805968
 40
0.3078531257
 40
0.3231185188
 40
0.3382796167
 40
0.3533405906
 40
0.3683065699
 40
0.3831835726
 40
0.4126893505
 40
0.427345898
 40
0.4419471963
 40
0.4565034442
 40
0.4710253968
 40
0.5
 40
0.5289746032
 40
0.5434965558
 40
0.5580528037
 40
0.572654102
 40
0.5873106495
 40
0.6168164274
 40
0.6316934301
 40
0.6466594094
 40
0.6617203833
 40
0.6768814812
 40
0.6921468743
 40
0.7075194032
 40
0.7230010149
 40
0.7385926222
 40
0.754293842
 40
0.7701034737
 40
0.7860192754
 40
0.8020378207
 40
0.834357478
 40
0.8506561786
 40
0.8670363165
 40
0.8834903541
 40
0.9000098038
 40
0.9332036505
 40
0.9498707531
 40
0.9665708971
 40
1.0
 40
1.0
 40
1.0
 40
1.0
 10
29.9653980999
 20
26.5120575621
 30
0.0
 10
29.9653980999
 20
26.5056815231
 30
0.0
 10
29.9658053202
 20
26.4961137303
 30
0.0
 10
29.9671575466
 20
26.4834425514
 30
0.0
 10
29.9690441603
 20
26.4708848958
 30
0.0
 10
29.9717289046
 20
26.4584927054
 30
0.0
 10
29.9752006663
 20
26.4463561274
 30
0.0
 10
29.9781832355
 20
26.4374244376
 30
0.0
 10
29.9815417923
 20
26.4286721864
 30
0.0
 10
29.9864959726
 20
26.4173044527
 30
0.0
 10
29.992178986
 20
26.406340992
 30
0.0
 10
29.9985612032
 20
26.3958746542
 30
0.0
 10
30.0036609589
 20
26.3883259624
 30
0.0
 10
30.0090755302
 20
26.3810754064
 30
0.0
 10
30.0147921197
 20
26.3741403007
 30
0.0
 10
30.0207962549
 20
26.3675368331
 30
0.0
 10
30.0270742206
 20
26.3612815053
 30
0.0
 10
30.0336108155
 20
26.3553893877
 30
0.0
 10
30.0403897939
 20
26.3498740746
 30
0.0
 10
30.0473955607
 20
26.3447496797
 30
0.0
 10
30.0546108841
 20
26.3400284045
 30
0.0
 10
30.0620185273
 20
26.3357208959
 30
0.0
 10
30.0720978229
 20
26.3305599891
 30
0.0
 10
30.082527627
 20
26.3262437866
 30
0.0
 10
30.0932079395
 20
26.3228301032
 30
0.0
 10
30.1013014239
 20
26.3207307015
 30
0.0
 10
30.1094744409
 20
26.319092178
 30
0.0
 10
30.120441227
 20
26.3175299551
 30
0.0
 10
30.1342730536
 20
26.3167428843
 30
0.0
 10
30.1481048803
 20
26.3175299551
 30
0.0
 10
30.1590716663
 20
26.319092178
 30
0.0
 10
30.1672446833
 20
26.3207307015
 30
0.0
 10
30.1753381677
 20
26.3228301032
 30
0.0
 10
30.1860184802
 20
26.3262437866
 30
0.0
 10
30.1964482844
 20
26.3305599891
 30
0.0
 10
30.20652758
 20
26.3357208959
 30
0.0
 10
30.2139352232
 20
26.3400284045
 30
0.0
 10
30.2211505465
 20
26.3447496797
 30
0.0
 10
30.2281563134
 20
26.3498740746
 30
0.0
 10
30.2349352917
 20
26.3553893877
 30
0.0
 10
30.2414718867
 20
26.3612815053
 30
0.0
 10
30.2477498523
 20
26.3675368331
 30
0.0
 10
30.2537539875
 20
26.3741403007
 30
0.0
 10
30.2594705771
 20
26.3810754064
 30
0.0
 10
30.2648851483
 20
26.3883259624
 30
0.0
 10
30.2699849041
 20
26.3958746542
 30
0.0
 10
30.2763671213
 20
26.406340992
 30
0.0
 10
30.2820501347
 20
26.4173044527
 30
0.0
 10
30.2870043149
 20
26.4286721864
 30
0.0
 10
30.2903628718
 20
26.4374244376
 30
0.0
 10
30.2933454409
 20
26.4463561274
 30
0.0
 10
30.2968172026
 20
26.4584927054
 30
0.0
 10
30.299501947
 20
26.4708848958
 30
0.0
 10
30.3013885606
 20
26.4834425514
 30
0.0
 10
30.302740787
 20
26.4961137303
 30
0.0
 10
30.3031480074
 20
26.5056815231
 30
0.0
 10
30.3031480074
 20
26.5120575621
 30
0.0
  0
SPLINE
  5
55E
100
AcDbEntity
  8
0
100
AcDbSpline
 62
7
  6
CONTINUOUS
 70
0
 71
3
 72
27
 73
23
 74
0
 42
0.0000001
 43
0.0000001
 44
0.0000000001
 40
0.0
 40
0.0
 40
0.0
 40
0.0
 40
0.0579569598
 40
0.1160979835
 40
0.1745991265
 40
0.2040458858
 40
0.233640349
 40
0.2933131198
 40
0.3234389392
 40
0.3537653947
 40
0.4150296126
 40
0.4771657405
 40
0.5401774468
 40
0.6040371569
 40
0.6362760515
 40
0.668702891
 40
0.7340535674
 40
0.7669634255
 40
0.8000036843
 40
0.866404583
 40
0.9331458294
 40
1.0
 40
1.0
 40
1.0
 40
1.0
 10
30.3942730536
 20
26.4170575621
 30
0.0
 10
30.3969654099
 20
26.4170575621
 30
0.0
 10
30.4023636794
 20
26.4173646188
 30
0.0
 10
30.4103736299
 20
26.4187382706
 30
0.0
 10
30.4169066733
 20
26.4206314767
 30
0.0
 10
30.4220104837
 20
26.422578819
 30
0.0
 10
30.4270497868
 20
26.4248245056
 30
0.0
 10
30.4319268707
 20
26.4274919313
 30
0.0
 10
30.4365979943
 20
26.4305485288
 30
0.0
 10
30.4411633177
 20
26.4338883476
 30
0.0
 10
30.4465946865
 20
26.4385454775
 30
0.0
 10
30.4525816894
 20
26.444821112
 30
0.0
 10
30.4580070819
 20
26.4517414132
 30
0.0
 10
30.4620035247
 20
26.4579729407
 30
0.0
 10
30.4648748692
 20
26.4632097716
 30
0.0
 10
30.4675349788
 20
26.4686341597
 30
0.0
 10
30.4698370773
 20
26.474262069
 30
0.0
 10
30.4717700044
 20
26.4800488045
 30
0.0
 10
30.4734610456
 20
26.4859617548
 30
0.0
 10
30.4750984457
 20
26.4935168302
 30
0.0
 10
30.4762808657
 20
26.502742547
 30
0.0
 10
30.476545467
 20
26.5089518912
 30
0.0
 10
30.476545467
 20
26.5120575621
 30
0.0
  0
SPLINE
  5
55F
100
AcDbEntity
  8
0
100
AcDbSpline
 62
7
  6
CONTINUOUS
 70
0
 71
3
 72
27
 73
23
 74
0
 42
0.0000001
 43
0.0000001
 44
0.0000000001
 40
0.0
 40
0.0
 40
0.0
 40
0.0
 40
0.0579569598
 40
0.1160979835
 40
0.1745991265
 40
0.2040458858
 40
0.233640349
 40
0.2933131198
 40
0.3234389392
 40
0.3537653947
 40
0.4150296126
 40
0.4771657405
 40
0.5401774468
 40
0.6040371569
 40
0.6362760515
 40
0.668702891
 40
0.7340535674
 40
0.7669634255
 40
0.8000036843
 40
0.866404583
 40
0.9331458294
 40
1.0
 40
1.0
 40
1.0
 40
1.0
 10
30.3942730536
 20
26.6070575621
 30
0.0
 10
30.3969654099
 20
26.6070575621
 30
0.0
 10
30.4023636794
 20
26.6067505053
 30
0.0
 10
30.4103736299
 20
26.6053768536
 30
0.0
 10
30.4169066733
 20
26.6034836475
 30
0.0
 10
30.4220104837
 20
26.6015363051
 30
0.0
 10
30.4270497868
 20
26.5992906185
 30
0.0
 10
30.4319268707
 20
26.5966231928
 30
0.0
 10
30.4365979943
 20
26.5935665953
 30
0.0
 10
30.4411633177
 20
26.5902267765
 30
0.0
 10
30.4465946865
 20
26.5855696466
 30
0.0
 10
30.4525816894
 20
26.5792940122
 30
0.0
 10
30.4580070819
 20
26.572373711
 30
0.0
 10
30.4620035247
 20
26.5661421834
 30
0.0
 10
30.4648748692
 20
26.5609053525
 30
0.0
 10
30.4675349788
 20
26.5554809645
 30
0.0
 10
30.4698370773
 20
26.5498530551
 30
0.0
 10
30.4717700044
 20
26.5440663196
 30
0.0
 10
30.4734610456
 20
26.5381533694
 30
0.0
 10
30.4750984457
 20
26.5305982939
 30
0.0
 10
30.4762808657
 20
26.5213725772
 30
0.0
 10
30.476545467
 20
26.515163233
 30
0.0
 10
30.476545467
 20
26.5120575621
 30
0.0
  0
SPLINE
  5
560
100
AcDbEntity
  8
0
100
AcDbSpline
 62
7
  6
CONTINUOUS
 70
0
 71
3
 72
61
 73
57
 74
0
 42
0.0000001
 43
0.0000001
 44
0.0000000001
 40
0.0
 40
0.0
 40
0.0
 40
0.0
 40
0.0334291029
 40
0.0501292469
 40
0.0667963495
 40
0.0999901962
 40
0.1165096459
 40
0.1329636835
 40
0.1493438214
 40
0.165642522
 40
0.1979621793
 40
0.2139807246
 40
0.2298965263
 40
0.245706158
 40
0.2614073778
 40
0.2769989851
 40
0.2924805968
 40
0.3078531257
 40
0.3231185188
 40
0.3382796167
 40
0.3533405906
 40
0.3683065699
 40
0.3831835726
 40
0.4126893505
 40
0.427345898
 40
0.4419471963
 40
0.4565034442
 40
0.4710253968
 40
0.5
 40
0.5289746032
 40
0.5434965558
 40
0.5580528037
 40
0.572654102
 40
0.5873106495
 40
0.6168164274
 40
0.6316934301
 40
0.6466594094
 40
0.6617203833
 40
0.6768814812
 40
0.6921468743
 40
0.7075194032
 40
0.7230010149
 40
0.7385926222
 40
0.754293842
 40
0.7701034737
 40
0.7860192754
 40
0.8020378207
 40
0.834357478
 40
0.8506561786
 40
0.8670363165
 40
0.8834903541
 40
0.9000098038
 40
0.9332036505
 40
0.9498707531
 40
0.9665708971
 40
1.0
 40
1.0
 40
1.0
 40
1.0
 10
29.9653980999
 20
28.8120575621
 30
0.0
 10
29.9653980999
 20
28.818433601
 30
0.0
 10
29.9658053202
 20
28.8280013939
 30
0.0
 10
29.9671575466
 20
28.8406725727
 30
0.0
 10
29.9690441603
 20
28.8532302283
 30
0.0
 10
29.9717289046
 20
28.8656224187
 30
0.0
 10
29.9752006663
 20
28.8777589968
 30
0.0
 10
29.9781832355
 20
28.8866906866
 30
0.0
 10
29.9815417923
 20
28.8954429377
 30
0.0
 10
29.9864959726
 20
28.9068106715
 30
0.0
 10
29.992178986
 20
28.9177741322
 30
0.0
 10
29.9985612032
 20
28.92824047
 30
0.0
 10
30.0036609589
 20
28.9357891617
 30
0.0
 10
30.0090755302
 20
28.9430397178
 30
0.0
 10
30.0147921197
 20
28.9499748234
 30
0.0
 10
30.0207962549
 20
28.9565782911
 30
0.0
 10
30.0270742206
 20
28.9628336188
 30
0.0
 10
30.0336108155
 20
28.9687257364
 30
0.0
 10
30.0403897939
 20
28.9742410495
 30
0.0
 10
30.0473955607
 20
28.9793654445
 30
0.0
 10
30.0546108841
 20
28.9840867196
 30
0.0
 10
30.0620185273
 20
28.9883942282
 30
0.0
 10
30.0720978229
 20
28.993555135
 30
0.0
 10
30.082527627
 20
28.9978713376
 30
0.0
 10
30.0932079395
 20
29.0012850209
 30
0.0
 10
30.1013014239
 20
29.0033844227
 30
0.0
 10
30.1094744409
 20
29.0050229462
 30
0.0
 10
30.120441227
 20
29.006585169
 30
0.0
 10
30.1342730536
 20
29.0073722399
 30
0.0
 10
30.1481048803
 20
29.006585169
 30
0.0
 10
30.1590716663
 20
29.0050229462
 30
0.0
 10
30.1672446833
 20
29.0033844227
 30
0.0
 10
30.1753381677
 20
29.0012850209
 30
0.0
 10
30.1860184802
 20
28.9978713376
 30
0.0
 10
30.1964482844
 20
28.993555135
 30
0.0
 10
30.20652758
 20
28.9883942282
 30
0.0
 10
30.2139352232
 20
28.9840867196
 30
0.0
 10
30.2211505465
 20
28.9793654445
 30
0.0
 10
30.2281563134
 20
28.9742410495
 30
0.0
 10
30.2349352917
 20
28.9687257364
 30
0.0
 10
30.2414718867
 20
28.9628336188
 30
0.0
 10
30.2477498523
 20
28.9565782911
 30
0.0
 10
30.2537539875
 20
28.9499748234
 30
0.0
 10
30.2594705771
 20
28.9430397178
 30
0.0
 10
30.2648851483
 20
28.9357891617
 30
0.0
 10
30.2699849041
 20
28.92824047
 30
0.0
 10
30.2763671213
 20
28.9177741322
 30
0.0
 10
30.2820501347
 20
28.9068106715
 30
0.0
 10
30.2870043149
 20
28.8954429377
 30
0.0
 10
30.2903628718
 20
28.8866906866
 30
0.0
 10
30.2933454409
 20
28.8777589968
 30
0.0
 10
30.2968172026
 20
28.8656224187
 30
0.0
 10
30.299501947
 20
28.8532302283
 30
0.0
 10
30.3013885606
 20
28.8406725727
 30
0.0
 10
30.302740787
 20
28.8280013939
 30
0.0
 10
30.3031480074
 20
28.818433601
 30
0.0
 10
30.3031480074
 20
28.8120575621
 30
0.0
  0
SPLINE
  5
561
100
AcDbEntity
  8
0
100
AcDbSpline
 62
7
  6
CONTINUOUS
 70
0
 71
3
 72
61
 73
57
 74
0
 42
0.0000001
 43
0.0000001
 44
0.0000000001
 40
0.0
 40
0.0
 40
0.0
 40
0.0
 40
0.0334291029
 40
0.0501292469
 40
0.0667963495
 40
0.0999901962
 40
0.1165096459
 40
0.1329636835
 40
0.1493438214
 40
0.165642522
 40
0.1979621793
 40
0.2139807246
 40
0.2298965263
 40
0.245706158
 40
0.2614073778
 40
0.2769989851
 40
0.2924805968
 40
0.3078531257
 40
0.3231185188
 40
0.3382796167
 40
0.3533405906
 40
0.3683065699
 40
0.3831835726
 40
0.4126893505
 40
0.427345898
 40
0.4419471963
 40
0.4565034442
 40
0.4710253968
 40
0.5
 40
0.5289746032
 40
0.5434965558
 40
0.5580528037
 40
0.572654102
 40
0.5873106495
 40
0.6168164274
 40
0.6316934301
 40
0.6466594094
 40
0.6617203833
 40
0.6768814812
 40
0.6921468743
 40
0.7075194032
 40
0.7230010149
 40
0.7385926222
 40
0.754293842
 40
0.7701034737
 40
0.7860192754
 40
0.8020378207
 40
0.834357478
 40
0.8506561786
 40
0.8670363165
 40
0.8834903541
 40
0.9000098038
 40
0.9332036505
 40
0.9498707531
 40
0.9665708971
 40
1.0
 40
1.0
 40
1.0
 40
1.0
 10
29.9653980999
 20
28.8120575621
 30
0.0
 10
29.9653980999
 20
28.8056815231
 30
0.0
 10
29.9658053202
 20
28.7961137303
 30
0.0
 10
29.9671575466
 20
28.7834425514
 30
0.0
 10
29.9690441603
 20
28.7708848958
 30
0.0
 10
29.9717289046
 20
28.7584927054
 30
0.0
 10
29.9752006663
 20
28.7463561274
 30
0.0
 10
29.9781832355
 20
28.7374244376
 30
0.0
 10
29.9815417923
 20
28.7286721864
 30
0.0
 10
29.9864959726
 20
28.7173044527
 30
0.0
 10
29.992178986
 20
28.706340992
 30
0.0
 10
29.9985612032
 20
28.6958746542
 30
0.0
 10
30.0036609589
 20
28.6883259624
 30
0.0
 10
30.0090755302
 20
28.6810754064
 30
0.0
 10
30.0147921197
 20
28.6741403007
 30
0.0
 10
30.0207962549
 20
28.6675368331
 30
0.0
 10
30.0270742206
 20
28.6612815053
 30
0.0
 10
30.0336108155
 20
28.6553893877
 30
0.0
 10
30.0403897939
 20
28.6498740746
 30
0.0
 10
30.0473955607
 20
28.6447496797
 30
0.0
 10
30.0546108841
 20
28.6400284045
 30
0.0
 10
30.0620185273
 20
28.6357208959
 30
0.0
 10
30.0720978229
 20
28.6305599891
 30
0.0
 10
30.082527627
 20
28.6262437866
 30
0.0
 10
30.0932079395
 20
28.6228301032
 30
0.0
 10
30.1013014239
 20
28.6207307015
 30
0.0
 10
30.1094744409
 20
28.619092178
 30
0.0
 10
30.120441227
 20
28.6175299551
 30
0.0
 10
30.1342730536
 20
28.6167428843
 30
0.0
 10
30.1481048803
 20
28.6175299551
 30
0.0
 10
30.1590716663
 20
28.619092178
 30
0.0
 10
30.1672446833
 20
28.6207307015
 30
0.0
 10
30.1753381677
 20
28.6228301032
 30
0.0
 10
30.1860184802
 20
28.6262437866
 30
0.0
 10
30.1964482844
 20
28.6305599891
 30
0.0
 10
30.20652758
 20
28.6357208959
 30
0.0
 10
30.2139352232
 20
28.6400284045
 30
0.0
 10
30.2211505465
 20
28.6447496797
 30
0.0
 10
30.2281563134
 20
28.6498740746
 30
0.0
 10
30.2349352917
 20
28.6553893877
 30
0.0
 10
30.2414718867
 20
28.6612815053
 30
0.0
 10
30.2477498523
 20
28.6675368331
 30
0.0
 10
30.2537539875
 20
28.6741403007
 30
0.0
 10
30.2594705771
 20
28.6810754064
 30
0.0
 10
30.2648851483
 20
28.6883259624
 30
0.0
 10
30.2699849041
 20
28.6958746542
 30
0.0
 10
30.2763671213
 20
28.706340992
 30
0.0
 10
30.2820501347
 20
28.7173044527
 30
0.0
 10
30.2870043149
 20
28.7286721864
 30
0.0
 10
30.2903628718
 20
28.7374244376
 30
0.0
 10
30.2933454409
 20
28.7463561274
 30
0.0
 10
30.2968172026
 20
28.7584927054
 30
0.0
 10
30.299501947
 20
28.7708848958
 30
0.0
 10
30.3013885606
 20
28.7834425514
 30
0.0
 10
30.302740787
 20
28.7961137303
 30
0.0
 10
30.3031480074
 20
28.8056815231
 30
0.0
 10
30.3031480074
 20
28.8120575621
 30
0.0
  0
SPLINE
  5
562
100
AcDbEntity
  8
0
100
AcDbSpline
 62
7
  6
CONTINUOUS
 70
0
 71
3
 72
27
 73
23
 74
0
 42
0.0000001
 43
0.0000001
 44
0.0000000001
 40
0.0
 40
0.0
 40
0.0
 40
0.0
 40
0.0579569598
 40
0.1160979835
 40
0.1745991265
 40
0.2040458858
 40
0.233640349
 40
0.2933131198
 40
0.3234389392
 40
0.3537653947
 40
0.4150296126
 40
0.4771657405
 40
0.5401774468
 40
0.6040371569
 40
0.6362760515
 40
0.668702891
 40
0.7340535674
 40
0.7669634255
 40
0.8000036843
 40
0.866404583
 40
0.9331458294
 40
1.0
 40
1.0
 40
1.0
 40
1.0
 10
30.3942730536
 20
28.7170575621
 30
0.0
 10
30.3969654099
 20
28.7170575621
 30
0.0
 10
30.4023636794
 20
28.7173646188
 30
0.0
 10
30.4103736299
 20
28.7187382706
 30
0.0
 10
30.4169066733
 20
28.7206314767
 30
0.0
 10
30.4220104837
 20
28.722578819
 30
0.0
 10
30.4270497868
 20
28.7248245056
 30
0.0
 10
30.4319268707
 20
28.7274919313
 30
0.0
 10
30.4365979943
 20
28.7305485288
 30
0.0
 10
30.4411633177
 20
28.7338883476
 30
0.0
 10
30.4465946865
 20
28.7385454775
 30
0.0
 10
30.4525816894
 20
28.744821112
 30
0.0
 10
30.4580070819
 20
28.7517414132
 30
0.0
 10
30.4620035247
 20
28.7579729407
 30
0.0
 10
30.4648748692
 20
28.7632097716
 30
0.0
 10
30.4675349788
 20
28.7686341597
 30
0.0
 10
30.4698370773
 20
28.774262069
 30
0.0
 10
30.4717700044
 20
28.7800488045
 30
0.0
 10
30.4734610456
 20
28.7859617548
 30
0.0
 10
30.4750984457
 20
28.7935168302
 30
0.0
 10
30.4762808657
 20
28.802742547
 30
0.0
 10
30.476545467
 20
28.8089518912
 30
0.0
 10
30.476545467
 20
28.8120575621
 30
0.0
  0
SPLINE
  5
563
100
AcDbEntity
  8
0
100
AcDbSpline
 62
7
  6
CONTINUOUS
 70
0
 71
3
 72
27
 73
23
 74
0
 42
0.0000001
 43
0.0000001
 44
0.0000000001
 40
0.0
 40
0.0
 40
0.0
 40
0.0
 40
0.0579569598
 40
0.1160979835
 40
0.1745991265
 40
0.2040458858
 40
0.233640349
 40
0.2933131198
 40
0.3234389392
 40
0.3537653947
 40
0.4150296126
 40
0.4771657405
 40
0.5401774468
 40
0.6040371569
 40
0.6362760515
 40
0.668702891
 40
0.7340535674
 40
0.7669634255
 40
0.8000036843
 40
0.866404583
 40
0.9331458294
 40
1.0
 40
1.0
 40
1.0
 40
1.0
 10
30.3942730536
 20
28.9070575621
 30
0.0
 10
30.3969654099
 20
28.9070575621
 30
0.0
 10
30.4023636794
 20
28.9067505053
 30
0.0
 10
30.4103736299
 20
28.9053768536
 30
0.0
 10
30.4169066733
 20
28.9034836475
 30
0.0
 10
30.4220104837
 20
28.9015363051
 30
0.0
 10
30.4270497868
 20
28.8992906185
 30
0.0
 10
30.4319268707
 20
28.8966231928
 30
0.0
 10
30.4365979943
 20
28.8935665953
 30
0.0
 10
30.4411633177
 20
28.8902267765
 30
0.0
 10
30.4465946865
 20
28.8855696466
 30
0.0
 10
30.4525816894
 20
28.8792940122
 30
0.0
 10
30.4580070819
 20
28.872373711
 30
0.0
 10
30.4620035247
 20
28.8661421834
 30
0.0
 10
30.4648748692
 20
28.8609053525
 30
0.0
 10
30.4675349788
 20
28.8554809645
 30
0.0
 10
30.4698370773
 20
28.8498530551
 30
0.0
 10
30.4717700044
 20
28.8440663196
 30
0.0
 10
30.4734610456
 20
28.8381533694
 30
0.0
 10
30.4750984457
 20
28.8305982939
 30
0.0
 10
30.4762808657
 20
28.8213725772
 30
0.0
 10
30.476545467
 20
28.815163233
 30
0.0
 10
30.476545467
 20
28.8120575621
 30
0.0
  0
SPLINE
  5
564
100
AcDbEntity
  8
0
100
AcDbSpline
 62
7
  6
CONTINUOUS
 70
0
 71
3
 72
21
 73
17
 74
0
 42
0.0000001
 43
0.0000001
 44
0.0000000001
 40
0.0
 40
0.0
 40
0.0
 40
0.0
 40
0.1256853361
 40
0.1883323231
 40
0.2508510309
 40
0.3132535003
 40
0.3755604261
 40
0.4377981636
 40
0.5
 40
0.5622018364
 40
0.6244395739
 40
0.6867464997
 40
0.7491489691
 40
0.8116676769
 40
0.8743146639
 40
1.0
 40
1.0
 40
1.0
 40
1.0
 10
39.6905230536
 20
26.3440930617
 30
0.0
 10
39.6981261103
 20
26.3415587095
 30
0.0
 10
39.7096280025
 20
26.3380705783
 30
0.0
 10
39.7251559648
 20
26.3342197989
 30
0.0
 10
39.7368683934
 20
26.331781528
 30
0.0
 10
39.7486503335
 20
26.329831552
 30
0.0
 10
39.7604898925
 20
26.3284078804
 30
0.0
 10
39.7723707036
 20
26.3275408636
 30
0.0
 10
39.7842730536
 20
26.3272489521
 30
0.0
 10
39.7961754036
 20
26.3275408636
 30
0.0
 10
39.8080562147
 20
26.3284078804
 30
0.0
 10
39.8198957738
 20
26.329831552
 30
0.0
 10
39.8316777138
 20
26.331781528
 30
0.0
 10
39.8433901424
 20
26.3342197989
 30
0.0
 10
39.8589181048
 20
26.3380705783
 30
0.0
 10
39.8704199969
 20
26.3415587095
 30
0.0
 10
39.8780230536
 20
26.3440930617
 30
0.0
  0
SPLINE
  5
565
100
AcDbEntity
  8
0
100
AcDbSpline
 62
7
  6
CONTINUOUS
 70
0
 71
3
 72
21
 73
17
 74
0
 42
0.0000001
 43
0.0000001
 44
0.0000000001
 40
0.0
 40
0.0
 40
0.0
 40
0.0
 40
0.1256853361
 40
0.1883323231
 40
0.2508510309
 40
0.3132535003
 40
0.3755604261
 40
0.4377981636
 40
0.5
 40
0.5622018364
 40
0.6244395739
 40
0.6867464997
 40
0.7491489691
 40
0.8116676769
 40
0.8743146639
 40
1.0
 40
1.0
 40
1.0
 40
1.0
 10
39.8780230536
 20
26.3440930617
 30
0.0
 10
39.8856261103
 20
26.3415587095
 30
0.0
 10
39.8971280025
 20
26.3380705783
 30
0.0
 10
39.9126559648
 20
26.3342197989
 30
0.0
 10
39.9243683934
 20
26.331781528
 30
0.0
 10
39.9361503335
 20
26.329831552
 30
0.0
 10
39.9479898925
 20
26.3284078804
 30
0.0
 10
39.9598707036
 20
26.3275408636
 30
0.0
 10
39.9717730536
 20
26.3272489521
 30
0.0
 10
39.9836754036
 20
26.3275408636
 30
0.0
 10
39.9955562147
 20
26.3284078804
 30
0.0
 10
40.0073957738
 20
26.329831552
 30
0.0
 10
40.0191777138
 20
26.331781528
 30
0.0
 10
40.0308901424
 20
26.3342197989
 30
0.0
 10
40.0464181048
 20
26.3380705783
 30
0.0
 10
40.0579199969
 20
26.3415587095
 30
0.0
 10
40.0655230536
 20
26.3440930617
 30
0.0
  0
LINE
  5
566
100
AcDbEntity
  8
0
100
AcDbLine
 62
7
  6
CONTINUOUS
 10
39.8780230536
 20
26.4951575621
 11
39.8780230536
 21
26.5170575621
  0
SPLINE
  5
567
100
AcDbEntity
  8
0
100
AcDbSpline
 62
7
  6
CONTINUOUS
 70
0
 71
3
 72
21
 73
17
 74
0
 42
0.0000001
 43
0.0000001
 44
0.0000000001
 40
0.0
 40
0.0
 40
0.0
 40
0.0
 40
0.1256853361
 40
0.1883323231
 40
0.2508510309
 40
0.3132535003
 40
0.3755604261
 40
0.4377981636
 40
0.5
 40
0.5622018364
 40
0.6244395739
 40
0.6867464997
 40
0.7491489691
 40
0.8116676769
 40
0.8743146639
 40
1.0
 40
1.0
 40
1.0
 40
1.0
 10
40.6905230536
 20
26.3440930617
 30
0.0
 10
40.6981261103
 20
26.3415587095
 30
0.0
 10
40.7096280025
 20
26.3380705783
 30
0.0
 10
40.7251559648
 20
26.3342197989
 30
0.0
 10
40.7368683934
 20
26.331781528
 30
0.0
 10
40.7486503335
 20
26.329831552
 30
0.0
 10
40.7604898925
 20
26.3284078804
 30
0.0
 10
40.7723707036
 20
26.3275408636
 30
0.0
 10
40.7842730536
 20
26.3272489521
 30
0.0
 10
40.7961754036
 20
26.3275408636
 30
0.0
 10
40.8080562147
 20
26.3284078804
 30
0.0
 10
40.8198957738
 20
26.329831552
 30
0.0
 10
40.8316777138
 20
26.331781528
 30
0.0
 10
40.8433901424
 20
26.3342197989
 30
0.0
 10
40.8589181048
 20
26.3380705783
 30
0.0
 10
40.8704199969
 20
26.3415587095
 30
0.0
 10
40.8780230536
 20
26.3440930617
 30
0.0
  0
SPLINE
  5
568
100
AcDbEntity
  8
0
100
AcDbSpline
 62
7
  6
CONTINUOUS
 70
0
 71
3
 72
21
 73
17
 74
0
 42
0.0000001
 43
0.0000001
 44
0.0000000001
 40
0.0
 40
0.0
 40
0.0
 40
0.0
 40
0.1256853361
 40
0.1883323231
 40
0.2508510309
 40
0.3132535003
 40
0.3755604261
 40
0.4377981636
 40
0.5
 40
0.5622018364
 40
0.6244395739
 40
0.6867464997
 40
0.7491489691
 40
0.8116676769
 40
0.8743146639
 40
1.0
 40
1.0
 40
1.0
 40
1.0
 10
40.8780230536
 20
26.3440930617
 30
0.0
 10
40.8856261103
 20
26.3415587095
 30
0.0
 10
40.8971280025
 20
26.3380705783
 30
0.0
 10
40.9126559648
 20
26.3342197989
 30
0.0
 10
40.9243683934
 20
26.331781528
 30
0.0
 10
40.9361503335
 20
26.329831552
 30
0.0
 10
40.9479898925
 20
26.3284078804
 30
0.0
 10
40.9598707036
 20
26.3275408636
 30
0.0
 10
40.9717730536
 20
26.3272489521
 30
0.0
 10
40.9836754036
 20
26.3275408636
 30
0.0
 10
40.9955562147
 20
26.3284078804
 30
0.0
 10
41.0073957738
 20
26.329831552
 30
0.0
 10
41.0191777138
 20
26.331781528
 30
0.0
 10
41.0308901424
 20
26.3342197989
 30
0.0
 10
41.0464181048
 20
26.3380705783
 30
0.0
 10
41.0579199969
 20
26.3415587095
 30
0.0
 10
41.0655230536
 20
26.3440930617
 30
0.0
  0
LINE
  5
569
100
AcDbEntity
  8
0
100
AcDbLine
 62
7
  6
CONTINUOUS
 10
40.8780230536
 20
26.4951575621
 11
40.8780230536
 21
26.5170575621
  0
SPLINE
  5
56A
100
AcDbEntity
  8
0
100
AcDbSpline
 62
7
  6
CONTINUOUS
 70
0
 71
3
 72
21
 73
17
 74
0
 42
0.0000001
 43
0.0000001
 44
0.0000000001
 40
0.0
 40
0.0
 40
0.0
 40
0.0
 40
0.1256853361
 40
0.1883323231
 40
0.2508510309
 40
0.3132535003
 40
0.3755604261
 40
0.4377981636
 40
0.5
 40
0.5622018364
 40
0.6244395739
 40
0.6867464997
 40
0.7491489691
 40
0.8116676769
 40
0.8743146639
 40
1.0
 40
1.0
 40
1.0
 40
1.0
 10
31.0655230536
 20
26.3440930617
 30
0.0
 10
31.0731261103
 20
26.3415587095
 30
0.0
 10
31.0846280025
 20
26.3380705783
 30
0.0
 10
31.1001559648
 20
26.3342197989
 30
0.0
 10
31.1118683934
 20
26.331781528
 30
0.0
 10
31.1236503335
 20
26.329831552
 30
0.0
 10
31.1354898925
 20
26.3284078804
 30
0.0
 10
31.1473707036
 20
26.3275408636
 30
0.0
 10
31.1592730536
 20
26.3272489521
 30
0.0
 10
31.1711754036
 20
26.3275408636
 30
0.0
 10
31.1830562147
 20
26.3284078804
 30
0.0
 10
31.1948957738
 20
26.329831552
 30
0.0
 10
31.2066777138
 20
26.331781528
 30
0.0
 10
31.2183901424
 20
26.3342197989
 30
0.0
 10
31.2339181048
 20
26.3380705783
 30
0.0
 10
31.2454199969
 20
26.3415587095
 30
0.0
 10
31.2530230536
 20
26.3440930617
 30
0.0
  0
SPLINE
  5
56B
100
AcDbEntity
  8
0
100
AcDbSpline
 62
7
  6
CONTINUOUS
 70
0
 71
3
 72
21
 73
17
 74
0
 42
0.0000001
 43
0.0000001
 44
0.0000000001
 40
0.0
 40
0.0
 40
0.0
 40
0.0
 40
0.1256853361
 40
0.1883323231
 40
0.2508510309
 40
0.3132535003
 40
0.3755604261
 40
0.4377981636
 40
0.5
 40
0.5622018364
 40
0.6244395739
 40
0.6867464997
 40
0.7491489691
 40
0.8116676769
 40
0.8743146639
 40
1.0
 40
1.0
 40
1.0
 40
1.0
 10
31.2530230536
 20
26.3440930617
 30
0.0
 10
31.2606261103
 20
26.3415587095
 30
0.0
 10
31.2721280025
 20
26.3380705783
 30
0.0
 10
31.2876559648
 20
26.3342197989
 30
0.0
 10
31.2993683934
 20
26.331781528
 30
0.0
 10
31.3111503335
 20
26.329831552
 30
0.0
 10
31.3229898925
 20
26.3284078804
 30
0.0
 10
31.3348707036
 20
26.3275408636
 30
0.0
 10
31.3467730536
 20
26.3272489521
 30
0.0
 10
31.3586754036
 20
26.3275408636
 30
0.0
 10
31.3705562147
 20
26.3284078804
 30
0.0
 10
31.3823957738
 20
26.329831552
 30
0.0
 10
31.3941777138
 20
26.331781528
 30
0.0
 10
31.4058901424
 20
26.3342197989
 30
0.0
 10
31.4214181048
 20
26.3380705783
 30
0.0
 10
31.4329199969
 20
26.3415587095
 30
0.0
 10
31.4405230536
 20
26.3440930617
 30
0.0
  0
LINE
  5
56C
100
AcDbEntity
  8
0
100
AcDbLine
 62
7
  6
CONTINUOUS
 10
31.2530230536
 20
26.4951575621
 11
31.2530230536
 21
26.5170575621
  0
SPLINE
  5
56D
100
AcDbEntity
  8
0
100
AcDbSpline
 62
7
  6
CONTINUOUS
 70
0
 71
3
 72
21
 73
17
 74
0
 42
0.0000001
 43
0.0000001
 44
0.0000000001
 40
0.0
 40
0.0
 40
0.0
 40
0.0
 40
0.1256853361
 40
0.1883323231
 40
0.2508510309
 40
0.3132535003
 40
0.3755604261
 40
0.4377981636
 40
0.5
 40
0.5622018364
 40
0.6244395739
 40
0.6867464997
 40
0.7491489691
 40
0.8116676769
 40
0.8743146639
 40
1.0
 40
1.0
 40
1.0
 40
1.0
 10
30.5655230536
 20
26.3440930617
 30
0.0
 10
30.5731261103
 20
26.3415587095
 30
0.0
 10
30.5846280025
 20
26.3380705783
 30
0.0
 10
30.6001559648
 20
26.3342197989
 30
0.0
 10
30.6118683934
 20
26.331781528
 30
0.0
 10
30.6236503335
 20
26.329831552
 30
0.0
 10
30.6354898925
 20
26.3284078804
 30
0.0
 10
30.6473707036
 20
26.3275408636
 30
0.0
 10
30.6592730536
 20
26.3272489521
 30
0.0
 10
30.6711754036
 20
26.3275408636
 30
0.0
 10
30.6830562147
 20
26.3284078804
 30
0.0
 10
30.6948957738
 20
26.329831552
 30
0.0
 10
30.7066777138
 20
26.331781528
 30
0.0
 10
30.7183901424
 20
26.3342197989
 30
0.0
 10
30.7339181048
 20
26.3380705783
 30
0.0
 10
30.7454199969
 20
26.3415587095
 30
0.0
 10
30.7530230536
 20
26.3440930617
 30
0.0
  0
SPLINE
  5
56E
100
AcDbEntity
  8
0
100
AcDbSpline
 62
7
  6
CONTINUOUS
 70
0
 71
3
 72
21
 73
17
 74
0
 42
0.0000001
 43
0.0000001
 44
0.0000000001
 40
0.0
 40
0.0
 40
0.0
 40
0.0
 40
0.1256853361
 40
0.1883323231
 40
0.2508510309
 40
0.3132535003
 40
0.3755604261
 40
0.4377981636
 40
0.5
 40
0.5622018364
 40
0.6244395739
 40
0.6867464997
 40
0.7491489691
 40
0.8116676769
 40
0.8743146639
 40
1.0
 40
1.0
 40
1.0
 40
1.0
 10
30.7530230536
 20
26.3440930617
 30
0.0
 10
30.7606261103
 20
26.3415587095
 30
0.0
 10
30.7721280025
 20
26.3380705783
 30
0.0
 10
30.7876559648
 20
26.3342197989
 30
0.0
 10
30.7993683934
 20
26.331781528
 30
0.0
 10
30.8111503335
 20
26.329831552
 30
0.0
 10
30.8229898925
 20
26.3284078804
 30
0.0
 10
30.8348707036
 20
26.3275408636
 30
0.0
 10
30.8467730536
 20
26.3272489521
 30
0.0
 10
30.8586754036
 20
26.3275408636
 30
0.0
 10
30.8705562147
 20
26.3284078804
 30
0.0
 10
30.8823957738
 20
26.329831552
 30
0.0
 10
30.8941777138
 20
26.331781528
 30
0.0
 10
30.9058901424
 20
26.3342197989
 30
0.0
 10
30.9214181048
 20
26.3380705783
 30
0.0
 10
30.9329199969
 20
26.3415587095
 30
0.0
 10
30.9405230536
 20
26.3440930617
 30
0.0
  0
LINE
  5
56F
100
AcDbEntity
  8
0
100
AcDbLine
 62
7
  6
CONTINUOUS
 10
30.7530230536
 20
26.4951575621
 11
30.7530230536
 21
26.5170575621
  0
ELLIPSE
  5
570
100
AcDbEntity
  8
0
100
AcDbEllipse
 62
7
  6
CONTINUOUS
 10
-4.3409725817
 20
9.5559131273
 30
0.0
 11
0.1342339376
 21
-0.0775
 31
0.0
 40
0.0524077793
 41
0.0
 42
3.1415926536
  0
ELLIPSE
  5
571
100
AcDbEntity
  8
0
100
AcDbEllipse
 62
7
  6
CONTINUOUS
 10
-3.7707970776
 20
10.1277893431
 30
0.0
 11
0.5404450325
 21
-0.312026085
 31
0.0
 40
0.942904759
 41
-1.5662361117
 42
-1.5031998078
  0
ELLIPSE
  5
572
100
AcDbEntity
  8
0
100
AcDbEllipse
 62
7
  6
CONTINUOUS
 10
-4.130801003
 20
10.3356377064
 30
0.0
 11
0.5404450325
 21
-0.312026085
 31
0.0
 40
0.942904759
 41
-1.6383928458
 42
-1.5753565419
  0
ENDSEC
  0
SECTION
  2
OBJECTS
  0
DICTIONARY
  5
C
100
AcDbDictionary
280
0
281
1
  3
ACAD_GROUP
350
D
  3
ACAD_MLINESTYLE
350
17
  3
ACAD_LAYOUT
350
1A
  3
ACAD_PLOTSETTINGS
350
19
  3
ACAD_PLOTSTYLENAME
350
E
  0
DICTIONARY
  5
D
102
{ACAD_REACTORS
330
C
102
}
100
AcDbDictionary
280
0
281
1
  0
ACDBDICTIONARYWDFLT
  5
E
102
{ACAD_REACTORS
330
C
102
}
100
AcDbDictionary
281
1
  3
Normal
350
F
100
AcDbDictionaryWithDefault
340
F
  0
DICTIONARY
  5
17
102
{ACAD_REACTORS
330
C
102
}
100
AcDbDictionary
280
0
281
1
  3
Standard
350
18
  0
DICTIONARY
  5
19
102
{ACAD_REACTORS
330
C
102
}
100
AcDbDictionary
281
1
  0
DICTIONARY
  5
1A
102
{ACAD_REACTORS
330
C
102
}
100
AcDbDictionary
281
1
  3
Model
350
573
  3
Layout1
350
574
  0
ACDBPLACEHOLDER
  5
F
102
{ACAD_REACTORS
330
E
102
}
  0
MLINESTYLE
  5
18
102
{ACAD_REACTORS
330
17
102
}
100
AcDbMlineStyle
  2
STANDARD
 70
0
  3

 62
256
 51
90.0
 52
90.0
 71
2
 49
0.5
 62
256
  6
BYLAYER
 49
-0.5
 62
256
  6
BYLAYER
  0
LAYOUT
  5
573
102
{ACAD_REACTORS
330
1A
102
}
100
AcDbPlotSettings
  1

  2
none_device
  4

  6

 40
0.0
 41
0.0
 42
0.0
 43
0.0
 44
431.8
 45
279.4
 46
0.0
 47
0.0
 48
0.0
 49
0.0
140
0.0
141
0.0
142
1.0
143
1.0
 70
1024
 72
0
 73
0
 74
0
  7

 75
0
147
1.0
148
0.0
149
0.0
100
AcDbLayout
  1
Model
 70
0
 71
0
 10
0.0
 20
0.0
 11
17.0
 21
11.0
 12
0.0
 22
0.0
 32
0.0
 14
0.0
 24
0.0
 34
0.0
 15
0.0
 25
0.0
 35
0.0
146
0.0
 13
0.0
 23
0.0
 33
0.0
 16
1.0
 26
0.0
 36
0.0
 17
0.0
 27
1.0
 37
0.0
 76
0
330
22A
345
0
346
0
  0
LAYOUT
  5
574
102
{ACAD_REACTORS
330
1A
102
}
100
AcDbPlotSettings
  1

  2
none_device
  4

  6

 40
0.0
 41
0.0
 42
0.0
 43
0.0
 44
431.8
 45
279.4
 46
0.0
 47
0.0
 48
0.0
 49
0.0
140
0.0
141
0.0
142
1.0
143
1.0
 70
0
 72
0
 73
0
 74
0
  7

 75
0
147
1.0
148
0.0
149
0.0
100
AcDbLayout
  1
Layout1
 70
0
 71
1
 10
0.0
 20
0.0
 11
17.0
 21
11.0
 12
0.0
 22
0.0
 32
0.0
 14
0.0
 24
0.0
 34
0.0
 15
0.0
 25
0.0
 35
0.0
146
0.0
 13
0.0
 23
0.0
 33
0.0
 16
1.0
 26
0.0
 36
0.0
 17
0.0
 27
1.0
 37
0.0
 76
0
330
22B
345
0
346
0
  0
ENDSEC
  0
EOF
