999
DXF file: N:\Master\master\M3_ProE_files\Lenexa\MADAM DXF\47386.dxf
999
Pro/ENGINEER 2010280 by Parametric Technology Corporation
  0
SECTION
  2
HEADER
  9
$ACADVER
  1
AC1021
  9
$DWGCODEPAGE
  3
ANSI_1252
  9
$EXTMAX
 10
17.0
 20
11.0
 30
0.0
  9
$EXTMIN
 10
0.0
 20
-0.0
 30
0.0
  9
$LIMMIN
 10
0.0
 20
-0.0
  9
$LIMMAX
 10
17.0
 20
11.0
  9
$VIEWCTR
 10
8.5
 20
5.5
  9
$VIEWSIZE
 40
11.0
  9
$CLAYER
  8
0
  9
$LTSCALE
 40
0.935
  9
$CELTYPE
  6
BYLAYER
  9
$DIMSCALE
 40
1.0
  9
$DIMASZ
 40
0.125
  9
$DIMEXO
 40
0.10625
  9
$DIMDLI
 40
0.646
  9
$DIMEXE
 40
0.306
  9
$DIMCEN
 40
0.153
  9
$DIMLFAC
 40
1.0
  9
$DIMBLK
  1
_FILLED
  9
$DIMTXT
 40
0.15625
  9
$DIMTOL
 70
1
  9
$DIMLIM
 70
0
  9
$DIMTFAC
 40
1.0
  9
$DIMTP
 40
0.7
  9
$DIMTM
 40
0.7
  9
$PDMODE
 70
3
  9
$PDSIZE
 40
0.3125
  9
$HANDSEED
  5
610
  9
$TILEMODE
 70
1
  9
$MEASUREMENT
 70
0
  9
$INSUNITS
 70
1
  0
ENDSEC
  0
SECTION
  2
CLASSES
  0
CLASS
  1
ACDBDICTIONARYWDFLT
  2
AcDbDictionaryWithDefault
  3
AutoCAD 2000
 90
0
 91
1
280
0
281
0
  0
CLASS
  1
ACDBPLACEHOLDER
  2
AcDbPlaceHolder
  3
AutoCAD 2000
 90
0
 91
1
280
0
281
0
  0
CLASS
  1
LAYOUT
  2
AcDbLayout
  3
AutoCAD 2000
 90
0
 91
0
280
0
281
0
  0
ENDSEC
  0
SECTION
  2
TABLES
  0
TABLE
  2
VPORT
  5
8
100
AcDbSymbolTable
 70
2
  0
VPORT
  5
1F4
100
AcDbSymbolTableRecord
100
AcDbViewportTableRecord
  2
*ACTIVE
 70
0
 10
0.0
 20
0.0
 11
1.0
 21
1.0
 12
8.5
 22
5.5
 13
0.0
 23
0.0
 14
1.0
 24
1.0
 15
0.0
 25
0.0
 16
0.0
 26
0.0
 36
1.0
 17
0.0
 27
0.0
 37
0.0
 40
11.0
 41
1.5454545455
 42
50.0
 43
0.0
 44
0.0
 50
0.0
 51
0.0
 71
0
 72
100
 73
1
 74
1
 75
0
 76
0
 77
0
 78
0
  0
ENDTAB
  0
TABLE
  2
LTYPE
  5
5
100
AcDbSymbolTable
 70
6
  0
LTYPE
  5
14
100
AcDbSymbolTableRecord
100
AcDbLinetypeTableRecord
  2
BYBLOCK
 70
0
  3

 72
65
 73
0
 40
0.0
  0
LTYPE
  5
15
100
AcDbSymbolTableRecord
100
AcDbLinetypeTableRecord
  2
BYLAYER
 70
0
  3

 72
65
 73
0
 40
0.0
  0
LTYPE
  5
16
100
AcDbSymbolTableRecord
100
AcDbLinetypeTableRecord
  2
CONTINUOUS
 70
64
  3
Solid line
 72
65
 73
0
 40
0.0
  0
LTYPE
  5
1F5
100
AcDbSymbolTableRecord
100
AcDbLinetypeTableRecord
  2
CENTER
 70
64
  3
____ _ ____ _ ____ _ ____ _ ____ _ ____ _ ____
 72
65
 73
4
 40
0.6
 49
0.375
 74
0
 49
-0.075
 74
0
 49
0.075
 74
0
 49
-0.075
 74
0
  0
LTYPE
  5
1F6
100
AcDbSymbolTableRecord
100
AcDbLinetypeTableRecord
  2
HIDDEN
 70
64
  3
- - - - - - - - - - - - - - - - - - - -
 72
65
 73
2
 40
0.2
 49
0.1
 74
0
 49
-0.1
 74
0
  0
LTYPE
  5
1F7
100
AcDbSymbolTableRecord
100
AcDbLinetypeTableRecord
  2
PHANTOM
 70
64
  3
_____ _ _ _____ _ _ _____ _ _ _____
 72
65
 73
6
 40
0.8
 49
0.45
 74
0
 49
-0.05
 74
0
 49
0.1
 74
0
 49
-0.05
 74
0
 49
0.1
 74
0
 49
-0.05
 74
0
  0
LTYPE
  5
1F8
100
AcDbSymbolTableRecord
100
AcDbLinetypeTableRecord
  2
DOT
 70
64
  3
. . . . . . . . . . . . . . . . . . . .
 72
65
 73
2
 40
0.2
 49
0.1
 74
0
 49
-0.1
 74
0
  0
LTYPE
  5
1F9
100
AcDbSymbolTableRecord
100
AcDbLinetypeTableRecord
  2
DASHED
 70
64
  3
- - - - - - - - - - - - - - - - - - - -
 72
65
 73
2
 40
0.2
 49
0.1
 74
0
 49
-0.1
 74
0
  0
ENDTAB
  0
TABLE
  2
LAYER
  5
2
100
AcDbSymbolTable
 70
36
  0
LAYER
  5
10
100
AcDbSymbolTableRecord
100
AcDbLayerTableRecord
  2
0
 70
0
 62
7
  6
CONTINUOUS
370
-3
390
F
  0
LAYER
  5
1FA
100
AcDbSymbolTableRecord
100
AcDbLayerTableRecord
  2
DEFAULT_1
 70
0
 62
7
  6
CENTER
370
-3
390
F
  0
LAYER
  5
1FB
100
AcDbSymbolTableRecord
100
AcDbLayerTableRecord
  2
DEFAULT_2
 70
0
 62
8
  6
HIDDEN
370
-3
390
F
  0
LAYER
  5
1FC
100
AcDbSymbolTableRecord
100
AcDbLayerTableRecord
  2
DEFAULT_3
 70
0
 62
7
  6
PHANTOM
370
-3
390
F
  0
LAYER
  5
1FD
100
AcDbSymbolTableRecord
100
AcDbLayerTableRecord
  2
01_ALL_DTM_PLN
 70
0
 62
7
  6
CONTINUOUS
370
-3
390
F
  0
LAYER
  5
1FE
100
AcDbSymbolTableRecord
100
AcDbLayerTableRecord
  2
01__ASM_ALL_DTM_PLN
 70
0
 62
7
  6
CONTINUOUS
370
-3
390
F
  0
LAYER
  5
1FF
100
AcDbSymbolTableRecord
100
AcDbLayerTableRecord
  2
01__ASM_DEF_DTM_PLN
 70
0
 62
7
  6
CONTINUOUS
370
-3
390
F
  0
LAYER
  5
200
100
AcDbSymbolTableRecord
100
AcDbLayerTableRecord
  2
01___PRT_ALL_DTM_PLN
 70
0
 62
7
  6
CONTINUOUS
370
-3
390
F
  0
LAYER
  5
201
100
AcDbSymbolTableRecord
100
AcDbLayerTableRecord
  2
01___PRT_DEF_DTM_PLN
 70
0
 62
7
  6
CONTINUOUS
370
-3
390
F
  0
LAYER
  5
202
100
AcDbSymbolTableRecord
100
AcDbLayerTableRecord
  2
02_ALL_AXES
 70
0
 62
7
  6
CONTINUOUS
370
-3
390
F
  0
LAYER
  5
203
100
AcDbSymbolTableRecord
100
AcDbLayerTableRecord
  2
02__ASM_ALL_AXES
 70
0
 62
7
  6
CONTINUOUS
370
-3
390
F
  0
LAYER
  5
204
100
AcDbSymbolTableRecord
100
AcDbLayerTableRecord
  2
02___PRT_ALL_AXES
 70
0
 62
7
  6
CONTINUOUS
370
-3
390
F
  0
LAYER
  5
205
100
AcDbSymbolTableRecord
100
AcDbLayerTableRecord
  2
03_ALL_CURVES
 70
0
 62
7
  6
CONTINUOUS
370
-3
390
F
  0
LAYER
  5
206
100
AcDbSymbolTableRecord
100
AcDbLayerTableRecord
  2
03__ASM_ALL_CURVES
 70
0
 62
7
  6
CONTINUOUS
370
-3
390
F
  0
LAYER
  5
207
100
AcDbSymbolTableRecord
100
AcDbLayerTableRecord
  2
03___PRT_ALL_CURVES
 70
0
 62
7
  6
CONTINUOUS
370
-3
390
F
  0
LAYER
  5
208
100
AcDbSymbolTableRecord
100
AcDbLayerTableRecord
  2
04_ALL_DTM_PNT
 70
0
 62
7
  6
CONTINUOUS
370
-3
390
F
  0
LAYER
  5
209
100
AcDbSymbolTableRecord
100
AcDbLayerTableRecord
  2
04__ASM_ALL_DTM_PNT
 70
0
 62
7
  6
CONTINUOUS
370
-3
390
F
  0
LAYER
  5
20A
100
AcDbSymbolTableRecord
100
AcDbLayerTableRecord
  2
04___PRT_ALL_DTM_PNT
 70
0
 62
7
  6
CONTINUOUS
370
-3
390
F
  0
LAYER
  5
20B
100
AcDbSymbolTableRecord
100
AcDbLayerTableRecord
  2
05_ALL_DTM_CSYS
 70
0
 62
7
  6
CONTINUOUS
370
-3
390
F
  0
LAYER
  5
20C
100
AcDbSymbolTableRecord
100
AcDbLayerTableRecord
  2
05__ASM_ALL_DTM_CSYS
 70
0
 62
7
  6
CONTINUOUS
370
-3
390
F
  0
LAYER
  5
20D
100
AcDbSymbolTableRecord
100
AcDbLayerTableRecord
  2
05__ASM_DEF_DTM_CSYS
 70
0
 62
7
  6
CONTINUOUS
370
-3
390
F
  0
LAYER
  5
20E
100
AcDbSymbolTableRecord
100
AcDbLayerTableRecord
  2
05___PRT_ALL_DTM_CSYS
 70
0
 62
7
  6
CONTINUOUS
370
-3
390
F
  0
LAYER
  5
20F
100
AcDbSymbolTableRecord
100
AcDbLayerTableRecord
  2
05___PRT_DEF_DTM_CSYS
 70
0
 62
7
  6
CONTINUOUS
370
-3
390
F
  0
LAYER
  5
210
100
AcDbSymbolTableRecord
100
AcDbLayerTableRecord
  2
06_ALL_SURFS
 70
0
 62
7
  6
CONTINUOUS
370
-3
390
F
  0
LAYER
  5
211
100
AcDbSymbolTableRecord
100
AcDbLayerTableRecord
  2
06__ASM_ALL_SURFS
 70
0
 62
7
  6
CONTINUOUS
370
-3
390
F
  0
LAYER
  5
212
100
AcDbSymbolTableRecord
100
AcDbLayerTableRecord
  2
06___PRT_ALL_SURFS
 70
0
 62
7
  6
CONTINUOUS
370
-3
390
F
  0
LAYER
  5
213
100
AcDbSymbolTableRecord
100
AcDbLayerTableRecord
  2
07__ASM_ALL_SKELETONS
 70
0
 62
7
  6
CONTINUOUS
370
-3
390
F
  0
LAYER
  5
214
100
AcDbSymbolTableRecord
100
AcDbLayerTableRecord
  2
AXIS
 70
0
 62
7
  6
CONTINUOUS
370
-3
390
F
  0
LAYER
  5
215
100
AcDbSymbolTableRecord
100
AcDbLayerTableRecord
  2
BAFFLE_DTMS
 70
0
 62
7
  6
CONTINUOUS
370
-3
390
F
  0
LAYER
  5
216
100
AcDbSymbolTableRecord
100
AcDbLayerTableRecord
  2
BD_ANGLE
 70
0
 62
7
  6
CONTINUOUS
370
-3
390
F
  0
LAYER
  5
217
100
AcDbSymbolTableRecord
100
AcDbLayerTableRecord
  2
CONDUIT_DTMS
 70
0
 62
7
  6
CONTINUOUS
370
-3
390
F
  0
LAYER
  5
218
100
AcDbSymbolTableRecord
100
AcDbLayerTableRecord
  2
CS
 70
0
 62
7
  6
CONTINUOUS
370
-3
390
F
  0
LAYER
  5
219
100
AcDbSymbolTableRecord
100
AcDbLayerTableRecord
  2
CSYS
 70
0
 62
7
  6
CONTINUOUS
370
-3
390
F
  0
LAYER
  5
21A
100
AcDbSymbolTableRecord
100
AcDbLayerTableRecord
  2
CURVE
 70
0
 62
7
  6
CONTINUOUS
370
-3
390
F
  0
LAYER
  5
21B
100
AcDbSymbolTableRecord
100
AcDbLayerTableRecord
  2
DATUM_PLANES
 70
0
 62
7
  6
CONTINUOUS
370
-3
390
F
  0
LAYER
  5
21C
100
AcDbSymbolTableRecord
100
AcDbLayerTableRecord
  2
DEF_DTMS
 70
0
 62
7
  6
CONTINUOUS
370
-3
390
F
  0
LAYER
  5
21D
100
AcDbSymbolTableRecord
100
AcDbLayerTableRecord
  2
HEAD
 70
0
 62
7
  6
CONTINUOUS
370
-3
390
F
  0
LAYER
  5
21E
100
AcDbSymbolTableRecord
100
AcDbLayerTableRecord
  2
J_BOX_ANGLE
 70
0
 62
7
  6
CONTINUOUS
370
-3
390
F
  0
LAYER
  5
21F
100
AcDbSymbolTableRecord
100
AcDbLayerTableRecord
  2
MTR_HOLE_ANG_DTM
 70
0
 62
7
  6
CONTINUOUS
370
-3
390
F
  0
LAYER
  5
220
100
AcDbSymbolTableRecord
100
AcDbLayerTableRecord
  2
NEW
 70
0
 62
7
  6
CONTINUOUS
370
-3
390
F
  0
LAYER
  5
221
100
AcDbSymbolTableRecord
100
AcDbLayerTableRecord
  2
PARTDTMS
 70
0
 62
7
  6
CONTINUOUS
370
-3
390
F
  0
LAYER
  5
222
100
AcDbSymbolTableRecord
100
AcDbLayerTableRecord
  2
PLANE
 70
0
 62
7
  6
CONTINUOUS
370
-3
390
F
  0
LAYER
  5
223
100
AcDbSymbolTableRecord
100
AcDbLayerTableRecord
  2
PLANES
 70
0
 62
7
  6
CONTINUOUS
370
-3
390
F
  0
LAYER
  5
224
100
AcDbSymbolTableRecord
100
AcDbLayerTableRecord
  2
POINT
 70
0
 62
7
  6
CONTINUOUS
370
-3
390
F
  0
LAYER
  5
225
100
AcDbSymbolTableRecord
100
AcDbLayerTableRecord
  2
ROUND
 70
0
 62
7
  6
CONTINUOUS
370
-3
390
F
  0
LAYER
  5
226
100
AcDbSymbolTableRecord
100
AcDbLayerTableRecord
  2
STANDOFF_DTMS
 70
0
 62
7
  6
CONTINUOUS
370
-3
390
F
  0
LAYER
  5
227
100
AcDbSymbolTableRecord
100
AcDbLayerTableRecord
  2
STIFF_ANGLE
 70
0
 62
7
  6
CONTINUOUS
370
-3
390
F
  0
ENDTAB
  0
TABLE
  2
STYLE
  5
3
100
AcDbSymbolTable
 70
1
  0
STYLE
  5
11
100
AcDbSymbolTableRecord
100
AcDbTextStyleTableRecord
  2
STANDARD
 70
0
 40
0.0
 41
0.8
 50
0.0
 71
0
 42
0.2
  3
txt
  4

  0
STYLE
  5
228
100
AcDbSymbolTableRecord
100
AcDbTextStyleTableRecord
  2
TEXTSTYLE_1
 70
0
 40
0.0
 41
0.8
 50
0.0
 71
0
 42
0.2
  3
gdt
  4

  0
ENDTAB
  0
TABLE
  2
VIEW
  5
6
100
AcDbSymbolTable
 70
0
  0
ENDTAB
  0
TABLE
  2
UCS
  5
7
100
AcDbSymbolTable
 70
0
  0
ENDTAB
  0
TABLE
  2
APPID
  5
9
100
AcDbSymbolTable
 70
1
  0
APPID
  5
229
100
AcDbSymbolTableRecord
100
AcDbRegAppTableRecord
  2
ACAD
 70
0
  0
ENDTAB
  0
TABLE
  2
BLOCK_RECORD
  5
1
100
AcDbSymbolTable
 70
0
  0
BLOCK_RECORD
  5
22A
100
AcDbSymbolTableRecord
100
AcDbBlockTableRecord
  2
*Model_Space
  0
BLOCK_RECORD
  5
22B
100
AcDbSymbolTableRecord
100
AcDbBlockTableRecord
  2
*Paper_Space
  0
ENDTAB
  0
TABLE
  2
DIMSTYLE
  5
A
100
AcDbSymbolTable
 70
1
100
AcDbDimStyleTable
 71
0
  0
DIMSTYLE
105
22C
100
AcDbSymbolTableRecord
100
AcDbDimStyleTableRecord
  2
STANDARD
 70
0
  3

  4

 40
1.0
 41
0.125
 42
0.0625
 43
0.38
 44
0.18
 45
0.0
 46
0.0
 47
0.7
 48
0.7
140
0.15625
141
0.09
142
0.0
143
25.4
144
1.0
145
0.0
146
1.0
147
0.09
 71
1.0
 72
0.0
 73
1
 74
1
 75
0
 76
0
 77
0
 78
4
170
0
171
2
172
0
173
0
174
0
175
0
176
0
177
0
178
0
270
2
271
2
272
2
273
2
274
2
275
0
280
0
281
0
282
0
283
1
284
4
285
0
286
0
287
3
288
0
340
11
  0
ENDTAB
  0
ENDSEC
  0
SECTION
  2
BLOCKS
  0
BLOCK
  5
20
100
AcDbEntity
  8
0
100
AcDbBlockBegin
  2
*Model_Space
 70
0
 10
0.0
 20
0.0
 30
0.0
  3
*Model_Space
  1

  0
ENDBLK
  5
21
100
AcDbEntity
  8
0
100
AcDbBlockEnd
  0
BLOCK
  5
1C
100
AcDbEntity
  8
0
100
AcDbBlockBegin
  2
*Paper_Space
 70
0
 10
0.0
 20
0.0
 30
0.0
  3
*Paper_Space
  1

  0
ENDBLK
  5
1D
100
AcDbEntity
  8
0
100
AcDbBlockEnd
  0
ENDSEC
  0
SECTION
  2
ENTITIES
  0
MTEXT
  5
22D
100
AcDbEntity
  8
0
100
AcDbMText
 62
2
  6
CONTINUOUS
  7
STANDARD
 71
1
 72
1
 10
22.3677031708
 20
5.2542261653
 30
0.0
 11
1.0
 21
0.0
 31
0.0
 44
0.9
  1
47386
 40
4.0
 41
16.0
  0
LINE
  5
22E
100
AcDbEntity
  8
0
100
AcDbLine
 62
7
  6
CONTINUOUS
 10
8.629691316
 20
-6.7217233191
 11
7.479691316
 21
-6.7217233191
  0
LINE
  5
22F
100
AcDbEntity
  8
0
100
AcDbLine
 62
7
  6
CONTINUOUS
 10
8.779691316
 20
-6.7217233191
 11
11.279691316
 21
-6.7217233191
  0
LINE
  5
230
100
AcDbEntity
  8
0
100
AcDbLine
 62
7
  6
CONTINUOUS
 10
-5.0284157248
 20
7.0062893827
 11
-5.5284157248
 21
6.140263979
  0
LINE
  5
231
100
AcDbEntity
  8
0
100
AcDbLine
 62
7
  6
CONTINUOUS
 10
1.279691316
 20
-5.6517233191
 11
2.279691316
 21
-5.6517233191
  0
LINE
  5
232
100
AcDbEntity
  8
0
100
AcDbLine
 62
7
  6
CONTINUOUS
 10
-5.0619093739
 20
6.3232766809
 11
-4.9536561984
 21
6.5107766809
  0
LINE
  5
233
100
AcDbEntity
  8
0
100
AcDbLine
 62
7
  6
CONTINUOUS
 10
-4.628896672
 20
6.3232766809
 11
-4.7371498474
 21
6.1357766809
  0
LINE
  5
234
100
AcDbEntity
  8
0
100
AcDbLine
 62
7
  6
CONTINUOUS
 10
1.8879444915
 20
-5.3392233191
 11
1.6714381406
 21
-5.3392233191
  0
LINE
  5
235
100
AcDbEntity
  8
0
100
AcDbLine
 62
7
  6
CONTINUOUS
 10
1.6714381406
 20
-4.9642233191
 11
1.8879444915
 21
-4.9642233191
  0
LINE
  5
236
100
AcDbEntity
  8
0
100
AcDbLine
 62
7
  6
CONTINUOUS
 10
7.479691316
 20
-4.7217233191
 11
8.629691316
 21
-4.7217233191
  0
LINE
  5
237
100
AcDbEntity
  8
0
100
AcDbLine
 62
7
  6
CONTINUOUS
 10
-3.9793776191
 20
5.6982766809
 11
-3.8711244437
 21
5.8857766809
  0
LINE
  5
238
100
AcDbEntity
  8
0
100
AcDbLine
 62
7
  6
CONTINUOUS
 10
-3.5463649172
 20
5.6982766809
 11
-3.6546180927
 21
5.5107766809
  0
LINE
  5
239
100
AcDbEntity
  8
0
100
AcDbLine
 62
7
  6
CONTINUOUS
 10
6.8108676799
 20
-3.1417378932
 11
5.4995209644
 21
-3.4931121867
  0
LINE
  5
23A
100
AcDbEntity
  8
0
100
AcDbLine
 62
7
  6
CONTINUOUS
 10
1.279691316
 20
-4.6238121331
 11
0.2425720611
 21
-4.9017073999
  0
LINE
  5
23B
100
AcDbEntity
  8
0
100
AcDbLine
 62
7
  6
CONTINUOUS
 10
1.8879444915
 20
-4.0892233191
 11
1.6714381406
 21
-4.0892233191
  0
LINE
  5
23C
100
AcDbEntity
  8
0
100
AcDbLine
 62
7
  6
CONTINUOUS
 10
1.6714381406
 20
-3.7142233191
 11
1.8879444915
 21
-3.7142233191
  0
LINE
  5
23D
100
AcDbEntity
  8
0
100
AcDbLine
 62
7
  6
CONTINUOUS
 10
-3.3633522153
 20
4.890263979
 11
-2.8633522153
 21
5.7562893827
  0
LINE
  5
23E
100
AcDbEntity
  8
0
100
AcDbLine
 62
7
  6
CONTINUOUS
 10
-2.862073451
 20
5.0685042675
 11
-2.767073451
 21
5.2330490942
  0
LINE
  5
23F
100
AcDbEntity
  8
0
100
AcDbLine
 62
7
  6
CONTINUOUS
 10
11.279691316
 20
-3.2217233191
 11
8.779691316
 21
-3.2217233191
  0
LINE
  5
240
100
AcDbEntity
  8
0
100
AcDbLine
 62
7
  6
CONTINUOUS
 10
1.279691316
 20
-3.1517233191
 11
2.279691316
 21
-3.1517233191
  0
LINE
  5
241
100
AcDbEntity
  8
0
100
AcDbLine
 62
7
  6
CONTINUOUS
 10
11.229691316
 20
-3.1217233191
 11
8.579691316
 21
-3.1217233191
  0
LINE
  5
242
100
AcDbEntity
  8
0
100
AcDbLine
 62
7
  6
CONTINUOUS
 10
1.874691316
 20
-2.8567233191
 11
1.684691316
 21
-2.8567233191
  0
LINE
  5
243
100
AcDbEntity
  8
0
100
AcDbLine
 62
7
  6
CONTINUOUS
 10
1.6787498044
 20
-2.5773350664
 11
1.6492055718
 21
-2.5825445118
  0
LINE
  5
244
100
AcDbEntity
  8
AXIS
100
AcDbLine
 62
7
  6
CONTINUOUS
 10
2.7521902552
 20
-2.3880585528
 11
2.7817344878
 21
-2.3828491074
  0
LINE
  5
245
100
AcDbEntity
  8
0
100
AcDbLine
 62
7
  6
CONTINUOUS
 10
1.6787498044
 20
-2.3880585528
 11
1.6492055718
 21
-2.3828491074
  0
LINE
  5
246
100
AcDbEntity
  8
AXIS
100
AcDbLine
 62
7
  6
CONTINUOUS
 10
2.7521902552
 20
-2.5773350664
 11
2.7817344878
 21
-2.5825445118
  0
LINE
  5
247
100
AcDbEntity
  8
0
100
AcDbLine
 62
7
  6
CONTINUOUS
 10
1.6604563775
 20
6.6084679048
 11
1.6327111452
 21
6.5893306524
  0
LINE
  5
248
100
AcDbEntity
  8
0
100
AcDbLine
 62
7
  6
CONTINUOUS
 10
8.579691316
 20
-1.5017233191
 11
11.229691316
 21
-1.5017233191
  0
LINE
  5
249
100
AcDbEntity
  8
0
100
AcDbLine
 62
7
  6
CONTINUOUS
 10
1.6714381406
 20
-5.3392233191
 11
1.5631849651
 21
-5.1517233191
  0
LINE
  5
24A
100
AcDbEntity
  8
0
100
AcDbLine
 62
7
  6
CONTINUOUS
 10
-4.9536561984
 20
6.1357766809
 11
-5.0619093739
 21
6.3232766809
  0
LINE
  5
24B
100
AcDbEntity
  8
0
100
AcDbLine
 62
7
  6
CONTINUOUS
 10
-4.7371498474
 20
6.5107766809
 11
-4.628896672
 21
6.3232766809
  0
LINE
  5
24C
100
AcDbEntity
  8
0
100
AcDbLine
 62
7
  6
CONTINUOUS
 10
1.8879444915
 20
-4.9642233191
 11
1.996197667
 21
-5.1517233191
  0
LINE
  5
24D
100
AcDbEntity
  8
0
100
AcDbLine
 62
7
  6
CONTINUOUS
 10
0.120097574
 20
-4.8309967218
 11
-0.0136085998
 21
-4.331998488
  0
LINE
  5
24E
100
AcDbEntity
  8
0
100
AcDbLine
 62
7
  6
CONTINUOUS
 10
1.6714381406
 20
-4.0892233191
 11
1.5631849651
 21
-3.9017233191
  0
LINE
  5
24F
100
AcDbEntity
  8
0
100
AcDbLine
 62
7
  6
CONTINUOUS
 10
-3.8711244437
 20
5.5107766809
 11
-3.9793776191
 21
5.6982766809
  0
LINE
  5
250
100
AcDbEntity
  8
0
100
AcDbLine
 62
7
  6
CONTINUOUS
 10
-3.6546180927
 20
5.8857766809
 11
-3.5463649172
 21
5.6982766809
  0
LINE
  5
251
100
AcDbEntity
  8
0
100
AcDbLine
 62
7
  6
CONTINUOUS
 10
1.8879444915
 20
-3.7142233191
 11
1.996197667
 21
-3.9017233191
  0
LINE
  5
252
100
AcDbEntity
  8
0
100
AcDbLine
 62
7
  6
CONTINUOUS
 10
0.749691316
 20
2.2790735787
 11
0.749691316
 21
2.717479783
  0
LINE
  5
253
100
AcDbEntity
  8
0
100
AcDbLine
 62
7
  6
CONTINUOUS
 10
0.979691316
 20
2.2482766809
 11
0.979691316
 21
2.3432766809
  0
LINE
  5
254
100
AcDbEntity
  8
0
100
AcDbLine
 62
7
  6
CONTINUOUS
 10
0.979691316
 20
2.6532766809
 11
0.979691316
 21
2.7482766809
  0
LINE
  5
255
100
AcDbEntity
  8
0
100
AcDbLine
 62
7
  6
CONTINUOUS
 10
1.0189971505
 20
2.7089708464
 11
1.0189971505
 21
2.2875825153
  0
LINE
  5
256
100
AcDbEntity
  8
0
100
AcDbLine
 62
7
  6
CONTINUOUS
 10
1.061191316
 20
3.4904531185
 11
1.279691316
 21
3.6166041523
  0
LINE
  5
257
100
AcDbEntity
  8
0
100
AcDbLine
 62
7
  6
CONTINUOUS
 10
1.498191316
 20
3.2381510508
 11
1.279691316
 21
3.112000017
  0
LINE
  5
258
100
AcDbEntity
  8
0
100
AcDbLine
 62
7
  6
CONTINUOUS
 10
1.279691316
 20
1.3799492094
 11
1.061191316
 21
1.5061002433
  0
LINE
  5
259
100
AcDbEntity
  8
0
100
AcDbLine
 62
7
  6
CONTINUOUS
 10
1.279691316
 20
1.8845533447
 11
1.498191316
 21
1.7584023109
  0
LINE
  5
25A
100
AcDbEntity
  8
0
100
AcDbLine
 62
7
  6
CONTINUOUS
 10
1.061191316
 20
1.5061002433
 11
1.061191316
 21
1.7584023109
  0
LINE
  5
25B
100
AcDbEntity
  8
0
100
AcDbLine
 62
7
  6
CONTINUOUS
 10
1.061191316
 20
3.2381510508
 11
1.061191316
 21
3.4904531185
  0
LINE
  5
25C
100
AcDbEntity
  8
0
100
AcDbLine
 62
7
  6
CONTINUOUS
 10
1.279691316
 20
-3.1517233191
 11
1.279691316
 21
-5.6517233191
  0
LINE
  5
25D
100
AcDbEntity
  8
0
100
AcDbLine
 62
7
  6
CONTINUOUS
 10
1.498191316
 20
3.4904531185
 11
1.498191316
 21
3.2381510508
  0
LINE
  5
25E
100
AcDbEntity
  8
0
100
AcDbLine
 62
7
  6
CONTINUOUS
 10
1.498191316
 20
1.7584023109
 11
1.498191316
 21
1.5061002433
  0
LINE
  5
25F
100
AcDbEntity
  8
0
100
AcDbLine
 62
7
  6
CONTINUOUS
 10
1.684691316
 20
-3.1517233191
 11
1.684691316
 21
-2.8567233191
  0
LINE
  5
260
100
AcDbEntity
  8
0
100
AcDbLine
 62
7
  6
CONTINUOUS
 10
1.874691316
 20
-3.1517233191
 11
1.874691316
 21
-2.8567233191
  0
LINE
  5
261
100
AcDbEntity
  8
0
100
AcDbLine
 62
7
  6
CONTINUOUS
 10
1.0189971505
 20
2.2875825153
 11
0.979691316
 21
2.2482766809
  0
LINE
  5
262
100
AcDbEntity
  8
0
100
AcDbLine
 62
7
  6
CONTINUOUS
 10
6.4227348474
 20
5.7562893827
 11
8.5877983569
 21
7.0062893827
  0
LINE
  5
263
100
AcDbEntity
  8
0
100
AcDbLine
 62
7
  6
CONTINUOUS
 10
6.6252348474
 20
5.4055490942
 11
6.3264560831
 21
5.2330490942
  0
LINE
  5
264
100
AcDbEntity
  8
0
100
AcDbLine
 62
7
  6
CONTINUOUS
 10
6.7202348474
 20
5.2410042675
 11
6.4214560831
 21
5.0685042675
  0
LINE
  5
265
100
AcDbEntity
  8
0
100
AcDbLine
 62
7
  6
CONTINUOUS
 10
0.979691316
 20
2.2482766809
 11
1.1926133779
 21
2.2482766809
  0
LINE
  5
266
100
AcDbEntity
  8
0
100
AcDbLine
 62
7
  6
CONTINUOUS
 10
0.749691316
 20
2.2790735787
 11
0.5411260216
 21
2.2790735787
  0
LINE
  5
267
100
AcDbEntity
  8
0
100
AcDbLine
 62
7
  6
CONTINUOUS
 10
1.0189971505
 20
2.2875825153
 11
1.1912756733
 21
2.2875825153
  0
LINE
  5
268
100
AcDbEntity
  8
0
100
AcDbLine
 62
7
  6
CONTINUOUS
 10
0.9993442333
 20
2.3432766809
 11
0.749691316
 21
2.3432766809
  0
LINE
  5
269
100
AcDbEntity
  8
0
100
AcDbLine
 62
7
  6
CONTINUOUS
 10
0.749691316
 20
2.4982766809
 11
0.5411260216
 21
2.4982766809
  0
LINE
  5
26A
100
AcDbEntity
  8
0
100
AcDbLine
 62
4
  6
CONTINUOUS
 10
0.279691316
 20
2.4982766809
 11
0.029691316
 21
2.4982766809
  0
LINE
  5
26B
100
AcDbEntity
  8
0
100
AcDbLine
 62
7
  6
CONTINUOUS
 10
-3.3633522153
 20
4.890263979
 11
-5.5284157248
 21
6.140263979
  0
LINE
  5
26C
100
AcDbEntity
  8
0
100
AcDbLine
 62
7
  6
CONTINUOUS
 10
-3.1608522153
 20
5.2410042675
 11
-2.862073451
 21
5.0685042675
  0
LINE
  5
26D
100
AcDbEntity
  8
0
100
AcDbLine
 62
7
  6
CONTINUOUS
 10
-3.0658522153
 20
5.4055490942
 11
-2.767073451
 21
5.2330490942
  0
LINE
  5
26E
100
AcDbEntity
  8
0
100
AcDbLine
 62
7
  6
CONTINUOUS
 10
0.979691316
 20
2.7482766809
 11
1.0189971505
 21
2.7089708464
  0
LINE
  5
26F
100
AcDbEntity
  8
0
100
AcDbLine
 62
7
  6
CONTINUOUS
 10
3.8373027246
 20
-5.1808336381
 11
3.6048797152
 21
-4.3134191581
  0
LINE
  5
270
100
AcDbEntity
  8
0
100
AcDbLine
 62
7
  6
CONTINUOUS
 10
2.279691316
 20
-3.1517233191
 11
2.279691316
 21
-5.6517233191
  0
LINE
  5
271
100
AcDbEntity
  8
0
100
AcDbLine
 62
7
  6
CONTINUOUS
 10
2.561191316
 20
2.372125647
 11
2.561191316
 21
2.6244277147
  0
LINE
  5
272
100
AcDbEntity
  8
0
100
AcDbLine
 62
7
  6
CONTINUOUS
 10
1.061191316
 20
1.7584023109
 11
1.279691316
 21
1.8845533447
  0
LINE
  5
273
100
AcDbEntity
  8
0
100
AcDbLine
 62
7
  6
CONTINUOUS
 10
2.561191316
 20
2.6244277147
 11
2.779691316
 21
2.7505787485
  0
LINE
  5
274
100
AcDbEntity
  8
0
100
AcDbLine
 62
7
  6
CONTINUOUS
 10
6.9227348474
 20
4.890263979
 11
9.0877983569
 21
6.140263979
  0
LINE
  5
275
100
AcDbEntity
  8
0
100
AcDbLine
 62
7
  6
CONTINUOUS
 10
2.998191316
 20
2.372125647
 11
2.779691316
 21
2.2459746132
  0
LINE
  5
276
100
AcDbEntity
  8
0
100
AcDbLine
 62
7
  6
CONTINUOUS
 10
1.498191316
 20
1.5061002433
 11
1.279691316
 21
1.3799492094
  0
LINE
  5
277
100
AcDbEntity
  8
0
100
AcDbLine
 62
7
  6
CONTINUOUS
 10
0.9993442333
 20
2.6532766809
 11
0.749691316
 21
2.6532766809
  0
LINE
  5
278
100
AcDbEntity
  8
0
100
AcDbLine
 62
7
  6
CONTINUOUS
 10
1.0189971505
 20
2.7089708464
 11
1.1912756733
 21
2.7089708464
  0
LINE
  5
279
100
AcDbEntity
  8
0
100
AcDbLine
 62
7
  6
CONTINUOUS
 10
0.749691316
 20
2.717479783
 11
0.5411260216
 21
2.717479783
  0
LINE
  5
27A
100
AcDbEntity
  8
0
100
AcDbLine
 62
7
  6
CONTINUOUS
 10
0.979691316
 20
2.7482766809
 11
1.1926133779
 21
2.7482766809
  0
LINE
  5
27B
100
AcDbEntity
  8
0
100
AcDbLine
 62
7
  6
CONTINUOUS
 10
2.779691316
 20
2.2459746132
 11
2.561191316
 21
2.372125647
  0
LINE
  5
27C
100
AcDbEntity
  8
0
100
AcDbLine
 62
7
  6
CONTINUOUS
 10
1.279691316
 20
3.112000017
 11
1.061191316
 21
3.2381510508
  0
LINE
  5
27D
100
AcDbEntity
  8
0
100
AcDbLine
 62
7
  6
CONTINUOUS
 10
-2.8633522153
 20
5.7562893827
 11
-5.0284157248
 21
7.0062893827
  0
LINE
  5
27E
100
AcDbEntity
  8
0
100
AcDbLine
 62
7
  6
CONTINUOUS
 10
1.279691316
 20
3.6166041523
 11
1.498191316
 21
3.4904531185
  0
LINE
  5
27F
100
AcDbEntity
  8
0
100
AcDbLine
 62
7
  6
CONTINUOUS
 10
2.779691316
 20
2.7505787485
 11
2.998191316
 21
2.6244277147
  0
LINE
  5
280
100
AcDbEntity
  8
0
100
AcDbLine
 62
7
  6
CONTINUOUS
 10
2.998191316
 20
2.6244277147
 11
2.998191316
 21
2.372125647
  0
LINE
  5
281
100
AcDbEntity
  8
03___PRT_ALL_CURVES
100
AcDbLine
 62
4
  6
CONTINUOUS
 10
11.264051417
 20
-3.1072033305
 11
11.279691316
 21
-3.1217233191
  0
LINE
  5
282
100
AcDbEntity
  8
0
100
AcDbLine
 62
7
  6
CONTINUOUS
 10
5.4715124753
 20
-3.5523808477
 11
5.7691543772
 21
-4.6631955479
  0
LINE
  5
283
100
AcDbEntity
  8
0
100
AcDbLine
 62
7
  6
CONTINUOUS
 10
1.5631849651
 20
-3.9017233191
 11
1.6714381406
 21
-3.7142233191
  0
LINE
  5
284
100
AcDbEntity
  8
0
100
AcDbLine
 62
7
  6
CONTINUOUS
 10
7.1057475493
 20
5.6982766809
 11
7.2140007248
 21
5.8857766809
  0
LINE
  5
285
100
AcDbEntity
  8
0
100
AcDbLine
 62
7
  6
CONTINUOUS
 10
7.5387602512
 20
5.6982766809
 11
7.4305070757
 21
5.5107766809
  0
LINE
  5
286
100
AcDbEntity
  8
0
100
AcDbLine
 62
7
  6
CONTINUOUS
 10
1.996197667
 20
-3.9017233191
 11
1.8879444915
 21
-4.0892233191
  0
LINE
  5
287
100
AcDbEntity
  8
0
100
AcDbLine
 62
7
  6
CONTINUOUS
 10
1.5631849651
 20
-5.1517233191
 11
1.6714381406
 21
-4.9642233191
  0
LINE
  5
288
100
AcDbEntity
  8
0
100
AcDbLine
 62
7
  6
CONTINUOUS
 10
8.188279304
 20
6.3232766809
 11
8.2965324795
 21
6.5107766809
  0
LINE
  5
289
100
AcDbEntity
  8
0
100
AcDbLine
 62
7
  6
CONTINUOUS
 10
1.8989262545
 20
-1.6119145431
 11
1.9266714869
 21
-1.5927772907
  0
LINE
  5
28A
100
AcDbEntity
  8
0
100
AcDbLine
 62
7
  6
CONTINUOUS
 10
7.4305070757
 20
5.5107766809
 11
7.2140007248
 21
5.5107766809
  0
LINE
  5
28B
100
AcDbEntity
  8
0
100
AcDbLine
 62
7
  6
CONTINUOUS
 10
-3.6546180927
 20
5.5107766809
 11
-3.8711244437
 21
5.5107766809
  0
LINE
  5
28C
100
AcDbEntity
  8
0
100
AcDbLine
 62
7
  6
CONTINUOUS
 10
-3.8711244437
 20
5.8857766809
 11
-3.6546180927
 21
5.8857766809
  0
LINE
  5
28D
100
AcDbEntity
  8
0
100
AcDbLine
 62
7
  6
CONTINUOUS
 10
7.2140007248
 20
5.8857766809
 11
7.4305070757
 21
5.8857766809
  0
LINE
  5
28E
100
AcDbEntity
  8
0
100
AcDbLine
 62
7
  6
CONTINUOUS
 10
8.5130388305
 20
6.1357766809
 11
8.2965324795
 21
6.1357766809
  0
LINE
  5
28F
100
AcDbEntity
  8
0
100
AcDbLine
 62
7
  6
CONTINUOUS
 10
-4.7371498474
 20
6.1357766809
 11
-4.9536561984
 21
6.1357766809
  0
LINE
  5
290
100
AcDbEntity
  8
0
100
AcDbLine
 62
7
  6
CONTINUOUS
 10
6.7478721842
 20
-2.5202651723
 11
6.881578358
 21
-3.0192634061
  0
LINE
  5
291
100
AcDbEntity
  8
0
100
AcDbLine
 62
7
  6
CONTINUOUS
 10
8.6212920059
 20
6.3232766809
 11
8.5130388305
 21
6.1357766809
  0
LINE
  5
292
100
AcDbEntity
  8
0
100
AcDbLine
 62
7
  6
CONTINUOUS
 10
1.996197667
 20
-5.1517233191
 11
1.8879444915
 21
-5.3392233191
  0
LINE
  5
293
100
AcDbEntity
  8
0
100
AcDbLine
 62
7
  6
CONTINUOUS
 10
-4.9536561984
 20
6.5107766809
 11
-4.7371498474
 21
6.5107766809
  0
LINE
  5
294
100
AcDbEntity
  8
0
100
AcDbLine
 62
7
  6
CONTINUOUS
 10
8.2965324795
 20
6.5107766809
 11
8.5130388305
 21
6.5107766809
  0
LINE
  5
295
100
AcDbEntity
  8
0
100
AcDbLine
 62
7
  6
CONTINUOUS
 10
6.3264560831
 20
5.2330490942
 11
6.4214560831
 21
5.0685042675
  0
LINE
  5
296
100
AcDbEntity
  8
0
100
AcDbLine
 62
7
  6
CONTINUOUS
 10
7.429691316
 20
-6.6717233191
 11
7.429691316
 21
-4.7717233191
  0
LINE
  5
297
100
AcDbEntity
  8
0
100
AcDbLine
 62
7
  6
CONTINUOUS
 10
6.9227348474
 20
4.890263979
 11
6.4227348474
 21
5.7562893827
  0
LINE
  5
298
100
AcDbEntity
  8
0
100
AcDbLine
 62
7
  6
CONTINUOUS
 10
7.2140007248
 20
5.5107766809
 11
7.1057475493
 21
5.6982766809
  0
LINE
  5
299
100
AcDbEntity
  8
0
100
AcDbLine
 62
7
  6
CONTINUOUS
 10
8.529691316
 20
-3.0717233191
 11
8.529691316
 21
-1.5517233191
  0
LINE
  5
29A
100
AcDbEntity
  8
0
100
AcDbLine
 62
7
  6
CONTINUOUS
 10
8.679691316
 20
-4.7717233191
 11
8.679691316
 21
-6.6717233191
  0
LINE
  5
29B
100
AcDbEntity
  8
0
100
AcDbLine
 62
7
  6
CONTINUOUS
 10
8.779691316
 20
-3.2217233191
 11
8.779691316
 21
-6.7217233191
  0
LINE
  5
29C
100
AcDbEntity
  8
0
100
AcDbLine
 62
7
  6
CONTINUOUS
 10
7.4305070757
 20
5.8857766809
 11
7.5387602512
 21
5.6982766809
  0
LINE
  5
29D
100
AcDbEntity
  8
0
100
AcDbLine
 62
7
  6
CONTINUOUS
 10
8.2965324795
 20
6.1357766809
 11
8.188279304
 21
6.3232766809
  0
LINE
  5
29E
100
AcDbEntity
  8
0
100
AcDbLine
 62
7
  6
CONTINUOUS
 10
8.5130388305
 20
6.5107766809
 11
8.6212920059
 21
6.3232766809
  0
LINE
  5
29F
100
AcDbEntity
  8
0
100
AcDbLine
 62
7
  6
CONTINUOUS
 10
9.0877983569
 20
6.140263979
 11
8.5877983569
 21
7.0062893827
  0
LINE
  5
2A0
100
AcDbEntity
  8
03___PRT_ALL_CURVES
100
AcDbLine
 62
4
  6
CONTINUOUS
 10
8.5368475893
 20
-3.1217233191
 11
8.5504251127
 21
-3.1122368707
  0
LINE
  5
2A1
100
AcDbEntity
  8
0
100
AcDbLine
 62
7
  6
CONTINUOUS
 10
11.279691316
 20
-6.7217233191
 11
11.279691316
 21
-3.2217233191
  0
LINE
  5
2A2
100
AcDbEntity
  8
0
100
AcDbLine
 62
7
  6
CONTINUOUS
 10
11.279691316
 20
-1.5517233191
 11
11.279691316
 21
-3.0717233191
  0
LINE
  5
2A3
100
AcDbEntity
  8
0
100
AcDbLine
 62
7
  6
CONTINUOUS
 10
-5.0324030229
 20
19.3448768353
 11
-5.0619093739
 21
19.3619123349
  0
LINE
  5
2A4
100
AcDbEntity
  8
0
100
AcDbLine
 62
3
  6
CONTINUOUS
 10
-7.1023275728
 20
23.7458768353
 11
-6.1600013047
 21
26.3348969786
  0
LINE
  5
2A5
100
AcDbEntity
  8
PARTDTMS
100
AcDbLine
 62
7
  6
CONTINUOUS
 10
-4.6289030229
 20
19.8494873715
 11
-4.5654030229
 21
19.8198768353
  0
LINE
  5
2A6
100
AcDbEntity
  8
0
100
AcDbLine
 62
7
  6
CONTINUOUS
 10
-3.9498712682
 20
19.3448768353
 11
-3.9793776191
 21
19.3619123349
  0
LINE
  5
2A7
100
AcDbEntity
  8
0
100
AcDbLine
 62
7
  6
CONTINUOUS
 10
-5.5284157248
 20
19.6898768353
 11
-5.5284157248
 21
19.8148768353
  0
LINE
  5
2A8
100
AcDbEntity
  8
0
100
AcDbLine
 62
7
  6
CONTINUOUS
 10
-5.2104030229
 20
19.6498768353
 11
-5.2104030229
 21
19.5848768353
  0
LINE
  5
2A9
100
AcDbEntity
  8
PARTDTMS
100
AcDbLine
 62
7
  6
CONTINUOUS
 10
-5.1254030229
 20
19.8198768353
 11
-5.1254030229
 21
19.8148768353
  0
LINE
  5
2AA
100
AcDbEntity
  8
0
100
AcDbLine
 62
7
  6
CONTINUOUS
 10
-5.1054030229
 20
19.5348768353
 11
-5.1054030229
 21
19.5848768353
  0
LINE
  5
2AB
100
AcDbEntity
  8
0
100
AcDbLine
 62
7
  6
CONTINUOUS
 10
-5.0619093739
 20
19.3619123349
 11
-5.0619093739
 21
19.5129768353
  0
LINE
  5
2AC
100
AcDbEntity
  8
PARTDTMS
100
AcDbLine
 62
7
  6
CONTINUOUS
 10
-5.0619030229
 20
19.8338694846
 11
-5.0619030229
 21
20.0598768353
  0
LINE
  5
2AD
100
AcDbEntity
  8
0
100
AcDbLine
 62
7
  6
CONTINUOUS
 10
-5.0284157248
 20
19.6898768353
 11
-5.0284157248
 21
19.8148768353
  0
LINE
  5
2AE
100
AcDbEntity
  8
0
100
AcDbLine
 62
7
  6
CONTINUOUS
 10
-4.9549030229
 20
19.6498768353
 11
-4.9549030229
 21
19.6898768353
  0
LINE
  5
2AF
100
AcDbEntity
  8
0
100
AcDbLine
 62
7
  6
CONTINUOUS
 10
-4.9549030229
 20
20.0598768353
 11
-4.9549030229
 21
20.1918768353
  0
LINE
  5
2B0
100
AcDbEntity
  8
0
100
AcDbLine
 62
7
  6
CONTINUOUS
 10
-4.9536561984
 20
19.3619123349
 11
-4.9536561984
 21
19.5129768353
  0
LINE
  5
2B1
100
AcDbEntity
  8
PARTDTMS
100
AcDbLine
 62
7
  6
CONTINUOUS
 10
-4.8454030229
 20
19.8338694846
 11
-4.8454030229
 21
20.0598768353
  0
LINE
  5
2B2
100
AcDbEntity
  8
PARTDTMS
100
AcDbLine
 62
7
  6
CONTINUOUS
 10
-3.5463712682
 20
19.8494873715
 11
-3.4828712682
 21
19.8198768353
  0
LINE
  5
2B3
100
AcDbEntity
  8
0
100
AcDbLine
 62
7
  6
CONTINUOUS
 10
-4.7559030229
 20
20.3348768353
 11
-4.7359030229
 21
20.1918768353
  0
LINE
  5
2B4
100
AcDbEntity
  8
0
100
AcDbLine
 62
7
  6
CONTINUOUS
 10
-4.7371498474
 20
19.3619123349
 11
-4.7371498474
 21
19.5129768353
  0
LINE
  5
2B5
100
AcDbEntity
  8
0
100
AcDbLine
 62
7
  6
CONTINUOUS
 10
-4.7359030229
 20
19.6498768353
 11
-4.7359030229
 21
19.6898768353
  0
LINE
  5
2B6
100
AcDbEntity
  8
0
100
AcDbLine
 62
7
  6
CONTINUOUS
 10
-4.7359030229
 20
20.0598768353
 11
-4.7359030229
 21
20.1918768353
  0
LINE
  5
2B7
100
AcDbEntity
  8
PARTDTMS
100
AcDbLine
 62
7
  6
CONTINUOUS
 10
-4.6289030229
 20
19.8338694846
 11
-4.6289030229
 21
20.0598768353
  0
LINE
  5
2B8
100
AcDbEntity
  8
0
100
AcDbLine
 62
7
  6
CONTINUOUS
 10
-4.628896672
 20
19.3619123349
 11
-4.628896672
 21
19.5129768353
  0
LINE
  5
2B9
100
AcDbEntity
  8
0
100
AcDbLine
 62
7
  6
CONTINUOUS
 10
-4.5854030229
 20
19.5348768353
 11
-4.5854030229
 21
19.5848768353
  0
LINE
  5
2BA
100
AcDbEntity
  8
PARTDTMS
100
AcDbLine
 62
7
  6
CONTINUOUS
 10
-4.5654030229
 20
19.8198768353
 11
-4.5654030229
 21
19.8148768353
  0
LINE
  5
2BB
100
AcDbEntity
  8
0
100
AcDbLine
 62
7
  6
CONTINUOUS
 10
-4.4804030229
 20
19.6498768353
 11
-4.4804030229
 21
19.5848768353
  0
LINE
  5
2BC
100
AcDbEntity
  8
0
100
AcDbLine
 62
7
  6
CONTINUOUS
 10
-4.1278712682
 20
19.6498768353
 11
-4.1278712682
 21
19.5848768353
  0
LINE
  5
2BD
100
AcDbEntity
  8
0
100
AcDbLine
 62
7
  6
CONTINUOUS
 10
-4.1078712682
 20
27.0578768353
 11
-4.1078712682
 21
26.9928768353
  0
LINE
  5
2BE
100
AcDbEntity
  8
0
100
AcDbLine
 62
7
  6
CONTINUOUS
 10
-4.9349030229
 20
20.3348768353
 11
-4.9549030229
 21
20.1918768353
  0
LINE
  5
2BF
100
AcDbEntity
  8
0
100
AcDbLine
 62
7
  6
CONTINUOUS
 10
-5.0324018195
 20
19.3448768353
 11
-4.6584042263
 21
19.3448768353
  0
LINE
  5
2C0
100
AcDbEntity
  8
0
100
AcDbLine
 62
7
  6
CONTINUOUS
 10
-3.9498700648
 20
19.3448768353
 11
-3.5758724716
 21
19.3448768353
  0
LINE
  5
2C1
100
AcDbEntity
  8
0
100
AcDbLine
 62
7
  6
CONTINUOUS
 10
1.5926925195
 20
19.3448768353
 11
1.9666901126
 21
19.3448768353
  0
LINE
  5
2C2
100
AcDbEntity
  8
0
100
AcDbLine
 62
7
  6
CONTINUOUS
 10
7.1352551037
 20
19.3448768353
 11
7.5092526968
 21
19.3448768353
  0
LINE
  5
2C3
100
AcDbEntity
  8
0
100
AcDbLine
 62
7
  6
CONTINUOUS
 10
8.2177868584
 20
19.3448768353
 11
8.5917844516
 21
19.3448768353
  0
LINE
  5
2C4
100
AcDbEntity
  8
0
100
AcDbLine
 62
7
  6
CONTINUOUS
 10
-3.6733712682
 20
20.3348768353
 11
-3.6533712682
 21
20.1918768353
  0
LINE
  5
2C5
100
AcDbEntity
  8
PARTDTMS
100
AcDbLine
 62
7
  6
CONTINUOUS
 10
-4.0428712682
 20
19.8198768353
 11
-4.0428712682
 21
19.8148768353
  0
LINE
  5
2C6
100
AcDbEntity
  8
0
100
AcDbLine
 62
7
  6
CONTINUOUS
 10
-4.0228712682
 20
19.5348768353
 11
-4.0228712682
 21
19.5848768353
  0
LINE
  5
2C7
100
AcDbEntity
  8
0
100
AcDbLine
 62
7
  6
CONTINUOUS
 10
-3.9793776191
 20
19.3619123349
 11
-3.9793776191
 21
19.5129768353
  0
LINE
  5
2C8
100
AcDbEntity
  8
PARTDTMS
100
AcDbLine
 62
7
  6
CONTINUOUS
 10
-3.9793712682
 20
19.8338694846
 11
-3.9793712682
 21
20.0598768353
  0
LINE
  5
2C9
100
AcDbEntity
  8
0
100
AcDbLine
 62
7
  6
CONTINUOUS
 10
-3.9793712682
 20
27.0578768353
 11
-3.9793712682
 21
27.2378768353
  0
LINE
  5
2CA
100
AcDbEntity
  8
0
100
AcDbLine
 62
7
  6
CONTINUOUS
 10
-3.8723712682
 20
19.6498768353
 11
-3.8723712682
 21
19.6898768353
  0
LINE
  5
2CB
100
AcDbEntity
  8
0
100
AcDbLine
 62
7
  6
CONTINUOUS
 10
-3.8723712682
 20
20.0598768353
 11
-3.8723712682
 21
20.1918768353
  0
LINE
  5
2CC
100
AcDbEntity
  8
0
100
AcDbLine
 62
7
  6
CONTINUOUS
 10
-3.8711244437
 20
19.3619123349
 11
-3.8711244437
 21
19.5129768353
  0
LINE
  5
2CD
100
AcDbEntity
  8
PARTDTMS
100
AcDbLine
 62
7
  6
CONTINUOUS
 10
-3.7628712682
 20
19.8338694846
 11
-3.7628712682
 21
20.0598768353
  0
LINE
  5
2CE
100
AcDbEntity
  8
0
100
AcDbLine
 62
7
  6
CONTINUOUS
 10
-3.7628712682
 20
27.0578768353
 11
-3.7628712682
 21
27.2378768353
  0
LINE
  5
2CF
100
AcDbEntity
  8
0
100
AcDbLine
 62
7
  6
CONTINUOUS
 10
-3.6546180927
 20
19.3619123349
 11
-3.6546180927
 21
19.5129768353
  0
LINE
  5
2D0
100
AcDbEntity
  8
0
100
AcDbLine
 62
7
  6
CONTINUOUS
 10
-3.6533712682
 20
19.6498768353
 11
-3.6533712682
 21
19.6898768353
  0
LINE
  5
2D1
100
AcDbEntity
  8
0
100
AcDbLine
 62
7
  6
CONTINUOUS
 10
-3.6533712682
 20
20.0598768353
 11
-3.6533712682
 21
20.1918768353
  0
LINE
  5
2D2
100
AcDbEntity
  8
PARTDTMS
100
AcDbLine
 62
7
  6
CONTINUOUS
 10
-3.5463712682
 20
19.8338694846
 11
-3.5463712682
 21
20.0598768353
  0
LINE
  5
2D3
100
AcDbEntity
  8
0
100
AcDbLine
 62
7
  6
CONTINUOUS
 10
-3.5463712682
 20
27.0578768353
 11
-3.5463712682
 21
27.2378768353
  0
LINE
  5
2D4
100
AcDbEntity
  8
0
100
AcDbLine
 62
7
  6
CONTINUOUS
 10
-3.5463649172
 20
19.3619123349
 11
-3.5463649172
 21
19.5129768353
  0
LINE
  5
2D5
100
AcDbEntity
  8
0
100
AcDbLine
 62
7
  6
CONTINUOUS
 10
-3.5028712682
 20
19.5348768353
 11
-3.5028712682
 21
19.5848768353
  0
LINE
  5
2D6
100
AcDbEntity
  8
PARTDTMS
100
AcDbLine
 62
7
  6
CONTINUOUS
 10
-3.4828712682
 20
19.8198768353
 11
-3.4828712682
 21
19.8148768353
  0
LINE
  5
2D7
100
AcDbEntity
  8
0
100
AcDbLine
 62
7
  6
CONTINUOUS
 10
-3.4716053908
 20
23.2398768353
 11
-3.4716053908
 21
19.9398768353
  0
LINE
  5
2D8
100
AcDbEntity
  8
0
100
AcDbLine
 62
7
  6
CONTINUOUS
 10
-3.4178712682
 20
27.0578768353
 11
-3.4178712682
 21
26.9928768353
  0
LINE
  5
2D9
100
AcDbEntity
  8
0
100
AcDbLine
 62
7
  6
CONTINUOUS
 10
-3.3978712682
 20
19.6498768353
 11
-3.3978712682
 21
19.5848768353
  0
LINE
  5
2DA
100
AcDbEntity
  8
0
100
AcDbLine
 62
3
  6
CONTINUOUS
 10
-3.7108447847
 20
27.4307151945
 11
-2.4718239432
 21
30.8348969786
  0
LINE
  5
2DB
100
AcDbEntity
  8
0
100
AcDbLine
 62
7
  6
CONTINUOUS
 10
1.5196929893
 20
19.5348768353
 11
2.0396896428
 21
19.5348768353
  0
LINE
  5
2DC
100
AcDbEntity
  8
0
100
AcDbLine
 62
7
  6
CONTINUOUS
 10
-3.5028729414
 20
19.5348768353
 11
-4.022869595
 21
19.5348768353
  0
LINE
  5
2DD
100
AcDbEntity
  8
0
100
AcDbLine
 62
7
  6
CONTINUOUS
 10
-4.5854046961
 20
19.5348768353
 11
-5.1054013497
 21
19.5348768353
  0
LINE
  5
2DE
100
AcDbEntity
  8
0
100
AcDbLine
 62
7
  6
CONTINUOUS
 10
7.0622555735
 20
19.5348768353
 11
7.582252227
 21
19.5348768353
  0
LINE
  5
2DF
100
AcDbEntity
  8
0
100
AcDbLine
 62
7
  6
CONTINUOUS
 10
8.1447873282
 20
19.5348768353
 11
8.6647839818
 21
19.5348768353
  0
LINE
  5
2E0
100
AcDbEntity
  8
0
100
AcDbLine
 62
7
  6
CONTINUOUS
 10
8.769785655
 20
19.5848768353
 11
8.039785655
 21
19.5848768353
  0
LINE
  5
2E1
100
AcDbEntity
  8
0
100
AcDbLine
 62
7
  6
CONTINUOUS
 10
7.6872539003
 20
19.5848768353
 11
6.9572539003
 21
19.5848768353
  0
LINE
  5
2E2
100
AcDbEntity
  8
0
100
AcDbLine
 62
7
  6
CONTINUOUS
 10
2.144691316
 20
19.5848768353
 11
1.414691316
 21
19.5848768353
  0
LINE
  5
2E3
100
AcDbEntity
  8
0
100
AcDbLine
 62
7
  6
CONTINUOUS
 10
-3.3978712682
 20
19.5848768353
 11
-4.1278712682
 21
19.5848768353
  0
LINE
  5
2E4
100
AcDbEntity
  8
0
100
AcDbLine
 62
7
  6
CONTINUOUS
 10
-4.4804030229
 20
19.5848768353
 11
-5.2104030229
 21
19.5848768353
  0
LINE
  5
2E5
100
AcDbEntity
  8
0
100
AcDbLine
 62
7
  6
CONTINUOUS
 10
8.769785655
 20
19.6498768353
 11
8.039785655
 21
19.6498768353
  0
LINE
  5
2E6
100
AcDbEntity
  8
0
100
AcDbLine
 62
7
  6
CONTINUOUS
 10
7.6872539003
 20
19.6498768353
 11
6.9572539003
 21
19.6498768353
  0
LINE
  5
2E7
100
AcDbEntity
  8
0
100
AcDbLine
 62
7
  6
CONTINUOUS
 10
2.144691316
 20
19.6498768353
 11
1.414691316
 21
19.6498768353
  0
LINE
  5
2E8
100
AcDbEntity
  8
0
100
AcDbLine
 62
7
  6
CONTINUOUS
 10
-3.3978712682
 20
19.6498768353
 11
-4.1278712682
 21
19.6498768353
  0
LINE
  5
2E9
100
AcDbEntity
  8
0
100
AcDbLine
 62
7
  6
CONTINUOUS
 10
-4.4804030229
 20
19.6498768353
 11
-5.2104030229
 21
19.6498768353
  0
LINE
  5
2EA
100
AcDbEntity
  8
0
100
AcDbLine
 62
7
  6
CONTINUOUS
 10
1.279691316
 20
19.6898768353
 11
2.6754700298
 21
19.6898768353
  0
LINE
  5
2EB
100
AcDbEntity
  8
0
100
AcDbLine
 62
7
  6
CONTINUOUS
 10
-3.0798585663
 20
19.6898768353
 11
-5.5284157248
 21
19.6898768353
  0
LINE
  5
2EC
100
AcDbEntity
  8
0
100
AcDbLine
 62
7
  6
CONTINUOUS
 10
6.6392411984
 20
19.6898768353
 11
11.279691316
 21
19.6898768353
  0
LINE
  5
2ED
100
AcDbEntity
  8
0
100
AcDbLine
 62
7
  6
CONTINUOUS
 10
9.0877983569
 20
19.7398768353
 11
11.279691316
 21
19.7398768353
  0
LINE
  5
2EE
100
AcDbEntity
  8
0
100
AcDbLine
 62
7
  6
CONTINUOUS
 10
11.279691316
 20
19.7573768353
 11
9.0877983569
 21
19.7573768353
  0
LINE
  5
2EF
100
AcDbEntity
  8
0
100
AcDbLine
 62
7
  6
CONTINUOUS
 10
-3.0798585663
 20
19.8148768353
 11
-5.5284157248
 21
19.8148768353
  0
LINE
  5
2F0
100
AcDbEntity
  8
0
100
AcDbLine
 62
7
  6
CONTINUOUS
 10
6.6392411984
 20
19.8148768353
 11
9.0877983569
 21
19.8148768353
  0
LINE
  5
2F1
100
AcDbEntity
  8
PARTDTMS
100
AcDbLine
 62
7
  6
CONTINUOUS
 10
7.6022539003
 20
19.8198768353
 11
7.0422539003
 21
19.8198768353
  0
LINE
  5
2F2
100
AcDbEntity
  8
PARTDTMS
100
AcDbLine
 62
7
  6
CONTINUOUS
 10
-3.4828712682
 20
19.8198768353
 11
-4.0428712682
 21
19.8198768353
  0
LINE
  5
2F3
100
AcDbEntity
  8
PARTDTMS
100
AcDbLine
 62
7
  6
CONTINUOUS
 10
-4.5654030229
 20
19.8198768353
 11
-5.1254030229
 21
19.8198768353
  0
LINE
  5
2F4
100
AcDbEntity
  8
0
100
AcDbLine
 62
7
  6
CONTINUOUS
 10
-5.0619030229
 20
20.0598768353
 11
-4.6289030229
 21
20.0598768353
  0
LINE
  5
2F5
100
AcDbEntity
  8
0
100
AcDbLine
 62
7
  6
CONTINUOUS
 10
-3.9793712682
 20
20.0598768353
 11
-3.5463712682
 21
20.0598768353
  0
LINE
  5
2F6
100
AcDbEntity
  8
0
100
AcDbLine
 62
7
  6
CONTINUOUS
 10
7.1057539003
 20
20.0598768353
 11
7.5387539003
 21
20.0598768353
  0
LINE
  5
2F7
100
AcDbEntity
  8
0
100
AcDbLine
 62
7
  6
CONTINUOUS
 10
-4.9549030229
 20
20.1918768353
 11
-4.7359030229
 21
20.1918768353
  0
LINE
  5
2F8
100
AcDbEntity
  8
0
100
AcDbLine
 62
7
  6
CONTINUOUS
 10
-3.8723712682
 20
20.1918768353
 11
-3.6533712682
 21
20.1918768353
  0
LINE
  5
2F9
100
AcDbEntity
  8
0
100
AcDbLine
 62
7
  6
CONTINUOUS
 10
7.2127539003
 20
20.1918768353
 11
7.4317539003
 21
20.1918768353
  0
LINE
  5
2FA
100
AcDbEntity
  8
0
100
AcDbLine
 62
7
  6
CONTINUOUS
 10
8.295285655
 20
20.1918768353
 11
8.514285655
 21
20.1918768353
  0
LINE
  5
2FB
100
AcDbEntity
  8
0
100
AcDbLine
 62
7
  6
CONTINUOUS
 10
1.592691316
 20
19.3448768353
 11
1.5631849651
 21
19.3619123349
  0
LINE
  5
2FC
100
AcDbEntity
  8
0
100
AcDbLine
 62
7
  6
CONTINUOUS
 10
-2.9716053908
 20
23.2398768353
 11
-2.9716053908
 21
19.9398768353
  0
LINE
  5
2FD
100
AcDbEntity
  8
0
100
AcDbLine
 62
7
  6
CONTINUOUS
 10
-2.8633522153
 20
23.2398768353
 11
-2.8633522153
 21
19.9398768353
  0
LINE
  5
2FE
100
AcDbEntity
  8
0
100
AcDbLine
 62
7
  6
CONTINUOUS
 10
-3.8523712682
 20
20.3348768353
 11
-3.8723712682
 21
20.1918768353
  0
LINE
  5
2FF
100
AcDbEntity
  8
0
100
AcDbLine
 62
7
  6
CONTINUOUS
 10
8.494285655
 20
20.3348768353
 11
8.315285655
 21
20.3348768353
  0
LINE
  5
300
100
AcDbEntity
  8
0
100
AcDbLine
 62
7
  6
CONTINUOUS
 10
7.4117539003
 20
20.3348768353
 11
7.2327539003
 21
20.3348768353
  0
LINE
  5
301
100
AcDbEntity
  8
0
100
AcDbLine
 62
7
  6
CONTINUOUS
 10
-3.6733712682
 20
20.3348768353
 11
-3.8523712682
 21
20.3348768353
  0
LINE
  5
302
100
AcDbEntity
  8
0
100
AcDbLine
 62
7
  6
CONTINUOUS
 10
-4.7559030229
 20
20.3348768353
 11
-4.9349030229
 21
20.3348768353
  0
LINE
  5
303
100
AcDbEntity
  8
0
100
AcDbLine
 62
7
  6
CONTINUOUS
 10
-2.814573451
 20
20.8748768353
 11
-2.8633522153
 21
20.8748768353
  0
LINE
  5
304
100
AcDbEntity
  8
0
100
AcDbLine
 62
7
  6
CONTINUOUS
 10
6.3739560831
 20
20.8748768353
 11
6.4227348474
 21
20.8748768353
  0
LINE
  5
305
100
AcDbEntity
  8
0
100
AcDbLine
 62
7
  6
CONTINUOUS
 10
-2.3177799483
 20
21.6598768353
 11
-2.3177799483
 21
21.6098768353
  0
LINE
  5
306
100
AcDbEntity
  8
0
100
AcDbLine
 62
7
  6
CONTINUOUS
 10
-2.2088946342
 20
21.7016354559
 11
-2.2088946342
 21
21.6626354559
  0
LINE
  5
307
100
AcDbEntity
  8
0
100
AcDbLine
 62
7
  6
CONTINUOUS
 10
-2.1520928804
 20
23.2398768353
 11
-2.1520928804
 21
21.7016354559
  0
LINE
  5
308
100
AcDbEntity
  8
0
100
AcDbLine
 62
7
  6
CONTINUOUS
 10
-2.1219963163
 20
23.2398768353
 11
-2.1219963163
 21
21.6626354559
  0
LINE
  5
309
100
AcDbEntity
  8
0
100
AcDbLine
 62
7
  6
CONTINUOUS
 10
-2.1049264621
 20
21.6626354559
 11
-2.1049264621
 21
21.7016354559
  0
LINE
  5
30A
100
AcDbEntity
  8
0
100
AcDbLine
 62
7
  6
CONTINUOUS
 10
-2.0299264621
 20
21.9998768353
 11
-2.0299264621
 21
21.7016354559
  0
LINE
  5
30B
100
AcDbEntity
  8
0
100
AcDbLine
 62
7
  6
CONTINUOUS
 10
-2.0299264621
 20
21.6626354559
 11
-2.0299264621
 21
21.6598768353
  0
LINE
  5
30C
100
AcDbEntity
  8
0
100
AcDbLine
 62
7
  6
CONTINUOUS
 10
-1.9286548546
 20
21.7016354559
 11
-1.9286548546
 21
21.6626354559
  0
LINE
  5
30D
100
AcDbEntity
  8
0
100
AcDbLine
 62
7
  6
CONTINUOUS
 10
-1.8999264621
 20
21.9998768353
 11
-1.8999264621
 21
21.7016354559
  0
LINE
  5
30E
100
AcDbEntity
  8
0
100
AcDbLine
 62
7
  6
CONTINUOUS
 10
-1.8999264621
 20
21.6626354559
 11
-1.8999264621
 21
21.6598768353
  0
LINE
  5
30F
100
AcDbEntity
  8
0
100
AcDbLine
 62
7
  6
CONTINUOUS
 10
-2.814573451
 20
21.0648768353
 11
-2.8633522153
 21
21.0648768353
  0
LINE
  5
310
100
AcDbEntity
  8
0
100
AcDbLine
 62
7
  6
CONTINUOUS
 10
6.3739560831
 20
21.0648768353
 11
6.4227348474
 21
21.0648768353
  0
LINE
  5
311
100
AcDbEntity
  8
0
100
AcDbLine
 62
7
  6
CONTINUOUS
 10
-1.3933059877
 20
21.2118768353
 11
4.9526886197
 21
21.2118768353
  0
LINE
  5
312
100
AcDbEntity
  8
0
100
AcDbLine
 62
7
  6
CONTINUOUS
 10
-2.3177799483
 20
21.6098768353
 11
5.8771625804
 21
21.6098768353
  0
LINE
  5
313
100
AcDbEntity
  8
0
100
AcDbLine
 62
7
  6
CONTINUOUS
 10
-2.3177799483
 20
21.6598768353
 11
5.8771625804
 21
21.6598768353
  0
LINE
  5
314
100
AcDbEntity
  8
0
100
AcDbLine
 62
7
  6
CONTINUOUS
 10
-2.2088904834
 20
21.6626354559
 11
2.8418926246
 21
21.6626354559
  0
LINE
  5
315
100
AcDbEntity
  8
0
100
AcDbLine
 62
7
  6
CONTINUOUS
 10
2.8424118809
 20
21.6626354559
 11
5.7682731155
 21
21.6626354559
  0
LINE
  5
316
100
AcDbEntity
  8
0
100
AcDbLine
 62
7
  6
CONTINUOUS
 10
-0.1319978866
 20
21.7016354559
 11
-1.0550216214
 21
21.7016354559
  0
LINE
  5
317
100
AcDbEntity
  8
0
100
AcDbLine
 62
7
  6
CONTINUOUS
 10
-1.831773857
 20
21.7016354559
 11
-2.1049142827
 21
21.7016354559
  0
LINE
  5
318
100
AcDbEntity
  8
0
100
AcDbLine
 62
7
  6
CONTINUOUS
 10
-2.1520928804
 20
21.7016354559
 11
-2.2088904834
 21
21.7016354559
  0
LINE
  5
319
100
AcDbEntity
  8
0
100
AcDbLine
 62
7
  6
CONTINUOUS
 10
0.7175772858
 20
21.7016354559
 11
2.2979783832
 21
21.7016354559
  0
LINE
  5
31A
100
AcDbEntity
  8
0
100
AcDbLine
 62
7
  6
CONTINUOUS
 10
2.7098482194
 20
21.7016354559
 11
2.8418926246
 21
21.7016354559
  0
LINE
  5
31B
100
AcDbEntity
  8
0
100
AcDbLine
 62
7
  6
CONTINUOUS
 10
2.8424118809
 20
21.7016354559
 11
5.7682731155
 21
21.7016354559
  0
LINE
  5
31C
100
AcDbEntity
  8
0
100
AcDbLine
 62
7
  6
CONTINUOUS
 10
-1.831773857
 20
23.2398768353
 11
-1.831773857
 21
21.7016354559
  0
LINE
  5
31D
100
AcDbEntity
  8
0
100
AcDbLine
 62
7
  6
CONTINUOUS
 10
-1.7928462925
 20
23.2398768353
 11
-1.7928462925
 21
21.6626354559
  0
LINE
  5
31E
100
AcDbEntity
  8
0
100
AcDbLine
 62
7
  6
CONTINUOUS
 10
-1.7233416845
 20
21.6626354559
 11
-1.7233416845
 21
21.6598768353
  0
LINE
  5
31F
100
AcDbEntity
  8
0
100
AcDbLine
 62
7
  6
CONTINUOUS
 10
-1.5933416845
 20
21.6626354559
 11
-1.5933416845
 21
21.6598768353
  0
LINE
  5
320
100
AcDbEntity
  8
0
100
AcDbLine
 62
7
  6
CONTINUOUS
 10
-1.3933431667
 20
21.6098768353
 11
-1.3933431667
 21
21.2118768353
  0
LINE
  5
321
100
AcDbEntity
  8
0
100
AcDbLine
 62
7
  6
CONTINUOUS
 10
-1.3309318089
 20
23.2398768353
 11
-1.3309318089
 21
21.6626354559
  0
LINE
  5
322
100
AcDbEntity
  8
0
100
AcDbLine
 62
7
  6
CONTINUOUS
 10
-1.1534411218
 20
21.6626354559
 11
-1.1534411218
 21
21.6598768353
  0
LINE
  5
323
100
AcDbEntity
  8
0
100
AcDbLine
 62
7
  6
CONTINUOUS
 10
5.5893090942
 20
21.9998768353
 11
5.4593090942
 21
21.9998768353
  0
LINE
  5
324
100
AcDbEntity
  8
0
100
AcDbLine
 62
7
  6
CONTINUOUS
 10
4.7128237539
 20
21.9998768353
 11
4.5828237539
 21
21.9998768353
  0
LINE
  5
325
100
AcDbEntity
  8
0
100
AcDbLine
 62
7
  6
CONTINUOUS
 10
4.1589923778
 20
21.9998768353
 11
4.0289923778
 21
21.9998768353
  0
LINE
  5
326
100
AcDbEntity
  8
0
100
AcDbLine
 62
7
  6
CONTINUOUS
 10
3.0473940841
 20
21.9998768353
 11
2.9173940841
 21
21.9998768353
  0
LINE
  5
327
100
AcDbEntity
  8
0
100
AcDbLine
 62
7
  6
CONTINUOUS
 10
1.844691316
 20
21.9998768353
 11
1.714691316
 21
21.9998768353
  0
LINE
  5
328
100
AcDbEntity
  8
0
100
AcDbLine
 62
7
  6
CONTINUOUS
 10
0.9225728353
 20
21.9998768353
 11
0.7925728353
 21
21.9998768353
  0
LINE
  5
329
100
AcDbEntity
  8
0
100
AcDbLine
 62
7
  6
CONTINUOUS
 10
-0.4696097457
 20
21.9998768353
 11
-0.5996097457
 21
21.9998768353
  0
LINE
  5
32A
100
AcDbEntity
  8
0
100
AcDbLine
 62
7
  6
CONTINUOUS
 10
-0.8500304955
 20
21.9998768353
 11
-0.9800304955
 21
21.9998768353
  0
LINE
  5
32B
100
AcDbEntity
  8
0
100
AcDbLine
 62
7
  6
CONTINUOUS
 10
-1.8999264621
 20
21.9998768353
 11
-2.0299264621
 21
21.9998768353
  0
LINE
  5
32C
100
AcDbEntity
  8
0
100
AcDbLine
 62
7
  6
CONTINUOUS
 10
-2.814573451
 20
22.1848768353
 11
-2.8633522153
 21
22.1848768353
  0
LINE
  5
32D
100
AcDbEntity
  8
0
100
AcDbLine
 62
7
  6
CONTINUOUS
 10
6.3739560831
 20
22.1848768353
 11
6.4227348474
 21
22.1848768353
  0
LINE
  5
32E
100
AcDbEntity
  8
0
100
AcDbLine
 62
7
  6
CONTINUOUS
 10
-2.814573451
 20
22.3748768353
 11
-2.8633522153
 21
22.3748768353
  0
LINE
  5
32F
100
AcDbEntity
  8
0
100
AcDbLine
 62
7
  6
CONTINUOUS
 10
6.3739560831
 20
22.3748768353
 11
6.4227348474
 21
22.3748768353
  0
LINE
  5
330
100
AcDbEntity
  8
0
100
AcDbLine
 62
7
  6
CONTINUOUS
 10
-1.0550304955
 20
21.6626354559
 11
-1.0550304955
 21
21.7016354559
  0
LINE
  5
331
100
AcDbEntity
  8
0
100
AcDbLine
 62
7
  6
CONTINUOUS
 10
-1.0234411218
 20
21.6626354559
 11
-1.0234411218
 21
21.6598768353
  0
LINE
  5
332
100
AcDbEntity
  8
0
100
AcDbLine
 62
7
  6
CONTINUOUS
 10
-0.9800304955
 20
21.9998768353
 11
-0.9800304955
 21
21.7016354559
  0
LINE
  5
333
100
AcDbEntity
  8
0
100
AcDbLine
 62
7
  6
CONTINUOUS
 10
-0.9800304955
 20
21.6626354559
 11
-0.9800304955
 21
21.6598768353
  0
LINE
  5
334
100
AcDbEntity
  8
0
100
AcDbLine
 62
7
  6
CONTINUOUS
 10
-0.8500304955
 20
21.9998768353
 11
-0.8500304955
 21
21.7016354559
  0
LINE
  5
335
100
AcDbEntity
  8
0
100
AcDbLine
 62
7
  6
CONTINUOUS
 10
-0.8500304955
 20
21.6626354559
 11
-0.8500304955
 21
21.6598768353
  0
LINE
  5
336
100
AcDbEntity
  8
0
100
AcDbLine
 62
7
  6
CONTINUOUS
 10
-0.7840261949
 20
23.2398768353
 11
-0.7840261949
 21
21.7016354559
  0
LINE
  5
337
100
AcDbEntity
  8
0
100
AcDbLine
 62
7
  6
CONTINUOUS
 10
-0.6746097457
 20
21.6626354559
 11
-0.6746097457
 21
21.7016354559
  0
LINE
  5
338
100
AcDbEntity
  8
0
100
AcDbLine
 62
7
  6
CONTINUOUS
 10
-0.5996097457
 20
21.9998768353
 11
-0.5996097457
 21
21.7016354559
  0
LINE
  5
339
100
AcDbEntity
  8
0
100
AcDbLine
 62
7
  6
CONTINUOUS
 10
-0.5996097457
 20
21.6626354559
 11
-0.5996097457
 21
21.6598768353
  0
LINE
  5
33A
100
AcDbEntity
  8
0
100
AcDbLine
 62
7
  6
CONTINUOUS
 10
-0.4696097457
 20
21.9998768353
 11
-0.4696097457
 21
21.7016354559
  0
LINE
  5
33B
100
AcDbEntity
  8
0
100
AcDbLine
 62
7
  6
CONTINUOUS
 10
-0.4696097457
 20
21.6626354559
 11
-0.4696097457
 21
21.6598768353
  0
LINE
  5
33C
100
AcDbEntity
  8
0
100
AcDbLine
 62
7
  6
CONTINUOUS
 10
-7.3966058189
 20
23.2398768353
 11
10.955988451
 21
23.2398768353
  0
LINE
  5
33D
100
AcDbEntity
  8
PARTDTMS
100
AcDbLine
 62
7
  6
CONTINUOUS
 10
7.5387539003
 20
19.8494873715
 11
7.6022539003
 21
19.8198768353
  0
LINE
  5
33E
100
AcDbEntity
  8
0
100
AcDbLine
 62
7
  6
CONTINUOUS
 10
7.1352539003
 20
19.3448768353
 11
7.1057475493
 21
19.3619123349
  0
LINE
  5
33F
100
AcDbEntity
  8
0
100
AcDbLine
 62
7
  6
CONTINUOUS
 10
-0.1319978866
 20
23.2398768353
 11
-0.1319978866
 21
21.7016354559
  0
LINE
  5
340
100
AcDbEntity
  8
0
100
AcDbLine
 62
7
  6
CONTINUOUS
 10
-0.0991083283
 20
23.2398768353
 11
-0.0991083283
 21
21.6626354559
  0
LINE
  5
341
100
AcDbEntity
  8
0
100
AcDbLine
 62
7
  6
CONTINUOUS
 10
-7.3966058189
 20
23.7458768353
 11
10.955988451
 21
23.7458768353
  0
LINE
  5
342
100
AcDbEntity
  8
0
100
AcDbLine
 62
7
  6
CONTINUOUS
 10
8.217785655
 20
19.3448768353
 11
8.188279304
 21
19.3619123349
  0
LINE
  5
343
100
AcDbEntity
  8
0
100
AcDbLine
 62
7
  6
CONTINUOUS
 10
0.5119885479
 20
21.6626354559
 11
0.5119885479
 21
21.6598768353
  0
LINE
  5
344
100
AcDbEntity
  8
0
100
AcDbLine
 62
7
  6
CONTINUOUS
 10
0.6419885479
 20
21.6626354559
 11
0.6419885479
 21
21.6598768353
  0
LINE
  5
345
100
AcDbEntity
  8
0
100
AcDbLine
 62
7
  6
CONTINUOUS
 10
0.7175728353
 20
21.6626354559
 11
0.7175728353
 21
21.7016354559
  0
LINE
  5
346
100
AcDbEntity
  8
0
100
AcDbLine
 62
7
  6
CONTINUOUS
 10
0.7763384644
 20
23.2398768353
 11
0.7763384644
 21
21.7016354559
  0
LINE
  5
347
100
AcDbEntity
  8
0
100
AcDbLine
 62
7
  6
CONTINUOUS
 10
0.7925728353
 20
21.9998768353
 11
0.7925728353
 21
21.7016354559
  0
LINE
  5
348
100
AcDbEntity
  8
0
100
AcDbLine
 62
7
  6
CONTINUOUS
 10
0.7925728353
 20
21.6626354559
 11
0.7925728353
 21
21.6598768353
  0
LINE
  5
349
100
AcDbEntity
  8
0
100
AcDbLine
 62
7
  6
CONTINUOUS
 10
0.9225728353
 20
21.9998768353
 11
0.9225728353
 21
21.7016354559
  0
LINE
  5
34A
100
AcDbEntity
  8
0
100
AcDbLine
 62
7
  6
CONTINUOUS
 10
0.9225728353
 20
21.6626354559
 11
0.9225728353
 21
21.6598768353
  0
LINE
  5
34B
100
AcDbEntity
  8
0
100
AcDbLine
 62
7
  6
CONTINUOUS
 10
1.279691316
 20
21.6626354559
 11
1.279691316
 21
21.6598768353
  0
LINE
  5
34C
100
AcDbEntity
  8
0
100
AcDbLine
 62
7
  6
CONTINUOUS
 10
1.279691316
 20
19.6898768353
 11
1.279691316
 21
21.2118768353
  0
LINE
  5
34D
100
AcDbEntity
  8
0
100
AcDbLine
 62
7
  6
CONTINUOUS
 10
1.414691316
 20
19.6498768353
 11
1.414691316
 21
19.5848768353
  0
LINE
  5
34E
100
AcDbEntity
  8
0
100
AcDbLine
 62
7
  6
CONTINUOUS
 10
1.519691316
 20
19.5348768353
 11
1.519691316
 21
19.5848768353
  0
LINE
  5
34F
100
AcDbEntity
  8
0
100
AcDbLine
 62
7
  6
CONTINUOUS
 10
1.5631849651
 20
19.3619123349
 11
1.5631849651
 21
19.5129768353
  0
LINE
  5
350
100
AcDbEntity
  8
0
100
AcDbLine
 62
7
  6
CONTINUOUS
 10
1.639691316
 20
21.6626354559
 11
1.639691316
 21
21.7016354559
  0
LINE
  5
351
100
AcDbEntity
  8
0
100
AcDbLine
 62
7
  6
CONTINUOUS
 10
1.670191316
 20
19.6498768353
 11
1.670191316
 21
19.6898768353
  0
LINE
  5
352
100
AcDbEntity
  8
0
100
AcDbLine
 62
7
  6
CONTINUOUS
 10
1.6714381406
 20
19.3619123349
 11
1.6714381406
 21
19.5129768353
  0
LINE
  5
353
100
AcDbEntity
  8
0
100
AcDbLine
 62
7
  6
CONTINUOUS
 10
1.714691316
 20
21.9998768353
 11
1.714691316
 21
21.7016354559
  0
LINE
  5
354
100
AcDbEntity
  8
0
100
AcDbLine
 62
7
  6
CONTINUOUS
 10
1.714691316
 20
21.6626354559
 11
1.714691316
 21
21.6598768353
  0
LINE
  5
355
100
AcDbEntity
  8
0
100
AcDbLine
 62
7
  6
CONTINUOUS
 10
1.7554700298
 20
19.6898768353
 11
1.7554700298
 21
21.2118768353
  0
LINE
  5
356
100
AcDbEntity
  8
0
100
AcDbLine
 62
7
  6
CONTINUOUS
 10
1.844691316
 20
21.9998768353
 11
1.844691316
 21
21.7016354559
  0
LINE
  5
357
100
AcDbEntity
  8
0
100
AcDbLine
 62
7
  6
CONTINUOUS
 10
1.844691316
 20
21.6626354559
 11
1.844691316
 21
21.6598768353
  0
LINE
  5
358
100
AcDbEntity
  8
0
100
AcDbLine
 62
7
  6
CONTINUOUS
 10
1.8879444915
 20
19.3619123349
 11
1.8879444915
 21
19.5129768353
  0
LINE
  5
359
100
AcDbEntity
  8
0
100
AcDbLine
 62
7
  6
CONTINUOUS
 10
1.889191316
 20
19.6498768353
 11
1.889191316
 21
19.6898768353
  0
LINE
  5
35A
100
AcDbEntity
  8
0
100
AcDbLine
 62
7
  6
CONTINUOUS
 10
-3.2702134035
 20
20.0370767572
 11
-3.2705941004
 21
20.0366366842
  0
LINE
  5
35B
100
AcDbEntity
  8
0
100
AcDbLine
 62
7
  6
CONTINUOUS
 10
-3.4605323279
 20
19.8173156897
 11
-3.2709635079
 21
20.0362109082
  0
LINE
  5
35C
100
AcDbEntity
  8
0
100
AcDbLine
 62
7
  6
CONTINUOUS
 10
1.996197667
 20
19.3619123349
 11
1.996197667
 21
19.5129768353
  0
LINE
  5
35D
100
AcDbEntity
  8
0
100
AcDbLine
 62
7
  6
CONTINUOUS
 10
2.039691316
 20
19.5348768353
 11
2.039691316
 21
19.5848768353
  0
LINE
  5
35E
100
AcDbEntity
  8
0
100
AcDbLine
 62
7
  6
CONTINUOUS
 10
2.144691316
 20
19.6498768353
 11
2.144691316
 21
19.5848768353
  0
LINE
  5
35F
100
AcDbEntity
  8
0
100
AcDbLine
 62
7
  6
CONTINUOUS
 10
2.2979783832
 20
23.2398768353
 11
2.2979783832
 21
21.7016354559
  0
LINE
  5
360
100
AcDbEntity
  8
0
100
AcDbLine
 62
7
  6
CONTINUOUS
 10
2.312267242
 20
23.2398768353
 11
2.312267242
 21
21.6626354559
  0
LINE
  5
361
100
AcDbEntity
  8
0
100
AcDbLine
 62
7
  6
CONTINUOUS
 10
2.6368097967
 20
21.6626354559
 11
2.6368097967
 21
21.6598768353
  0
LINE
  5
362
100
AcDbEntity
  8
0
100
AcDbLine
 62
7
  6
CONTINUOUS
 10
7.019914959
 20
19.8173156908
 11
6.830346139
 21
20.0362109093
  0
LINE
  5
363
100
AcDbEntity
  8
0
100
AcDbLine
 62
7
  6
CONTINUOUS
 10
6.8299733409
 20
20.0366406227
 11
6.8295960344
 21
20.0370767585
  0
LINE
  5
364
100
AcDbEntity
  8
0
100
AcDbLine
 62
7
  6
CONTINUOUS
 10
2.6754700298
 20
19.6898768353
 11
2.6754700298
 21
21.2118768353
  0
LINE
  5
365
100
AcDbEntity
  8
0
100
AcDbLine
 62
7
  6
CONTINUOUS
 10
2.7098385491
 20
21.7016354559
 11
2.7098385491
 21
21.6626354559
  0
LINE
  5
366
100
AcDbEntity
  8
0
100
AcDbLine
 62
7
  6
CONTINUOUS
 10
2.7199498104
 20
23.2398768353
 11
2.7199498104
 21
21.7016354559
  0
LINE
  5
367
100
AcDbEntity
  8
0
100
AcDbLine
 62
7
  6
CONTINUOUS
 10
2.7668097967
 20
21.6626354559
 11
2.7668097967
 21
21.6598768353
  0
LINE
  5
368
100
AcDbEntity
  8
0
100
AcDbLine
 62
7
  6
CONTINUOUS
 10
2.8423940841
 20
21.6626354559
 11
2.8423940841
 21
21.7016354559
  0
LINE
  5
369
100
AcDbEntity
  8
0
100
AcDbLine
 62
7
  6
CONTINUOUS
 10
2.9173940841
 20
21.9998768353
 11
2.9173940841
 21
21.7016354559
  0
LINE
  5
36A
100
AcDbEntity
  8
0
100
AcDbLine
 62
7
  6
CONTINUOUS
 10
2.9173940841
 20
21.6626354559
 11
2.9173940841
 21
21.6598768353
  0
LINE
  5
36B
100
AcDbEntity
  8
0
100
AcDbLine
 62
7
  6
CONTINUOUS
 10
3.0473940841
 20
21.9998768353
 11
3.0473940841
 21
21.7016354559
  0
LINE
  5
36C
100
AcDbEntity
  8
0
100
AcDbLine
 62
7
  6
CONTINUOUS
 10
3.0473940841
 20
21.6626354559
 11
3.0473940841
 21
21.6598768353
  0
LINE
  5
36D
100
AcDbEntity
  8
0
100
AcDbLine
 62
3
  6
CONTINUOUS
 10
8.779691316
 20
26.9928768353
 11
-5.220308684
 21
26.9928768353
  0
LINE
  5
36E
100
AcDbEntity
  8
0
100
AcDbLine
 62
7
  6
CONTINUOUS
 10
4.0289923778
 20
21.9998768353
 11
4.0289923778
 21
21.7016354559
  0
LINE
  5
36F
100
AcDbEntity
  8
0
100
AcDbLine
 62
7
  6
CONTINUOUS
 10
4.0289923778
 20
21.6626354559
 11
4.0289923778
 21
21.6598768353
  0
LINE
  5
370
100
AcDbEntity
  8
0
100
AcDbLine
 62
7
  6
CONTINUOUS
 10
4.1589923778
 20
21.9998768353
 11
4.1589923778
 21
21.7016354559
  0
LINE
  5
371
100
AcDbEntity
  8
0
100
AcDbLine
 62
7
  6
CONTINUOUS
 10
4.1589923778
 20
21.6626354559
 11
4.1589923778
 21
21.6598768353
  0
LINE
  5
372
100
AcDbEntity
  8
0
100
AcDbLine
 62
7
  6
CONTINUOUS
 10
-4.6584030229
 20
19.3448768353
 11
-4.628896672
 21
19.3619123349
  0
LINE
  5
373
100
AcDbEntity
  8
PARTDTMS
100
AcDbLine
 62
7
  6
CONTINUOUS
 10
-5.0619030229
 20
19.8494873715
 11
-5.1254030229
 21
19.8198768353
  0
LINE
  5
374
100
AcDbEntity
  8
0
100
AcDbLine
 62
7
  6
CONTINUOUS
 10
7.6672539003
 20
27.0578768353
 11
6.9772539003
 21
27.0578768353
  0
LINE
  5
375
100
AcDbEntity
  8
0
100
AcDbLine
 62
7
  6
CONTINUOUS
 10
-3.41787392
 20
27.0578768353
 11
-4.1078686163
 21
27.0578768353
  0
LINE
  5
376
100
AcDbEntity
  8
0
100
AcDbLine
 62
7
  6
CONTINUOUS
 10
-3.9793712682
 20
27.2378768353
 11
-3.5463712682
 21
27.2378768353
  0
LINE
  5
377
100
AcDbEntity
  8
0
100
AcDbLine
 62
7
  6
CONTINUOUS
 10
7.1057539003
 20
27.2378768353
 11
7.5387539003
 21
27.2378768353
  0
LINE
  5
378
100
AcDbEntity
  8
0
100
AcDbLine
 62
7
  6
CONTINUOUS
 10
4.2339923778
 20
21.6626354559
 11
4.2339923778
 21
21.7016354559
  0
LINE
  5
379
100
AcDbEntity
  8
0
100
AcDbLine
 62
7
  6
CONTINUOUS
 10
4.4094131276
 20
21.6626354559
 11
4.4094131276
 21
21.6598768353
  0
LINE
  5
37A
100
AcDbEntity
  8
0
100
AcDbLine
 62
7
  6
CONTINUOUS
 10
4.5299866093
 20
23.2398768353
 11
4.5299866093
 21
21.7016354559
  0
LINE
  5
37B
100
AcDbEntity
  8
0
100
AcDbLine
 62
7
  6
CONTINUOUS
 10
4.5394131276
 20
21.6626354559
 11
4.5394131276
 21
21.6598768353
  0
LINE
  5
37C
100
AcDbEntity
  8
0
100
AcDbLine
 62
7
  6
CONTINUOUS
 10
4.5441110805
 20
21.7016354559
 11
4.5441110805
 21
21.6626354559
  0
LINE
  5
37D
100
AcDbEntity
  8
0
100
AcDbLine
 62
7
  6
CONTINUOUS
 10
4.5828237539
 20
21.9998768353
 11
4.5828237539
 21
21.7016354559
  0
LINE
  5
37E
100
AcDbEntity
  8
0
100
AcDbLine
 62
7
  6
CONTINUOUS
 10
4.5828237539
 20
21.6626354559
 11
4.5828237539
 21
21.6598768353
  0
LINE
  5
37F
100
AcDbEntity
  8
0
100
AcDbLine
 62
7
  6
CONTINUOUS
 10
4.7128237539
 20
21.9998768353
 11
4.7128237539
 21
21.7016354559
  0
LINE
  5
380
100
AcDbEntity
  8
0
100
AcDbLine
 62
7
  6
CONTINUOUS
 10
4.7128237539
 20
21.6626354559
 11
4.7128237539
 21
21.6598768353
  0
LINE
  5
381
100
AcDbEntity
  8
0
100
AcDbLine
 62
7
  6
CONTINUOUS
 10
4.7878237539
 20
21.6626354559
 11
4.7878237539
 21
21.7016354559
  0
LINE
  5
382
100
AcDbEntity
  8
0
100
AcDbLine
 62
7
  6
CONTINUOUS
 10
-3.5758712682
 20
19.3448768353
 11
-3.5463649172
 21
19.3619123349
  0
LINE
  5
383
100
AcDbEntity
  8
PARTDTMS
100
AcDbLine
 62
7
  6
CONTINUOUS
 10
-3.9793712682
 20
19.8494873715
 11
-4.0428712682
 21
19.8198768353
  0
LINE
  5
384
100
AcDbEntity
  8
0
100
AcDbLine
 62
7
  6
CONTINUOUS
 10
4.9527257988
 20
21.6098768353
 11
4.9527257988
 21
21.2118768353
  0
LINE
  5
385
100
AcDbEntity
  8
0
100
AcDbLine
 62
7
  6
CONTINUOUS
 10
5.1527243166
 20
21.6626354559
 11
5.1527243166
 21
21.6598768353
  0
LINE
  5
386
100
AcDbEntity
  8
0
100
AcDbLine
 62
7
  6
CONTINUOUS
 10
5.2827243166
 20
21.6626354559
 11
5.2827243166
 21
21.6598768353
  0
LINE
  5
387
100
AcDbEntity
  8
0
100
AcDbLine
 62
7
  6
CONTINUOUS
 10
5.4593090942
 20
21.9998768353
 11
5.4593090942
 21
21.7016354559
  0
LINE
  5
388
100
AcDbEntity
  8
0
100
AcDbLine
 62
7
  6
CONTINUOUS
 10
5.4593090942
 20
21.6626354559
 11
5.4593090942
 21
21.6598768353
  0
LINE
  5
389
100
AcDbEntity
  8
0
100
AcDbLine
 62
7
  6
CONTINUOUS
 10
5.5893090942
 20
21.9998768353
 11
5.5893090942
 21
21.7016354559
  0
LINE
  5
38A
100
AcDbEntity
  8
0
100
AcDbLine
 62
7
  6
CONTINUOUS
 10
5.5893090942
 20
21.6626354559
 11
5.5893090942
 21
21.6598768353
  0
LINE
  5
38B
100
AcDbEntity
  8
0
100
AcDbLine
 62
7
  6
CONTINUOUS
 10
5.6643090942
 20
21.6626354559
 11
5.6643090942
 21
21.7016354559
  0
LINE
  5
38C
100
AcDbEntity
  8
0
100
AcDbLine
 62
7
  6
CONTINUOUS
 10
5.7114755125
 20
23.2398768353
 11
5.7114755125
 21
21.7016354559
  0
LINE
  5
38D
100
AcDbEntity
  8
0
100
AcDbLine
 62
7
  6
CONTINUOUS
 10
5.7682772662
 20
21.7016354559
 11
5.7682772662
 21
21.6626354559
  0
LINE
  5
38E
100
AcDbEntity
  8
0
100
AcDbLine
 62
7
  6
CONTINUOUS
 10
5.8771625804
 20
21.6598768353
 11
5.8771625804
 21
21.6098768353
  0
LINE
  5
38F
100
AcDbEntity
  8
0
100
AcDbLine
 62
7
  6
CONTINUOUS
 10
6.4227348474
 20
23.2398768353
 11
6.4227348474
 21
19.9398768353
  0
LINE
  5
390
100
AcDbEntity
  8
0
100
AcDbLine
 62
7
  6
CONTINUOUS
 10
6.5309880229
 20
23.2398768353
 11
6.5309880229
 21
19.9398768353
  0
LINE
  5
391
100
AcDbEntity
  8
0
100
AcDbLine
 62
7
  6
CONTINUOUS
 10
6.9572539003
 20
19.6498768353
 11
6.9572539003
 21
19.5848768353
  0
LINE
  5
392
100
AcDbEntity
  8
0
100
AcDbLine
 62
7
  6
CONTINUOUS
 10
6.9772539003
 20
27.0578768353
 11
6.9772539003
 21
26.9928768353
  0
LINE
  5
393
100
AcDbEntity
  8
0
100
AcDbLine
 62
7
  6
CONTINUOUS
 10
7.0309880229
 20
23.2398768353
 11
7.0309880229
 21
19.9398768353
  0
LINE
  5
394
100
AcDbEntity
  8
PARTDTMS
100
AcDbLine
 62
7
  6
CONTINUOUS
 10
7.0422539003
 20
19.8198768353
 11
7.0422539003
 21
19.8148768353
  0
LINE
  5
395
100
AcDbEntity
  8
0
100
AcDbLine
 62
7
  6
CONTINUOUS
 10
7.0622539003
 20
19.5348768353
 11
7.0622539003
 21
19.5848768353
  0
LINE
  5
396
100
AcDbEntity
  8
0
100
AcDbLine
 62
7
  6
CONTINUOUS
 10
7.1057475493
 20
19.3619123349
 11
7.1057475493
 21
19.5129768353
  0
LINE
  5
397
100
AcDbEntity
  8
PARTDTMS
100
AcDbLine
 62
7
  6
CONTINUOUS
 10
7.1057539003
 20
19.8338694846
 11
7.1057539003
 21
20.0598768353
  0
LINE
  5
398
100
AcDbEntity
  8
0
100
AcDbLine
 62
7
  6
CONTINUOUS
 10
7.1057539003
 20
27.0578768353
 11
7.1057539003
 21
27.2378768353
  0
LINE
  5
399
100
AcDbEntity
  8
0
100
AcDbLine
 62
7
  6
CONTINUOUS
 10
1.966691316
 20
19.3448768353
 11
1.996197667
 21
19.3619123349
  0
LINE
  5
39A
100
AcDbEntity
  8
0
100
AcDbLine
 62
7
  6
CONTINUOUS
 10
7.4117539003
 20
20.3348768353
 11
7.4317539003
 21
20.1918768353
  0
LINE
  5
39B
100
AcDbEntity
  8
0
100
AcDbLine
 62
7
  6
CONTINUOUS
 10
7.2127539003
 20
19.6498768353
 11
7.2127539003
 21
19.6898768353
  0
LINE
  5
39C
100
AcDbEntity
  8
0
100
AcDbLine
 62
7
  6
CONTINUOUS
 10
7.2127539003
 20
20.0598768353
 11
7.2127539003
 21
20.1918768353
  0
LINE
  5
39D
100
AcDbEntity
  8
0
100
AcDbLine
 62
7
  6
CONTINUOUS
 10
7.2140007248
 20
19.3619123349
 11
7.2140007248
 21
19.5129768353
  0
LINE
  5
39E
100
AcDbEntity
  8
PARTDTMS
100
AcDbLine
 62
7
  6
CONTINUOUS
 10
7.3222539003
 20
19.8338694846
 11
7.3222539003
 21
20.0598768353
  0
LINE
  5
39F
100
AcDbEntity
  8
0
100
AcDbLine
 62
7
  6
CONTINUOUS
 10
7.3222539003
 20
27.0578768353
 11
7.3222539003
 21
27.2378768353
  0
LINE
  5
3A0
100
AcDbEntity
  8
0
100
AcDbLine
 62
7
  6
CONTINUOUS
 10
7.4305070757
 20
19.3619123349
 11
7.4305070757
 21
19.5129768353
  0
LINE
  5
3A1
100
AcDbEntity
  8
0
100
AcDbLine
 62
7
  6
CONTINUOUS
 10
7.4317539003
 20
19.6498768353
 11
7.4317539003
 21
19.6898768353
  0
LINE
  5
3A2
100
AcDbEntity
  8
0
100
AcDbLine
 62
7
  6
CONTINUOUS
 10
7.4317539003
 20
20.0598768353
 11
7.4317539003
 21
20.1918768353
  0
LINE
  5
3A3
100
AcDbEntity
  8
PARTDTMS
100
AcDbLine
 62
7
  6
CONTINUOUS
 10
7.5387539003
 20
19.8338694846
 11
7.5387539003
 21
20.0598768353
  0
LINE
  5
3A4
100
AcDbEntity
  8
0
100
AcDbLine
 62
7
  6
CONTINUOUS
 10
7.5387539003
 20
27.0578768353
 11
7.5387539003
 21
27.2378768353
  0
LINE
  5
3A5
100
AcDbEntity
  8
0
100
AcDbLine
 62
7
  6
CONTINUOUS
 10
7.5387602512
 20
19.3619123349
 11
7.5387602512
 21
19.5129768353
  0
LINE
  5
3A6
100
AcDbEntity
  8
0
100
AcDbLine
 62
7
  6
CONTINUOUS
 10
7.5822539003
 20
19.5348768353
 11
7.5822539003
 21
19.5848768353
  0
LINE
  5
3A7
100
AcDbEntity
  8
PARTDTMS
100
AcDbLine
 62
7
  6
CONTINUOUS
 10
7.6022539003
 20
19.8198768353
 11
7.6022539003
 21
19.8148768353
  0
LINE
  5
3A8
100
AcDbEntity
  8
0
100
AcDbLine
 62
7
  6
CONTINUOUS
 10
7.6672539003
 20
27.0578768353
 11
7.6672539003
 21
26.9928768353
  0
LINE
  5
3A9
100
AcDbEntity
  8
0
100
AcDbLine
 62
7
  6
CONTINUOUS
 10
7.6872539003
 20
19.6498768353
 11
7.6872539003
 21
19.5848768353
  0
LINE
  5
3AA
100
AcDbEntity
  8
0
100
AcDbLine
 62
7
  6
CONTINUOUS
 10
7.2327539003
 20
20.3348768353
 11
7.2127539003
 21
20.1918768353
  0
LINE
  5
3AB
100
AcDbEntity
  8
0
100
AcDbLine
 62
3
  6
CONTINUOUS
 10
-1.5321313224
 20
31.4928768353
 11
5.0915139545
 21
31.4928768353
  0
LINE
  5
3AC
100
AcDbEntity
  8
0
100
AcDbLine
 62
3
  6
CONTINUOUS
 10
7.2703210807
 20
27.4304578549
 11
6.0312065753
 21
30.8348969786
  0
LINE
  5
3AD
100
AcDbEntity
  8
0
100
AcDbLine
 62
7
  6
CONTINUOUS
 10
8.494285655
 20
20.3348768353
 11
8.514285655
 21
20.1918768353
  0
LINE
  5
3AE
100
AcDbEntity
  8
0
100
AcDbLine
 62
7
  6
CONTINUOUS
 10
8.039785655
 20
19.6498768353
 11
8.039785655
 21
19.5848768353
  0
LINE
  5
3AF
100
AcDbEntity
  8
0
100
AcDbLine
 62
7
  6
CONTINUOUS
 10
8.144785655
 20
19.5348768353
 11
8.144785655
 21
19.5848768353
  0
LINE
  5
3B0
100
AcDbEntity
  8
0
100
AcDbLine
 62
7
  6
CONTINUOUS
 10
8.188279304
 20
19.3619123349
 11
8.188279304
 21
19.5129768353
  0
LINE
  5
3B1
100
AcDbEntity
  8
0
100
AcDbLine
 62
7
  6
CONTINUOUS
 10
8.295285655
 20
19.6498768353
 11
8.295285655
 21
19.6898768353
  0
LINE
  5
3B2
100
AcDbEntity
  8
0
100
AcDbLine
 62
7
  6
CONTINUOUS
 10
8.295285655
 20
19.8148768353
 11
8.295285655
 21
20.1918768353
  0
LINE
  5
3B3
100
AcDbEntity
  8
0
100
AcDbLine
 62
7
  6
CONTINUOUS
 10
8.2965324795
 20
19.3619123349
 11
8.2965324795
 21
19.5129768353
  0
LINE
  5
3B4
100
AcDbEntity
  8
0
100
AcDbLine
 62
7
  6
CONTINUOUS
 10
8.5130388305
 20
19.3619123349
 11
8.5130388305
 21
19.5129768353
  0
LINE
  5
3B5
100
AcDbEntity
  8
0
100
AcDbLine
 62
7
  6
CONTINUOUS
 10
8.514285655
 20
19.6498768353
 11
8.514285655
 21
19.6898768353
  0
LINE
  5
3B6
100
AcDbEntity
  8
0
100
AcDbLine
 62
7
  6
CONTINUOUS
 10
8.514285655
 20
19.8148768353
 11
8.514285655
 21
20.1918768353
  0
LINE
  5
3B7
100
AcDbEntity
  8
0
100
AcDbLine
 62
7
  6
CONTINUOUS
 10
8.5877983569
 20
19.6898768353
 11
8.5877983569
 21
19.8148768353
  0
LINE
  5
3B8
100
AcDbEntity
  8
0
100
AcDbLine
 62
7
  6
CONTINUOUS
 10
8.6212920059
 20
19.3619123349
 11
8.6212920059
 21
19.5129768353
  0
LINE
  5
3B9
100
AcDbEntity
  8
0
100
AcDbLine
 62
7
  6
CONTINUOUS
 10
8.664785655
 20
19.5348768353
 11
8.664785655
 21
19.5848768353
  0
LINE
  5
3BA
100
AcDbEntity
  8
0
100
AcDbLine
 62
7
  6
CONTINUOUS
 10
8.769785655
 20
19.6498768353
 11
8.769785655
 21
19.5848768353
  0
LINE
  5
3BB
100
AcDbEntity
  8
0
100
AcDbLine
 62
7
  6
CONTINUOUS
 10
9.0877983569
 20
19.6898768353
 11
9.0877983569
 21
19.8148768353
  0
LINE
  5
3BC
100
AcDbEntity
  8
0
100
AcDbLine
 62
7
  6
CONTINUOUS
 10
8.315285655
 20
20.3348768353
 11
8.295285655
 21
20.1918768353
  0
LINE
  5
3BD
100
AcDbEntity
  8
PARTDTMS
100
AcDbLine
 62
7
  6
CONTINUOUS
 10
7.1057539003
 20
19.8494873715
 11
7.0422539003
 21
19.8198768353
  0
LINE
  5
3BE
100
AcDbEntity
  8
0
100
AcDbLine
 62
7
  6
CONTINUOUS
 10
7.5092539003
 20
19.3448768353
 11
7.5387602512
 21
19.3619123349
  0
LINE
  5
3BF
100
AcDbEntity
  8
0
100
AcDbLine
 62
3
  6
CONTINUOUS
 10
10.6617102049
 20
23.7458768353
 11
9.7193839368
 21
26.3348969786
  0
LINE
  5
3C0
100
AcDbEntity
  8
0
100
AcDbLine
 62
7
  6
CONTINUOUS
 10
8.591785655
 20
19.3448768353
 11
8.6212920059
 21
19.3619123349
  0
LINE
  5
3C1
100
AcDbEntity
  8
0
100
AcDbLine
 62
7
  6
CONTINUOUS
 10
11.279691316
 20
19.6898768353
 11
11.279691316
 21
19.7573768353
  0
LINE
  5
3C2
100
AcDbEntity
  8
0
100
AcDbLine
 62
3
  6
CONTINUOUS
 10
21.2551900328
 20
26.3348969786
 11
20.3128637647
 21
23.7458768353
  0
LINE
  5
3C3
100
AcDbEntity
  8
0
100
AcDbLine
 62
7
  6
CONTINUOUS
 10
25.1828826535
 20
19.3448768353
 11
25.1823826535
 21
19.3451655104
  0
LINE
  5
3C4
100
AcDbEntity
  8
0
100
AcDbLine
 62
7
  6
CONTINUOUS
 10
25.8078826535
 20
19.3448768353
 11
25.8073826535
 21
19.3451655104
  0
LINE
  5
3C5
100
AcDbEntity
  8
0
100
AcDbLine
 62
7
  6
CONTINUOUS
 10
25.1828831235
 20
19.3448768353
 11
25.5568821836
 21
19.3448768353
  0
LINE
  5
3C6
100
AcDbEntity
  8
0
100
AcDbLine
 62
7
  6
CONTINUOUS
 10
25.8078831235
 20
19.3448768353
 11
26.1818821836
 21
19.3448768353
  0
LINE
  5
3C7
100
AcDbEntity
  8
0
100
AcDbLine
 62
7
  6
CONTINUOUS
 10
35.4078831235
 20
19.3448768353
 11
35.7818821836
 21
19.3448768353
  0
LINE
  5
3C8
100
AcDbEntity
  8
0
100
AcDbLine
 62
7
  6
CONTINUOUS
 10
36.6578831235
 20
19.3448768353
 11
37.0318821836
 21
19.3448768353
  0
LINE
  5
3C9
100
AcDbEntity
  8
0
100
AcDbLine
 62
7
  6
CONTINUOUS
 10
25.109883307
 20
19.5348768353
 11
25.6298820001
 21
19.5348768353
  0
LINE
  5
3CA
100
AcDbEntity
  8
0
100
AcDbLine
 62
7
  6
CONTINUOUS
 10
25.734883307
 20
19.5348768353
 11
26.2548820001
 21
19.5348768353
  0
LINE
  5
3CB
100
AcDbEntity
  8
0
100
AcDbLine
 62
7
  6
CONTINUOUS
 10
35.334883307
 20
19.5348768353
 11
35.8548820001
 21
19.5348768353
  0
LINE
  5
3CC
100
AcDbEntity
  8
0
100
AcDbLine
 62
7
  6
CONTINUOUS
 10
36.584883307
 20
19.5348768353
 11
37.1048820001
 21
19.5348768353
  0
LINE
  5
3CD
100
AcDbEntity
  8
PARTDTMS
100
AcDbLine
 62
7
  6
CONTINUOUS
 10
25.6198753201
 20
19.8338694846
 11
25.6498826535
 21
19.8198768353
  0
LINE
  5
3CE
100
AcDbEntity
  8
PARTDTMS
100
AcDbLine
 62
7
  6
CONTINUOUS
 10
26.2448753201
 20
19.8338694846
 11
26.2748826535
 21
19.8198768353
  0
LINE
  5
3CF
100
AcDbEntity
  8
0
100
AcDbLine
 62
3
  6
CONTINUOUS
 10
24.9433673943
 20
30.8348969786
 11
23.6647289639
 21
27.3218667636
  0
LINE
  5
3D0
100
AcDbEntity
  8
0
100
AcDbLine
 62
7
  6
CONTINUOUS
 10
37.2098826535
 20
19.5848768353
 11
36.4798826535
 21
19.5848768353
  0
LINE
  5
3D1
100
AcDbEntity
  8
0
100
AcDbLine
 62
7
  6
CONTINUOUS
 10
35.9598826535
 20
19.5848768353
 11
35.2298826535
 21
19.5848768353
  0
LINE
  5
3D2
100
AcDbEntity
  8
0
100
AcDbLine
 62
7
  6
CONTINUOUS
 10
26.3598826535
 20
19.5848768353
 11
25.0048826535
 21
19.5848768353
  0
LINE
  5
3D3
100
AcDbEntity
  8
0
100
AcDbLine
 62
7
  6
CONTINUOUS
 10
37.2098826535
 20
19.6498768353
 11
36.4798826535
 21
19.6498768353
  0
LINE
  5
3D4
100
AcDbEntity
  8
0
100
AcDbLine
 62
7
  6
CONTINUOUS
 10
35.9598826535
 20
19.6498768353
 11
35.2298826535
 21
19.6498768353
  0
LINE
  5
3D5
100
AcDbEntity
  8
0
100
AcDbLine
 62
7
  6
CONTINUOUS
 10
26.3598826535
 20
19.6498768353
 11
25.0048826535
 21
19.6498768353
  0
LINE
  5
3D6
100
AcDbEntity
  8
0
100
AcDbLine
 62
7
  6
CONTINUOUS
 10
26.6778953554
 20
19.6898768353
 11
24.6868699517
 21
19.6898768353
  0
LINE
  5
3D7
100
AcDbEntity
  8
0
100
AcDbLine
 62
7
  6
CONTINUOUS
 10
33.1948826535
 20
19.6898768353
 11
34.8148826535
 21
19.6898768353
  0
LINE
  5
3D8
100
AcDbEntity
  8
0
100
AcDbLine
 62
7
  6
CONTINUOUS
 10
35.0948826535
 20
19.6898768353
 11
37.3448826535
 21
19.6898768353
  0
LINE
  5
3D9
100
AcDbEntity
  8
0
100
AcDbLine
 62
7
  6
CONTINUOUS
 10
38.4148826535
 20
19.6948768353
 11
34.9148826535
 21
19.6948768353
  0
LINE
  5
3DA
100
AcDbEntity
  8
0
100
AcDbLine
 62
7
  6
CONTINUOUS
 10
33.1948826535
 20
19.7398768353
 11
34.8148826535
 21
19.7398768353
  0
LINE
  5
3DB
100
AcDbEntity
  8
0
100
AcDbLine
 62
7
  6
CONTINUOUS
 10
38.4148826535
 20
19.7573768353
 11
34.9148826535
 21
19.7573768353
  0
LINE
  5
3DC
100
AcDbEntity
  8
0
100
AcDbLine
 62
7
  6
CONTINUOUS
 10
26.6778953554
 20
19.8148768353
 11
24.6868699517
 21
19.8148768353
  0
LINE
  5
3DD
100
AcDbEntity
  8
0
100
AcDbLine
 62
7
  6
CONTINUOUS
 10
35.0948826535
 20
19.8148768353
 11
37.3448826535
 21
19.8148768353
  0
LINE
  5
3DE
100
AcDbEntity
  8
PARTDTMS
100
AcDbLine
 62
7
  6
CONTINUOUS
 10
25.2603826535
 20
19.8198768353
 11
25.0898826535
 21
19.8198768353
  0
LINE
  5
3DF
100
AcDbEntity
  8
PARTDTMS
100
AcDbLine
 62
7
  6
CONTINUOUS
 10
25.4793826535
 20
19.8198768353
 11
25.6498826535
 21
19.8198768353
  0
LINE
  5
3E0
100
AcDbEntity
  8
PARTDTMS
100
AcDbLine
 62
7
  6
CONTINUOUS
 10
25.7148826535
 20
19.8198768353
 11
26.2748826535
 21
19.8198768353
  0
LINE
  5
3E1
100
AcDbEntity
  8
PARTDTMS
100
AcDbLine
 62
7
  6
CONTINUOUS
 10
35.3148826535
 20
19.8198768353
 11
35.8748826535
 21
19.8198768353
  0
LINE
  5
3E2
100
AcDbEntity
  8
PARTDTMS
100
AcDbLine
 62
7
  6
CONTINUOUS
 10
36.5648826535
 20
19.8198768353
 11
37.1248826535
 21
19.8198768353
  0
LINE
  5
3E3
100
AcDbEntity
  8
0
100
AcDbLine
 62
7
  6
CONTINUOUS
 10
25.119889987
 20
20.0598768353
 11
25.2603826535
 21
20.0598768353
  0
LINE
  5
3E4
100
AcDbEntity
  8
0
100
AcDbLine
 62
7
  6
CONTINUOUS
 10
25.4793826535
 20
20.0598768353
 11
25.6198753201
 21
20.0598768353
  0
LINE
  5
3E5
100
AcDbEntity
  8
0
100
AcDbLine
 62
7
  6
CONTINUOUS
 10
25.744889987
 20
20.0598768353
 11
26.2448753201
 21
20.0598768353
  0
LINE
  5
3E6
100
AcDbEntity
  8
0
100
AcDbLine
 62
7
  6
CONTINUOUS
 10
35.344889987
 20
20.0598768353
 11
35.8448753201
 21
20.0598768353
  0
LINE
  5
3E7
100
AcDbEntity
  8
0
100
AcDbLine
 62
7
  6
CONTINUOUS
 10
36.594889987
 20
20.0598768353
 11
37.0948753201
 21
20.0598768353
  0
LINE
  5
3E8
100
AcDbEntity
  8
0
100
AcDbLine
 62
7
  6
CONTINUOUS
 10
25.2603826535
 20
20.1918768353
 11
25.4793826535
 21
20.1918768353
  0
LINE
  5
3E9
100
AcDbEntity
  8
0
100
AcDbLine
 62
7
  6
CONTINUOUS
 10
25.8853826535
 20
20.1918768353
 11
26.1043826535
 21
20.1918768353
  0
LINE
  5
3EA
100
AcDbEntity
  8
0
100
AcDbLine
 62
7
  6
CONTINUOUS
 10
35.4853826535
 20
20.1918768353
 11
35.7043826535
 21
20.1918768353
  0
LINE
  5
3EB
100
AcDbEntity
  8
0
100
AcDbLine
 62
7
  6
CONTINUOUS
 10
36.7353826535
 20
20.1918768353
 11
36.9543826535
 21
20.1918768353
  0
LINE
  5
3EC
100
AcDbEntity
  8
0
100
AcDbLine
 62
7
  6
CONTINUOUS
 10
24.6868699517
 20
19.6898768353
 11
24.6868699517
 21
19.8148768353
  0
LINE
  5
3ED
100
AcDbEntity
  8
0
100
AcDbLine
 62
7
  6
CONTINUOUS
 10
36.9343786321
 20
20.3348768353
 11
36.755386675
 21
20.3348768353
  0
LINE
  5
3EE
100
AcDbEntity
  8
0
100
AcDbLine
 62
7
  6
CONTINUOUS
 10
35.6843786321
 20
20.3348768353
 11
35.505386675
 21
20.3348768353
  0
LINE
  5
3EF
100
AcDbEntity
  8
0
100
AcDbLine
 62
7
  6
CONTINUOUS
 10
26.0843786321
 20
20.3348768353
 11
25.905386675
 21
20.3348768353
  0
LINE
  5
3F0
100
AcDbEntity
  8
0
100
AcDbLine
 62
7
  6
CONTINUOUS
 10
25.4593786321
 20
20.3348768353
 11
25.280386675
 21
20.3348768353
  0
LINE
  5
3F1
100
AcDbEntity
  8
0
100
AcDbLine
 62
7
  6
CONTINUOUS
 10
34.635856144
 20
20.8748768353
 11
34.8448826535
 21
20.8748768353
  0
LINE
  5
3F2
100
AcDbEntity
  8
0
100
AcDbLine
 62
7
  6
CONTINUOUS
 10
34.9698826535
 20
20.8748768353
 11
35.0698826535
 21
20.8748768353
  0
LINE
  5
3F3
100
AcDbEntity
  8
0
100
AcDbLine
 62
7
  6
CONTINUOUS
 10
25.4593826535
 20
20.3348768353
 11
25.4793826535
 21
20.1918768353
  0
LINE
  5
3F4
100
AcDbEntity
  8
0
100
AcDbLine
 62
7
  6
CONTINUOUS
 10
25.0048826535
 20
19.6498768353
 11
25.0048826535
 21
19.5848768353
  0
LINE
  5
3F5
100
AcDbEntity
  8
PARTDTMS
100
AcDbLine
 62
7
  6
CONTINUOUS
 10
25.0898826535
 20
19.8198768353
 11
25.0898826535
 21
19.8148768353
  0
LINE
  5
3F6
100
AcDbEntity
  8
0
100
AcDbLine
 62
7
  6
CONTINUOUS
 10
25.0974113892
 20
21.6598768353
 11
25.0974113892
 21
21.6098768353
  0
LINE
  5
3F7
100
AcDbEntity
  8
0
100
AcDbLine
 62
7
  6
CONTINUOUS
 10
25.1098826535
 20
19.5348768353
 11
25.1098826535
 21
19.5848768353
  0
LINE
  5
3F8
100
AcDbEntity
  8
0
100
AcDbLine
 62
7
  6
CONTINUOUS
 10
25.1175585156
 20
21.6626354559
 11
25.1175585156
 21
21.7016354559
  0
LINE
  5
3F9
100
AcDbEntity
  8
PARTDTMS
100
AcDbLine
 62
7
  6
CONTINUOUS
 10
25.119889987
 20
19.8338694846
 11
25.119889987
 21
20.0598768353
  0
LINE
  5
3FA
100
AcDbEntity
  8
0
100
AcDbLine
 62
7
  6
CONTINUOUS
 10
25.150939081
 20
21.7016354559
 11
25.150939081
 21
21.6626354559
  0
LINE
  5
3FB
100
AcDbEntity
  8
0
100
AcDbLine
 62
7
  6
CONTINUOUS
 10
25.1823826535
 20
19.3451655104
 11
25.1823826535
 21
19.5129768353
  0
LINE
  5
3FC
100
AcDbEntity
  8
0
100
AcDbLine
 62
7
  6
CONTINUOUS
 10
25.1925585156
 20
21.9998768353
 11
25.1925585156
 21
21.7016354559
  0
LINE
  5
3FD
100
AcDbEntity
  8
0
100
AcDbLine
 62
7
  6
CONTINUOUS
 10
25.1925585156
 20
21.6626354559
 11
25.1925585156
 21
21.6598768353
  0
LINE
  5
3FE
100
AcDbEntity
  8
0
100
AcDbLine
 62
7
  6
CONTINUOUS
 10
25.2291617735
 20
23.2398768353
 11
25.2291617735
 21
21.7016354559
  0
LINE
  5
3FF
100
AcDbEntity
  8
PARTDTMS
100
AcDbLine
 62
7
  6
CONTINUOUS
 10
25.2448863203
 20
19.8338694846
 11
25.2448863203
 21
20.0598768353
  0
LINE
  5
400
100
AcDbEntity
  8
0
100
AcDbLine
 62
7
  6
CONTINUOUS
 10
25.2603826535
 20
19.6498768353
 11
25.2603826535
 21
19.6898768353
  0
LINE
  5
401
100
AcDbEntity
  8
0
100
AcDbLine
 62
7
  6
CONTINUOUS
 10
25.2603826535
 20
19.8148768353
 11
25.2603826535
 21
20.1918768353
  0
LINE
  5
402
100
AcDbEntity
  8
0
100
AcDbLine
 62
7
  6
CONTINUOUS
 10
25.2654499054
 20
23.2398768353
 11
25.2654499054
 21
21.6626354559
  0
LINE
  5
403
100
AcDbEntity
  8
0
100
AcDbLine
 62
7
  6
CONTINUOUS
 10
25.3225585156
 20
21.6626354559
 11
25.3225585156
 21
21.6598768353
  0
LINE
  5
404
100
AcDbEntity
  8
0
100
AcDbLine
 62
7
  6
CONTINUOUS
 10
25.3698826535
 20
19.3619123349
 11
25.3698826535
 21
19.5129768353
  0
LINE
  5
405
100
AcDbEntity
  8
0
100
AcDbLine
 62
7
  6
CONTINUOUS
 10
25.4793826535
 20
19.6498768353
 11
25.4793826535
 21
19.6898768353
  0
LINE
  5
406
100
AcDbEntity
  8
0
100
AcDbLine
 62
7
  6
CONTINUOUS
 10
25.4793826535
 20
19.8148768353
 11
25.4793826535
 21
20.1918768353
  0
LINE
  5
407
100
AcDbEntity
  8
PARTDTMS
100
AcDbLine
 62
7
  6
CONTINUOUS
 10
25.4948789868
 20
19.8338694846
 11
25.4948789868
 21
20.0598768353
  0
LINE
  5
408
100
AcDbEntity
  8
0
100
AcDbLine
 62
7
  6
CONTINUOUS
 10
25.5528953554
 20
19.6898768353
 11
25.5528953554
 21
19.8148768353
  0
LINE
  5
409
100
AcDbEntity
  8
0
100
AcDbLine
 62
7
  6
CONTINUOUS
 10
34.635856144
 20
21.0648768353
 11
34.8448826535
 21
21.0648768353
  0
LINE
  5
40A
100
AcDbEntity
  8
0
100
AcDbLine
 62
7
  6
CONTINUOUS
 10
34.9698826535
 20
21.0648768353
 11
35.0698826535
 21
21.0648768353
  0
LINE
  5
40B
100
AcDbEntity
  8
0
100
AcDbLine
 62
7
  6
CONTINUOUS
 10
26.8028953554
 20
21.2118768353
 11
32.3679171363
 21
21.2118768353
  0
LINE
  5
40C
100
AcDbEntity
  8
0
100
AcDbLine
 62
7
  6
CONTINUOUS
 10
25.0974113892
 20
21.6098768353
 11
25.8743699517
 21
21.6098768353
  0
LINE
  5
40D
100
AcDbEntity
  8
0
100
AcDbLine
 62
7
  6
CONTINUOUS
 10
26.8028953554
 20
21.6098768353
 11
33.2923539179
 21
21.6098768353
  0
LINE
  5
40E
100
AcDbEntity
  8
0
100
AcDbLine
 62
7
  6
CONTINUOUS
 10
25.0974113892
 20
21.6598768353
 11
25.8743699517
 21
21.6598768353
  0
LINE
  5
40F
100
AcDbEntity
  8
0
100
AcDbLine
 62
7
  6
CONTINUOUS
 10
26.8028953554
 20
21.6598768353
 11
33.2923539179
 21
21.6598768353
  0
LINE
  5
410
100
AcDbEntity
  8
0
100
AcDbLine
 62
7
  6
CONTINUOUS
 10
25.1175679579
 20
21.6626354559
 11
25.8743699517
 21
21.6626354559
  0
LINE
  5
411
100
AcDbEntity
  8
0
100
AcDbLine
 62
7
  6
CONTINUOUS
 10
26.8028953554
 20
21.6626354559
 11
33.2721973492
 21
21.6626354559
  0
LINE
  5
412
100
AcDbEntity
  8
0
100
AcDbLine
 62
7
  6
CONTINUOUS
 10
25.1175679579
 20
21.7016354559
 11
25.2291617735
 21
21.7016354559
  0
LINE
  5
413
100
AcDbEntity
  8
0
100
AcDbLine
 62
7
  6
CONTINUOUS
 10
25.8307171353
 20
21.7016354559
 11
25.8743699517
 21
21.7016354559
  0
LINE
  5
414
100
AcDbEntity
  8
0
100
AcDbLine
 62
7
  6
CONTINUOUS
 10
27.1533977118
 20
21.7016354559
 11
28.4623277992
 21
21.7016354559
  0
LINE
  5
415
100
AcDbEntity
  8
0
100
AcDbLine
 62
7
  6
CONTINUOUS
 10
29.1316875097
 20
21.7016354559
 11
30.913278093
 21
21.7016354559
  0
LINE
  5
416
100
AcDbEntity
  8
0
100
AcDbLine
 62
7
  6
CONTINUOUS
 10
31.0165312563
 20
21.7016354559
 11
33.2721973492
 21
21.7016354559
  0
LINE
  5
417
100
AcDbEntity
  8
0
100
AcDbLine
 62
7
  6
CONTINUOUS
 10
26.0843826535
 20
20.3348768353
 11
26.1043826535
 21
20.1918768353
  0
LINE
  5
418
100
AcDbEntity
  8
0
100
AcDbLine
 62
7
  6
CONTINUOUS
 10
25.5573826535
 20
19.3451655104
 11
25.5573826535
 21
19.5129768353
  0
LINE
  5
419
100
AcDbEntity
  8
PARTDTMS
100
AcDbLine
 62
7
  6
CONTINUOUS
 10
25.6198753201
 20
19.8338694846
 11
25.6198753201
 21
20.0598768353
  0
LINE
  5
41A
100
AcDbEntity
  8
0
100
AcDbLine
 62
7
  6
CONTINUOUS
 10
25.6298826535
 20
19.5348768353
 11
25.6298826535
 21
19.5848768353
  0
LINE
  5
41B
100
AcDbEntity
  8
0
100
AcDbLine
 62
7
  6
CONTINUOUS
 10
25.6498826535
 20
27.0578768353
 11
25.6498826535
 21
26.9928768353
  0
LINE
  5
41C
100
AcDbEntity
  8
PARTDTMS
100
AcDbLine
 62
7
  6
CONTINUOUS
 10
25.6498826535
 20
19.8198768353
 11
25.6498826535
 21
19.8148768353
  0
LINE
  5
41D
100
AcDbEntity
  8
PARTDTMS
100
AcDbLine
 62
7
  6
CONTINUOUS
 10
25.7148826535
 20
19.8198768353
 11
25.7148826535
 21
19.8148768353
  0
LINE
  5
41E
100
AcDbEntity
  8
0
100
AcDbLine
 62
7
  6
CONTINUOUS
 10
25.7348826535
 20
19.5348768353
 11
25.7348826535
 21
19.6498768353
  0
LINE
  5
41F
100
AcDbEntity
  8
PARTDTMS
100
AcDbLine
 62
7
  6
CONTINUOUS
 10
25.744889987
 20
19.8338694846
 11
25.744889987
 21
20.0598768353
  0
LINE
  5
420
100
AcDbEntity
  8
0
100
AcDbLine
 62
7
  6
CONTINUOUS
 10
25.744889987
 20
27.0578768353
 11
25.744889987
 21
27.2378768353
  0
LINE
  5
421
100
AcDbEntity
  8
0
100
AcDbLine
 62
7
  6
CONTINUOUS
 10
25.8073826535
 20
19.3451655104
 11
25.8073826535
 21
19.5129768353
  0
LINE
  5
422
100
AcDbEntity
  8
0
100
AcDbLine
 62
7
  6
CONTINUOUS
 10
25.8145352844
 20
21.6626354559
 11
25.8145352844
 21
21.6598768353
  0
LINE
  5
423
100
AcDbEntity
  8
0
100
AcDbLine
 62
7
  6
CONTINUOUS
 10
25.8307026458
 20
21.6626354559
 11
25.8307026458
 21
21.7016354559
  0
LINE
  5
424
100
AcDbEntity
  8
0
100
AcDbLine
 62
7
  6
CONTINUOUS
 10
25.8695205136
 20
21.6626354559
 11
25.8695205136
 21
21.7016354559
  0
LINE
  5
425
100
AcDbEntity
  8
PARTDTMS
100
AcDbLine
 62
7
  6
CONTINUOUS
 10
25.8698863203
 20
19.8338694846
 11
25.8698863203
 21
20.0598768353
  0
LINE
  5
426
100
AcDbEntity
  8
0
100
AcDbLine
 62
7
  6
CONTINUOUS
 10
25.8698863203
 20
27.0578768353
 11
25.8698863203
 21
27.2378768353
  0
LINE
  5
427
100
AcDbEntity
  8
0
100
AcDbLine
 62
7
  6
CONTINUOUS
 10
25.8743699517
 20
23.2398768353
 11
25.8743699517
 21
20.0598768353
  0
LINE
  5
428
100
AcDbEntity
  8
0
100
AcDbLine
 62
7
  6
CONTINUOUS
 10
25.8853826535
 20
19.6498768353
 11
25.8853826535
 21
19.6898768353
  0
LINE
  5
429
100
AcDbEntity
  8
0
100
AcDbLine
 62
7
  6
CONTINUOUS
 10
25.8853826535
 20
20.0598768353
 11
25.8853826535
 21
20.1918768353
  0
LINE
  5
42A
100
AcDbEntity
  8
0
100
AcDbLine
 62
7
  6
CONTINUOUS
 10
25.9948826535
 20
19.3619123349
 11
25.9948826535
 21
19.5129768353
  0
LINE
  5
42B
100
AcDbEntity
  8
0
100
AcDbLine
 62
7
  6
CONTINUOUS
 10
26.1043826535
 20
19.6498768353
 11
26.1043826535
 21
19.6898768353
  0
LINE
  5
42C
100
AcDbEntity
  8
0
100
AcDbLine
 62
7
  6
CONTINUOUS
 10
26.1043826535
 20
20.0598768353
 11
26.1043826535
 21
20.1918768353
  0
LINE
  5
42D
100
AcDbEntity
  8
PARTDTMS
100
AcDbLine
 62
7
  6
CONTINUOUS
 10
26.1198789868
 20
19.8338694846
 11
26.1198789868
 21
20.0598768353
  0
LINE
  5
42E
100
AcDbEntity
  8
0
100
AcDbLine
 62
7
  6
CONTINUOUS
 10
26.1198789868
 20
27.0578768353
 11
26.1198789868
 21
27.2378768353
  0
LINE
  5
42F
100
AcDbEntity
  8
0
100
AcDbLine
 62
7
  6
CONTINUOUS
 10
26.1823826535
 20
19.3451655104
 11
26.1823826535
 21
19.5129768353
  0
LINE
  5
430
100
AcDbEntity
  8
PARTDTMS
100
AcDbLine
 62
7
  6
CONTINUOUS
 10
26.2448753201
 20
19.8338694846
 11
26.2448753201
 21
20.0598768353
  0
LINE
  5
431
100
AcDbEntity
  8
0
100
AcDbLine
 62
7
  6
CONTINUOUS
 10
26.2448753201
 20
27.0578768353
 11
26.2448753201
 21
27.2378768353
  0
LINE
  5
432
100
AcDbEntity
  8
0
100
AcDbLine
 62
7
  6
CONTINUOUS
 10
26.2548826535
 20
19.5348768353
 11
26.2548826535
 21
19.5848768353
  0
LINE
  5
433
100
AcDbEntity
  8
PARTDTMS
100
AcDbLine
 62
7
  6
CONTINUOUS
 10
26.2748826535
 20
19.8198768353
 11
26.2748826535
 21
19.8148768353
  0
LINE
  5
434
100
AcDbEntity
  8
0
100
AcDbLine
 62
7
  6
CONTINUOUS
 10
25.2803826535
 20
20.3348768353
 11
25.2603826535
 21
20.1918768353
  0
LINE
  5
435
100
AcDbEntity
  8
0
100
AcDbLine
 62
7
  6
CONTINUOUS
 10
25.2291617735
 20
21.9998768353
 11
25.1925585156
 21
21.9998768353
  0
LINE
  5
436
100
AcDbEntity
  8
0
100
AcDbLine
 62
7
  6
CONTINUOUS
 10
27.2283971843
 20
21.9998768353
 11
27.3583971843
 21
21.9998768353
  0
LINE
  5
437
100
AcDbEntity
  8
0
100
AcDbLine
 62
7
  6
CONTINUOUS
 10
27.9131825826
 20
21.9998768353
 11
28.0431825826
 21
21.9998768353
  0
LINE
  5
438
100
AcDbEntity
  8
0
100
AcDbLine
 62
7
  6
CONTINUOUS
 10
29.277394543
 20
21.9998768353
 11
29.407394543
 21
21.9998768353
  0
LINE
  5
439
100
AcDbEntity
  8
0
100
AcDbLine
 62
7
  6
CONTINUOUS
 10
30.3465827245
 20
21.9998768353
 11
30.4765827245
 21
21.9998768353
  0
LINE
  5
43A
100
AcDbEntity
  8
0
100
AcDbLine
 62
7
  6
CONTINUOUS
 10
31.2700473736
 20
21.9998768353
 11
31.4000473736
 21
21.9998768353
  0
LINE
  5
43B
100
AcDbEntity
  8
0
100
AcDbLine
 62
7
  6
CONTINUOUS
 10
32.3152447935
 20
21.9998768353
 11
32.4452447935
 21
21.9998768353
  0
LINE
  5
43C
100
AcDbEntity
  8
0
100
AcDbLine
 62
7
  6
CONTINUOUS
 10
33.0672067915
 20
21.9998768353
 11
33.1972067915
 21
21.9998768353
  0
LINE
  5
43D
100
AcDbEntity
  8
0
100
AcDbLine
 62
7
  6
CONTINUOUS
 10
34.635856144
 20
22.1848768353
 11
34.8448826535
 21
22.1848768353
  0
LINE
  5
43E
100
AcDbEntity
  8
0
100
AcDbLine
 62
7
  6
CONTINUOUS
 10
34.9698826535
 20
22.1848768353
 11
35.0698826535
 21
22.1848768353
  0
LINE
  5
43F
100
AcDbEntity
  8
0
100
AcDbLine
 62
7
  6
CONTINUOUS
 10
34.635856144
 20
22.3748768353
 11
34.8448826535
 21
22.3748768353
  0
LINE
  5
440
100
AcDbEntity
  8
0
100
AcDbLine
 62
7
  6
CONTINUOUS
 10
34.9698826535
 20
22.3748768353
 11
35.0698826535
 21
22.3748768353
  0
LINE
  5
441
100
AcDbEntity
  8
0
100
AcDbLine
 62
7
  6
CONTINUOUS
 10
26.3398826535
 20
27.0578768353
 11
26.3398826535
 21
26.9928768353
  0
LINE
  5
442
100
AcDbEntity
  8
0
100
AcDbLine
 62
7
  6
CONTINUOUS
 10
26.3598826535
 20
19.6498768353
 11
26.3598826535
 21
19.5848768353
  0
LINE
  5
443
100
AcDbEntity
  8
0
100
AcDbLine
 62
7
  6
CONTINUOUS
 10
26.7403953554
 20
23.2398768353
 11
26.7403953554
 21
19.9398768353
  0
LINE
  5
444
100
AcDbEntity
  8
0
100
AcDbLine
 62
7
  6
CONTINUOUS
 10
26.8028953554
 20
23.2398768353
 11
26.8028953554
 21
19.9398768353
  0
LINE
  5
445
100
AcDbEntity
  8
0
100
AcDbLine
 62
7
  6
CONTINUOUS
 10
26.9897179335
 20
21.6626354559
 11
26.9897179335
 21
21.6598768353
  0
LINE
  5
446
100
AcDbEntity
  8
0
100
AcDbLine
 62
7
  6
CONTINUOUS
 10
25.9053826535
 20
20.3348768353
 11
25.8853826535
 21
20.1918768353
  0
LINE
  5
447
100
AcDbEntity
  8
0
100
AcDbLine
 62
7
  6
CONTINUOUS
 10
20.0185855186
 20
23.2398768353
 11
38.3711797885
 21
23.2398768353
  0
LINE
  5
448
100
AcDbEntity
  8
PARTDTMS
100
AcDbLine
 62
7
  6
CONTINUOUS
 10
35.8448753201
 20
19.8338694846
 11
35.8748826535
 21
19.8198768353
  0
LINE
  5
449
100
AcDbEntity
  8
0
100
AcDbLine
 62
7
  6
CONTINUOUS
 10
35.4078826535
 20
19.3448768353
 11
35.4073826535
 21
19.3451655104
  0
LINE
  5
44A
100
AcDbEntity
  8
0
100
AcDbLine
 62
7
  6
CONTINUOUS
 10
27.1197179335
 20
21.6626354559
 11
27.1197179335
 21
21.6598768353
  0
LINE
  5
44B
100
AcDbEntity
  8
0
100
AcDbLine
 62
7
  6
CONTINUOUS
 10
27.1533971843
 20
21.6626354559
 11
27.1533971843
 21
21.7016354559
  0
LINE
  5
44C
100
AcDbEntity
  8
0
100
AcDbLine
 62
7
  6
CONTINUOUS
 10
27.2283971843
 20
21.9998768353
 11
27.2283971843
 21
21.7016354559
  0
LINE
  5
44D
100
AcDbEntity
  8
0
100
AcDbLine
 62
7
  6
CONTINUOUS
 10
27.2283971843
 20
21.6626354559
 11
27.2283971843
 21
21.6598768353
  0
LINE
  5
44E
100
AcDbEntity
  8
0
100
AcDbLine
 62
7
  6
CONTINUOUS
 10
27.3195627848
 20
23.2398768353
 11
27.3195627848
 21
21.9998768353
  0
LINE
  5
44F
100
AcDbEntity
  8
0
100
AcDbLine
 62
7
  6
CONTINUOUS
 10
27.3583971843
 20
21.9998768353
 11
27.3583971843
 21
21.7016354559
  0
LINE
  5
450
100
AcDbEntity
  8
0
100
AcDbLine
 62
7
  6
CONTINUOUS
 10
27.3583971843
 20
21.6626354559
 11
27.3583971843
 21
21.6598768353
  0
LINE
  5
451
100
AcDbEntity
  8
0
100
AcDbLine
 62
7
  6
CONTINUOUS
 10
20.0185855186
 20
23.7458768353
 11
38.3711797885
 21
23.7458768353
  0
LINE
  5
452
100
AcDbEntity
  8
PARTDTMS
100
AcDbLine
 62
7
  6
CONTINUOUS
 10
37.0948753201
 20
19.8338694846
 11
37.1248826535
 21
19.8198768353
  0
LINE
  5
453
100
AcDbEntity
  8
0
100
AcDbLine
 62
7
  6
CONTINUOUS
 10
36.6578826535
 20
19.3448768353
 11
36.6573826535
 21
19.3451655104
  0
LINE
  5
454
100
AcDbEntity
  8
0
100
AcDbLine
 62
7
  6
CONTINUOUS
 10
27.8381825826
 20
21.6626354559
 11
27.8381825826
 21
21.7016354559
  0
LINE
  5
455
100
AcDbEntity
  8
0
100
AcDbLine
 62
7
  6
CONTINUOUS
 10
27.9131825826
 20
21.9998768353
 11
27.9131825826
 21
21.7016354559
  0
LINE
  5
456
100
AcDbEntity
  8
0
100
AcDbLine
 62
7
  6
CONTINUOUS
 10
27.9131825826
 20
21.6626354559
 11
27.9131825826
 21
21.6598768353
  0
LINE
  5
457
100
AcDbEntity
  8
0
100
AcDbLine
 62
7
  6
CONTINUOUS
 10
28.0431825826
 20
21.9998768353
 11
28.0431825826
 21
21.7016354559
  0
LINE
  5
458
100
AcDbEntity
  8
0
100
AcDbLine
 62
7
  6
CONTINUOUS
 10
28.0431825826
 20
21.6626354559
 11
28.0431825826
 21
21.6598768353
  0
LINE
  5
459
100
AcDbEntity
  8
0
100
AcDbLine
 62
7
  6
CONTINUOUS
 10
28.4623277992
 20
23.2398768353
 11
28.4623277992
 21
21.7016354559
  0
LINE
  5
45A
100
AcDbEntity
  8
0
100
AcDbLine
 62
7
  6
CONTINUOUS
 10
28.4871309609
 20
23.2398768353
 11
28.4871309609
 21
21.6626354559
  0
LINE
  5
45B
100
AcDbEntity
  8
0
100
AcDbLine
 62
7
  6
CONTINUOUS
 10
28.9823707641
 20
21.6626354559
 11
28.9823707641
 21
21.6598768353
  0
LINE
  5
45C
100
AcDbEntity
  8
0
100
AcDbLine
 62
7
  6
CONTINUOUS
 10
29.1123707641
 20
21.6626354559
 11
29.1123707641
 21
21.6598768353
  0
LINE
  5
45D
100
AcDbEntity
  8
0
100
AcDbLine
 62
7
  6
CONTINUOUS
 10
29.1316767971
 20
21.7016354559
 11
29.1316767971
 21
21.6626354559
  0
LINE
  5
45E
100
AcDbEntity
  8
0
100
AcDbLine
 62
7
  6
CONTINUOUS
 10
29.1617119869
 20
23.2398768353
 11
29.1617119869
 21
21.7016354559
  0
LINE
  5
45F
100
AcDbEntity
  8
0
100
AcDbLine
 62
7
  6
CONTINUOUS
 10
29.202394543
 20
21.6626354559
 11
29.202394543
 21
21.7016354559
  0
LINE
  5
460
100
AcDbEntity
  8
0
100
AcDbLine
 62
7
  6
CONTINUOUS
 10
29.277394543
 20
21.9998768353
 11
29.277394543
 21
21.7016354559
  0
LINE
  5
461
100
AcDbEntity
  8
0
100
AcDbLine
 62
7
  6
CONTINUOUS
 10
29.277394543
 20
21.6626354559
 11
29.277394543
 21
21.6598768353
  0
LINE
  5
462
100
AcDbEntity
  8
0
100
AcDbLine
 62
7
  6
CONTINUOUS
 10
29.407394543
 20
21.9998768353
 11
29.407394543
 21
21.7016354559
  0
LINE
  5
463
100
AcDbEntity
  8
0
100
AcDbLine
 62
7
  6
CONTINUOUS
 10
29.407394543
 20
21.6626354559
 11
29.407394543
 21
21.6598768353
  0
LINE
  5
464
100
AcDbEntity
  8
0
100
AcDbLine
 62
7
  6
CONTINUOUS
 10
35.2177592923
 20
19.8170001965
 11
34.9720060233
 21
20.0627534655
  0
LINE
  5
465
100
AcDbEntity
  8
0
100
AcDbLine
 62
7
  6
CONTINUOUS
 10
30.2715827245
 20
21.6626354559
 11
30.2715827245
 21
21.7016354559
  0
LINE
  5
466
100
AcDbEntity
  8
0
100
AcDbLine
 62
7
  6
CONTINUOUS
 10
30.3465827245
 20
21.9998768353
 11
30.3465827245
 21
21.7016354559
  0
LINE
  5
467
100
AcDbEntity
  8
0
100
AcDbLine
 62
7
  6
CONTINUOUS
 10
30.3465827245
 20
21.6626354559
 11
30.3465827245
 21
21.6598768353
  0
LINE
  5
468
100
AcDbEntity
  8
0
100
AcDbLine
 62
7
  6
CONTINUOUS
 10
30.4765827245
 20
21.9998768353
 11
30.4765827245
 21
21.7016354559
  0
LINE
  5
469
100
AcDbEntity
  8
0
100
AcDbLine
 62
7
  6
CONTINUOUS
 10
30.4765827245
 20
21.6626354559
 11
30.4765827245
 21
21.6598768353
  0
LINE
  5
46A
100
AcDbEntity
  8
0
100
AcDbLine
 62
7
  6
CONTINUOUS
 10
36.3563548823
 20
26.4298768353
 11
36.9110503856
 21
26.4298768353
  0
LINE
  5
46B
100
AcDbEntity
  8
0
100
AcDbLine
 62
7
  6
CONTINUOUS
 10
36.3563548823
 20
26.4348768353
 11
36.9110503856
 21
26.4348768353
  0
LINE
  5
46C
100
AcDbEntity
  8
0
100
AcDbLine
 62
3
  6
CONTINUOUS
 10
36.1948826535
 20
26.9928768353
 11
22.1948826535
 21
26.9928768353
  0
LINE
  5
46D
100
AcDbEntity
  8
0
100
AcDbLine
 62
7
  6
CONTINUOUS
 10
30.913278093
 20
23.2398768353
 11
30.913278093
 21
21.7016354559
  0
LINE
  5
46E
100
AcDbEntity
  8
0
100
AcDbLine
 62
7
  6
CONTINUOUS
 10
30.9156539558
 20
23.2398768353
 11
30.9156539558
 21
21.6626354559
  0
LINE
  5
46F
100
AcDbEntity
  8
0
100
AcDbLine
 62
7
  6
CONTINUOUS
 10
31.0115811198
 20
23.2398768353
 11
31.0115811198
 21
21.6626354559
  0
LINE
  5
470
100
AcDbEntity
  8
0
100
AcDbLine
 62
7
  6
CONTINUOUS
 10
31.0165312563
 20
23.2398768353
 11
31.0165312563
 21
21.7016354559
  0
LINE
  5
471
100
AcDbEntity
  8
0
100
AcDbLine
 62
7
  6
CONTINUOUS
 10
31.0313681227
 20
21.6626354559
 11
31.0313681227
 21
21.6598768353
  0
LINE
  5
472
100
AcDbEntity
  8
0
100
AcDbLine
 62
7
  6
CONTINUOUS
 10
31.1613681227
 20
21.6626354559
 11
31.1613681227
 21
21.6598768353
  0
LINE
  5
473
100
AcDbEntity
  8
0
100
AcDbLine
 62
7
  6
CONTINUOUS
 10
31.2700473736
 20
21.9998768353
 11
31.2700473736
 21
21.7016354559
  0
LINE
  5
474
100
AcDbEntity
  8
0
100
AcDbLine
 62
7
  6
CONTINUOUS
 10
31.2700473736
 20
21.6626354559
 11
31.2700473736
 21
21.6598768353
  0
LINE
  5
475
100
AcDbEntity
  8
0
100
AcDbLine
 62
7
  6
CONTINUOUS
 10
31.4000473736
 20
21.9998768353
 11
31.4000473736
 21
21.7016354559
  0
LINE
  5
476
100
AcDbEntity
  8
0
100
AcDbLine
 62
7
  6
CONTINUOUS
 10
31.4000473736
 20
21.6626354559
 11
31.4000473736
 21
21.6598768353
  0
LINE
  5
477
100
AcDbEntity
  8
0
100
AcDbLine
 62
7
  6
CONTINUOUS
 10
31.4750473736
 20
21.6626354559
 11
31.4750473736
 21
21.7016354559
  0
LINE
  5
478
100
AcDbEntity
  8
0
100
AcDbLine
 62
7
  6
CONTINUOUS
 10
35.9398800017
 20
27.0578768353
 11
35.2498853054
 21
27.0578768353
  0
LINE
  5
479
100
AcDbEntity
  8
0
100
AcDbLine
 62
7
  6
CONTINUOUS
 10
26.3398826535
 20
27.0578768353
 11
25.6498826535
 21
27.0578768353
  0
LINE
  5
47A
100
AcDbEntity
  8
0
100
AcDbLine
 62
7
  6
CONTINUOUS
 10
25.744889987
 20
27.2378768353
 11
26.2448753201
 21
27.2378768353
  0
LINE
  5
47B
100
AcDbEntity
  8
0
100
AcDbLine
 62
7
  6
CONTINUOUS
 10
35.344889987
 20
27.2378768353
 11
35.8448753201
 21
27.2378768353
  0
LINE
  5
47C
100
AcDbEntity
  8
0
100
AcDbLine
 62
7
  6
CONTINUOUS
 10
32.3152447935
 20
21.9998768353
 11
32.3152447935
 21
21.7016354559
  0
LINE
  5
47D
100
AcDbEntity
  8
0
100
AcDbLine
 62
7
  6
CONTINUOUS
 10
32.3152447935
 20
21.6626354559
 11
32.3152447935
 21
21.6598768353
  0
LINE
  5
47E
100
AcDbEntity
  8
0
100
AcDbLine
 62
7
  6
CONTINUOUS
 10
32.3679171363
 20
21.5706413956
 11
32.3679171363
 21
21.2118768353
  0
LINE
  5
47F
100
AcDbEntity
  8
0
100
AcDbLine
 62
7
  6
CONTINUOUS
 10
32.4452447935
 20
21.9998768353
 11
32.4452447935
 21
21.7016354559
  0
LINE
  5
480
100
AcDbEntity
  8
0
100
AcDbLine
 62
7
  6
CONTINUOUS
 10
32.4452447935
 20
21.6626354559
 11
32.4452447935
 21
21.6598768353
  0
LINE
  5
481
100
AcDbEntity
  8
0
100
AcDbLine
 62
7
  6
CONTINUOUS
 10
32.5202447935
 20
21.6626354559
 11
32.5202447935
 21
21.7016354559
  0
LINE
  5
482
100
AcDbEntity
  8
0
100
AcDbLine
 62
7
  6
CONTINUOUS
 10
32.5752300227
 20
21.6626354559
 11
32.5752300227
 21
21.6598768353
  0
LINE
  5
483
100
AcDbEntity
  8
0
100
AcDbLine
 62
7
  6
CONTINUOUS
 10
32.707859735
 20
23.2398768353
 11
32.707859735
 21
21.7016354559
  0
LINE
  5
484
100
AcDbEntity
  8
0
100
AcDbLine
 62
7
  6
CONTINUOUS
 10
32.7425747468
 20
21.7016354559
 11
32.7425747468
 21
21.6626354559
  0
LINE
  5
485
100
AcDbEntity
  8
0
100
AcDbLine
 62
7
  6
CONTINUOUS
 10
25.5568826535
 20
19.3448768353
 11
25.5573826535
 21
19.3451655104
  0
LINE
  5
486
100
AcDbEntity
  8
0
100
AcDbLine
 62
7
  6
CONTINUOUS
 10
26.1818826535
 20
19.3448768353
 11
26.1823826535
 21
19.3451655104
  0
LINE
  5
487
100
AcDbEntity
  8
PARTDTMS
100
AcDbLine
 62
7
  6
CONTINUOUS
 10
25.119889987
 20
19.8338694846
 11
25.0898826535
 21
19.8198768353
  0
LINE
  5
488
100
AcDbEntity
  8
PARTDTMS
100
AcDbLine
 62
7
  6
CONTINUOUS
 10
25.744889987
 20
19.8338694846
 11
25.7148826535
 21
19.8198768353
  0
LINE
  5
489
100
AcDbEntity
  8
0
100
AcDbLine
 62
7
  6
CONTINUOUS
 10
33.0672067915
 20
21.9998768353
 11
33.0672067915
 21
21.7016354559
  0
LINE
  5
48A
100
AcDbEntity
  8
0
100
AcDbLine
 62
7
  6
CONTINUOUS
 10
33.0672067915
 20
21.6626354559
 11
33.0672067915
 21
21.6598768353
  0
LINE
  5
48B
100
AcDbEntity
  8
0
100
AcDbLine
 62
7
  6
CONTINUOUS
 10
33.1606035335
 20
23.2398768353
 11
33.1606035335
 21
21.9998768353
  0
LINE
  5
48C
100
AcDbEntity
  8
0
100
AcDbLine
 62
7
  6
CONTINUOUS
 10
33.1948826535
 20
19.6898768353
 11
33.1948826535
 21
19.7398768353
  0
LINE
  5
48D
100
AcDbEntity
  8
0
100
AcDbLine
 62
7
  6
CONTINUOUS
 10
33.1972067915
 20
21.9998768353
 11
33.1972067915
 21
21.7016354559
  0
LINE
  5
48E
100
AcDbEntity
  8
0
100
AcDbLine
 62
7
  6
CONTINUOUS
 10
33.1972067915
 20
21.6626354559
 11
33.1972067915
 21
21.6598768353
  0
LINE
  5
48F
100
AcDbEntity
  8
0
100
AcDbLine
 62
7
  6
CONTINUOUS
 10
33.2722067915
 20
21.6626354559
 11
33.2722067915
 21
21.7016354559
  0
LINE
  5
490
100
AcDbEntity
  8
0
100
AcDbLine
 62
7
  6
CONTINUOUS
 10
33.2923539179
 20
21.6598768353
 11
33.2923539179
 21
21.6098768353
  0
LINE
  5
491
100
AcDbEntity
  8
0
100
AcDbLine
 62
7
  6
CONTINUOUS
 10
33.715856144
 20
19.7398768353
 11
33.715856144
 21
23.2398768353
  0
LINE
  5
492
100
AcDbEntity
  8
0
100
AcDbLine
 62
7
  6
CONTINUOUS
 10
34.635856144
 20
19.7398768353
 11
34.635856144
 21
23.2398768353
  0
LINE
  5
493
100
AcDbEntity
  8
0
100
AcDbLine
 62
7
  6
CONTINUOUS
 10
34.8148826535
 20
19.6898768353
 11
34.8148826535
 21
19.7398768353
  0
LINE
  5
494
100
AcDbEntity
  8
0
100
AcDbLine
 62
7
  6
CONTINUOUS
 10
34.8448826535
 20
23.2398768353
 11
34.8448826535
 21
19.9398768353
  0
LINE
  5
495
100
AcDbEntity
  8
0
100
AcDbLine
 62
7
  6
CONTINUOUS
 10
34.9148826535
 20
19.7573768353
 11
34.9148826535
 21
19.6948768353
  0
LINE
  5
496
100
AcDbEntity
  8
0
100
AcDbLine
 62
7
  6
CONTINUOUS
 10
34.9698826535
 20
23.2398768353
 11
34.9698826535
 21
19.9398768353
  0
LINE
  5
497
100
AcDbEntity
  8
0
100
AcDbLine
 62
7
  6
CONTINUOUS
 10
35.0698826535
 20
20.7748768353
 11
35.0698826535
 21
21.1648768353
  0
LINE
  5
498
100
AcDbEntity
  8
0
100
AcDbLine
 62
7
  6
CONTINUOUS
 10
35.0698826535
 20
22.0848768353
 11
35.0698826535
 21
22.4748768353
  0
LINE
  5
499
100
AcDbEntity
  8
0
100
AcDbLine
 62
7
  6
CONTINUOUS
 10
35.2298826535
 20
19.6498768353
 11
35.2298826535
 21
19.5848768353
  0
LINE
  5
49A
100
AcDbEntity
  8
0
100
AcDbLine
 62
7
  6
CONTINUOUS
 10
35.2498826535
 20
27.0578768353
 11
35.2498826535
 21
26.9928768353
  0
LINE
  5
49B
100
AcDbEntity
  8
0
100
AcDbLine
 62
3
  6
CONTINUOUS
 10
32.506705292
 20
31.4928768353
 11
25.8830600151
 21
31.4928768353
  0
LINE
  5
49C
100
AcDbEntity
  8
0
100
AcDbLine
 62
3
  6
CONTINUOUS
 10
33.4463979128
 20
30.8348969786
 11
34.7250363432
 21
27.3218667636
  0
LINE
  5
49D
100
AcDbEntity
  8
0
100
AcDbLine
 62
7
  6
CONTINUOUS
 10
35.6843826535
 20
20.3348768353
 11
35.7043826535
 21
20.1918768353
  0
LINE
  5
49E
100
AcDbEntity
  8
PARTDTMS
100
AcDbLine
 62
7
  6
CONTINUOUS
 10
35.3148826535
 20
19.8198768353
 11
35.3148826535
 21
19.8148768353
  0
LINE
  5
49F
100
AcDbEntity
  8
0
100
AcDbLine
 62
7
  6
CONTINUOUS
 10
35.3348826535
 20
19.5348768353
 11
35.3348826535
 21
19.5848768353
  0
LINE
  5
4A0
100
AcDbEntity
  8
PARTDTMS
100
AcDbLine
 62
7
  6
CONTINUOUS
 10
35.344889987
 20
19.8338694846
 11
35.344889987
 21
20.0598768353
  0
LINE
  5
4A1
100
AcDbEntity
  8
0
100
AcDbLine
 62
7
  6
CONTINUOUS
 10
35.344889987
 20
27.0578768353
 11
35.344889987
 21
27.2378768353
  0
LINE
  5
4A2
100
AcDbEntity
  8
0
100
AcDbLine
 62
7
  6
CONTINUOUS
 10
35.4073826535
 20
19.3451655104
 11
35.4073826535
 21
19.5129768353
  0
LINE
  5
4A3
100
AcDbEntity
  8
PARTDTMS
100
AcDbLine
 62
7
  6
CONTINUOUS
 10
35.4698863203
 20
19.8338694846
 11
35.4698863203
 21
20.0598768353
  0
LINE
  5
4A4
100
AcDbEntity
  8
0
100
AcDbLine
 62
7
  6
CONTINUOUS
 10
35.4698863203
 20
27.0578768353
 11
35.4698863203
 21
27.2378768353
  0
LINE
  5
4A5
100
AcDbEntity
  8
0
100
AcDbLine
 62
7
  6
CONTINUOUS
 10
35.4853826535
 20
19.6498768353
 11
35.4853826535
 21
19.6898768353
  0
LINE
  5
4A6
100
AcDbEntity
  8
0
100
AcDbLine
 62
7
  6
CONTINUOUS
 10
35.4853826535
 20
20.0598768353
 11
35.4853826535
 21
20.1918768353
  0
LINE
  5
4A7
100
AcDbEntity
  8
0
100
AcDbLine
 62
7
  6
CONTINUOUS
 10
35.5948826535
 20
19.3619123349
 11
35.5948826535
 21
19.5129768353
  0
LINE
  5
4A8
100
AcDbEntity
  8
0
100
AcDbLine
 62
7
  6
CONTINUOUS
 10
35.7043826535
 20
19.6498768353
 11
35.7043826535
 21
19.6898768353
  0
LINE
  5
4A9
100
AcDbEntity
  8
0
100
AcDbLine
 62
7
  6
CONTINUOUS
 10
35.7043826535
 20
20.0598768353
 11
35.7043826535
 21
20.1918768353
  0
LINE
  5
4AA
100
AcDbEntity
  8
PARTDTMS
100
AcDbLine
 62
7
  6
CONTINUOUS
 10
35.7198789868
 20
19.8338694846
 11
35.7198789868
 21
20.0598768353
  0
LINE
  5
4AB
100
AcDbEntity
  8
0
100
AcDbLine
 62
7
  6
CONTINUOUS
 10
35.7198789868
 20
27.0578768353
 11
35.7198789868
 21
27.2378768353
  0
LINE
  5
4AC
100
AcDbEntity
  8
0
100
AcDbLine
 62
7
  6
CONTINUOUS
 10
35.7823826535
 20
19.3451655104
 11
35.7823826535
 21
19.5129768353
  0
LINE
  5
4AD
100
AcDbEntity
  8
PARTDTMS
100
AcDbLine
 62
7
  6
CONTINUOUS
 10
35.8448753201
 20
19.8338694846
 11
35.8448753201
 21
20.0598768353
  0
LINE
  5
4AE
100
AcDbEntity
  8
0
100
AcDbLine
 62
7
  6
CONTINUOUS
 10
35.8448753201
 20
27.0578768353
 11
35.8448753201
 21
27.2378768353
  0
LINE
  5
4AF
100
AcDbEntity
  8
0
100
AcDbLine
 62
7
  6
CONTINUOUS
 10
35.8548826535
 20
19.5348768353
 11
35.8548826535
 21
19.5848768353
  0
LINE
  5
4B0
100
AcDbEntity
  8
PARTDTMS
100
AcDbLine
 62
7
  6
CONTINUOUS
 10
35.8748826535
 20
19.8198768353
 11
35.8748826535
 21
19.8148768353
  0
LINE
  5
4B1
100
AcDbEntity
  8
0
100
AcDbLine
 62
7
  6
CONTINUOUS
 10
35.9398826535
 20
27.0578768353
 11
35.9398826535
 21
26.9928768353
  0
LINE
  5
4B2
100
AcDbEntity
  8
0
100
AcDbLine
 62
7
  6
CONTINUOUS
 10
35.9598826535
 20
19.6498768353
 11
35.9598826535
 21
19.5848768353
  0
LINE
  5
4B3
100
AcDbEntity
  8
0
100
AcDbLine
 62
7
  6
CONTINUOUS
 10
36.4798826535
 20
19.6498768353
 11
36.4798826535
 21
19.5848768353
  0
LINE
  5
4B4
100
AcDbEntity
  8
PARTDTMS
100
AcDbLine
 62
7
  6
CONTINUOUS
 10
36.5648826535
 20
19.8198768353
 11
36.5648826535
 21
19.8148768353
  0
LINE
  5
4B5
100
AcDbEntity
  8
0
100
AcDbLine
 62
7
  6
CONTINUOUS
 10
36.5848826535
 20
19.5348768353
 11
36.5848826535
 21
19.5848768353
  0
LINE
  5
4B6
100
AcDbEntity
  8
PARTDTMS
100
AcDbLine
 62
7
  6
CONTINUOUS
 10
36.594889987
 20
19.8338694846
 11
36.594889987
 21
20.0598768353
  0
LINE
  5
4B7
100
AcDbEntity
  8
0
100
AcDbLine
 62
7
  6
CONTINUOUS
 10
36.6573826535
 20
19.3451655104
 11
36.6573826535
 21
19.5129768353
  0
LINE
  5
4B8
100
AcDbEntity
  8
PARTDTMS
100
AcDbLine
 62
7
  6
CONTINUOUS
 10
36.7198863203
 20
19.8338694846
 11
36.7198863203
 21
20.0598768353
  0
LINE
  5
4B9
100
AcDbEntity
  8
0
100
AcDbLine
 62
7
  6
CONTINUOUS
 10
36.7353826535
 20
19.6498768353
 11
36.7353826535
 21
19.6898768353
  0
LINE
  5
4BA
100
AcDbEntity
  8
0
100
AcDbLine
 62
7
  6
CONTINUOUS
 10
36.7353826535
 20
20.0598768353
 11
36.7353826535
 21
20.1918768353
  0
LINE
  5
4BB
100
AcDbEntity
  8
0
100
AcDbLine
 62
7
  6
CONTINUOUS
 10
35.5053826535
 20
20.3348768353
 11
35.4853826535
 21
20.1918768353
  0
LINE
  5
4BC
100
AcDbEntity
  8
0
100
AcDbLine
 62
7
  6
CONTINUOUS
 10
36.9343826535
 20
20.3348768353
 11
36.9543826535
 21
20.1918768353
  0
LINE
  5
4BD
100
AcDbEntity
  8
0
100
AcDbLine
 62
7
  6
CONTINUOUS
 10
36.8448826535
 20
19.3619123349
 11
36.8448826535
 21
19.5129768353
  0
LINE
  5
4BE
100
AcDbEntity
  8
0
100
AcDbLine
 62
7
  6
CONTINUOUS
 10
36.9110520203
 20
26.4298768353
 11
36.9110520203
 21
26.4348768353
  0
LINE
  5
4BF
100
AcDbEntity
  8
0
100
AcDbLine
 62
7
  6
CONTINUOUS
 10
36.9543826535
 20
19.6498768353
 11
36.9543826535
 21
19.6898768353
  0
LINE
  5
4C0
100
AcDbEntity
  8
0
100
AcDbLine
 62
7
  6
CONTINUOUS
 10
36.9543826535
 20
20.0598768353
 11
36.9543826535
 21
20.1918768353
  0
LINE
  5
4C1
100
AcDbEntity
  8
PARTDTMS
100
AcDbLine
 62
7
  6
CONTINUOUS
 10
36.9698789868
 20
19.8338694846
 11
36.9698789868
 21
20.0598768353
  0
LINE
  5
4C2
100
AcDbEntity
  8
0
100
AcDbLine
 62
7
  6
CONTINUOUS
 10
37.0323826535
 20
19.3451655104
 11
37.0323826535
 21
19.5129768353
  0
LINE
  5
4C3
100
AcDbEntity
  8
PARTDTMS
100
AcDbLine
 62
7
  6
CONTINUOUS
 10
37.0948753201
 20
19.8338694846
 11
37.0948753201
 21
20.0598768353
  0
LINE
  5
4C4
100
AcDbEntity
  8
0
100
AcDbLine
 62
7
  6
CONTINUOUS
 10
37.1048826535
 20
19.5348768353
 11
37.1048826535
 21
19.5848768353
  0
LINE
  5
4C5
100
AcDbEntity
  8
PARTDTMS
100
AcDbLine
 62
7
  6
CONTINUOUS
 10
37.1248826535
 20
19.8198768353
 11
37.1248826535
 21
19.8148768353
  0
LINE
  5
4C6
100
AcDbEntity
  8
0
100
AcDbLine
 62
7
  6
CONTINUOUS
 10
37.2098826535
 20
19.6498768353
 11
37.2098826535
 21
19.5848768353
  0
LINE
  5
4C7
100
AcDbEntity
  8
0
100
AcDbLine
 62
7
  6
CONTINUOUS
 10
37.3448826535
 20
19.6898768353
 11
37.3448826535
 21
19.6948768353
  0
LINE
  5
4C8
100
AcDbEntity
  8
0
100
AcDbLine
 62
7
  6
CONTINUOUS
 10
37.3448826535
 20
19.7573768353
 11
37.3448826535
 21
19.8148768353
  0
LINE
  5
4C9
100
AcDbEntity
  8
0
100
AcDbLine
 62
7
  6
CONTINUOUS
 10
36.7553826535
 20
20.3348768353
 11
36.7353826535
 21
20.1918768353
  0
LINE
  5
4CA
100
AcDbEntity
  8
PARTDTMS
100
AcDbLine
 62
7
  6
CONTINUOUS
 10
35.344889987
 20
19.8338694846
 11
35.3148826535
 21
19.8198768353
  0
LINE
  5
4CB
100
AcDbEntity
  8
PARTDTMS
100
AcDbLine
 62
7
  6
CONTINUOUS
 10
36.594889987
 20
19.8338694846
 11
36.5648826535
 21
19.8198768353
  0
LINE
  5
4CC
100
AcDbEntity
  8
0
100
AcDbLine
 62
3
  6
CONTINUOUS
 10
37.1345752743
 20
26.3348969786
 11
38.0769015424
 21
23.7458768353
  0
LINE
  5
4CD
100
AcDbEntity
  8
0
100
AcDbLine
 62
7
  6
CONTINUOUS
 10
35.7818826535
 20
19.3448768353
 11
35.7823826535
 21
19.3451655104
  0
LINE
  5
4CE
100
AcDbEntity
  8
0
100
AcDbLine
 62
7
  6
CONTINUOUS
 10
38.4148826535
 20
19.7573768353
 11
38.4148826535
 21
19.6948768353
  0
LINE
  5
4CF
100
AcDbEntity
  8
0
100
AcDbLine
 62
7
  6
CONTINUOUS
 10
37.0318826535
 20
19.3448768353
 11
37.0323826535
 21
19.3451655104
  0
ARC
  5
4D0
100
AcDbEntity
  8
0
100
AcDbCircle
 62
7
  6
CONTINUOUS
 10
0.2166901566
 20
-4.8051148173
 40
0.1
100
AcDbArc
 50
195.0
 51
285.0
  0
CIRCLE
  5
4D1
100
AcDbEntity
  8
0
100
AcDbCircle
 62
7
  6
CONTINUOUS
 10
-0.5346097457
 20
-0.6870854591
 40
0.125
  0
CIRCLE
  5
4D2
100
AcDbEntity
  8
0
100
AcDbCircle
 62
7
  6
CONTINUOUS
 10
0.5769885479
 20
-0.7259033269
 40
0.125
  0
CIRCLE
  5
4D3
100
AcDbEntity
  8
0
100
AcDbCircle
 62
7
  6
CONTINUOUS
 10
1.779691316
 20
-3.9017233191
 40
0.365
  0
CIRCLE
  5
4D4
100
AcDbEntity
  8
0
100
AcDbCircle
 62
7
  6
CONTINUOUS
 10
1.779691316
 20
-5.1517233191
 40
0.365
  0
CIRCLE
  5
4D5
100
AcDbEntity
  8
0
100
AcDbCircle
 62
7
  6
CONTINUOUS
 10
1.779691316
 20
-5.1517233191
 40
0.26
  0
CIRCLE
  5
4D6
100
AcDbEntity
  8
0
100
AcDbCircle
 62
7
  6
CONTINUOUS
 10
1.779691316
 20
-3.9017233191
 40
0.26
  0
CIRCLE
  5
4D7
100
AcDbEntity
  8
0
100
AcDbCircle
 62
7
  6
CONTINUOUS
 10
1.779691316
 20
-5.1517233191
 40
0.187
  0
CIRCLE
  5
4D8
100
AcDbEntity
  8
0
100
AcDbCircle
 62
7
  6
CONTINUOUS
 10
1.779691316
 20
-3.9017233191
 40
0.187
  0
ARC
  5
4D9
100
AcDbEntity
  8
0
100
AcDbCircle
 62
7
  6
CONTINUOUS
 10
2.2154700298
 20
-2.4826968096
 40
0.575
100
AcDbArc
 50
170.0
 51
190.0
  0
ARC
  5
4DA
100
AcDbEntity
  8
AXIS
100
AcDbCircle
 62
7
  6
CONTINUOUS
 10
2.2154700298
 20
-2.4826968096
 40
0.575
100
AcDbArc
 50
350.0
 51
10.0
  0
ARC
  5
4DB
100
AcDbEntity
  8
0
100
AcDbCircle
 62
7
  6
CONTINUOUS
 10
2.2154700298
 20
-2.4826968096
 40
0.575
100
AcDbArc
 50
10.0155203377
 51
169.9944207603
  0
ARC
  5
4DC
100
AcDbEntity
  8
0
100
AcDbCircle
 62
7
  6
CONTINUOUS
 10
2.2154700298
 20
-2.4826968096
 40
0.575
100
AcDbArc
 50
190.0155203377
 51
220.7159533724
  0
ARC
  5
4DD
100
AcDbEntity
  8
0
100
AcDbCircle
 62
7
  6
CONTINUOUS
 10
2.2154700298
 20
-2.4826968096
 40
0.575
100
AcDbArc
 50
233.608415243
 51
349.9944207603
  0
ARC
  5
4DE
100
AcDbEntity
  8
AXIS
100
AcDbCircle
 62
7
  6
CONTINUOUS
 10
2.2154700298
 20
-2.4826968096
 40
0.545
100
AcDbArc
 50
231.2344650316
 51
223.3897576618
  0
CIRCLE
  5
4DF
100
AcDbEntity
  8
AXIS
100
AcDbCircle
 62
7
  6
CONTINUOUS
 10
2.2154700298
 20
-2.4826968096
 40
0.47
  0
CIRCLE
  5
4E0
100
AcDbEntity
  8
0
100
AcDbCircle
 62
7
  6
CONTINUOUS
 10
2.2154700298
 20
-2.4826968096
 40
0.46
  0
CIRCLE
  5
4E1
100
AcDbEntity
  8
0
100
AcDbCircle
 62
7
  6
CONTINUOUS
 10
2.2154700298
 20
-2.4826968096
 40
0.41
  0
ARC
  5
4E2
100
AcDbEntity
  8
0
100
AcDbCircle
 62
7
  6
CONTINUOUS
 10
1.779691316
 20
-1.4390474571
 40
0.21
100
AcDbArc
 50
227.4099265299
 51
304.5959403842
  0
CIRCLE
  5
4E3
100
AcDbEntity
  8
0
100
AcDbCircle
 62
7
  6
CONTINUOUS
 10
2.7018097967
 20
-0.8170706883
 40
0.125
  0
CIRCLE
  5
4E4
100
AcDbEntity
  8
0
100
AcDbCircle
 62
7
  6
CONTINUOUS
 10
1.779691316
 20
-1.4390474571
 40
0.125
  0
CIRCLE
  5
4E5
100
AcDbEntity
  8
0
100
AcDbCircle
 62
7
  6
CONTINUOUS
 10
-1.6583416845
 20
2.6457885703
 40
0.125
  0
CIRCLE
  5
4E6
100
AcDbEntity
  8
0
100
AcDbCircle
 62
7
  6
CONTINUOUS
 10
-1.9649264621
 20
1.2815766099
 40
0.125
  0
CIRCLE
  5
4E7
100
AcDbEntity
  8
0
100
AcDbCircle
 62
7
  6
CONTINUOUS
 10
-1.0884411218
 20
0.5967912117
 40
0.125
  0
CIRCLE
  5
4E8
100
AcDbEntity
  8
0
100
AcDbCircle
 62
7
  6
CONTINUOUS
 10
-3.7628712682
 20
5.6982766809
 40
0.365
  0
CIRCLE
  5
4E9
100
AcDbEntity
  8
0
100
AcDbCircle
 62
7
  6
CONTINUOUS
 10
-4.8454030229
 20
6.3232766809
 40
0.365
  0
CIRCLE
  5
4EA
100
AcDbEntity
  8
0
100
AcDbCircle
 62
7
  6
CONTINUOUS
 10
-4.8454030229
 20
6.3232766809
 40
0.26
  0
CIRCLE
  5
4EB
100
AcDbEntity
  8
0
100
AcDbCircle
 62
7
  6
CONTINUOUS
 10
-3.7628712682
 20
5.6982766809
 40
0.26
  0
CIRCLE
  5
4EC
100
AcDbEntity
  8
0
100
AcDbCircle
 62
7
  6
CONTINUOUS
 10
-4.8454030229
 20
6.3232766809
 40
0.187
  0
CIRCLE
  5
4ED
100
AcDbEntity
  8
0
100
AcDbCircle
 62
7
  6
CONTINUOUS
 10
-3.7628712682
 20
5.6982766809
 40
0.187
  0
CIRCLE
  5
4EE
100
AcDbEntity
  8
0
100
AcDbCircle
 62
7
  6
CONTINUOUS
 10
-1.9649264621
 20
3.7149767518
 40
0.125
  0
CIRCLE
  5
4EF
100
AcDbEntity
  8
0
100
AcDbCircle
 62
7
  6
CONTINUOUS
 10
1.279691316
 20
1.6322512771
 40
0.2655
  0
CIRCLE
  5
4F0
100
AcDbEntity
  8
0
100
AcDbCircle
 62
7
  6
CONTINUOUS
 10
1.279691316
 20
1.6322512771
 40
0.218
  0
ARC
  5
4F1
100
AcDbEntity
  8
0
100
AcDbCircle
 62
7
  6
CONTINUOUS
 10
1.289691316
 20
2.4982766809
 40
0.78
100
AcDbArc
 50
163.6783348578
 51
196.3216651422
  0
ARC
  5
4F2
100
AcDbEntity
  8
0
100
AcDbCircle
 62
7
  6
CONTINUOUS
 10
0.9243345893
 20
2.6051669819
 40
0.3993281503
100
AcDbArc
 50
163.6649142479
 51
168.6576625913
  0
CIRCLE
  5
4F3
100
AcDbEntity
  8
0
100
AcDbCircle
 62
7
  6
CONTINUOUS
 10
1.279691316
 20
3.3643020846
 40
0.2655
  0
CIRCLE
  5
4F4
100
AcDbEntity
  8
0
100
AcDbCircle
 62
7
  6
CONTINUOUS
 10
1.279691316
 20
3.3643020846
 40
0.218
  0
ARC
  5
4F5
100
AcDbEntity
  8
0
100
AcDbCircle
 62
7
  6
CONTINUOUS
 10
1.779691316
 20
2.4982766809
 40
9.4292971349
100
AcDbArc
 50
322.569478537
 51
323.3534149947
  0
ARC
  5
4F6
100
AcDbEntity
  8
0
100
AcDbCircle
 62
7
  6
CONTINUOUS
 10
1.779691316
 20
2.4982766809
 40
9.4292971349
100
AcDbArc
 50
309.9715836338
 51
318.0042354317
  0
ARC
  5
4F7
100
AcDbEntity
  8
0
100
AcDbCircle
 62
7
  6
CONTINUOUS
 10
1.779691316
 20
2.4982766809
 40
9.4292971349
100
AcDbArc
 50
334.8502219003
 51
306.8920688318
  0
ARC
  5
4F8
100
AcDbEntity
  8
0
100
AcDbCircle
 62
7
  6
CONTINUOUS
 10
1.779691316
 20
2.4982766809
 40
7.07
100
AcDbArc
 50
154.0762613116
 51
265.9387160397
  0
ARC
  5
4F9
100
AcDbEntity
  8
0
100
AcDbCircle
 62
7
  6
CONTINUOUS
 10
1.779691316
 20
2.4982766809
 40
7.07
100
AcDbArc
 50
34.0612839603
 51
145.9237386884
  0
ARC
  5
4FA
100
AcDbEntity
  8
0
100
AcDbCircle
 62
7
  6
CONTINUOUS
 10
1.779691316
 20
2.4982766809
 40
7.07
100
AcDbArc
 50
274.0610828798
 51
25.9389171202
  0
CIRCLE
  5
4FB
100
AcDbEntity
  8
0
100
AcDbCircle
 62
7
  6
CONTINUOUS
 10
1.779691316
 20
2.4982766809
 40
4.0974712644
  0
CIRCLE
  5
4FC
100
AcDbEntity
  8
0
100
AcDbCircle
 62
7
  6
CONTINUOUS
 10
1.779691316
 20
2.4982766809
 40
3.1730344828
  0
CIRCLE
  5
4FD
100
AcDbEntity
  8
0
100
AcDbCircle
 62
7
  6
CONTINUOUS
 10
1.779691316
 20
2.4982766809
 40
3.0830344828
  0
ARC
  5
4FE
100
AcDbEntity
  8
0
100
AcDbCircle
 62
7
  6
CONTINUOUS
 10
1.779691316
 20
2.4982766809
 40
1.25
100
AcDbArc
 50
124.7112956216
 51
169.8964730224
  0
ARC
  5
4FF
100
AcDbEntity
  8
0
100
AcDbCircle
 62
7
  6
CONTINUOUS
 10
1.779691316
 20
2.4982766809
 40
1.25
100
AcDbArc
 50
190.1235393399
 51
235.1680913697
  0
ARC
  5
500
100
AcDbEntity
  8
0
100
AcDbCircle
 62
7
  6
CONTINUOUS
 10
1.779691316
 20
2.4982766809
 40
1.25
100
AcDbArc
 50
244.9788538802
 51
355.0347368506
  0
ARC
  5
501
100
AcDbEntity
  8
0
100
AcDbCircle
 62
7
  6
CONTINUOUS
 10
1.779691316
 20
2.4982766809
 40
1.25
100
AcDbArc
 50
4.71452445
 51
115.5209669551
  0
ARC
  5
502
100
AcDbEntity
  8
0
100
AcDbCircle
 62
7
  6
CONTINUOUS
 10
1.779691316
 20
2.4982766809
 40
1.2368456474
100
AcDbArc
 50
246.3556772766
 51
353.5817821938
  0
ARC
  5
503
100
AcDbEntity
  8
0
100
AcDbCircle
 62
7
  6
CONTINUOUS
 10
1.779691316
 20
2.4982766809
 40
1.2368456474
100
AcDbArc
 50
190.2322042645
 51
233.8363583888
  0
ARC
  5
504
100
AcDbEntity
  8
0
100
AcDbCircle
 62
7
  6
CONTINUOUS
 10
1.779691316
 20
2.4982766809
 40
1.2368456474
100
AcDbArc
 50
126.37504125
 51
169.786641295
  0
ARC
  5
505
100
AcDbEntity
  8
0
100
AcDbCircle
 62
7
  6
CONTINUOUS
 10
1.779691316
 20
2.4982766809
 40
1.2368456474
100
AcDbArc
 50
6.2224618755
 51
113.7009018573
  0
ARC
  5
506
100
AcDbEntity
  8
0
100
AcDbCircle
 62
7
  6
CONTINUOUS
 10
1.779691316
 20
2.4982766809
 40
0.6380912987
100
AcDbArc
 50
203.0661400609
 51
156.9338599391
  0
ARC
  5
507
100
AcDbEntity
  8
0
100
AcDbCircle
 62
7
  6
CONTINUOUS
 10
1.779691316
 20
2.4982766809
 40
0.625
100
AcDbArc
 50
199.7009376039
 51
160.2990623961
  0
CIRCLE
  5
508
100
AcDbEntity
  8
0
100
AcDbCircle
 62
7
  6
CONTINUOUS
 10
1.779691316
 20
2.4982766809
 40
0.156
  0
CIRCLE
  5
509
100
AcDbEntity
  8
AXIS
100
AcDbCircle
 62
7
  6
CONTINUOUS
 10
2.7872735308
 20
0.9467361302
 40
0.0655
  0
CIRCLE
  5
50A
100
AcDbEntity
  8
0
100
AcDbCircle
 62
7
  6
CONTINUOUS
 10
2.7872735308
 20
0.9467361302
 40
0.065
  0
CIRCLE
  5
50B
100
AcDbEntity
  8
0
100
AcDbCircle
 62
7
  6
CONTINUOUS
 10
2.779691316
 20
2.4982766809
 40
0.2655
  0
CIRCLE
  5
50C
100
AcDbEntity
  8
0
100
AcDbCircle
 62
7
  6
CONTINUOUS
 10
2.779691316
 20
2.4982766809
 40
0.218
  0
ARC
  5
50D
100
AcDbEntity
  8
0
100
AcDbCircle
 62
7
  6
CONTINUOUS
 10
1.779691316
 20
6.4356008188
 40
0.21
100
AcDbArc
 50
47.4099265299
 51
124.5959403842
  0
CIRCLE
  5
50E
100
AcDbEntity
  8
0
100
AcDbCircle
 62
7
  6
CONTINUOUS
 10
2.9823940841
 20
5.7224566886
 40
0.125
  0
CIRCLE
  5
50F
100
AcDbEntity
  8
0
100
AcDbCircle
 62
7
  6
CONTINUOUS
 10
1.779691316
 20
6.4356008188
 40
0.125
  0
CIRCLE
  5
510
100
AcDbEntity
  8
0
100
AcDbCircle
 62
7
  6
CONTINUOUS
 10
0.8575728353
 20
5.81362405
 40
0.125
  0
CIRCLE
  5
511
100
AcDbEntity
  8
0
100
AcDbCircle
 62
7
  6
CONTINUOUS
 10
-0.5346097457
 20
5.6836388208
 40
0.125
  0
CIRCLE
  5
512
100
AcDbEntity
  8
0
100
AcDbCircle
 62
7
  6
CONTINUOUS
 10
-0.9150304955
 20
4.6384414009
 40
0.125
  0
CIRCLE
  5
513
100
AcDbEntity
  8
AXIS
100
AcDbCircle
 62
7
  6
CONTINUOUS
 10
0.7721091013
 20
4.0498172316
 40
0.0655
  0
CIRCLE
  5
514
100
AcDbEntity
  8
0
100
AcDbCircle
 62
7
  6
CONTINUOUS
 10
1.779691316
 20
5.3005766809
 40
0.065
  0
CIRCLE
  5
515
100
AcDbEntity
  8
0
100
AcDbCircle
 62
7
  6
CONTINUOUS
 10
0.7721091013
 20
4.0498172316
 40
0.065
  0
CIRCLE
  5
516
100
AcDbEntity
  8
0
100
AcDbCircle
 62
7
  6
CONTINUOUS
 10
4.0939923778
 20
-0.6870854591
 40
0.125
  0
ARC
  5
517
100
AcDbEntity
  8
0
100
AcDbCircle
 62
7
  6
CONTINUOUS
 10
6.7849857754
 20
-3.0451453106
 40
0.1
100
AcDbArc
 50
285.0
 51
15.0
  0
ARC
  5
518
100
AcDbEntity
  8
0
100
AcDbCircle
 62
7
  6
CONTINUOUS
 10
5.423216184
 20
-3.5653218
 40
0.05
100
AcDbArc
 50
15.0
 51
57.7233414094
  0
ARC
  5
519
100
AcDbEntity
  8
0
100
AcDbCircle
 62
7
  6
CONTINUOUS
 10
8.629691316
 20
-6.6717233191
 40
0.05
100
AcDbArc
 50
270.0
 51
360.0
  0
ARC
  5
51A
100
AcDbEntity
  8
0
100
AcDbCircle
 62
7
  6
CONTINUOUS
 10
7.479691316
 20
-6.6717233191
 40
0.05
100
AcDbArc
 50
180.0
 51
270.0
  0
ARC
  5
51B
100
AcDbEntity
  8
0
100
AcDbCircle
 62
7
  6
CONTINUOUS
 10
7.479691316
 20
-4.7717233191
 40
0.05
100
AcDbArc
 50
90.0
 51
180.0
  0
ARC
  5
51C
100
AcDbEntity
  8
0
100
AcDbCircle
 62
7
  6
CONTINUOUS
 10
8.629691316
 20
-4.7717233191
 40
0.05
100
AcDbArc
 50
0.0
 51
90.0
  0
ARC
  5
51D
100
AcDbEntity
  8
0
100
AcDbCircle
 62
7
  6
CONTINUOUS
 10
11.229691316
 20
-3.0717233191
 40
0.05
100
AcDbArc
 50
270.0
 51
360.0
  0
ARC
  5
51E
100
AcDbEntity
  8
0
100
AcDbCircle
 62
7
  6
CONTINUOUS
 10
8.579691316
 20
-3.0717233191
 40
0.05
100
AcDbArc
 50
180.0
 51
270.0
  0
ARC
  5
51F
100
AcDbEntity
  8
0
100
AcDbCircle
 62
7
  6
CONTINUOUS
 10
8.579691316
 20
-1.5517233191
 40
0.05
100
AcDbArc
 50
90.0
 51
180.0
  0
ARC
  5
520
100
AcDbEntity
  8
0
100
AcDbCircle
 62
7
  6
CONTINUOUS
 10
11.229691316
 20
-1.5517233191
 40
0.05
100
AcDbArc
 50
0.0
 51
90.0
  0
CIRCLE
  5
521
100
AcDbEntity
  8
0
100
AcDbCircle
 62
7
  6
CONTINUOUS
 10
8.404785655
 20
6.3232766809
 40
0.365
  0
CIRCLE
  5
522
100
AcDbEntity
  8
0
100
AcDbCircle
 62
7
  6
CONTINUOUS
 10
7.3222539003
 20
5.6982766809
 40
0.365
  0
CIRCLE
  5
523
100
AcDbEntity
  8
0
100
AcDbCircle
 62
7
  6
CONTINUOUS
 10
8.404785655
 20
6.3232766809
 40
0.26
  0
CIRCLE
  5
524
100
AcDbEntity
  8
0
100
AcDbCircle
 62
7
  6
CONTINUOUS
 10
7.3222539003
 20
5.6982766809
 40
0.26
  0
CIRCLE
  5
525
100
AcDbEntity
  8
0
100
AcDbCircle
 62
7
  6
CONTINUOUS
 10
8.404785655
 20
6.3232766809
 40
0.187
  0
CIRCLE
  5
526
100
AcDbEntity
  8
0
100
AcDbCircle
 62
7
  6
CONTINUOUS
 10
7.3222539003
 20
5.6982766809
 40
0.187
  0
CIRCLE
  5
527
100
AcDbEntity
  8
0
100
AcDbCircle
 62
7
  6
CONTINUOUS
 10
4.0939923778
 20
5.6836388208
 40
0.125
  0
CIRCLE
  5
528
100
AcDbEntity
  8
0
100
AcDbCircle
 62
7
  6
CONTINUOUS
 10
4.4744131276
 20
0.3581119608
 40
0.125
  0
CIRCLE
  5
529
100
AcDbEntity
  8
0
100
AcDbCircle
 62
7
  6
CONTINUOUS
 10
5.5243090942
 20
1.2815766099
 40
0.125
  0
CIRCLE
  5
52A
100
AcDbEntity
  8
0
100
AcDbCircle
 62
7
  6
CONTINUOUS
 10
5.2177243166
 20
2.3507647914
 40
0.125
  0
CIRCLE
  5
52B
100
AcDbEntity
  8
0
100
AcDbCircle
 62
7
  6
CONTINUOUS
 10
4.6478237539
 20
4.39976215
 40
0.125
  0
CIRCLE
  5
52C
100
AcDbEntity
  8
0
100
AcDbCircle
 62
7
  6
CONTINUOUS
 10
5.5243090942
 20
3.7149767518
 40
0.125
  0
ARC
  5
52D
100
AcDbEntity
  8
0
100
AcDbCircle
 62
7
  6
CONTINUOUS
 10
-3.0599986762
 20
22.2798768805
 40
0.3066073313
100
AcDbArc
 50
153.0089741008
 51
206.9911690151
  0
ARC
  5
52E
100
AcDbEntity
  8
0
100
AcDbCircle
 62
7
  6
CONTINUOUS
 10
-3.0599986762
 20
20.9698768805
 40
0.3066073313
100
AcDbArc
 50
153.0089741008
 51
206.9911690151
  0
ARC
  5
52F
100
AcDbEntity
  8
0
100
AcDbCircle
 62
7
  6
CONTINUOUS
 10
-7.3966058189
 20
23.4928768353
 40
0.253
100
AcDbArc
 50
90.0
 51
270.0
  0
ARC
  5
530
100
AcDbEntity
  8
0
100
AcDbCircle
 62
7
  6
CONTINUOUS
 10
-1.6583416845
 20
21.7851893353
 40
0.2153125
100
AcDbArc
 50
234.5106567499
 51
305.4893432501
  0
ARC
  5
531
100
AcDbEntity
  8
0
100
AcDbCircle
 62
7
  6
CONTINUOUS
 10
-1.9649264621
 20
21.7851893353
 40
0.2153125
100
AcDbArc
 50
234.5106567499
 51
305.4893432501
  0
ARC
  5
532
100
AcDbEntity
  8
0
100
AcDbCircle
 62
7
  6
CONTINUOUS
 10
-0.9150304955
 20
21.7851893353
 40
0.2153125
100
AcDbArc
 50
234.5106567499
 51
305.4893432501
  0
ARC
  5
533
100
AcDbEntity
  8
0
100
AcDbCircle
 62
7
  6
CONTINUOUS
 10
-0.5346097457
 20
21.7851893353
 40
0.2153125
100
AcDbArc
 50
234.5106567499
 51
305.4893432501
  0
ARC
  5
534
100
AcDbEntity
  8
0
100
AcDbCircle
 62
7
  6
CONTINUOUS
 10
0.8575728353
 20
21.7851893353
 40
0.2153125
100
AcDbArc
 50
234.5106567499
 51
305.4893432501
  0
ARC
  5
535
100
AcDbEntity
  8
0
100
AcDbCircle
 62
7
  6
CONTINUOUS
 10
1.6203965091
 20
19.443187809
 40
0.0983349365
100
AcDbArc
 50
254.3535594722
 51
255.3245872145
  0
ARC
  5
536
100
AcDbEntity
  8
0
100
AcDbCircle
 62
7
  6
CONTINUOUS
 10
-3.9221660751
 20
19.443187809
 40
0.0983349365
100
AcDbArc
 50
254.3535594721
 51
255.3245872148
  0
ARC
  5
537
100
AcDbEntity
  8
0
100
AcDbCircle
 62
7
  6
CONTINUOUS
 10
-5.0046978299
 20
19.443187809
 40
0.0983349365
100
AcDbArc
 50
254.3535594721
 51
255.3245872148
  0
ARC
  5
538
100
AcDbEntity
  8
0
100
AcDbCircle
 62
7
  6
CONTINUOUS
 10
-3.4649286792
 20
19.8198768353
 40
0.0049999942
100
AcDbArc
 50
297.4603626512
 51
319.105075611
  0
ARC
  5
539
100
AcDbEntity
  8
0
100
AcDbCircle
 62
3
  6
CONTINUOUS
 10
-1.5321313224
 20
30.4928768353
 40
1.0
100
AcDbArc
 50
90.0
 51
160.0
  0
ARC
  5
53A
100
AcDbEntity
  8
0
100
AcDbCircle
 62
3
  6
CONTINUOUS
 10
-5.220308684
 20
25.9928768353
 40
1.0
100
AcDbArc
 50
90.0
 51
160.0
  0
ARC
  5
53B
100
AcDbEntity
  8
0
100
AcDbCircle
 62
3
  6
CONTINUOUS
 10
-4.220308684
 20
27.4928768353
 40
0.5
100
AcDbArc
 50
270.0
 51
282.8202097181
  0
ARC
  5
53C
100
AcDbEntity
  8
AXIS
100
AcDbCircle
 62
7
  6
CONTINUOUS
 10
-3.7628712682
 20
27.2378768353
 40
0.2
100
AcDbArc
 50
0.0
 51
180.0
  0
ARC
  5
53D
100
AcDbEntity
  8
0
100
AcDbCircle
 62
7
  6
CONTINUOUS
 10
6.6193813083
 20
20.96987679
 40
0.3066073313
100
AcDbArc
 50
333.0089741002
 51
26.9911690151
  0
ARC
  5
53E
100
AcDbEntity
  8
0
100
AcDbCircle
 62
7
  6
CONTINUOUS
 10
6.6193813083
 20
22.27987679
 40
0.3066073313
100
AcDbArc
 50
333.0089741003
 51
26.9911690151
  0
ARC
  5
53F
100
AcDbEntity
  8
0
100
AcDbCircle
 62
7
  6
CONTINUOUS
 10
10.955988451
 20
23.4928768353
 40
0.253
100
AcDbArc
 50
270.0
 51
90.0
  0
ARC
  5
540
100
AcDbEntity
  8
0
100
AcDbCircle
 62
7
  6
CONTINUOUS
 10
5.2177243166
 20
21.7851893353
 40
0.2153125
100
AcDbArc
 50
234.5106567499
 51
305.4893432501
  0
ARC
  5
541
100
AcDbEntity
  8
0
100
AcDbCircle
 62
7
  6
CONTINUOUS
 10
5.5243090942
 20
21.7851893353
 40
0.2153125
100
AcDbArc
 50
234.5106567499
 51
305.4893432501
  0
ARC
  5
542
100
AcDbEntity
  8
0
100
AcDbCircle
 62
7
  6
CONTINUOUS
 10
4.6478237539
 20
21.7851893353
 40
0.2153125
100
AcDbArc
 50
234.5106567499
 51
305.4893432501
  0
ARC
  5
543
100
AcDbEntity
  8
0
100
AcDbCircle
 62
7
  6
CONTINUOUS
 10
4.0939923778
 20
21.7851893353
 40
0.2153125
100
AcDbArc
 50
234.5106567499
 51
305.4893432501
  0
ARC
  5
544
100
AcDbEntity
  8
0
100
AcDbCircle
 62
7
  6
CONTINUOUS
 10
2.9823940841
 20
21.7851893353
 40
0.2153125
100
AcDbArc
 50
234.5106567499
 51
305.4893432501
  0
ARC
  5
545
100
AcDbEntity
  8
0
100
AcDbCircle
 62
7
  6
CONTINUOUS
 10
1.779691316
 20
21.7851893353
 40
0.2153125
100
AcDbArc
 50
234.5106567499
 51
305.4893432501
  0
ARC
  5
546
100
AcDbEntity
  8
0
100
AcDbCircle
 62
7
  6
CONTINUOUS
 10
1.779691316
 20
20.9698768353
 40
0.0985
100
AcDbArc
 50
104.375786651
 51
255.624213349
  0
ARC
  5
547
100
AcDbEntity
  8
0
100
AcDbCircle
 62
7
  6
CONTINUOUS
 10
7.1629590933
 20
19.443187809
 40
0.0983349365
100
AcDbArc
 50
254.3535594721
 51
255.3245872148
  0
ARC
  5
548
100
AcDbEntity
  8
0
100
AcDbCircle
 62
7
  6
CONTINUOUS
 10
8.245490848
 20
19.443187809
 40
0.0983349365
100
AcDbArc
 50
254.3535594722
 51
255.3245872148
  0
ARC
  5
549
100
AcDbEntity
  8
0
100
AcDbCircle
 62
7
  6
CONTINUOUS
 10
1.779691316
 20
20.9698768353
 40
0.095
100
AcDbArc
 50
104.8289168935
 51
255.1710831065
  0
ARC
  5
54A
100
AcDbEntity
  8
0
100
AcDbCircle
 62
3
  6
CONTINUOUS
 10
8.779691316
 20
25.9928768353
 40
1.0
100
AcDbArc
 50
20.0
 51
90.0
  0
ARC
  5
54B
100
AcDbEntity
  8
0
100
AcDbCircle
 62
3
  6
CONTINUOUS
 10
5.0915139545
 20
30.4928768353
 40
1.0
100
AcDbArc
 50
20.0
 51
90.0
  0
ARC
  5
54C
100
AcDbEntity
  8
0
100
AcDbCircle
 62
3
  6
CONTINUOUS
 10
7.779691316
 20
27.4928768353
 40
0.5
100
AcDbArc
 50
257.1797902819
 51
270.0
  0
ARC
  5
54D
100
AcDbEntity
  8
AXIS
100
AcDbCircle
 62
7
  6
CONTINUOUS
 10
7.3222539003
 20
27.2378768353
 40
0.2
100
AcDbArc
 50
0.0
 51
180.0
  0
ARC
  5
54E
100
AcDbEntity
  8
PARTDTMS
100
AcDbCircle
 62
7
  6
CONTINUOUS
 10
25.3280944343
 20
19.1191409174
 40
0.7339305225
100
AcDbArc
 50
76.8648712629
 51
78.1021563661
  0
ARC
  5
54F
100
AcDbEntity
  8
PARTDTMS
100
AcDbCircle
 62
7
  6
CONTINUOUS
 10
25.411670147
 20
19.1191439531
 40
0.7339274012
100
AcDbArc
 50
101.8978021426
 51
103.1351274136
  0
ARC
  5
550
100
AcDbEntity
  8
0
100
AcDbCircle
 62
7
  6
CONTINUOUS
 10
20.0185855186
 20
23.4928768353
 40
0.253
100
AcDbArc
 50
90.0
 51
270.0
  0
ARC
  5
551
100
AcDbEntity
  8
0
100
AcDbCircle
 62
7
  6
CONTINUOUS
 10
25.8795352844
 20
21.7851893353
 40
0.2153125
100
AcDbArc
 50
234.5106567499
 51
268.621956014
  0
ARC
  5
552
100
AcDbEntity
  8
0
100
AcDbCircle
 62
7
  6
CONTINUOUS
 10
25.2575585156
 20
21.7851893353
 40
0.2153125
100
AcDbArc
 50
234.5106567499
 51
305.4893432501
  0
ARC
  5
553
100
AcDbEntity
  8
0
100
AcDbCircle
 62
7
  6
CONTINUOUS
 10
25.9707026458
 20
21.7851893353
 40
0.2153125
100
AcDbArc
 50
234.5106567499
 51
243.3828700472
  0
ARC
  5
554
100
AcDbEntity
  8
0
100
AcDbCircle
 62
7
  6
CONTINUOUS
 10
27.2933971843
 20
21.7851893353
 40
0.2153125
100
AcDbArc
 50
234.5106567499
 51
305.4893432501
  0
ARC
  5
555
100
AcDbEntity
  8
0
100
AcDbCircle
 62
7
  6
CONTINUOUS
 10
27.9781825826
 20
21.7851893353
 40
0.2153125
100
AcDbArc
 50
234.5106567499
 51
305.4893432501
  0
ARC
  5
556
100
AcDbEntity
  8
0
100
AcDbCircle
 62
7
  6
CONTINUOUS
 10
25.7854826535
 20
19.5129768353
 40
0.0219
100
AcDbArc
 50
0.0
 51
90.0
  0
ARC
  5
557
100
AcDbEntity
  8
0
100
AcDbCircle
 62
7
  6
CONTINUOUS
 10
26.2042826535
 20
19.5129768353
 40
0.0219
100
AcDbArc
 50
90.0
 51
180.0
  0
ARC
  5
558
100
AcDbEntity
  8
0
100
AcDbCircle
 62
7
  6
CONTINUOUS
 10
25.1604826535
 20
19.5129768353
 40
0.0219
100
AcDbArc
 50
0.0
 51
90.0
  0
ARC
  5
559
100
AcDbEntity
  8
0
100
AcDbCircle
 62
7
  6
CONTINUOUS
 10
25.5792826535
 20
19.5129768353
 40
0.0219
100
AcDbArc
 50
90.0
 51
180.0
  0
ARC
  5
55A
100
AcDbEntity
  8
0
100
AcDbCircle
 62
3
  6
CONTINUOUS
 10
22.1948826535
 20
25.9928768353
 40
1.0
100
AcDbArc
 50
90.0
 51
160.0
  0
ARC
  5
55B
100
AcDbEntity
  8
0
100
AcDbCircle
 62
3
  6
CONTINUOUS
 10
23.1948826535
 20
27.4928768353
 40
0.5
100
AcDbArc
 50
270.0
 51
340.0
  0
ARC
  5
55C
100
AcDbEntity
  8
AXIS
100
AcDbCircle
 62
7
  6
CONTINUOUS
 10
25.9948826535
 20
27.2378768353
 40
0.2
100
AcDbArc
 50
0.0
 51
180.0
  0
ARC
  5
55D
100
AcDbEntity
  8
0
100
AcDbCircle
 62
3
  6
CONTINUOUS
 10
25.8830600151
 20
30.4928768353
 40
1.0
100
AcDbArc
 50
90.0
 51
160.0
  0
ARC
  5
55E
100
AcDbEntity
  8
0
100
AcDbCircle
 62
7
  6
CONTINUOUS
 10
34.8332755107
 20
20.9698768353
 40
0.3066071429
100
AcDbArc
 50
320.5063267891
 51
39.4936732109
  0
ARC
  5
55F
100
AcDbEntity
  8
0
100
AcDbCircle
 62
7
  6
CONTINUOUS
 10
34.8332755107
 20
22.2798768353
 40
0.3066071429
100
AcDbArc
 50
320.5063267891
 51
39.4936732109
  0
ARC
  5
560
100
AcDbEntity
  8
0
100
AcDbCircle
 62
7
  6
CONTINUOUS
 10
38.3711797885
 20
23.4928768353
 40
0.253
100
AcDbArc
 50
270.0
 51
90.0
  0
ARC
  5
561
100
AcDbEntity
  8
0
100
AcDbCircle
 62
7
  6
CONTINUOUS
 10
35.0948826535
 20
19.9398768353
 40
0.25
100
AcDbArc
 50
180.0
 51
227.2363639444
  0
ARC
  5
562
100
AcDbEntity
  8
0
100
AcDbCircle
 62
7
  6
CONTINUOUS
 10
35.0948826535
 20
19.9398768353
 40
0.25
100
AcDbArc
 50
259.7175174549
 51
270.0
  0
ARC
  5
563
100
AcDbEntity
  8
0
100
AcDbCircle
 62
7
  6
CONTINUOUS
 10
32.4190626613
 20
21.7851893353
 40
0.2153125
100
AcDbArc
 50
264.8219473924
 51
282.2399489293
  0
ARC
  5
564
100
AcDbEntity
  8
0
100
AcDbCircle
 62
7
  6
CONTINUOUS
 10
33.1322067915
 20
21.7851893353
 40
0.2153125
100
AcDbArc
 50
234.5106567499
 51
305.4893432501
  0
ARC
  5
565
100
AcDbEntity
  8
0
100
AcDbCircle
 62
7
  6
CONTINUOUS
 10
32.5102300227
 20
21.7851893353
 40
0.2153125
100
AcDbArc
 50
252.3961134634
 51
305.4893432501
  0
ARC
  5
566
100
AcDbEntity
  8
0
100
AcDbCircle
 62
7
  6
CONTINUOUS
 10
32.3802447935
 20
21.7851893353
 40
0.2153125
100
AcDbArc
 50
234.5106567499
 51
305.4893432501
  0
ARC
  5
567
100
AcDbEntity
  8
0
100
AcDbCircle
 62
7
  6
CONTINUOUS
 10
31.3350473736
 20
21.7851893353
 40
0.2153125
100
AcDbArc
 50
234.5106567499
 51
305.4893432501
  0
ARC
  5
568
100
AcDbEntity
  8
0
100
AcDbCircle
 62
7
  6
CONTINUOUS
 10
29.342394543
 20
21.7851893353
 40
0.2153125
100
AcDbArc
 50
234.5106567499
 51
305.4893432501
  0
ARC
  5
569
100
AcDbEntity
  8
0
100
AcDbCircle
 62
7
  6
CONTINUOUS
 10
30.4115827245
 20
21.7851893353
 40
0.2153125
100
AcDbArc
 50
234.5106567499
 51
305.4893432501
  0
ARC
  5
56A
100
AcDbEntity
  8
0
100
AcDbCircle
 62
7
  6
CONTINUOUS
 10
35.0948826535
 20
19.9398768353
 40
0.125
100
AcDbArc
 50
180.0
 51
270.0
  0
ARC
  5
56B
100
AcDbEntity
  8
0
100
AcDbCircle
 62
7
  6
CONTINUOUS
 10
35.3854826535
 20
19.5129768353
 40
0.0219
100
AcDbArc
 50
0.0
 51
90.0
  0
ARC
  5
56C
100
AcDbEntity
  8
0
100
AcDbCircle
 62
7
  6
CONTINUOUS
 10
35.8042826535
 20
19.5129768353
 40
0.0219
100
AcDbArc
 50
90.0
 51
180.0
  0
ARC
  5
56D
100
AcDbEntity
  8
0
100
AcDbCircle
 62
7
  6
CONTINUOUS
 10
36.6354826535
 20
19.5129768353
 40
0.0219
100
AcDbArc
 50
0.0
 51
90.0
  0
ARC
  5
56E
100
AcDbEntity
  8
0
100
AcDbCircle
 62
7
  6
CONTINUOUS
 10
37.0542826535
 20
19.5129768353
 40
0.0219
100
AcDbArc
 50
90.0
 51
180.0
  0
ARC
  5
56F
100
AcDbEntity
  8
0
100
AcDbCircle
 62
7
  6
CONTINUOUS
 10
34.9748826535
 20
20.0669479031
 40
0.005
100
AcDbArc
 50
206.1070715215
 51
225.0000000001
  0
ARC
  5
570
100
AcDbEntity
  8
0
100
AcDbCircle
 62
3
  6
CONTINUOUS
 10
32.506705292
 20
30.4928768353
 40
1.0
100
AcDbArc
 50
20.0
 51
90.0
  0
ARC
  5
571
100
AcDbEntity
  8
0
100
AcDbCircle
 62
3
  6
CONTINUOUS
 10
36.1948826535
 20
25.9928768353
 40
1.0
100
AcDbArc
 50
20.0
 51
90.0
  0
ARC
  5
572
100
AcDbEntity
  8
0
100
AcDbCircle
 62
3
  6
CONTINUOUS
 10
35.1948826535
 20
27.4928768353
 40
0.5
100
AcDbArc
 50
200.0
 51
270.0
  0
ARC
  5
573
100
AcDbEntity
  8
AXIS
100
AcDbCircle
 62
7
  6
CONTINUOUS
 10
35.5948826535
 20
27.2378768353
 40
0.2
100
AcDbArc
 50
0.0
 51
180.0
  0
LINE
  5
574
100
AcDbEntity
  8
0
100
AcDbLine
 62
7
  6
CONTINUOUS
 10
1.8879444915
 20
-4.9642233191
 11
1.9005884624
 21
-4.9423233191
  0
LINE
  5
575
100
AcDbEntity
  8
0
100
AcDbLine
 62
7
  6
CONTINUOUS
 10
1.996197667
 20
-5.1517233191
 11
2.0214856088
 21
-5.1517233191
  0
LINE
  5
576
100
AcDbEntity
  8
0
100
AcDbLine
 62
7
  6
CONTINUOUS
 10
1.6714381406
 20
-4.9642233191
 11
1.6587941697
 21
-4.9423233191
  0
LINE
  5
577
100
AcDbEntity
  8
0
100
AcDbLine
 62
7
  6
CONTINUOUS
 10
1.5631849651
 20
-5.1517233191
 11
1.5378970233
 21
-5.1517233191
  0
LINE
  5
578
100
AcDbEntity
  8
0
100
AcDbLine
 62
7
  6
CONTINUOUS
 10
1.6714381406
 20
-5.3392233191
 11
1.6587941697
 21
-5.3611233191
  0
LINE
  5
579
100
AcDbEntity
  8
0
100
AcDbLine
 62
7
  6
CONTINUOUS
 10
1.8879444915
 20
-5.3392233191
 11
1.9005884624
 21
-5.3611233191
  0
LINE
  5
57A
100
AcDbEntity
  8
0
100
AcDbLine
 62
7
  6
CONTINUOUS
 10
1.8879444915
 20
-3.7142233191
 11
1.9005884624
 21
-3.6923233191
  0
LINE
  5
57B
100
AcDbEntity
  8
0
100
AcDbLine
 62
7
  6
CONTINUOUS
 10
1.996197667
 20
-3.9017233191
 11
2.0214856088
 21
-3.9017233191
  0
LINE
  5
57C
100
AcDbEntity
  8
0
100
AcDbLine
 62
7
  6
CONTINUOUS
 10
1.6714381406
 20
-3.7142233191
 11
1.6587941697
 21
-3.6923233191
  0
LINE
  5
57D
100
AcDbEntity
  8
0
100
AcDbLine
 62
7
  6
CONTINUOUS
 10
1.5631849651
 20
-3.9017233191
 11
1.5378970233
 21
-3.9017233191
  0
LINE
  5
57E
100
AcDbEntity
  8
0
100
AcDbLine
 62
7
  6
CONTINUOUS
 10
1.6714381406
 20
-4.0892233191
 11
1.6587941697
 21
-4.1111233191
  0
LINE
  5
57F
100
AcDbEntity
  8
0
100
AcDbLine
 62
7
  6
CONTINUOUS
 10
1.8879444915
 20
-4.0892233191
 11
1.9005884624
 21
-4.1111233191
  0
LINE
  5
580
100
AcDbEntity
  8
0
100
AcDbLine
 62
7
  6
CONTINUOUS
 10
8.5130388305
 20
6.5107766809
 11
8.5256828014
 21
6.5326766809
  0
LINE
  5
581
100
AcDbEntity
  8
0
100
AcDbLine
 62
7
  6
CONTINUOUS
 10
8.6212920059
 20
6.3232766809
 11
8.6465799477
 21
6.3232766809
  0
LINE
  5
582
100
AcDbEntity
  8
0
100
AcDbLine
 62
7
  6
CONTINUOUS
 10
8.2965324795
 20
6.5107766809
 11
8.2838885086
 21
6.5326766809
  0
LINE
  5
583
100
AcDbEntity
  8
0
100
AcDbLine
 62
7
  6
CONTINUOUS
 10
8.188279304
 20
6.3232766809
 11
8.1629913623
 21
6.3232766809
  0
LINE
  5
584
100
AcDbEntity
  8
0
100
AcDbLine
 62
7
  6
CONTINUOUS
 10
8.2965324795
 20
6.1357766809
 11
8.2838885086
 21
6.1138766809
  0
LINE
  5
585
100
AcDbEntity
  8
0
100
AcDbLine
 62
7
  6
CONTINUOUS
 10
8.5130388305
 20
6.1357766809
 11
8.5256828014
 21
6.1138766809
  0
LINE
  5
586
100
AcDbEntity
  8
0
100
AcDbLine
 62
7
  6
CONTINUOUS
 10
-4.7371498474
 20
6.5107766809
 11
-4.7245058765
 21
6.5326766809
  0
LINE
  5
587
100
AcDbEntity
  8
0
100
AcDbLine
 62
7
  6
CONTINUOUS
 10
-4.628896672
 20
6.3232766809
 11
-4.6036087302
 21
6.3232766809
  0
LINE
  5
588
100
AcDbEntity
  8
0
100
AcDbLine
 62
7
  6
CONTINUOUS
 10
-4.9536561984
 20
6.5107766809
 11
-4.9663001693
 21
6.5326766809
  0
LINE
  5
589
100
AcDbEntity
  8
0
100
AcDbLine
 62
7
  6
CONTINUOUS
 10
-5.0619093739
 20
6.3232766809
 11
-5.0871973156
 21
6.3232766809
  0
LINE
  5
58A
100
AcDbEntity
  8
0
100
AcDbLine
 62
7
  6
CONTINUOUS
 10
-4.9536561984
 20
6.1357766809
 11
-4.9663001693
 21
6.1138766809
  0
LINE
  5
58B
100
AcDbEntity
  8
0
100
AcDbLine
 62
7
  6
CONTINUOUS
 10
-4.7371498474
 20
6.1357766809
 11
-4.7245058765
 21
6.1138766809
  0
LINE
  5
58C
100
AcDbEntity
  8
0
100
AcDbLine
 62
7
  6
CONTINUOUS
 10
-3.6546180927
 20
5.8857766809
 11
-3.6419741218
 21
5.9076766809
  0
LINE
  5
58D
100
AcDbEntity
  8
0
100
AcDbLine
 62
7
  6
CONTINUOUS
 10
-3.5463649172
 20
5.6982766809
 11
-3.5210769754
 21
5.6982766809
  0
LINE
  5
58E
100
AcDbEntity
  8
0
100
AcDbLine
 62
7
  6
CONTINUOUS
 10
-3.8711244437
 20
5.8857766809
 11
-3.8837684145
 21
5.9076766809
  0
LINE
  5
58F
100
AcDbEntity
  8
0
100
AcDbLine
 62
7
  6
CONTINUOUS
 10
-3.9793776191
 20
5.6982766809
 11
-4.0046655609
 21
5.6982766809
  0
LINE
  5
590
100
AcDbEntity
  8
0
100
AcDbLine
 62
7
  6
CONTINUOUS
 10
-3.8711244437
 20
5.5107766809
 11
-3.8837684145
 21
5.4888766809
  0
LINE
  5
591
100
AcDbEntity
  8
0
100
AcDbLine
 62
7
  6
CONTINUOUS
 10
-3.6546180927
 20
5.5107766809
 11
-3.6419741218
 21
5.4888766809
  0
LINE
  5
592
100
AcDbEntity
  8
0
100
AcDbLine
 62
7
  6
CONTINUOUS
 10
7.4305070757
 20
5.8857766809
 11
7.4431510466
 21
5.9076766809
  0
LINE
  5
593
100
AcDbEntity
  8
0
100
AcDbLine
 62
7
  6
CONTINUOUS
 10
7.5387602512
 20
5.6982766809
 11
7.564048193
 21
5.6982766809
  0
LINE
  5
594
100
AcDbEntity
  8
0
100
AcDbLine
 62
7
  6
CONTINUOUS
 10
7.2140007248
 20
5.8857766809
 11
7.2013567539
 21
5.9076766809
  0
LINE
  5
595
100
AcDbEntity
  8
0
100
AcDbLine
 62
7
  6
CONTINUOUS
 10
7.1057475493
 20
5.6982766809
 11
7.0804596075
 21
5.6982766809
  0
LINE
  5
596
100
AcDbEntity
  8
0
100
AcDbLine
 62
7
  6
CONTINUOUS
 10
7.2140007248
 20
5.5107766809
 11
7.2013567539
 21
5.4888766809
  0
LINE
  5
597
100
AcDbEntity
  8
0
100
AcDbLine
 62
7
  6
CONTINUOUS
 10
7.4305070757
 20
5.5107766809
 11
7.4431510466
 21
5.4888766809
  0
SPLINE
  5
598
100
AcDbEntity
  8
0
100
AcDbSpline
 62
7
  6
CONTINUOUS
 70
0
 71
3
 72
15
 73
11
 74
0
 42
0.0000001
 43
0.0000001
 44
0.0000000001
 40
0.0
 40
0.0
 40
0.0
 40
0.0
 40
0.1252146822
 40
0.2499116931
 40
0.3743170529
 40
0.498661262
 40
0.6231754954
 40
0.7480888588
 40
0.8736249174
 40
1.0
 40
1.0
 40
1.0
 40
1.0
 10
0.5328054771
 20
2.6837031262
 30
0.0
 10
0.5312686931
 20
2.6760330125
 30
0.0
 10
0.5286575406
 20
2.6606288669
 30
0.0
 10
0.5261478458
 20
2.6373654201
 30
0.0
 10
0.5250596524
 20
2.6140457916
 30
0.0
 10
0.5253952565
 20
2.5907148105
 30
0.0
 10
0.5271539281
 20
2.5674160169
 30
0.0
 10
0.5303324032
 20
2.5441929248
 30
0.0
 10
0.534924286
 20
2.5210900271
 30
0.0
 10
0.5389072794
 20
2.505853551
 30
0.0
 10
0.5411260216
 20
2.4982766809
 30
0.0
  0
SPLINE
  5
599
100
AcDbEntity
  8
0
100
AcDbSpline
 62
7
  6
CONTINUOUS
 70
0
 71
3
 72
15
 73
11
 74
0
 42
0.0000001
 43
0.0000001
 44
0.0000000001
 40
0.0
 40
0.0
 40
0.0
 40
0.0
 40
0.1261099833
 40
0.2512738785
 40
0.3757984041
 40
0.5
 40
0.6242015959
 40
0.7487261215
 40
0.8738900167
 40
1.0
 40
1.0
 40
1.0
 40
1.0
 10
0.5411260216
 20
2.4982766809
 30
0.0
 10
0.5385010719
 20
2.4893126369
 30
0.0
 10
0.5338860314
 20
2.4712645297
 30
0.0
 10
0.5289065456
 20
2.4438569028
 30
0.0
 10
0.5259131276
 20
2.4163023444
 30
0.0
 10
0.5249144823
 20
2.3886751298
 30
0.0
 10
0.5259131276
 20
2.3610479151
 30
0.0
 10
0.5289065456
 20
2.3334933568
 30
0.0
 10
0.5338860314
 20
2.3060857298
 30
0.0
 10
0.5385010719
 20
2.2880376227
 30
0.0
 10
0.5411260216
 20
2.2790735787
 30
0.0
  0
SPLINE
  5
59A
100
AcDbEntity
  8
PARTDTMS
100
AcDbSpline
 62
7
  6
CONTINUOUS
 70
0
 71
3
 72
23
 73
19
 74
0
 42
0.0000001
 43
0.0000001
 44
0.0000000001
 40
0.0
 40
0.0
 40
0.0
 40
0.0
 40
0.1254610895
 40
0.1880578062
 40
0.2505679376
 40
0.3130008448
 40
0.375370815
 40
0.40653889
 40
0.4376984978
 40
0.500000008
 40
0.5623015175
 40
0.5934611257
 40
0.6246292005
 40
0.686999169
 40
0.7494320744
 40
0.8119422038
 40
0.874538915
 40
1.0
 40
1.0
 40
1.0
 40
1.0
 10
7.3222539003
 20
19.8338694846
 30
0.0
 10
7.3133949539
 20
19.8362545154
 30
0.0
 10
7.3000291205
 20
19.8395241287
 30
0.0
 10
7.2820593912
 20
19.8431151663
 30
0.0
 10
7.2685316373
 20
19.8453824594
 30
0.0
 10
7.2549514766
 20
19.8471905809
 30
0.0
 10
7.2435960998
 20
19.8482878952
 30
0.0
 10
7.2344981662
 20
19.8489080386
 30
0.0
 10
7.2253949766
 20
19.8493526216
 30
0.0
 10
7.2140038986
 20
19.8495771965
 30
0.0
 10
7.2026128205
 20
19.8493526212
 30
0.0
 10
7.1935096309
 20
19.8489080379
 30
0.0
 10
7.1844116973
 20
19.8482878961
 30
0.0
 10
7.173056321
 20
19.8471905795
 30
0.0
 10
7.1594761606
 20
19.8453824594
 30
0.0
 10
7.1459484074
 20
19.8431151659
 30
0.0
 10
7.127978679
 20
19.8395241285
 30
0.0
 10
7.1146128463
 20
19.8362545154
 30
0.0
 10
7.1057539003
 20
19.8338694846
 30
0.0
  0
SPLINE
  5
59B
100
AcDbEntity
  8
PARTDTMS
100
AcDbSpline
 62
7
  6
CONTINUOUS
 70
0
 71
3
 72
23
 73
19
 74
0
 42
0.0000001
 43
0.0000001
 44
0.0000000001
 40
0.0
 40
0.0
 40
0.0
 40
0.0
 40
0.1254610895
 40
0.1880578062
 40
0.2505679376
 40
0.3130008448
 40
0.375370815
 40
0.40653889
 40
0.4376984978
 40
0.500000008
 40
0.5623015175
 40
0.5934611257
 40
0.6246292005
 40
0.686999169
 40
0.7494320744
 40
0.8119422038
 40
0.874538915
 40
1.0
 40
1.0
 40
1.0
 40
1.0
 10
7.5387539003
 20
19.8338694846
 30
0.0
 10
7.5298949539
 20
19.8362545154
 30
0.0
 10
7.5165291205
 20
19.8395241287
 30
0.0
 10
7.4985593912
 20
19.8431151663
 30
0.0
 10
7.4850316373
 20
19.8453824594
 30
0.0
 10
7.4714514766
 20
19.8471905809
 30
0.0
 10
7.4600960998
 20
19.8482878952
 30
0.0
 10
7.4509981662
 20
19.8489080386
 30
0.0
 10
7.4418949766
 20
19.8493526216
 30
0.0
 10
7.4305038986
 20
19.8495771965
 30
0.0
 10
7.4191128205
 20
19.8493526212
 30
0.0
 10
7.4100096309
 20
19.8489080379
 30
0.0
 10
7.4009116973
 20
19.8482878961
 30
0.0
 10
7.389556321
 20
19.8471905795
 30
0.0
 10
7.3759761606
 20
19.8453824594
 30
0.0
 10
7.3624484074
 20
19.8431151659
 30
0.0
 10
7.344478679
 20
19.8395241285
 30
0.0
 10
7.3311128463
 20
19.8362545154
 30
0.0
 10
7.3222539003
 20
19.8338694846
 30
0.0
  0
SPLINE
  5
59C
100
AcDbEntity
  8
PARTDTMS
100
AcDbSpline
 62
7
  6
CONTINUOUS
 70
0
 71
3
 72
23
 73
19
 74
0
 42
0.0000001
 43
0.0000001
 44
0.0000000001
 40
0.0
 40
0.0
 40
0.0
 40
0.0
 40
0.1254610895
 40
0.1880578062
 40
0.2505679376
 40
0.3130008448
 40
0.375370815
 40
0.40653889
 40
0.4376984978
 40
0.500000008
 40
0.5623015175
 40
0.5934611257
 40
0.6246292005
 40
0.686999169
 40
0.7494320744
 40
0.8119422038
 40
0.874538915
 40
1.0
 40
1.0
 40
1.0
 40
1.0
 10
-3.7628712682
 20
19.8338694846
 30
0.0
 10
-3.7717302145
 20
19.8362545154
 30
0.0
 10
-3.7850960479
 20
19.8395241287
 30
0.0
 10
-3.8030657773
 20
19.8431151663
 30
0.0
 10
-3.8165935311
 20
19.8453824594
 30
0.0
 10
-3.8301736919
 20
19.8471905809
 30
0.0
 10
-3.8415290686
 20
19.8482878952
 30
0.0
 10
-3.8506270022
 20
19.8489080386
 30
0.0
 10
-3.8597301918
 20
19.8493526216
 30
0.0
 10
-3.8711212699
 20
19.8495771965
 30
0.0
 10
-3.8825123479
 20
19.8493526212
 30
0.0
 10
-3.8916155375
 20
19.8489080379
 30
0.0
 10
-3.9007134711
 20
19.8482878961
 30
0.0
 10
-3.9120688474
 20
19.8471905795
 30
0.0
 10
-3.9256490079
 20
19.8453824594
 30
0.0
 10
-3.939176761
 20
19.8431151659
 30
0.0
 10
-3.9571464895
 20
19.8395241285
 30
0.0
 10
-3.9705123221
 20
19.8362545154
 30
0.0
 10
-3.9793712682
 20
19.8338694846
 30
0.0
  0
SPLINE
  5
59D
100
AcDbEntity
  8
PARTDTMS
100
AcDbSpline
 62
7
  6
CONTINUOUS
 70
0
 71
3
 72
23
 73
19
 74
0
 42
0.0000001
 43
0.0000001
 44
0.0000000001
 40
0.0
 40
0.0
 40
0.0
 40
0.0
 40
0.1254610895
 40
0.1880578062
 40
0.2505679376
 40
0.3130008448
 40
0.375370815
 40
0.40653889
 40
0.4376984978
 40
0.500000008
 40
0.5623015175
 40
0.5934611257
 40
0.6246292005
 40
0.686999169
 40
0.7494320744
 40
0.8119422038
 40
0.874538915
 40
1.0
 40
1.0
 40
1.0
 40
1.0
 10
-3.5463712682
 20
19.8338694846
 30
0.0
 10
-3.5552302145
 20
19.8362545154
 30
0.0
 10
-3.5685960479
 20
19.8395241287
 30
0.0
 10
-3.5865657773
 20
19.8431151663
 30
0.0
 10
-3.6000935311
 20
19.8453824594
 30
0.0
 10
-3.6136736919
 20
19.8471905809
 30
0.0
 10
-3.6250290686
 20
19.8482878952
 30
0.0
 10
-3.6341270022
 20
19.8489080386
 30
0.0
 10
-3.6432301918
 20
19.8493526216
 30
0.0
 10
-3.6546212699
 20
19.8495771965
 30
0.0
 10
-3.6660123479
 20
19.8493526212
 30
0.0
 10
-3.6751155375
 20
19.8489080379
 30
0.0
 10
-3.6842134711
 20
19.8482878961
 30
0.0
 10
-3.6955688474
 20
19.8471905795
 30
0.0
 10
-3.7091490079
 20
19.8453824594
 30
0.0
 10
-3.722676761
 20
19.8431151659
 30
0.0
 10
-3.7406464895
 20
19.8395241285
 30
0.0
 10
-3.7540123221
 20
19.8362545154
 30
0.0
 10
-3.7628712682
 20
19.8338694846
 30
0.0
  0
SPLINE
  5
59E
100
AcDbEntity
  8
PARTDTMS
100
AcDbSpline
 62
7
  6
CONTINUOUS
 70
0
 71
3
 72
23
 73
19
 74
0
 42
0.0000001
 43
0.0000001
 44
0.0000000001
 40
0.0
 40
0.0
 40
0.0
 40
0.0
 40
0.1254610895
 40
0.1880578062
 40
0.2505679376
 40
0.3130008448
 40
0.375370815
 40
0.40653889
 40
0.4376984978
 40
0.500000008
 40
0.5623015175
 40
0.5934611257
 40
0.6246292005
 40
0.686999169
 40
0.7494320744
 40
0.8119422038
 40
0.874538915
 40
1.0
 40
1.0
 40
1.0
 40
1.0
 10
-4.8454030229
 20
19.8338694846
 30
0.0
 10
-4.8542619693
 20
19.8362545154
 30
0.0
 10
-4.8676278026
 20
19.8395241287
 30
0.0
 10
-4.885597532
 20
19.8431151663
 30
0.0
 10
-4.8991252859
 20
19.8453824594
 30
0.0
 10
-4.9127054466
 20
19.8471905809
 30
0.0
 10
-4.9240608234
 20
19.8482878952
 30
0.0
 10
-4.9331587569
 20
19.8489080386
 30
0.0
 10
-4.9422619466
 20
19.8493526216
 30
0.0
 10
-4.9536530246
 20
19.8495771965
 30
0.0
 10
-4.9650441027
 20
19.8493526212
 30
0.0
 10
-4.9741472923
 20
19.8489080379
 30
0.0
 10
-4.9832452258
 20
19.8482878961
 30
0.0
 10
-4.9946006021
 20
19.8471905795
 30
0.0
 10
-5.0081807626
 20
19.8453824594
 30
0.0
 10
-5.0217085157
 20
19.8431151659
 30
0.0
 10
-5.0396782442
 20
19.8395241285
 30
0.0
 10
-5.0530440769
 20
19.8362545154
 30
0.0
 10
-5.0619030229
 20
19.8338694846
 30
0.0
  0
SPLINE
  5
59F
100
AcDbEntity
  8
PARTDTMS
100
AcDbSpline
 62
7
  6
CONTINUOUS
 70
0
 71
3
 72
23
 73
19
 74
0
 42
0.0000001
 43
0.0000001
 44
0.0000000001
 40
0.0
 40
0.0
 40
0.0
 40
0.0
 40
0.1254610895
 40
0.1880578062
 40
0.2505679376
 40
0.3130008448
 40
0.375370815
 40
0.40653889
 40
0.4376984978
 40
0.500000008
 40
0.5623015175
 40
0.5934611257
 40
0.6246292005
 40
0.686999169
 40
0.7494320744
 40
0.8119422038
 40
0.874538915
 40
1.0
 40
1.0
 40
1.0
 40
1.0
 10
-4.6289030229
 20
19.8338694846
 30
0.0
 10
-4.6377619693
 20
19.8362545154
 30
0.0
 10
-4.6511278026
 20
19.8395241287
 30
0.0
 10
-4.669097532
 20
19.8431151663
 30
0.0
 10
-4.6826252859
 20
19.8453824594
 30
0.0
 10
-4.6962054466
 20
19.8471905809
 30
0.0
 10
-4.7075608234
 20
19.8482878952
 30
0.0
 10
-4.7166587569
 20
19.8489080386
 30
0.0
 10
-4.7257619466
 20
19.8493526216
 30
0.0
 10
-4.7371530246
 20
19.8495771965
 30
0.0
 10
-4.7485441027
 20
19.8493526212
 30
0.0
 10
-4.7576472923
 20
19.8489080379
 30
0.0
 10
-4.7667452258
 20
19.8482878961
 30
0.0
 10
-4.7781006021
 20
19.8471905795
 30
0.0
 10
-4.7916807626
 20
19.8453824594
 30
0.0
 10
-4.8052085157
 20
19.8431151659
 30
0.0
 10
-4.8231782442
 20
19.8395241285
 30
0.0
 10
-4.8365440769
 20
19.8362545154
 30
0.0
 10
-4.8454030229
 20
19.8338694846
 30
0.0
  0
SPLINE
  5
5A0
100
AcDbEntity
  8
0
100
AcDbSpline
 62
7
  6
CONTINUOUS
 70
0
 71
3
 72
28
 73
24
 74
0
 42
0.0000001
 43
0.0000001
 44
0.0000000001
 40
0.0
 40
0.0
 40
0.0
 40
0.0
 40
0.0809538291
 40
0.1613813644
 40
0.2406203138
 40
0.3181401174
 40
0.3934339808
 40
0.4660114845
 40
0.5354465657
 40
0.601381138
 40
0.6329553309
 40
0.6635612855
 40
0.6931812056
 40
0.7218083152
 40
0.7760736811
 40
0.8017638312
 40
0.8265284098
 40
0.8734496737
 40
0.9174196222
 40
0.9385589469
 40
0.9592787635
 40
0.9797122304
 40
1.0
 40
1.0
 40
1.0
 40
1.0
 10
6.3264560831
 20
20.9698768353
 30
0.0
 10
6.3264560831
 20
20.9729806321
 30
0.0
 10
6.3266079827
 20
20.9791691162
 30
0.0
 10
6.3272874096
 20
20.9883731553
 30
0.0
 10
6.3284140136
 20
20.9974009669
 30
0.0
 10
6.3299757805
 20
21.0061640825
 30
0.0
 10
6.3319575528
 20
21.0145800807
 30
0.0
 10
6.3343411125
 20
21.0225689014
 30
0.0
 10
6.3371029098
 20
21.0300540352
 30
0.0
 10
6.3397358695
 20
21.0358952583
 30
0.0
 10
6.3420173731
 20
21.0402465629
 30
0.0
 10
6.3437807625
 20
21.0432938414
 30
0.0
 10
6.3456172251
 20
21.0461647097
 30
0.0
 10
6.3481120559
 20
21.0496850663
 30
0.0
 10
6.350772352
 20
21.0529002247
 30
0.0
 10
6.3536004654
 20
21.0557534381
 30
0.0
 10
6.3563925434
 20
21.0582349789
 30
0.0
 10
6.3599981945
 20
21.0608435748
 30
0.0
 10
6.3638486977
 20
21.0627962447
 30
0.0
 10
6.3669602669
 20
21.063879523
 30
0.0
 10
6.3692822241
 20
21.064454048
 30
0.0
 10
6.3716159046
 20
21.0647996895
 30
0.0
 10
6.3731782433
 20
21.0648768353
 30
0.0
 10
6.3739560831
 20
21.0648768353
 30
0.0
  0
SPLINE
  5
5A1
100
AcDbEntity
  8
0
100
AcDbSpline
 62
7
  6
CONTINUOUS
 70
0
 71
3
 72
28
 73
24
 74
0
 42
0.0000001
 43
0.0000001
 44
0.0000000001
 40
0.0
 40
0.0
 40
0.0
 40
0.0
 40
0.0809538291
 40
0.1613813644
 40
0.2406203138
 40
0.3181401174
 40
0.3934339808
 40
0.4660114845
 40
0.5354465657
 40
0.601381138
 40
0.6329553309
 40
0.6635612855
 40
0.6931812056
 40
0.7218083152
 40
0.7760736811
 40
0.8017638312
 40
0.8265284098
 40
0.8734496737
 40
0.9174196222
 40
0.9385589469
 40
0.9592787635
 40
0.9797122304
 40
1.0
 40
1.0
 40
1.0
 40
1.0
 10
6.3264560831
 20
20.9698768353
 30
0.0
 10
6.3264560831
 20
20.9667730384
 30
0.0
 10
6.3266079827
 20
20.9605845543
 30
0.0
 10
6.3272874096
 20
20.9513805152
 30
0.0
 10
6.3284140136
 20
20.9423527036
 30
0.0
 10
6.3299757805
 20
20.933589588
 30
0.0
 10
6.3319575528
 20
20.9251735898
 30
0.0
 10
6.3343411125
 20
20.9171847691
 30
0.0
 10
6.3371029098
 20
20.9096996353
 30
0.0
 10
6.3397358695
 20
20.9038584122
 30
0.0
 10
6.3420173731
 20
20.8995071076
 30
0.0
 10
6.3437807625
 20
20.8964598291
 30
0.0
 10
6.3456172251
 20
20.8935889608
 30
0.0
 10
6.3481120559
 20
20.8900686042
 30
0.0
 10
6.350772352
 20
20.8868534458
 30
0.0
 10
6.3536004654
 20
20.8840002324
 30
0.0
 10
6.3563925434
 20
20.8815186916
 30
0.0
 10
6.3599981945
 20
20.8789100957
 30
0.0
 10
6.3638486977
 20
20.8769574258
 30
0.0
 10
6.3669602669
 20
20.8758741475
 30
0.0
 10
6.3692822241
 20
20.8752996225
 30
0.0
 10
6.3716159046
 20
20.874953981
 30
0.0
 10
6.3731782433
 20
20.8748768353
 30
0.0
 10
6.3739560831
 20
20.8748768353
 30
0.0
  0
LINE
  5
5A2
100
AcDbEntity
  8
0
100
AcDbLine
 62
7
  6
CONTINUOUS
 10
6.7267892931
 20
20.9698768353
 11
6.7267893333
 21
20.9700535907
  0
SPLINE
  5
5A3
100
AcDbEntity
  8
0
100
AcDbSpline
 62
7
  6
CONTINUOUS
 70
0
 71
3
 72
48
 73
44
 74
0
 42
0.0000001
 43
0.0000001
 44
0.0000000001
 40
0.0
 40
0.0
 40
0.0
 40
0.0
 40
0.0434565843
 40
0.0867584215
 40
0.1297002907
 40
0.1721166088
 40
0.2138501445
 40
0.2547419295
 40
0.2946401262
 40
0.3334071745
 40
0.3709172984
 40
0.4070606684
 40
0.4417443855
 40
0.4748981353
 40
0.5064755253
 40
0.5364603159
 40
0.5508623573
 40
0.5648763365
 40
0.5917681642
 40
0.6172453283
 40
0.6414618907
 40
0.6646262029
 40
0.6759001778
 40
0.687013212
 40
0.6980053017
 40
0.7089181977
 40
0.7197949136
 40
0.7306792459
 40
0.7416147973
 40
0.7526441883
 40
0.7638086413
 40
0.7751472867
 40
0.7984767025
 40
0.8228986482
 40
0.8355880893
 40
0.8486203053
 40
0.8620121507
 40
0.8757770146
 40
0.8899247868
 40
0.9044629846
 40
0.9347239609
 40
0.9665766582
 40
1.0
 40
1.0
 40
1.0
 40
1.0
 10
6.7267893333
 20
20.9700535907
 30
0.0
 10
6.7267914981
 20
20.9748142307
 30
0.0
 10
6.7269701408
 20
20.9843193938
 30
0.0
 10
6.727757792
 20
20.9985092056
 30
0.0
 10
6.729062918
 20
21.012546644
 30
0.0
 10
6.7308771151
 20
21.026354207
 30
0.0
 10
6.7331914457
 20
21.0398591728
 30
0.0
 10
6.7359925126
 20
21.0529899347
 30
0.0
 10
6.7392666002
 20
21.0656757563
 30
0.0
 10
6.7429950106
 20
21.0778490126
 30
0.0
 10
6.7471588774
 20
21.0894446186
 30
0.0
 10
6.7517351173
 20
21.1004011439
 30
0.0
 10
6.7567004483
 20
21.1106599492
 30
0.0
 10
6.7620279956
 20
21.1201670825
 30
0.0
 10
6.767690512
 20
21.1288713315
 30
0.0
 10
6.7727298646
 20
21.1355053092
 30
0.0
 10
6.7769080676
 20
21.1403526723
 30
0.0
 10
6.7810579903
 20
21.144769332
 30
0.0
 10
6.7863900047
 20
21.1497318025
 30
0.0
 10
6.7930896851
 20
21.154808267
 30
0.0
 10
6.7999673919
 20
21.1588936397
 30
0.0
 10
6.8058739436
 20
21.1614736489
 30
0.0
 10
6.8106291595
 20
21.1629977648
 30
0.0
 10
6.8141833745
 20
21.1638703936
 30
0.0
 10
6.8177515902
 20
21.164481596
 30
0.0
 10
6.8213289994
 20
21.1648306537
 30
0.0
 10
6.8249105955
 20
21.1649167291
 30
0.0
 10
6.828491305
 20
21.1647393084
 30
0.0
 10
6.8320660949
 20
21.1642992254
 30
0.0
 10
6.8356299827
 20
21.1635972728
 30
0.0
 10
6.8391781077
 20
21.1626341249
 30
0.0
 10
6.8439251612
 20
21.1609882664
 30
0.0
 10
6.8498154018
 20
21.1582575069
 30
0.0
 10
6.8554510871
 20
21.1547526341
 30
0.0
 10
6.8598649657
 20
21.1514792412
 30
0.0
 10
6.8631698975
 20
21.14874895
 30
0.0
 10
6.8664218528
 20
21.1457785772
 30
0.0
 10
6.8696167083
 20
21.1425720704
 30
0.0
 10
6.8727504857
 20
21.139134041
 30
0.0
 10
6.8768969971
 20
21.1341815029
 30
0.0
 10
6.8818929317
 20
21.1274210083
 30
0.0
 10
6.8874994244
 20
21.1185745315
 30
0.0
 10
6.8909300549
 20
21.1122940446
 30
0.0
 10
6.8925918212
 20
21.1090313534
 30
0.0
  0
LINE
  5
5A4
100
AcDbEntity
  8
0
100
AcDbLine
 62
7
  6
CONTINUOUS
 10
6.7267892931
 20
20.9698768353
 11
6.7267893333
 21
20.9697000798
  0
SPLINE
  5
5A5
100
AcDbEntity
  8
0
100
AcDbSpline
 62
7
  6
CONTINUOUS
 70
0
 71
3
 72
48
 73
44
 74
0
 42
0.0000001
 43
0.0000001
 44
0.0000000001
 40
0.0
 40
0.0
 40
0.0
 40
0.0
 40
0.0434565843
 40
0.0867584215
 40
0.1297002907
 40
0.1721166088
 40
0.2138501445
 40
0.2547419295
 40
0.2946401262
 40
0.3334071745
 40
0.3709172984
 40
0.4070606684
 40
0.4417443855
 40
0.4748981353
 40
0.5064755253
 40
0.5364603159
 40
0.5508623573
 40
0.5648763365
 40
0.5917681642
 40
0.6172453283
 40
0.6414618907
 40
0.6646262029
 40
0.6759001778
 40
0.687013212
 40
0.6980053017
 40
0.7089181977
 40
0.7197949136
 40
0.7306792459
 40
0.7416147973
 40
0.7526441883
 40
0.7638086413
 40
0.7751472867
 40
0.7984767025
 40
0.8228986482
 40
0.8355880893
 40
0.8486203053
 40
0.8620121507
 40
0.8757770146
 40
0.8899247868
 40
0.9044629846
 40
0.9347239609
 40
0.9665766582
 40
1.0
 40
1.0
 40
1.0
 40
1.0
 10
6.7267893333
 20
20.9697000798
 30
0.0
 10
6.7267914981
 20
20.9649394398
 30
0.0
 10
6.7269701408
 20
20.9554342767
 30
0.0
 10
6.727757792
 20
20.9412444649
 30
0.0
 10
6.729062918
 20
20.9272070265
 30
0.0
 10
6.7308771151
 20
20.9133994635
 30
0.0
 10
6.7331914457
 20
20.8998944977
 30
0.0
 10
6.7359925126
 20
20.8867637358
 30
0.0
 10
6.7392666002
 20
20.8740779142
 30
0.0
 10
6.7429950106
 20
20.8619046579
 30
0.0
 10
6.7471588774
 20
20.8503090519
 30
0.0
 10
6.7517351173
 20
20.8393525266
 30
0.0
 10
6.7567004483
 20
20.8290937213
 30
0.0
 10
6.7620279956
 20
20.819586588
 30
0.0
 10
6.767690512
 20
20.810882339
 30
0.0
 10
6.7727298646
 20
20.8042483613
 30
0.0
 10
6.7769080676
 20
20.7994009982
 30
0.0
 10
6.7810579903
 20
20.7949843385
 30
0.0
 10
6.7863900047
 20
20.790021868
 30
0.0
 10
6.7930896851
 20
20.7849454035
 30
0.0
 10
6.7999673919
 20
20.7808600308
 30
0.0
 10
6.8058739436
 20
20.7782800216
 30
0.0
 10
6.8106291595
 20
20.7767559057
 30
0.0
 10
6.8141833745
 20
20.7758832769
 30
0.0
 10
6.8177515902
 20
20.7752720745
 30
0.0
 10
6.8213289994
 20
20.7749230168
 30
0.0
 10
6.8249105955
 20
20.7748369414
 30
0.0
 10
6.828491305
 20
20.7750143621
 30
0.0
 10
6.8320660949
 20
20.7754544451
 30
0.0
 10
6.8356299827
 20
20.7761563977
 30
0.0
 10
6.8391781077
 20
20.7771195456
 30
0.0
 10
6.8439251612
 20
20.7787654041
 30
0.0
 10
6.8498154018
 20
20.7814961636
 30
0.0
 10
6.8554510871
 20
20.7850010364
 30
0.0
 10
6.8598649657
 20
20.7882744293
 30
0.0
 10
6.8631698975
 20
20.7910047205
 30
0.0
 10
6.8664218528
 20
20.7939750933
 30
0.0
 10
6.8696167083
 20
20.7971816001
 30
0.0
 10
6.8727504857
 20
20.8006196295
 30
0.0
 10
6.8768969971
 20
20.8055721676
 30
0.0
 10
6.8818929317
 20
20.8123326622
 30
0.0
 10
6.8874994244
 20
20.821179139
 30
0.0
 10
6.8909300549
 20
20.8274596259
 30
0.0
 10
6.8925918212
 20
20.8307223171
 30
0.0
  0
SPLINE
  5
5A6
100
AcDbEntity
  8
0
100
AcDbSpline
 62
7
  6
CONTINUOUS
 70
0
 71
3
 72
28
 73
24
 74
0
 42
0.0000001
 43
0.0000001
 44
0.0000000001
 40
0.0
 40
0.0
 40
0.0
 40
0.0
 40
0.0809538291
 40
0.1613813644
 40
0.2406203138
 40
0.3181401174
 40
0.3934339808
 40
0.4660114845
 40
0.5354465657
 40
0.601381138
 40
0.6329553309
 40
0.6635612855
 40
0.6931812056
 40
0.7218083152
 40
0.7760736811
 40
0.8017638312
 40
0.8265284098
 40
0.8734496737
 40
0.9174196222
 40
0.9385589469
 40
0.9592787635
 40
0.9797122304
 40
1.0
 40
1.0
 40
1.0
 40
1.0
 10
6.3264560831
 20
22.2798768353
 30
0.0
 10
6.3264560831
 20
22.2829806321
 30
0.0
 10
6.3266079827
 20
22.2891691162
 30
0.0
 10
6.3272874096
 20
22.2983731553
 30
0.0
 10
6.3284140136
 20
22.3074009669
 30
0.0
 10
6.3299757805
 20
22.3161640825
 30
0.0
 10
6.3319575528
 20
22.3245800807
 30
0.0
 10
6.3343411125
 20
22.3325689014
 30
0.0
 10
6.3371029098
 20
22.3400540352
 30
0.0
 10
6.3397358695
 20
22.3458952583
 30
0.0
 10
6.3420173731
 20
22.3502465629
 30
0.0
 10
6.3437807625
 20
22.3532938414
 30
0.0
 10
6.3456172251
 20
22.3561647097
 30
0.0
 10
6.3481120559
 20
22.3596850663
 30
0.0
 10
6.350772352
 20
22.3629002247
 30
0.0
 10
6.3536004654
 20
22.3657534381
 30
0.0
 10
6.3563925434
 20
22.3682349789
 30
0.0
 10
6.3599981945
 20
22.3708435748
 30
0.0
 10
6.3638486977
 20
22.3727962447
 30
0.0
 10
6.3669602669
 20
22.373879523
 30
0.0
 10
6.3692822241
 20
22.374454048
 30
0.0
 10
6.3716159046
 20
22.3747996895
 30
0.0
 10
6.3731782433
 20
22.3748768353
 30
0.0
 10
6.3739560831
 20
22.3748768353
 30
0.0
  0
SPLINE
  5
5A7
100
AcDbEntity
  8
0
100
AcDbSpline
 62
7
  6
CONTINUOUS
 70
0
 71
3
 72
28
 73
24
 74
0
 42
0.0000001
 43
0.0000001
 44
0.0000000001
 40
0.0
 40
0.0
 40
0.0
 40
0.0
 40
0.0809538291
 40
0.1613813644
 40
0.2406203138
 40
0.3181401174
 40
0.3934339808
 40
0.4660114845
 40
0.5354465657
 40
0.601381138
 40
0.6329553309
 40
0.6635612855
 40
0.6931812056
 40
0.7218083152
 40
0.7760736811
 40
0.8017638312
 40
0.8265284098
 40
0.8734496737
 40
0.9174196222
 40
0.9385589469
 40
0.9592787635
 40
0.9797122304
 40
1.0
 40
1.0
 40
1.0
 40
1.0
 10
6.3264560831
 20
22.2798768353
 30
0.0
 10
6.3264560831
 20
22.2767730384
 30
0.0
 10
6.3266079827
 20
22.2705845543
 30
0.0
 10
6.3272874096
 20
22.2613805152
 30
0.0
 10
6.3284140136
 20
22.2523527036
 30
0.0
 10
6.3299757805
 20
22.243589588
 30
0.0
 10
6.3319575528
 20
22.2351735898
 30
0.0
 10
6.3343411125
 20
22.2271847691
 30
0.0
 10
6.3371029098
 20
22.2196996353
 30
0.0
 10
6.3397358695
 20
22.2138584122
 30
0.0
 10
6.3420173731
 20
22.2095071076
 30
0.0
 10
6.3437807625
 20
22.2064598291
 30
0.0
 10
6.3456172251
 20
22.2035889608
 30
0.0
 10
6.3481120559
 20
22.2000686042
 30
0.0
 10
6.350772352
 20
22.1968534458
 30
0.0
 10
6.3536004654
 20
22.1940002324
 30
0.0
 10
6.3563925434
 20
22.1915186916
 30
0.0
 10
6.3599981945
 20
22.1889100957
 30
0.0
 10
6.3638486977
 20
22.1869574258
 30
0.0
 10
6.3669602669
 20
22.1858741475
 30
0.0
 10
6.3692822241
 20
22.1852996225
 30
0.0
 10
6.3716159046
 20
22.184953981
 30
0.0
 10
6.3731782433
 20
22.1848768353
 30
0.0
 10
6.3739560831
 20
22.1848768353
 30
0.0
  0
LINE
  5
5A8
100
AcDbEntity
  8
0
100
AcDbLine
 62
7
  6
CONTINUOUS
 10
6.7267892931
 20
22.2798768353
 11
6.7267893333
 21
22.2800535907
  0
SPLINE
  5
5A9
100
AcDbEntity
  8
0
100
AcDbSpline
 62
7
  6
CONTINUOUS
 70
0
 71
3
 72
48
 73
44
 74
0
 42
0.0000001
 43
0.0000001
 44
0.0000000001
 40
0.0
 40
0.0
 40
0.0
 40
0.0
 40
0.0434565843
 40
0.0867584215
 40
0.1297002907
 40
0.1721166088
 40
0.2138501445
 40
0.2547419295
 40
0.2946401262
 40
0.3334071745
 40
0.3709172984
 40
0.4070606684
 40
0.4417443855
 40
0.4748981353
 40
0.5064755253
 40
0.5364603159
 40
0.5508623573
 40
0.5648763365
 40
0.5917681642
 40
0.6172453283
 40
0.6414618907
 40
0.6646262029
 40
0.6759001778
 40
0.687013212
 40
0.6980053017
 40
0.7089181977
 40
0.7197949136
 40
0.7306792459
 40
0.7416147973
 40
0.7526441883
 40
0.7638086413
 40
0.7751472867
 40
0.7984767025
 40
0.8228986482
 40
0.8355880893
 40
0.8486203053
 40
0.8620121507
 40
0.8757770146
 40
0.8899247868
 40
0.9044629846
 40
0.9347239609
 40
0.9665766582
 40
1.0
 40
1.0
 40
1.0
 40
1.0
 10
6.7267893333
 20
22.2800535907
 30
0.0
 10
6.7267914981
 20
22.2848142307
 30
0.0
 10
6.7269701408
 20
22.2943193938
 30
0.0
 10
6.727757792
 20
22.3085092056
 30
0.0
 10
6.729062918
 20
22.322546644
 30
0.0
 10
6.7308771151
 20
22.336354207
 30
0.0
 10
6.7331914457
 20
22.3498591728
 30
0.0
 10
6.7359925126
 20
22.3629899347
 30
0.0
 10
6.7392666002
 20
22.3756757563
 30
0.0
 10
6.7429950106
 20
22.3878490126
 30
0.0
 10
6.7471588774
 20
22.3994446186
 30
0.0
 10
6.7517351173
 20
22.4104011439
 30
0.0
 10
6.7567004483
 20
22.4206599492
 30
0.0
 10
6.7620279956
 20
22.4301670825
 30
0.0
 10
6.767690512
 20
22.4388713315
 30
0.0
 10
6.7727298646
 20
22.4455053092
 30
0.0
 10
6.7769080676
 20
22.4503526723
 30
0.0
 10
6.7810579903
 20
22.454769332
 30
0.0
 10
6.7863900047
 20
22.4597318025
 30
0.0
 10
6.7930896851
 20
22.464808267
 30
0.0
 10
6.7999673919
 20
22.4688936397
 30
0.0
 10
6.8058739436
 20
22.4714736489
 30
0.0
 10
6.8106291595
 20
22.4729977648
 30
0.0
 10
6.8141833745
 20
22.4738703936
 30
0.0
 10
6.8177515902
 20
22.474481596
 30
0.0
 10
6.8213289994
 20
22.4748306537
 30
0.0
 10
6.8249105955
 20
22.4749167291
 30
0.0
 10
6.828491305
 20
22.4747393084
 30
0.0
 10
6.8320660949
 20
22.4742992254
 30
0.0
 10
6.8356299827
 20
22.4735972728
 30
0.0
 10
6.8391781077
 20
22.4726341249
 30
0.0
 10
6.8439251612
 20
22.4709882664
 30
0.0
 10
6.8498154018
 20
22.4682575069
 30
0.0
 10
6.8554510871
 20
22.4647526341
 30
0.0
 10
6.8598649657
 20
22.4614792412
 30
0.0
 10
6.8631698975
 20
22.45874895
 30
0.0
 10
6.8664218528
 20
22.4557785772
 30
0.0
 10
6.8696167083
 20
22.4525720704
 30
0.0
 10
6.8727504857
 20
22.449134041
 30
0.0
 10
6.8768969971
 20
22.4441815029
 30
0.0
 10
6.8818929317
 20
22.4374210083
 30
0.0
 10
6.8874994244
 20
22.4285745315
 30
0.0
 10
6.8909300549
 20
22.4222940446
 30
0.0
 10
6.8925918212
 20
22.4190313534
 30
0.0
  0
LINE
  5
5AA
100
AcDbEntity
  8
0
100
AcDbLine
 62
7
  6
CONTINUOUS
 10
6.7267892931
 20
22.2798768353
 11
6.7267893333
 21
22.2797000798
  0
SPLINE
  5
5AB
100
AcDbEntity
  8
0
100
AcDbSpline
 62
7
  6
CONTINUOUS
 70
0
 71
3
 72
48
 73
44
 74
0
 42
0.0000001
 43
0.0000001
 44
0.0000000001
 40
0.0
 40
0.0
 40
0.0
 40
0.0
 40
0.0434565843
 40
0.0867584215
 40
0.1297002907
 40
0.1721166088
 40
0.2138501445
 40
0.2547419295
 40
0.2946401262
 40
0.3334071745
 40
0.3709172984
 40
0.4070606684
 40
0.4417443855
 40
0.4748981353
 40
0.5064755253
 40
0.5364603159
 40
0.5508623573
 40
0.5648763365
 40
0.5917681642
 40
0.6172453283
 40
0.6414618907
 40
0.6646262029
 40
0.6759001778
 40
0.687013212
 40
0.6980053017
 40
0.7089181977
 40
0.7197949136
 40
0.7306792459
 40
0.7416147973
 40
0.7526441883
 40
0.7638086413
 40
0.7751472867
 40
0.7984767025
 40
0.8228986482
 40
0.8355880893
 40
0.8486203053
 40
0.8620121507
 40
0.8757770146
 40
0.8899247868
 40
0.9044629846
 40
0.9347239609
 40
0.9665766582
 40
1.0
 40
1.0
 40
1.0
 40
1.0
 10
6.7267893333
 20
22.2797000798
 30
0.0
 10
6.7267914981
 20
22.2749394398
 30
0.0
 10
6.7269701408
 20
22.2654342767
 30
0.0
 10
6.727757792
 20
22.2512444649
 30
0.0
 10
6.729062918
 20
22.2372070265
 30
0.0
 10
6.7308771151
 20
22.2233994635
 30
0.0
 10
6.7331914457
 20
22.2098944977
 30
0.0
 10
6.7359925126
 20
22.1967637358
 30
0.0
 10
6.7392666002
 20
22.1840779142
 30
0.0
 10
6.7429950106
 20
22.1719046579
 30
0.0
 10
6.7471588774
 20
22.1603090519
 30
0.0
 10
6.7517351173
 20
22.1493525266
 30
0.0
 10
6.7567004483
 20
22.1390937213
 30
0.0
 10
6.7620279956
 20
22.129586588
 30
0.0
 10
6.767690512
 20
22.120882339
 30
0.0
 10
6.7727298646
 20
22.1142483613
 30
0.0
 10
6.7769080676
 20
22.1094009982
 30
0.0
 10
6.7810579903
 20
22.1049843385
 30
0.0
 10
6.7863900047
 20
22.100021868
 30
0.0
 10
6.7930896851
 20
22.0949454035
 30
0.0
 10
6.7999673919
 20
22.0908600308
 30
0.0
 10
6.8058739436
 20
22.0882800216
 30
0.0
 10
6.8106291595
 20
22.0867559057
 30
0.0
 10
6.8141833745
 20
22.0858832769
 30
0.0
 10
6.8177515902
 20
22.0852720745
 30
0.0
 10
6.8213289994
 20
22.0849230168
 30
0.0
 10
6.8249105955
 20
22.0848369414
 30
0.0
 10
6.828491305
 20
22.0850143621
 30
0.0
 10
6.8320660949
 20
22.0854544451
 30
0.0
 10
6.8356299827
 20
22.0861563977
 30
0.0
 10
6.8391781077
 20
22.0871195456
 30
0.0
 10
6.8439251612
 20
22.0887654041
 30
0.0
 10
6.8498154018
 20
22.0914961636
 30
0.0
 10
6.8554510871
 20
22.0950010364
 30
0.0
 10
6.8598649657
 20
22.0982744293
 30
0.0
 10
6.8631698975
 20
22.1010047205
 30
0.0
 10
6.8664218528
 20
22.1039750933
 30
0.0
 10
6.8696167083
 20
22.1071816001
 30
0.0
 10
6.8727504857
 20
22.1106196295
 30
0.0
 10
6.8768969971
 20
22.1155721676
 30
0.0
 10
6.8818929317
 20
22.1223326622
 30
0.0
 10
6.8874994244
 20
22.131179139
 30
0.0
 10
6.8909300549
 20
22.1374596259
 30
0.0
 10
6.8925918212
 20
22.1407223171
 30
0.0
  0
SPLINE
  5
5AC
100
AcDbEntity
  8
0
100
AcDbSpline
 62
7
  6
CONTINUOUS
 70
0
 71
3
 72
28
 73
24
 74
0
 42
0.0000001
 43
0.0000001
 44
0.0000000001
 40
0.0
 40
0.0
 40
0.0
 40
0.0
 40
0.0202877696
 40
0.0407212365
 40
0.0614410531
 40
0.0825803778
 40
0.1265503263
 40
0.1734715902
 40
0.1982361688
 40
0.2239263189
 40
0.2781916848
 40
0.3068187944
 40
0.3364387145
 40
0.3670446691
 40
0.398618862
 40
0.4645534343
 40
0.5339885155
 40
0.6065660192
 40
0.6818598826
 40
0.7593796862
 40
0.8386186356
 40
0.9190461709
 40
1.0
 40
1.0
 40
1.0
 40
1.0
 10
-2.814573451
 20
22.1848768353
 30
0.0
 10
-2.8137956112
 20
22.1848768353
 30
0.0
 10
-2.8122332726
 20
22.184953981
 30
0.0
 10
-2.809899592
 20
22.1852996225
 30
0.0
 10
-2.8075776348
 20
22.1858741475
 30
0.0
 10
-2.8044660656
 20
22.1869574258
 30
0.0
 10
-2.8006155624
 20
22.1889100957
 30
0.0
 10
-2.7970099113
 20
22.1915186916
 30
0.0
 10
-2.7942178333
 20
22.1940002324
 30
0.0
 10
-2.7913897199
 20
22.1968534458
 30
0.0
 10
-2.7887294238
 20
22.2000686042
 30
0.0
 10
-2.786234593
 20
22.2035889608
 30
0.0
 10
-2.7843981304
 20
22.2064598291
 30
0.0
 10
-2.782634741
 20
22.2095071076
 30
0.0
 10
-2.7803532374
 20
22.2138584122
 30
0.0
 10
-2.7777202778
 20
22.2196996353
 30
0.0
 10
-2.7749584805
 20
22.2271847691
 30
0.0
 10
-2.7725749207
 20
22.2351735898
 30
0.0
 10
-2.7705931485
 20
22.243589588
 30
0.0
 10
-2.7690313815
 20
22.2523527036
 30
0.0
 10
-2.7679047776
 20
22.2613805152
 30
0.0
 10
-2.7672253506
 20
22.2705845543
 30
0.0
 10
-2.767073451
 20
22.2767730384
 30
0.0
 10
-2.767073451
 20
22.2798768353
 30
0.0
  0
SPLINE
  5
5AD
100
AcDbEntity
  8
0
100
AcDbSpline
 62
7
  6
CONTINUOUS
 70
0
 71
3
 72
28
 73
24
 74
0
 42
0.0000001
 43
0.0000001
 44
0.0000000001
 40
0.0
 40
0.0
 40
0.0
 40
0.0
 40
0.0202877696
 40
0.0407212365
 40
0.0614410531
 40
0.0825803778
 40
0.1265503263
 40
0.1734715902
 40
0.1982361688
 40
0.2239263189
 40
0.2781916848
 40
0.3068187944
 40
0.3364387145
 40
0.3670446691
 40
0.398618862
 40
0.4645534343
 40
0.5339885155
 40
0.6065660192
 40
0.6818598826
 40
0.7593796862
 40
0.8386186356
 40
0.9190461709
 40
1.0
 40
1.0
 40
1.0
 40
1.0
 10
-2.814573451
 20
22.3748768353
 30
0.0
 10
-2.8137956112
 20
22.3748768353
 30
0.0
 10
-2.8122332726
 20
22.3747996895
 30
0.0
 10
-2.809899592
 20
22.374454048
 30
0.0
 10
-2.8075776348
 20
22.373879523
 30
0.0
 10
-2.8044660656
 20
22.3727962447
 30
0.0
 10
-2.8006155624
 20
22.3708435748
 30
0.0
 10
-2.7970099113
 20
22.3682349789
 30
0.0
 10
-2.7942178333
 20
22.3657534381
 30
0.0
 10
-2.7913897199
 20
22.3629002247
 30
0.0
 10
-2.7887294238
 20
22.3596850663
 30
0.0
 10
-2.786234593
 20
22.3561647097
 30
0.0
 10
-2.7843981304
 20
22.3532938414
 30
0.0
 10
-2.782634741
 20
22.3502465629
 30
0.0
 10
-2.7803532374
 20
22.3458952583
 30
0.0
 10
-2.7777202778
 20
22.3400540352
 30
0.0
 10
-2.7749584805
 20
22.3325689014
 30
0.0
 10
-2.7725749207
 20
22.3245800807
 30
0.0
 10
-2.7705931485
 20
22.3161640825
 30
0.0
 10
-2.7690313815
 20
22.3074009669
 30
0.0
 10
-2.7679047776
 20
22.2983731553
 30
0.0
 10
-2.7672253506
 20
22.2891691162
 30
0.0
 10
-2.767073451
 20
22.2829806321
 30
0.0
 10
-2.767073451
 20
22.2798768353
 30
0.0
  0
SPLINE
  5
5AE
100
AcDbEntity
  8
0
100
AcDbSpline
 62
7
  6
CONTINUOUS
 70
0
 71
3
 72
48
 73
44
 74
0
 42
0.0000001
 43
0.0000001
 44
0.0000000001
 40
0.0
 40
0.0
 40
0.0
 40
0.0
 40
0.0334233418
 40
0.0652760391
 40
0.0955370154
 40
0.1100752132
 40
0.1242229854
 40
0.1379878493
 40
0.1513796947
 40
0.1644119107
 40
0.1771013518
 40
0.2015232975
 40
0.2248527133
 40
0.2361913587
 40
0.2473558117
 40
0.2583852027
 40
0.2693207541
 40
0.2802050864
 40
0.2910818023
 40
0.3019946983
 40
0.312986788
 40
0.3240998222
 40
0.3353737971
 40
0.3585381093
 40
0.3827546717
 40
0.4082318358
 40
0.4351236635
 40
0.4491376427
 40
0.4635396841
 40
0.4935244747
 40
0.5251018647
 40
0.5582556145
 40
0.5929393316
 40
0.6290827016
 40
0.6665928255
 40
0.7053598738
 40
0.7452580705
 40
0.7861498555
 40
0.8278833912
 40
0.8702997093
 40
0.9132415785
 40
0.9565434157
 40
1.0
 40
1.0
 40
1.0
 40
1.0
 10
-3.3332091891
 20
22.1407223171
 30
0.0
 10
-3.3315474228
 20
22.1374596259
 30
0.0
 10
-3.3281167923
 20
22.131179139
 30
0.0
 10
-3.3225102997
 20
22.1223326622
 30
0.0
 10
-3.317514365
 20
22.1155721676
 30
0.0
 10
-3.3133678536
 20
22.1106196295
 30
0.0
 10
-3.3102340762
 20
22.1071816001
 30
0.0
 10
-3.3070392207
 20
22.1039750933
 30
0.0
 10
-3.3037872655
 20
22.1010047205
 30
0.0
 10
-3.3004823336
 20
22.0982744293
 30
0.0
 10
-3.296068455
 20
22.0950010364
 30
0.0
 10
-3.2904327698
 20
22.0914961636
 30
0.0
 10
-3.2845425292
 20
22.0887654041
 30
0.0
 10
-3.2797954757
 20
22.0871195456
 30
0.0
 10
-3.2762473506
 20
22.0861563977
 30
0.0
 10
-3.2726834628
 20
22.0854544451
 30
0.0
 10
-3.2691086729
 20
22.0850143621
 30
0.0
 10
-3.2655279634
 20
22.0848369414
 30
0.0
 10
-3.2619463673
 20
22.0849230168
 30
0.0
 10
-3.2583689581
 20
22.0852720745
 30
0.0
 10
-3.2548007424
 20
22.0858832769
 30
0.0
 10
-3.2512465274
 20
22.0867559057
 30
0.0
 10
-3.2464913115
 20
22.0882800216
 30
0.0
 10
-3.2405847598
 20
22.0908600308
 30
0.0
 10
-3.233707053
 20
22.0949454035
 30
0.0
 10
-3.2270073726
 20
22.100021868
 30
0.0
 10
-3.2216753582
 20
22.1049843385
 30
0.0
 10
-3.2175254356
 20
22.1094009982
 30
0.0
 10
-3.2133472325
 20
22.1142483613
 30
0.0
 10
-3.2083078799
 20
22.120882339
 30
0.0
 10
-3.2026453635
 20
22.129586588
 30
0.0
 10
-3.1973178162
 20
22.1390937213
 30
0.0
 10
-3.1923524852
 20
22.1493525266
 30
0.0
 10
-3.1877762453
 20
22.1603090519
 30
0.0
 10
-3.1836123785
 20
22.1719046579
 30
0.0
 10
-3.1798839682
 20
22.1840779142
 30
0.0
 10
-3.1766098805
 20
22.1967637358
 30
0.0
 10
-3.1738088136
 20
22.2098944977
 30
0.0
 10
-3.171494483
 20
22.2233994635
 30
0.0
 10
-3.1696802859
 20
22.2372070265
 30
0.0
 10
-3.1683751599
 20
22.2512444649
 30
0.0
 10
-3.1675875087
 20
22.2654342767
 30
0.0
 10
-3.167408866
 20
22.2749394398
 30
0.0
 10
-3.1674067012
 20
22.2797000798
 30
0.0
  0
LINE
  5
5AF
100
AcDbEntity
  8
0
100
AcDbLine
 62
7
  6
CONTINUOUS
 10
-3.1674067012
 20
22.2797000798
 11
-3.167406661
 21
22.2798768353
  0
SPLINE
  5
5B0
100
AcDbEntity
  8
0
100
AcDbSpline
 62
7
  6
CONTINUOUS
 70
0
 71
3
 72
48
 73
44
 74
0
 42
0.0000001
 43
0.0000001
 44
0.0000000001
 40
0.0
 40
0.0
 40
0.0
 40
0.0
 40
0.0334233418
 40
0.0652760391
 40
0.0955370154
 40
0.1100752132
 40
0.1242229854
 40
0.1379878493
 40
0.1513796947
 40
0.1644119107
 40
0.1771013518
 40
0.2015232975
 40
0.2248527133
 40
0.2361913587
 40
0.2473558117
 40
0.2583852027
 40
0.2693207541
 40
0.2802050864
 40
0.2910818023
 40
0.3019946983
 40
0.312986788
 40
0.3240998222
 40
0.3353737971
 40
0.3585381093
 40
0.3827546717
 40
0.4082318358
 40
0.4351236635
 40
0.4491376427
 40
0.4635396841
 40
0.4935244747
 40
0.5251018647
 40
0.5582556145
 40
0.5929393316
 40
0.6290827016
 40
0.6665928255
 40
0.7053598738
 40
0.7452580705
 40
0.7861498555
 40
0.8278833912
 40
0.8702997093
 40
0.9132415785
 40
0.9565434157
 40
1.0
 40
1.0
 40
1.0
 40
1.0
 10
-3.3332091891
 20
22.4190313534
 30
0.0
 10
-3.3315474228
 20
22.4222940446
 30
0.0
 10
-3.3281167923
 20
22.4285745315
 30
0.0
 10
-3.3225102997
 20
22.4374210083
 30
0.0
 10
-3.317514365
 20
22.4441815029
 30
0.0
 10
-3.3133678536
 20
22.449134041
 30
0.0
 10
-3.3102340762
 20
22.4525720704
 30
0.0
 10
-3.3070392207
 20
22.4557785772
 30
0.0
 10
-3.3037872655
 20
22.45874895
 30
0.0
 10
-3.3004823336
 20
22.4614792412
 30
0.0
 10
-3.296068455
 20
22.4647526341
 30
0.0
 10
-3.2904327698
 20
22.4682575069
 30
0.0
 10
-3.2845425292
 20
22.4709882664
 30
0.0
 10
-3.2797954757
 20
22.4726341249
 30
0.0
 10
-3.2762473506
 20
22.4735972728
 30
0.0
 10
-3.2726834628
 20
22.4742992254
 30
0.0
 10
-3.2691086729
 20
22.4747393084
 30
0.0
 10
-3.2655279634
 20
22.4749167291
 30
0.0
 10
-3.2619463673
 20
22.4748306537
 30
0.0
 10
-3.2583689581
 20
22.474481596
 30
0.0
 10
-3.2548007424
 20
22.4738703936
 30
0.0
 10
-3.2512465274
 20
22.4729977648
 30
0.0
 10
-3.2464913115
 20
22.4714736489
 30
0.0
 10
-3.2405847598
 20
22.4688936397
 30
0.0
 10
-3.233707053
 20
22.464808267
 30
0.0
 10
-3.2270073726
 20
22.4597318025
 30
0.0
 10
-3.2216753582
 20
22.454769332
 30
0.0
 10
-3.2175254356
 20
22.4503526723
 30
0.0
 10
-3.2133472325
 20
22.4455053092
 30
0.0
 10
-3.2083078799
 20
22.4388713315
 30
0.0
 10
-3.2026453635
 20
22.4301670825
 30
0.0
 10
-3.1973178162
 20
22.4206599492
 30
0.0
 10
-3.1923524852
 20
22.4104011439
 30
0.0
 10
-3.1877762453
 20
22.3994446186
 30
0.0
 10
-3.1836123785
 20
22.3878490126
 30
0.0
 10
-3.1798839682
 20
22.3756757563
 30
0.0
 10
-3.1766098805
 20
22.3629899347
 30
0.0
 10
-3.1738088136
 20
22.3498591728
 30
0.0
 10
-3.171494483
 20
22.336354207
 30
0.0
 10
-3.1696802859
 20
22.322546644
 30
0.0
 10
-3.1683751599
 20
22.3085092056
 30
0.0
 10
-3.1675875087
 20
22.2943193938
 30
0.0
 10
-3.167408866
 20
22.2848142307
 30
0.0
 10
-3.1674067012
 20
22.2800535907
 30
0.0
  0
LINE
  5
5B1
100
AcDbEntity
  8
0
100
AcDbLine
 62
7
  6
CONTINUOUS
 10
-3.1674067012
 20
22.2800535907
 11
-3.167406661
 21
22.2798768353
  0
SPLINE
  5
5B2
100
AcDbEntity
  8
0
100
AcDbSpline
 62
7
  6
CONTINUOUS
 70
0
 71
3
 72
28
 73
24
 74
0
 42
0.0000001
 43
0.0000001
 44
0.0000000001
 40
0.0
 40
0.0
 40
0.0
 40
0.0
 40
0.0202877696
 40
0.0407212365
 40
0.0614410531
 40
0.0825803778
 40
0.1265503263
 40
0.1734715902
 40
0.1982361688
 40
0.2239263189
 40
0.2781916848
 40
0.3068187944
 40
0.3364387145
 40
0.3670446691
 40
0.398618862
 40
0.4645534343
 40
0.5339885155
 40
0.6065660192
 40
0.6818598826
 40
0.7593796862
 40
0.8386186356
 40
0.9190461709
 40
1.0
 40
1.0
 40
1.0
 40
1.0
 10
-2.814573451
 20
20.8748768353
 30
0.0
 10
-2.8137956112
 20
20.8748768353
 30
0.0
 10
-2.8122332726
 20
20.874953981
 30
0.0
 10
-2.809899592
 20
20.8752996225
 30
0.0
 10
-2.8075776348
 20
20.8758741475
 30
0.0
 10
-2.8044660656
 20
20.8769574258
 30
0.0
 10
-2.8006155624
 20
20.8789100957
 30
0.0
 10
-2.7970099113
 20
20.8815186916
 30
0.0
 10
-2.7942178333
 20
20.8840002324
 30
0.0
 10
-2.7913897199
 20
20.8868534458
 30
0.0
 10
-2.7887294238
 20
20.8900686042
 30
0.0
 10
-2.786234593
 20
20.8935889608
 30
0.0
 10
-2.7843981304
 20
20.8964598291
 30
0.0
 10
-2.782634741
 20
20.8995071076
 30
0.0
 10
-2.7803532374
 20
20.9038584122
 30
0.0
 10
-2.7777202778
 20
20.9096996353
 30
0.0
 10
-2.7749584805
 20
20.9171847691
 30
0.0
 10
-2.7725749207
 20
20.9251735898
 30
0.0
 10
-2.7705931485
 20
20.933589588
 30
0.0
 10
-2.7690313815
 20
20.9423527036
 30
0.0
 10
-2.7679047776
 20
20.9513805152
 30
0.0
 10
-2.7672253506
 20
20.9605845543
 30
0.0
 10
-2.767073451
 20
20.9667730384
 30
0.0
 10
-2.767073451
 20
20.9698768353
 30
0.0
  0
SPLINE
  5
5B3
100
AcDbEntity
  8
0
100
AcDbSpline
 62
7
  6
CONTINUOUS
 70
0
 71
3
 72
28
 73
24
 74
0
 42
0.0000001
 43
0.0000001
 44
0.0000000001
 40
0.0
 40
0.0
 40
0.0
 40
0.0
 40
0.0202877696
 40
0.0407212365
 40
0.0614410531
 40
0.0825803778
 40
0.1265503263
 40
0.1734715902
 40
0.1982361688
 40
0.2239263189
 40
0.2781916848
 40
0.3068187944
 40
0.3364387145
 40
0.3670446691
 40
0.398618862
 40
0.4645534343
 40
0.5339885155
 40
0.6065660192
 40
0.6818598826
 40
0.7593796862
 40
0.8386186356
 40
0.9190461709
 40
1.0
 40
1.0
 40
1.0
 40
1.0
 10
-2.814573451
 20
21.0648768353
 30
0.0
 10
-2.8137956112
 20
21.0648768353
 30
0.0
 10
-2.8122332726
 20
21.0647996895
 30
0.0
 10
-2.809899592
 20
21.064454048
 30
0.0
 10
-2.8075776348
 20
21.063879523
 30
0.0
 10
-2.8044660656
 20
21.0627962447
 30
0.0
 10
-2.8006155624
 20
21.0608435748
 30
0.0
 10
-2.7970099113
 20
21.0582349789
 30
0.0
 10
-2.7942178333
 20
21.0557534381
 30
0.0
 10
-2.7913897199
 20
21.0529002247
 30
0.0
 10
-2.7887294238
 20
21.0496850663
 30
0.0
 10
-2.786234593
 20
21.0461647097
 30
0.0
 10
-2.7843981304
 20
21.0432938414
 30
0.0
 10
-2.782634741
 20
21.0402465629
 30
0.0
 10
-2.7803532374
 20
21.0358952583
 30
0.0
 10
-2.7777202778
 20
21.0300540352
 30
0.0
 10
-2.7749584805
 20
21.0225689014
 30
0.0
 10
-2.7725749207
 20
21.0145800807
 30
0.0
 10
-2.7705931485
 20
21.0061640825
 30
0.0
 10
-2.7690313815
 20
20.9974009669
 30
0.0
 10
-2.7679047776
 20
20.9883731553
 30
0.0
 10
-2.7672253506
 20
20.9791691162
 30
0.0
 10
-2.767073451
 20
20.9729806321
 30
0.0
 10
-2.767073451
 20
20.9698768353
 30
0.0
  0
SPLINE
  5
5B4
100
AcDbEntity
  8
0
100
AcDbSpline
 62
7
  6
CONTINUOUS
 70
0
 71
3
 72
48
 73
44
 74
0
 42
0.0000001
 43
0.0000001
 44
0.0000000001
 40
0.0
 40
0.0
 40
0.0
 40
0.0
 40
0.0334233418
 40
0.0652760391
 40
0.0955370154
 40
0.1100752132
 40
0.1242229854
 40
0.1379878493
 40
0.1513796947
 40
0.1644119107
 40
0.1771013518
 40
0.2015232975
 40
0.2248527133
 40
0.2361913587
 40
0.2473558117
 40
0.2583852027
 40
0.2693207541
 40
0.2802050864
 40
0.2910818023
 40
0.3019946983
 40
0.312986788
 40
0.3240998222
 40
0.3353737971
 40
0.3585381093
 40
0.3827546717
 40
0.4082318358
 40
0.4351236635
 40
0.4491376427
 40
0.4635396841
 40
0.4935244747
 40
0.5251018647
 40
0.5582556145
 40
0.5929393316
 40
0.6290827016
 40
0.6665928255
 40
0.7053598738
 40
0.7452580705
 40
0.7861498555
 40
0.8278833912
 40
0.8702997093
 40
0.9132415785
 40
0.9565434157
 40
1.0
 40
1.0
 40
1.0
 40
1.0
 10
-3.3332091891
 20
20.8307223171
 30
0.0
 10
-3.3315474228
 20
20.8274596259
 30
0.0
 10
-3.3281167923
 20
20.821179139
 30
0.0
 10
-3.3225102997
 20
20.8123326622
 30
0.0
 10
-3.317514365
 20
20.8055721676
 30
0.0
 10
-3.3133678536
 20
20.8006196295
 30
0.0
 10
-3.3102340762
 20
20.7971816001
 30
0.0
 10
-3.3070392207
 20
20.7939750933
 30
0.0
 10
-3.3037872655
 20
20.7910047205
 30
0.0
 10
-3.3004823336
 20
20.7882744293
 30
0.0
 10
-3.296068455
 20
20.7850010364
 30
0.0
 10
-3.2904327698
 20
20.7814961636
 30
0.0
 10
-3.2845425292
 20
20.7787654041
 30
0.0
 10
-3.2797954757
 20
20.7771195456
 30
0.0
 10
-3.2762473506
 20
20.7761563977
 30
0.0
 10
-3.2726834628
 20
20.7754544451
 30
0.0
 10
-3.2691086729
 20
20.7750143621
 30
0.0
 10
-3.2655279634
 20
20.7748369414
 30
0.0
 10
-3.2619463673
 20
20.7749230168
 30
0.0
 10
-3.2583689581
 20
20.7752720745
 30
0.0
 10
-3.2548007424
 20
20.7758832769
 30
0.0
 10
-3.2512465274
 20
20.7767559057
 30
0.0
 10
-3.2464913115
 20
20.7782800216
 30
0.0
 10
-3.2405847598
 20
20.7808600308
 30
0.0
 10
-3.233707053
 20
20.7849454035
 30
0.0
 10
-3.2270073726
 20
20.790021868
 30
0.0
 10
-3.2216753582
 20
20.7949843385
 30
0.0
 10
-3.2175254356
 20
20.7994009982
 30
0.0
 10
-3.2133472325
 20
20.8042483613
 30
0.0
 10
-3.2083078799
 20
20.810882339
 30
0.0
 10
-3.2026453635
 20
20.819586588
 30
0.0
 10
-3.1973178162
 20
20.8290937213
 30
0.0
 10
-3.1923524852
 20
20.8393525266
 30
0.0
 10
-3.1877762453
 20
20.8503090519
 30
0.0
 10
-3.1836123785
 20
20.8619046579
 30
0.0
 10
-3.1798839682
 20
20.8740779142
 30
0.0
 10
-3.1766098805
 20
20.8867637358
 30
0.0
 10
-3.1738088136
 20
20.8998944977
 30
0.0
 10
-3.171494483
 20
20.9133994635
 30
0.0
 10
-3.1696802859
 20
20.9272070265
 30
0.0
 10
-3.1683751599
 20
20.9412444649
 30
0.0
 10
-3.1675875087
 20
20.9554342767
 30
0.0
 10
-3.167408866
 20
20.9649394398
 30
0.0
 10
-3.1674067012
 20
20.9697000798
 30
0.0
  0
LINE
  5
5B5
100
AcDbEntity
  8
0
100
AcDbLine
 62
7
  6
CONTINUOUS
 10
-3.1674067012
 20
20.9697000798
 11
-3.167406661
 21
20.9698768353
  0
SPLINE
  5
5B6
100
AcDbEntity
  8
0
100
AcDbSpline
 62
7
  6
CONTINUOUS
 70
0
 71
3
 72
48
 73
44
 74
0
 42
0.0000001
 43
0.0000001
 44
0.0000000001
 40
0.0
 40
0.0
 40
0.0
 40
0.0
 40
0.0334233418
 40
0.0652760391
 40
0.0955370154
 40
0.1100752132
 40
0.1242229854
 40
0.1379878493
 40
0.1513796947
 40
0.1644119107
 40
0.1771013518
 40
0.2015232975
 40
0.2248527133
 40
0.2361913587
 40
0.2473558117
 40
0.2583852027
 40
0.2693207541
 40
0.2802050864
 40
0.2910818023
 40
0.3019946983
 40
0.312986788
 40
0.3240998222
 40
0.3353737971
 40
0.3585381093
 40
0.3827546717
 40
0.4082318358
 40
0.4351236635
 40
0.4491376427
 40
0.4635396841
 40
0.4935244747
 40
0.5251018647
 40
0.5582556145
 40
0.5929393316
 40
0.6290827016
 40
0.6665928255
 40
0.7053598738
 40
0.7452580705
 40
0.7861498555
 40
0.8278833912
 40
0.8702997093
 40
0.9132415785
 40
0.9565434157
 40
1.0
 40
1.0
 40
1.0
 40
1.0
 10
-3.3332091891
 20
21.1090313534
 30
0.0
 10
-3.3315474228
 20
21.1122940446
 30
0.0
 10
-3.3281167923
 20
21.1185745315
 30
0.0
 10
-3.3225102997
 20
21.1274210083
 30
0.0
 10
-3.317514365
 20
21.1341815029
 30
0.0
 10
-3.3133678536
 20
21.139134041
 30
0.0
 10
-3.3102340762
 20
21.1425720704
 30
0.0
 10
-3.3070392207
 20
21.1457785772
 30
0.0
 10
-3.3037872655
 20
21.14874895
 30
0.0
 10
-3.3004823336
 20
21.1514792412
 30
0.0
 10
-3.296068455
 20
21.1547526341
 30
0.0
 10
-3.2904327698
 20
21.1582575069
 30
0.0
 10
-3.2845425292
 20
21.1609882664
 30
0.0
 10
-3.2797954757
 20
21.1626341249
 30
0.0
 10
-3.2762473506
 20
21.1635972728
 30
0.0
 10
-3.2726834628
 20
21.1642992254
 30
0.0
 10
-3.2691086729
 20
21.1647393084
 30
0.0
 10
-3.2655279634
 20
21.1649167291
 30
0.0
 10
-3.2619463673
 20
21.1648306537
 30
0.0
 10
-3.2583689581
 20
21.164481596
 30
0.0
 10
-3.2548007424
 20
21.1638703936
 30
0.0
 10
-3.2512465274
 20
21.1629977648
 30
0.0
 10
-3.2464913115
 20
21.1614736489
 30
0.0
 10
-3.2405847598
 20
21.1588936397
 30
0.0
 10
-3.233707053
 20
21.154808267
 30
0.0
 10
-3.2270073726
 20
21.1497318025
 30
0.0
 10
-3.2216753582
 20
21.144769332
 30
0.0
 10
-3.2175254356
 20
21.1403526723
 30
0.0
 10
-3.2133472325
 20
21.1355053092
 30
0.0
 10
-3.2083078799
 20
21.1288713315
 30
0.0
 10
-3.2026453635
 20
21.1201670825
 30
0.0
 10
-3.1973178162
 20
21.1106599492
 30
0.0
 10
-3.1923524852
 20
21.1004011439
 30
0.0
 10
-3.1877762453
 20
21.0894446186
 30
0.0
 10
-3.1836123785
 20
21.0778490126
 30
0.0
 10
-3.1798839682
 20
21.0656757563
 30
0.0
 10
-3.1766098805
 20
21.0529899347
 30
0.0
 10
-3.1738088136
 20
21.0398591728
 30
0.0
 10
-3.171494483
 20
21.026354207
 30
0.0
 10
-3.1696802859
 20
21.012546644
 30
0.0
 10
-3.1683751599
 20
20.9985092056
 30
0.0
 10
-3.1675875087
 20
20.9843193938
 30
0.0
 10
-3.167408866
 20
20.9748142307
 30
0.0
 10
-3.1674067012
 20
20.9700535907
 30
0.0
  0
LINE
  5
5B7
100
AcDbEntity
  8
0
100
AcDbLine
 62
7
  6
CONTINUOUS
 10
-3.1674067012
 20
20.9700535907
 11
-3.167406661
 21
20.9698768353
  0
SPLINE
  5
5B8
100
AcDbEntity
  8
0
100
AcDbSpline
 62
7
  6
CONTINUOUS
 70
0
 71
3
 72
20
 73
16
 74
0
 42
0.0000001
 43
0.0000001
 44
0.0000000001
 40
0.0
 40
0.0
 40
0.0
 40
0.0
 40
0.0624510153
 40
0.1250358108
 40
0.1875892898
 40
0.2501131682
 40
0.3126275778
 40
0.3751444506
 40
0.437682982
 40
0.5002027013
 40
0.5627223417
 40
0.6252433535
 40
0.7501308459
 40
0.8751337096
 40
1.0
 40
1.0
 40
1.0
 40
1.0
 10
1.5631849651
 20
19.5129768353
 30
0.0
 10
1.5631849651
 20
19.513748767
 30
0.0
 10
1.5630888472
 20
19.5152958258
 30
0.0
 10
1.5626675145
 20
19.5175813506
 30
0.0
 10
1.5619743106
 20
19.5198008102
 30
0.0
 10
1.5610276212
 20
19.5219230294
 30
0.0
 10
1.5598489187
 20
19.5239248476
 30
0.0
 10
1.5584595913
 20
19.5257863868
 30
0.0
 10
1.5568856007
 20
19.527494231
 30
0.0
 10
1.555149222
 20
19.529036258
 30
0.0
 10
1.5532737968
 20
19.530405131
 30
0.0
 10
1.550619599
 20
19.5319927207
 30
0.0
 10
1.5470531341
 20
19.5335276005
 30
0.0
 10
1.5425346854
 20
19.5346307088
 30
0.0
 10
1.5394404451
 20
19.5348768353
 30
0.0
 10
1.5378970233
 20
19.5348768353
 30
0.0
  0
SPLINE
  5
5B9
100
AcDbEntity
  8
0
100
AcDbSpline
 62
7
  6
CONTINUOUS
 70
0
 71
3
 72
20
 73
16
 74
0
 42
0.0000001
 43
0.0000001
 44
0.0000000001
 40
0.0
 40
0.0
 40
0.0
 40
0.0
 40
0.0624510153
 40
0.1250358108
 40
0.1875892898
 40
0.2501131682
 40
0.3126275778
 40
0.3751444506
 40
0.437682982
 40
0.5002027013
 40
0.5627223417
 40
0.6252433535
 40
0.7501308459
 40
0.8751337096
 40
1.0
 40
1.0
 40
1.0
 40
1.0
 10
1.996197667
 20
19.5129768353
 30
0.0
 10
1.996197667
 20
19.513748767
 30
0.0
 10
1.9962937849
 20
19.5152958258
 30
0.0
 10
1.9967151176
 20
19.5175813506
 30
0.0
 10
1.9974083214
 20
19.5198008102
 30
0.0
 10
1.9983550108
 20
19.5219230294
 30
0.0
 10
1.9995337134
 20
19.5239248476
 30
0.0
 10
2.0009230408
 20
19.5257863868
 30
0.0
 10
2.0024970314
 20
19.527494231
 30
0.0
 10
2.0042334101
 20
19.529036258
 30
0.0
 10
2.0061088353
 20
19.530405131
 30
0.0
 10
2.008763033
 20
19.5319927207
 30
0.0
 10
2.012329498
 20
19.5335276005
 30
0.0
 10
2.0168479467
 20
19.5346307088
 30
0.0
 10
2.019942187
 20
19.5348768353
 30
0.0
 10
2.0214856088
 20
19.5348768353
 30
0.0
  0
SPLINE
  5
5BA
100
AcDbEntity
  8
0
100
AcDbSpline
 62
7
  6
CONTINUOUS
 70
0
 71
3
 72
21
 73
17
 74
0
 42
0.0000001
 43
0.0000001
 44
0.0000000001
 40
0.0
 40
0.0
 40
0.0
 40
0.0
 40
0.1249878024
 40
0.1874878899
 40
0.2499891327
 40
0.3124908104
 40
0.3749936014
 40
0.4374965966
 40
0.5
 40
0.5625034034
 40
0.6250063986
 40
0.6875091896
 40
0.7500108673
 40
0.8125121101
 40
0.8750121976
 40
1.0
 40
1.0
 40
1.0
 40
1.0
 10
1.6714381406
 20
19.3619123349
 30
0.0
 10
1.6802365778
 20
19.3593724449
 30
0.0
 10
1.6935321952
 20
19.3558822359
 30
0.0
 10
1.7114427903
 20
19.3520363084
 30
0.0
 10
1.7249658397
 20
19.3495987534
 30
0.0
 10
1.7385683645
 20
19.3476495297
 30
0.0
 10
1.7522365585
 20
19.3462265406
 30
0.0
 10
1.7659516958
 20
19.3453600027
 30
0.0
 10
1.779691316
 20
19.3450682639
 30
0.0
 10
1.7934309363
 20
19.3453600027
 30
0.0
 10
1.8071460736
 20
19.3462265406
 30
0.0
 10
1.8208142675
 20
19.3476495297
 30
0.0
 10
1.8344167923
 20
19.3495987534
 30
0.0
 10
1.8479398418
 20
19.3520363084
 30
0.0
 10
1.8658504369
 20
19.3558822359
 30
0.0
 10
1.8791460543
 20
19.3593724449
 30
0.0
 10
1.8879444915
 20
19.3619123349
 30
0.0
  0
SPLINE
  5
5BB
100
AcDbEntity
  8
0
100
AcDbSpline
 62
7
  6
CONTINUOUS
 70
0
 71
3
 72
20
 73
16
 74
0
 42
0.0000001
 43
0.0000001
 44
0.0000000001
 40
0.0
 40
0.0
 40
0.0
 40
0.0
 40
0.0837825316
 40
0.1668205226
 40
0.3265531609
 40
0.4737997088
 40
0.605775902
 40
0.6658290323
 40
0.7220447888
 40
0.7746430092
 40
0.824011642
 40
0.8706339298
 40
0.915072831
 40
0.9579636695
 40
1.0
 40
1.0
 40
1.0
 40
1.0
 10
1.8879444915
 20
19.5129768353
 30
0.0
 10
1.8879444915
 20
19.5137476764
 30
0.0
 10
1.8879919275
 20
19.515282983
 30
0.0
 10
1.8882663834
 20
19.5182761939
 30
0.0
 10
1.8889235585
 20
19.52181487
 30
0.0
 10
1.8901804612
 20
19.5256654171
 30
0.0
 10
1.8915814134
 20
19.5284719749
 30
0.0
 10
1.8928680225
 20
19.5303626273
 30
0.0
 10
1.8938622454
 20
19.5315599505
 30
0.0
 10
1.8949066972
 20
19.5325777025
 30
0.0
 10
1.895992821
 20
19.5334135397
 30
0.0
 10
1.8971125518
 20
19.5340658768
 30
0.0
 10
1.8982577823
 20
19.5345329813
 30
0.0
 10
1.899418974
 20
19.534813927
 30
0.0
 10
1.9002017072
 20
19.5348768353
 30
0.0
 10
1.9005884624
 20
19.5348768353
 30
0.0
  0
SPLINE
  5
5BC
100
AcDbEntity
  8
0
100
AcDbSpline
 62
7
  6
CONTINUOUS
 70
0
 71
3
 72
11
 73
7
 74
0
 42
0.0000001
 43
0.0000001
 44
0.0000000001
 40
0.0
 40
0.0
 40
0.0
 40
0.0
 40
0.2572860881
 40
0.5096780896
 40
0.7571556577
 40
1.0
 40
1.0
 40
1.0
 40
1.0
 10
1.5631849651
 20
19.3619123349
 30
0.0
 10
1.5656787727
 20
19.3604725344
 30
0.0
 10
1.5706837932
 20
19.3577302569
 30
0.0
 10
1.5783258783
 20
19.3540573732
 30
0.0
 10
1.5860326932
 20
19.3509267645
 30
0.0
 10
1.591258272
 20
19.34922973
 30
0.0
 10
1.593875536
 20
19.3484967444
 30
0.0
  0
SPLINE
  5
5BD
100
AcDbEntity
  8
0
100
AcDbSpline
 62
7
  6
CONTINUOUS
 70
0
 71
3
 72
19
 73
15
 74
0
 42
0.0000001
 43
0.0000001
 44
0.0000000001
 40
0.0
 40
0.0
 40
0.0
 40
0.0
 40
0.1228781095
 40
0.183704646
 40
0.2442904954
 40
0.3047879769
 40
0.3653556749
 40
0.4261469538
 40
0.4873049404
 40
0.5489546854
 40
0.6111988128
 40
0.7377340531
 40
0.867314928
 40
1.0
 40
1.0
 40
1.0
 40
1.0
 10
1.595484057
 20
19.3480608966
 30
0.0
 10
1.5986298219
 20
19.3472372595
 30
0.0
 10
1.6034010549
 20
19.3462419562
 30
0.0
 10
1.6098215412
 20
19.3454638183
 30
0.0
 10
1.6146290431
 20
19.3451625114
 30
0.0
 10
1.6194389452
 20
19.3451459606
 30
0.0
 10
1.6242468093
 20
19.345414653
 30
0.0
 10
1.629048193
 20
19.3459642316
 30
0.0
 10
1.6338386792
 20
19.3467902301
 30
0.0
 10
1.6386149738
 20
19.3478818908
 30
0.0
 10
1.6449938734
 20
19.3496880997
 30
0.0
 10
1.6529257156
 20
19.3525646613
 30
0.0
 10
1.6622898345
 20
19.3568490666
 30
0.0
 10
1.6683972398
 20
19.3601566701
 30
0.0
 10
1.6714381406
 20
19.3619123349
 30
0.0
  0
SPLINE
  5
5BE
100
AcDbEntity
  8
0
100
AcDbSpline
 62
7
  6
CONTINUOUS
 70
0
 71
3
 72
20
 73
16
 74
0
 42
0.0000001
 43
0.0000001
 44
0.0000000001
 40
0.0
 40
0.0
 40
0.0
 40
0.0
 40
0.0837825316
 40
0.1668205226
 40
0.3265531609
 40
0.4737997088
 40
0.605775902
 40
0.6658290323
 40
0.7220447888
 40
0.7746430092
 40
0.824011642
 40
0.8706339298
 40
0.915072831
 40
0.9579636695
 40
1.0
 40
1.0
 40
1.0
 40
1.0
 10
1.6714381406
 20
19.5129768353
 30
0.0
 10
1.6714381406
 20
19.5137476764
 30
0.0
 10
1.6713907046
 20
19.515282983
 30
0.0
 10
1.6711162487
 20
19.5182761939
 30
0.0
 10
1.6704590736
 20
19.52181487
 30
0.0
 10
1.6692021708
 20
19.5256654171
 30
0.0
 10
1.6678012187
 20
19.5284719749
 30
0.0
 10
1.6665146096
 20
19.5303626273
 30
0.0
 10
1.6655203867
 20
19.5315599505
 30
0.0
 10
1.6644759349
 20
19.5325777025
 30
0.0
 10
1.6633898111
 20
19.5334135397
 30
0.0
 10
1.6622700802
 20
19.5340658768
 30
0.0
 10
1.6611248498
 20
19.5345329813
 30
0.0
 10
1.6599636581
 20
19.534813927
 30
0.0
 10
1.6591809249
 20
19.5348768353
 30
0.0
 10
1.6587941697
 20
19.5348768353
 30
0.0
  0
SPLINE
  5
5BF
100
AcDbEntity
  8
0
100
AcDbSpline
 62
7
  6
CONTINUOUS
 70
0
 71
3
 72
19
 73
15
 74
0
 42
0.0000001
 43
0.0000001
 44
0.0000000001
 40
0.0
 40
0.0
 40
0.0
 40
0.0
 40
0.132685072
 40
0.2622659469
 40
0.3888011872
 40
0.4510453146
 40
0.5126950596
 40
0.5738530462
 40
0.6346443251
 40
0.6952120231
 40
0.7557095046
 40
0.816295354
 40
0.8771218905
 40
1.0
 40
1.0
 40
1.0
 40
1.0
 10
1.8879444915
 20
19.3619123349
 30
0.0
 10
1.8909853922
 20
19.3601566701
 30
0.0
 10
1.8970927976
 20
19.3568490666
 30
0.0
 10
1.9064569165
 20
19.3525646613
 30
0.0
 10
1.9143887587
 20
19.3496880997
 30
0.0
 10
1.9207676583
 20
19.3478818908
 30
0.0
 10
1.9255439529
 20
19.3467902301
 30
0.0
 10
1.9303344391
 20
19.3459642316
 30
0.0
 10
1.9351358228
 20
19.345414653
 30
0.0
 10
1.9399436869
 20
19.3451459606
 30
0.0
 10
1.9447535889
 20
19.3451625114
 30
0.0
 10
1.9495610908
 20
19.3454638183
 30
0.0
 10
1.9559815772
 20
19.3462419562
 30
0.0
 10
1.9607528101
 20
19.3472372595
 30
0.0
 10
1.9638985751
 20
19.3480608966
 30
0.0
  0
SPLINE
  5
5C0
100
AcDbEntity
  8
0
100
AcDbSpline
 62
7
  6
CONTINUOUS
 70
0
 71
3
 72
11
 73
7
 74
0
 42
0.0000001
 43
0.0000001
 44
0.0000000001
 40
0.0
 40
0.0
 40
0.0
 40
0.0
 40
0.242525876
 40
0.489855189
 40
0.7423461086
 40
1.0
 40
1.0
 40
1.0
 40
1.0
 10
1.9638985751
 20
19.3480608966
 30
0.0
 10
1.9666547101
 20
19.3487825192
 30
0.0
 10
1.9721593319
 20
19.3504864806
 30
0.0
 10
1.9802730731
 20
19.353701662
 30
0.0
 10
1.9883147901
 20
19.3575238671
 30
0.0
 10
1.9935764223
 20
19.3603989586
 30
0.0
 10
1.996197667
 20
19.3619123349
 30
0.0
  0
SPLINE
  5
5C1
100
AcDbEntity
  8
0
100
AcDbSpline
 62
7
  6
CONTINUOUS
 70
0
 71
3
 72
20
 73
16
 74
0
 42
0.0000001
 43
0.0000001
 44
0.0000000001
 40
0.0
 40
0.0
 40
0.0
 40
0.0
 40
0.0624510153
 40
0.1250358108
 40
0.1875892898
 40
0.2501131682
 40
0.3126275778
 40
0.3751444506
 40
0.437682982
 40
0.5002027013
 40
0.5627223417
 40
0.6252433535
 40
0.7501308459
 40
0.8751337096
 40
1.0
 40
1.0
 40
1.0
 40
1.0
 10
7.1057475493
 20
19.5129768353
 30
0.0
 10
7.1057475493
 20
19.513748767
 30
0.0
 10
7.1056514314
 20
19.5152958258
 30
0.0
 10
7.1052300987
 20
19.5175813506
 30
0.0
 10
7.1045368949
 20
19.5198008102
 30
0.0
 10
7.1035902055
 20
19.5219230294
 30
0.0
 10
7.1024115029
 20
19.5239248476
 30
0.0
 10
7.1010221755
 20
19.5257863868
 30
0.0
 10
7.0994481849
 20
19.527494231
 30
0.0
 10
7.0977118062
 20
19.529036258
 30
0.0
 10
7.095836381
 20
19.530405131
 30
0.0
 10
7.0931821833
 20
19.5319927207
 30
0.0
 10
7.0896157183
 20
19.5335276005
 30
0.0
 10
7.0850972696
 20
19.5346307088
 30
0.0
 10
7.0820030293
 20
19.5348768353
 30
0.0
 10
7.0804596075
 20
19.5348768353
 30
0.0
  0
SPLINE
  5
5C2
100
AcDbEntity
  8
0
100
AcDbSpline
 62
7
  6
CONTINUOUS
 70
0
 71
3
 72
20
 73
16
 74
0
 42
0.0000001
 43
0.0000001
 44
0.0000000001
 40
0.0
 40
0.0
 40
0.0
 40
0.0
 40
0.0624510153
 40
0.1250358108
 40
0.1875892898
 40
0.2501131682
 40
0.3126275778
 40
0.3751444506
 40
0.437682982
 40
0.5002027013
 40
0.5627223417
 40
0.6252433535
 40
0.7501308459
 40
0.8751337096
 40
1.0
 40
1.0
 40
1.0
 40
1.0
 10
7.5387602512
 20
19.5129768353
 30
0.0
 10
7.5387602512
 20
19.513748767
 30
0.0
 10
7.5388563691
 20
19.5152958258
 30
0.0
 10
7.5392777018
 20
19.5175813506
 30
0.0
 10
7.5399709057
 20
19.5198008102
 30
0.0
 10
7.5409175951
 20
19.5219230294
 30
0.0
 10
7.5420962976
 20
19.5239248476
 30
0.0
 10
7.543485625
 20
19.5257863868
 30
0.0
 10
7.5450596156
 20
19.527494231
 30
0.0
 10
7.5467959943
 20
19.529036258
 30
0.0
 10
7.5486714195
 20
19.530405131
 30
0.0
 10
7.5513256173
 20
19.5319927207
 30
0.0
 10
7.5548920822
 20
19.5335276005
 30
0.0
 10
7.5594105309
 20
19.5346307088
 30
0.0
 10
7.5625047712
 20
19.5348768353
 30
0.0
 10
7.564048193
 20
19.5348768353
 30
0.0
  0
SPLINE
  5
5C3
100
AcDbEntity
  8
0
100
AcDbSpline
 62
7
  6
CONTINUOUS
 70
0
 71
3
 72
21
 73
17
 74
0
 42
0.0000001
 43
0.0000001
 44
0.0000000001
 40
0.0
 40
0.0
 40
0.0
 40
0.0
 40
0.1249878024
 40
0.1874878899
 40
0.2499891327
 40
0.3124908104
 40
0.3749936014
 40
0.4374965966
 40
0.5
 40
0.5625034034
 40
0.6250063986
 40
0.6875091896
 40
0.7500108673
 40
0.8125121101
 40
0.8750121976
 40
1.0
 40
1.0
 40
1.0
 40
1.0
 10
7.2140007248
 20
19.3619123349
 30
0.0
 10
7.222799162
 20
19.3593724449
 30
0.0
 10
7.2360947794
 20
19.3558822359
 30
0.0
 10
7.2540053745
 20
19.3520363084
 30
0.0
 10
7.267528424
 20
19.3495987534
 30
0.0
 10
7.2811309488
 20
19.3476495297
 30
0.0
 10
7.2947991427
 20
19.3462265406
 30
0.0
 10
7.30851428
 20
19.3453600027
 30
0.0
 10
7.3222539003
 20
19.3450682639
 30
0.0
 10
7.3359935205
 20
19.3453600027
 30
0.0
 10
7.3497086578
 20
19.3462265406
 30
0.0
 10
7.3633768518
 20
19.3476495297
 30
0.0
 10
7.3769793766
 20
19.3495987534
 30
0.0
 10
7.390502426
 20
19.3520363084
 30
0.0
 10
7.4084130211
 20
19.3558822359
 30
0.0
 10
7.4217086385
 20
19.3593724449
 30
0.0
 10
7.4305070757
 20
19.3619123349
 30
0.0
  0
SPLINE
  5
5C4
100
AcDbEntity
  8
0
100
AcDbSpline
 62
7
  6
CONTINUOUS
 70
0
 71
3
 72
20
 73
16
 74
0
 42
0.0000001
 43
0.0000001
 44
0.0000000001
 40
0.0
 40
0.0
 40
0.0
 40
0.0
 40
0.0837825316
 40
0.1668205226
 40
0.3265531609
 40
0.4737997088
 40
0.605775902
 40
0.6658290323
 40
0.7220447888
 40
0.7746430092
 40
0.824011642
 40
0.8706339298
 40
0.915072831
 40
0.9579636695
 40
1.0
 40
1.0
 40
1.0
 40
1.0
 10
7.4305070757
 20
19.5129768353
 30
0.0
 10
7.4305070757
 20
19.5137476764
 30
0.0
 10
7.4305545117
 20
19.515282983
 30
0.0
 10
7.4308289676
 20
19.5182761939
 30
0.0
 10
7.4314861427
 20
19.52181487
 30
0.0
 10
7.4327430455
 20
19.5256654171
 30
0.0
 10
7.4341439976
 20
19.5284719749
 30
0.0
 10
7.4354306067
 20
19.5303626273
 30
0.0
 10
7.4364248296
 20
19.5315599505
 30
0.0
 10
7.4374692814
 20
19.5325777025
 30
0.0
 10
7.4385554052
 20
19.5334135397
 30
0.0
 10
7.4396751361
 20
19.5340658768
 30
0.0
 10
7.4408203665
 20
19.5345329813
 30
0.0
 10
7.4419815582
 20
19.534813927
 30
0.0
 10
7.4427642914
 20
19.5348768353
 30
0.0
 10
7.4431510466
 20
19.5348768353
 30
0.0
  0
SPLINE
  5
5C5
100
AcDbEntity
  8
0
100
AcDbSpline
 62
7
  6
CONTINUOUS
 70
0
 71
3
 72
11
 73
7
 74
0
 42
0.0000001
 43
0.0000001
 44
0.0000000001
 40
0.0
 40
0.0
 40
0.0
 40
0.0
 40
0.2572860881
 40
0.5096780896
 40
0.7571556577
 40
1.0
 40
1.0
 40
1.0
 40
1.0
 10
7.1057475493
 20
19.3619123349
 30
0.0
 10
7.1082413569
 20
19.3604725344
 30
0.0
 10
7.1132463775
 20
19.3577302569
 30
0.0
 10
7.1208884625
 20
19.3540573732
 30
0.0
 10
7.1285952775
 20
19.3509267645
 30
0.0
 10
7.1338208563
 20
19.34922973
 30
0.0
 10
7.1364381202
 20
19.3484967444
 30
0.0
  0
SPLINE
  5
5C6
100
AcDbEntity
  8
0
100
AcDbSpline
 62
7
  6
CONTINUOUS
 70
0
 71
3
 72
19
 73
15
 74
0
 42
0.0000001
 43
0.0000001
 44
0.0000000001
 40
0.0
 40
0.0
 40
0.0
 40
0.0
 40
0.1228781095
 40
0.183704646
 40
0.2442904954
 40
0.3047879769
 40
0.3653556749
 40
0.4261469538
 40
0.4873049404
 40
0.5489546854
 40
0.6111988128
 40
0.7377340531
 40
0.867314928
 40
1.0
 40
1.0
 40
1.0
 40
1.0
 10
7.1380466412
 20
19.3480608966
 30
0.0
 10
7.1411924062
 20
19.3472372595
 30
0.0
 10
7.1459636391
 20
19.3462419562
 30
0.0
 10
7.1523841255
 20
19.3454638183
 30
0.0
 10
7.1571916274
 20
19.3451625114
 30
0.0
 10
7.1620015294
 20
19.3451459606
 30
0.0
 10
7.1668093936
 20
19.345414653
 30
0.0
 10
7.1716107772
 20
19.3459642316
 30
0.0
 10
7.1764012634
 20
19.3467902301
 30
0.0
 10
7.181177558
 20
19.3478818908
 30
0.0
 10
7.1875564576
 20
19.3496880997
 30
0.0
 10
7.1954882998
 20
19.3525646613
 30
0.0
 10
7.2048524187
 20
19.3568490666
 30
0.0
 10
7.2109598241
 20
19.3601566701
 30
0.0
 10
7.2140007248
 20
19.3619123349
 30
0.0
  0
SPLINE
  5
5C7
100
AcDbEntity
  8
0
100
AcDbSpline
 62
7
  6
CONTINUOUS
 70
0
 71
3
 72
20
 73
16
 74
0
 42
0.0000001
 43
0.0000001
 44
0.0000000001
 40
0.0
 40
0.0
 40
0.0
 40
0.0
 40
0.0837825316
 40
0.1668205226
 40
0.3265531609
 40
0.4737997088
 40
0.605775902
 40
0.6658290323
 40
0.7220447888
 40
0.7746430092
 40
0.824011642
 40
0.8706339298
 40
0.915072831
 40
0.9579636695
 40
1.0
 40
1.0
 40
1.0
 40
1.0
 10
7.2140007248
 20
19.5129768353
 30
0.0
 10
7.2140007248
 20
19.5137476764
 30
0.0
 10
7.2139532888
 20
19.515282983
 30
0.0
 10
7.2136788329
 20
19.5182761939
 30
0.0
 10
7.2130216578
 20
19.52181487
 30
0.0
 10
7.2117647551
 20
19.5256654171
 30
0.0
 10
7.2103638029
 20
19.5284719749
 30
0.0
 10
7.2090771938
 20
19.5303626273
 30
0.0
 10
7.2080829709
 20
19.5315599505
 30
0.0
 10
7.2070385191
 20
19.5325777025
 30
0.0
 10
7.2059523953
 20
19.5334135397
 30
0.0
 10
7.2048326645
 20
19.5340658768
 30
0.0
 10
7.203687434
 20
19.5345329813
 30
0.0
 10
7.2025262423
 20
19.534813927
 30
0.0
 10
7.2017435091
 20
19.5348768353
 30
0.0
 10
7.2013567539
 20
19.5348768353
 30
0.0
  0
SPLINE
  5
5C8
100
AcDbEntity
  8
0
100
AcDbSpline
 62
7
  6
CONTINUOUS
 70
0
 71
3
 72
19
 73
15
 74
0
 42
0.0000001
 43
0.0000001
 44
0.0000000001
 40
0.0
 40
0.0
 40
0.0
 40
0.0
 40
0.132685072
 40
0.2622659469
 40
0.3888011872
 40
0.4510453146
 40
0.5126950596
 40
0.5738530462
 40
0.6346443251
 40
0.6952120231
 40
0.7557095046
 40
0.816295354
 40
0.8771218905
 40
1.0
 40
1.0
 40
1.0
 40
1.0
 10
7.4305070757
 20
19.3619123349
 30
0.0
 10
7.4335479765
 20
19.3601566701
 30
0.0
 10
7.4396553818
 20
19.3568490666
 30
0.0
 10
7.4490195007
 20
19.3525646613
 30
0.0
 10
7.4569513429
 20
19.3496880997
 30
0.0
 10
7.4633302425
 20
19.3478818908
 30
0.0
 10
7.4681065371
 20
19.3467902301
 30
0.0
 10
7.4728970233
 20
19.3459642316
 30
0.0
 10
7.477698407
 20
19.345414653
 30
0.0
 10
7.4825062711
 20
19.3451459606
 30
0.0
 10
7.4873161732
 20
19.3451625114
 30
0.0
 10
7.4921236751
 20
19.3454638183
 30
0.0
 10
7.4985441614
 20
19.3462419562
 30
0.0
 10
7.5033153944
 20
19.3472372595
 30
0.0
 10
7.5064611593
 20
19.3480608966
 30
0.0
  0
SPLINE
  5
5C9
100
AcDbEntity
  8
0
100
AcDbSpline
 62
7
  6
CONTINUOUS
 70
0
 71
3
 72
11
 73
7
 74
0
 42
0.0000001
 43
0.0000001
 44
0.0000000001
 40
0.0
 40
0.0
 40
0.0
 40
0.0
 40
0.242525876
 40
0.489855189
 40
0.7423461086
 40
1.0
 40
1.0
 40
1.0
 40
1.0
 10
7.5064611593
 20
19.3480608966
 30
0.0
 10
7.5092172943
 20
19.3487825192
 30
0.0
 10
7.5147219161
 20
19.3504864806
 30
0.0
 10
7.5228356573
 20
19.353701662
 30
0.0
 10
7.5308773743
 20
19.3575238671
 30
0.0
 10
7.5361390066
 20
19.3603989586
 30
0.0
 10
7.5387602512
 20
19.3619123349
 30
0.0
  0
SPLINE
  5
5CA
100
AcDbEntity
  8
0
100
AcDbSpline
 62
7
  6
CONTINUOUS
 70
0
 71
3
 72
20
 73
16
 74
0
 42
0.0000001
 43
0.0000001
 44
0.0000000001
 40
0.0
 40
0.0
 40
0.0
 40
0.0
 40
0.0624510153
 40
0.1250358108
 40
0.1875892898
 40
0.2501131682
 40
0.3126275778
 40
0.3751444506
 40
0.437682982
 40
0.5002027013
 40
0.5627223417
 40
0.6252433535
 40
0.7501308459
 40
0.8751337096
 40
1.0
 40
1.0
 40
1.0
 40
1.0
 10
-3.9793776191
 20
19.5129768353
 30
0.0
 10
-3.9793776191
 20
19.513748767
 30
0.0
 10
-3.979473737
 20
19.5152958258
 30
0.0
 10
-3.9798950698
 20
19.5175813506
 30
0.0
 10
-3.9805882736
 20
19.5198008102
 30
0.0
 10
-3.981534963
 20
19.5219230294
 30
0.0
 10
-3.9827136655
 20
19.5239248476
 30
0.0
 10
-3.9841029929
 20
19.5257863868
 30
0.0
 10
-3.9856769835
 20
19.527494231
 30
0.0
 10
-3.9874133622
 20
19.529036258
 30
0.0
 10
-3.9892887875
 20
19.530405131
 30
0.0
 10
-3.9919429852
 20
19.5319927207
 30
0.0
 10
-3.9955094501
 20
19.5335276005
 30
0.0
 10
-4.0000278988
 20
19.5346307088
 30
0.0
 10
-4.0031221391
 20
19.5348768353
 30
0.0
 10
-4.0046655609
 20
19.5348768353
 30
0.0
  0
SPLINE
  5
5CB
100
AcDbEntity
  8
0
100
AcDbSpline
 62
7
  6
CONTINUOUS
 70
0
 71
3
 72
20
 73
16
 74
0
 42
0.0000001
 43
0.0000001
 44
0.0000000001
 40
0.0
 40
0.0
 40
0.0
 40
0.0
 40
0.0624510153
 40
0.1250358108
 40
0.1875892898
 40
0.2501131682
 40
0.3126275778
 40
0.3751444506
 40
0.437682982
 40
0.5002027013
 40
0.5627223417
 40
0.6252433535
 40
0.7501308459
 40
0.8751337096
 40
1.0
 40
1.0
 40
1.0
 40
1.0
 10
-3.5463649172
 20
19.5129768353
 30
0.0
 10
-3.5463649172
 20
19.513748767
 30
0.0
 10
-3.5462687994
 20
19.5152958258
 30
0.0
 10
-3.5458474666
 20
19.5175813506
 30
0.0
 10
-3.5451542628
 20
19.5198008102
 30
0.0
 10
-3.5442075734
 20
19.5219230294
 30
0.0
 10
-3.5430288708
 20
19.5239248476
 30
0.0
 10
-3.5416395435
 20
19.5257863868
 30
0.0
 10
-3.5400655528
 20
19.527494231
 30
0.0
 10
-3.5383291741
 20
19.529036258
 30
0.0
 10
-3.5364537489
 20
19.530405131
 30
0.0
 10
-3.5337995512
 20
19.5319927207
 30
0.0
 10
-3.5302330862
 20
19.5335276005
 30
0.0
 10
-3.5257146375
 20
19.5346307088
 30
0.0
 10
-3.5226203973
 20
19.5348768353
 30
0.0
 10
-3.5210769754
 20
19.5348768353
 30
0.0
  0
SPLINE
  5
5CC
100
AcDbEntity
  8
0
100
AcDbSpline
 62
7
  6
CONTINUOUS
 70
0
 71
3
 72
21
 73
17
 74
0
 42
0.0000001
 43
0.0000001
 44
0.0000000001
 40
0.0
 40
0.0
 40
0.0
 40
0.0
 40
0.1249878024
 40
0.1874878899
 40
0.2499891327
 40
0.3124908104
 40
0.3749936014
 40
0.4374965966
 40
0.5
 40
0.5625034034
 40
0.6250063986
 40
0.6875091896
 40
0.7500108673
 40
0.8125121101
 40
0.8750121976
 40
1.0
 40
1.0
 40
1.0
 40
1.0
 10
-3.8711244437
 20
19.3619123349
 30
0.0
 10
-3.8623260064
 20
19.3593724449
 30
0.0
 10
-3.849030389
 20
19.3558822359
 30
0.0
 10
-3.8311197939
 20
19.3520363084
 30
0.0
 10
-3.8175967445
 20
19.3495987534
 30
0.0
 10
-3.8039942197
 20
19.3476495297
 30
0.0
 10
-3.7903260257
 20
19.3462265406
 30
0.0
 10
-3.7766108884
 20
19.3453600027
 30
0.0
 10
-3.7628712682
 20
19.3450682639
 30
0.0
 10
-3.749131648
 20
19.3453600027
 30
0.0
 10
-3.7354165107
 20
19.3462265406
 30
0.0
 10
-3.7217483167
 20
19.3476495297
 30
0.0
 10
-3.7081457919
 20
19.3495987534
 30
0.0
 10
-3.6946227424
 20
19.3520363084
 30
0.0
 10
-3.6767121473
 20
19.3558822359
 30
0.0
 10
-3.6634165299
 20
19.3593724449
 30
0.0
 10
-3.6546180927
 20
19.3619123349
 30
0.0
  0
SPLINE
  5
5CD
100
AcDbEntity
  8
0
100
AcDbSpline
 62
7
  6
CONTINUOUS
 70
0
 71
3
 72
20
 73
16
 74
0
 42
0.0000001
 43
0.0000001
 44
0.0000000001
 40
0.0
 40
0.0
 40
0.0
 40
0.0
 40
0.0837825316
 40
0.1668205226
 40
0.3265531609
 40
0.4737997088
 40
0.605775902
 40
0.6658290323
 40
0.7220447888
 40
0.7746430092
 40
0.824011642
 40
0.8706339298
 40
0.915072831
 40
0.9579636695
 40
1.0
 40
1.0
 40
1.0
 40
1.0
 10
-3.6546180927
 20
19.5129768353
 30
0.0
 10
-3.6546180927
 20
19.5137476764
 30
0.0
 10
-3.6545706567
 20
19.515282983
 30
0.0
 10
-3.6542962009
 20
19.5182761939
 30
0.0
 10
-3.6536390258
 20
19.52181487
 30
0.0
 10
-3.652382123
 20
19.5256654171
 30
0.0
 10
-3.6509811708
 20
19.5284719749
 30
0.0
 10
-3.6496945617
 20
19.5303626273
 30
0.0
 10
-3.6487003389
 20
19.5315599505
 30
0.0
 10
-3.6476558871
 20
19.5325777025
 30
0.0
 10
-3.6465697632
 20
19.5334135397
 30
0.0
 10
-3.6454500324
 20
19.5340658768
 30
0.0
 10
-3.6443048019
 20
19.5345329813
 30
0.0
 10
-3.6431436102
 20
19.534813927
 30
0.0
 10
-3.6423608771
 20
19.5348768353
 30
0.0
 10
-3.6419741218
 20
19.5348768353
 30
0.0
  0
SPLINE
  5
5CE
100
AcDbEntity
  8
0
100
AcDbSpline
 62
7
  6
CONTINUOUS
 70
0
 71
3
 72
11
 73
7
 74
0
 42
0.0000001
 43
0.0000001
 44
0.0000000001
 40
0.0
 40
0.0
 40
0.0
 40
0.0
 40
0.2572860881
 40
0.5096780896
 40
0.7571556577
 40
1.0
 40
1.0
 40
1.0
 40
1.0
 10
-3.9793776191
 20
19.3619123349
 30
0.0
 10
-3.9768838115
 20
19.3604725344
 30
0.0
 10
-3.971878791
 20
19.3577302569
 30
0.0
 10
-3.9642367059
 20
19.3540573732
 30
0.0
 10
-3.956529891
 20
19.3509267645
 30
0.0
 10
-3.9513043122
 20
19.34922973
 30
0.0
 10
-3.9486870482
 20
19.3484967444
 30
0.0
  0
SPLINE
  5
5CF
100
AcDbEntity
  8
0
100
AcDbSpline
 62
7
  6
CONTINUOUS
 70
0
 71
3
 72
19
 73
15
 74
0
 42
0.0000001
 43
0.0000001
 44
0.0000000001
 40
0.0
 40
0.0
 40
0.0
 40
0.0
 40
0.1228781095
 40
0.183704646
 40
0.2442904954
 40
0.3047879769
 40
0.3653556749
 40
0.4261469538
 40
0.4873049404
 40
0.5489546854
 40
0.6111988128
 40
0.7377340531
 40
0.867314928
 40
1.0
 40
1.0
 40
1.0
 40
1.0
 10
-3.9470785272
 20
19.3480608966
 30
0.0
 10
-3.9439327623
 20
19.3472372595
 30
0.0
 10
-3.9391615293
 20
19.3462419562
 30
0.0
 10
-3.932741043
 20
19.3454638183
 30
0.0
 10
-3.9279335411
 20
19.3451625114
 30
0.0
 10
-3.923123639
 20
19.3451459606
 30
0.0
 10
-3.9183157749
 20
19.345414653
 30
0.0
 10
-3.9135143912
 20
19.3459642316
 30
0.0
 10
-3.908723905
 20
19.3467902301
 30
0.0
 10
-3.9039476104
 20
19.3478818908
 30
0.0
 10
-3.8975687109
 20
19.3496880997
 30
0.0
 10
-3.8896368686
 20
19.3525646613
 30
0.0
 10
-3.8802727497
 20
19.3568490666
 30
0.0
 10
-3.8741653444
 20
19.3601566701
 30
0.0
 10
-3.8711244437
 20
19.3619123349
 30
0.0
  0
SPLINE
  5
5D0
100
AcDbEntity
  8
0
100
AcDbSpline
 62
7
  6
CONTINUOUS
 70
0
 71
3
 72
20
 73
16
 74
0
 42
0.0000001
 43
0.0000001
 44
0.0000000001
 40
0.0
 40
0.0
 40
0.0
 40
0.0
 40
0.0837825316
 40
0.1668205226
 40
0.3265531609
 40
0.4737997088
 40
0.605775902
 40
0.6658290323
 40
0.7220447888
 40
0.7746430092
 40
0.824011642
 40
0.8706339298
 40
0.915072831
 40
0.9579636695
 40
1.0
 40
1.0
 40
1.0
 40
1.0
 10
-3.8711244437
 20
19.5129768353
 30
0.0
 10
-3.8711244437
 20
19.5137476764
 30
0.0
 10
-3.8711718796
 20
19.515282983
 30
0.0
 10
-3.8714463355
 20
19.5182761939
 30
0.0
 10
-3.8721035106
 20
19.52181487
 30
0.0
 10
-3.8733604134
 20
19.5256654171
 30
0.0
 10
-3.8747613655
 20
19.5284719749
 30
0.0
 10
-3.8760479746
 20
19.5303626273
 30
0.0
 10
-3.8770421975
 20
19.5315599505
 30
0.0
 10
-3.8780866493
 20
19.5325777025
 30
0.0
 10
-3.8791727731
 20
19.5334135397
 30
0.0
 10
-3.880292504
 20
19.5340658768
 30
0.0
 10
-3.8814377345
 20
19.5345329813
 30
0.0
 10
-3.8825989261
 20
19.534813927
 30
0.0
 10
-3.8833816593
 20
19.5348768353
 30
0.0
 10
-3.8837684145
 20
19.5348768353
 30
0.0
  0
SPLINE
  5
5D1
100
AcDbEntity
  8
0
100
AcDbSpline
 62
7
  6
CONTINUOUS
 70
0
 71
3
 72
19
 73
15
 74
0
 42
0.0000001
 43
0.0000001
 44
0.0000000001
 40
0.0
 40
0.0
 40
0.0
 40
0.0
 40
0.132685072
 40
0.2622659469
 40
0.3888011872
 40
0.4510453146
 40
0.5126950596
 40
0.5738530462
 40
0.6346443251
 40
0.6952120231
 40
0.7557095046
 40
0.816295354
 40
0.8771218905
 40
1.0
 40
1.0
 40
1.0
 40
1.0
 10
-3.6546180927
 20
19.3619123349
 30
0.0
 10
-3.651577192
 20
19.3601566701
 30
0.0
 10
-3.6454697867
 20
19.3568490666
 30
0.0
 10
-3.6361056677
 20
19.3525646613
 30
0.0
 10
-3.6281738255
 20
19.3496880997
 30
0.0
 10
-3.6217949259
 20
19.3478818908
 30
0.0
 10
-3.6170186314
 20
19.3467902301
 30
0.0
 10
-3.6122281452
 20
19.3459642316
 30
0.0
 10
-3.6074267615
 20
19.345414653
 30
0.0
 10
-3.6026188973
 20
19.3451459606
 30
0.0
 10
-3.5978089953
 20
19.3451625114
 30
0.0
 10
-3.5930014934
 20
19.3454638183
 30
0.0
 10
-3.586581007
 20
19.3462419562
 30
0.0
 10
-3.5818097741
 20
19.3472372595
 30
0.0
 10
-3.5786640092
 20
19.3480608966
 30
0.0
  0
SPLINE
  5
5D2
100
AcDbEntity
  8
0
100
AcDbSpline
 62
7
  6
CONTINUOUS
 70
0
 71
3
 72
11
 73
7
 74
0
 42
0.0000001
 43
0.0000001
 44
0.0000000001
 40
0.0
 40
0.0
 40
0.0
 40
0.0
 40
0.242525876
 40
0.489855189
 40
0.7423461086
 40
1.0
 40
1.0
 40
1.0
 40
1.0
 10
-3.5786640092
 20
19.3480608966
 30
0.0
 10
-3.5759078741
 20
19.3487825192
 30
0.0
 10
-3.5704032523
 20
19.3504864806
 30
0.0
 10
-3.5622895112
 20
19.353701662
 30
0.0
 10
-3.5542477942
 20
19.3575238671
 30
0.0
 10
-3.5489861619
 20
19.3603989586
 30
0.0
 10
-3.5463649172
 20
19.3619123349
 30
0.0
  0
SPLINE
  5
5D3
100
AcDbEntity
  8
0
100
AcDbSpline
 62
7
  6
CONTINUOUS
 70
0
 71
3
 72
20
 73
16
 74
0
 42
0.0000001
 43
0.0000001
 44
0.0000000001
 40
0.0
 40
0.0
 40
0.0
 40
0.0
 40
0.0624510153
 40
0.1250358108
 40
0.1875892898
 40
0.2501131682
 40
0.3126275778
 40
0.3751444506
 40
0.437682982
 40
0.5002027013
 40
0.5627223417
 40
0.6252433535
 40
0.7501308459
 40
0.8751337096
 40
1.0
 40
1.0
 40
1.0
 40
1.0
 10
-5.0619093739
 20
19.5129768353
 30
0.0
 10
-5.0619093739
 20
19.513748767
 30
0.0
 10
-5.0620054917
 20
19.5152958258
 30
0.0
 10
-5.0624268245
 20
19.5175813506
 30
0.0
 10
-5.0631200283
 20
19.5198008102
 30
0.0
 10
-5.0640667177
 20
19.5219230294
 30
0.0
 10
-5.0652454203
 20
19.5239248476
 30
0.0
 10
-5.0666347476
 20
19.5257863868
 30
0.0
 10
-5.0682087383
 20
19.527494231
 30
0.0
 10
-5.069945117
 20
19.529036258
 30
0.0
 10
-5.0718205422
 20
19.530405131
 30
0.0
 10
-5.0744747399
 20
19.5319927207
 30
0.0
 10
-5.0780412049
 20
19.5335276005
 30
0.0
 10
-5.0825596536
 20
19.5346307088
 30
0.0
 10
-5.0856538938
 20
19.5348768353
 30
0.0
 10
-5.0871973156
 20
19.5348768353
 30
0.0
  0
SPLINE
  5
5D4
100
AcDbEntity
  8
0
100
AcDbSpline
 62
7
  6
CONTINUOUS
 70
0
 71
3
 72
20
 73
16
 74
0
 42
0.0000001
 43
0.0000001
 44
0.0000000001
 40
0.0
 40
0.0
 40
0.0
 40
0.0
 40
0.0624510153
 40
0.1250358108
 40
0.1875892898
 40
0.2501131682
 40
0.3126275778
 40
0.3751444506
 40
0.437682982
 40
0.5002027013
 40
0.5627223417
 40
0.6252433535
 40
0.7501308459
 40
0.8751337096
 40
1.0
 40
1.0
 40
1.0
 40
1.0
 10
-4.628896672
 20
19.5129768353
 30
0.0
 10
-4.628896672
 20
19.513748767
 30
0.0
 10
-4.6288005541
 20
19.5152958258
 30
0.0
 10
-4.6283792213
 20
19.5175813506
 30
0.0
 10
-4.6276860175
 20
19.5198008102
 30
0.0
 10
-4.6267393281
 20
19.5219230294
 30
0.0
 10
-4.6255606256
 20
19.5239248476
 30
0.0
 10
-4.6241712982
 20
19.5257863868
 30
0.0
 10
-4.6225973076
 20
19.527494231
 30
0.0
 10
-4.6208609289
 20
19.529036258
 30
0.0
 10
-4.6189855036
 20
19.530405131
 30
0.0
 10
-4.6163313059
 20
19.5319927207
 30
0.0
 10
-4.6127648409
 20
19.5335276005
 30
0.0
 10
-4.6082463923
 20
19.5346307088
 30
0.0
 10
-4.605152152
 20
19.5348768353
 30
0.0
 10
-4.6036087302
 20
19.5348768353
 30
0.0
  0
SPLINE
  5
5D5
100
AcDbEntity
  8
0
100
AcDbSpline
 62
7
  6
CONTINUOUS
 70
0
 71
3
 72
21
 73
17
 74
0
 42
0.0000001
 43
0.0000001
 44
0.0000000001
 40
0.0
 40
0.0
 40
0.0
 40
0.0
 40
0.1249878024
 40
0.1874878899
 40
0.2499891327
 40
0.3124908104
 40
0.3749936014
 40
0.4374965966
 40
0.5
 40
0.5625034034
 40
0.6250063986
 40
0.6875091896
 40
0.7500108673
 40
0.8125121101
 40
0.8750121976
 40
1.0
 40
1.0
 40
1.0
 40
1.0
 10
-4.9536561984
 20
19.3619123349
 30
0.0
 10
-4.9448577612
 20
19.3593724449
 30
0.0
 10
-4.9315621437
 20
19.3558822359
 30
0.0
 10
-4.9136515487
 20
19.3520363084
 30
0.0
 10
-4.9001284992
 20
19.3495987534
 30
0.0
 10
-4.8865259744
 20
19.3476495297
 30
0.0
 10
-4.8728577804
 20
19.3462265406
 30
0.0
 10
-4.8591426431
 20
19.3453600027
 30
0.0
 10
-4.8454030229
 20
19.3450682639
 30
0.0
 10
-4.8316634027
 20
19.3453600027
 30
0.0
 10
-4.8179482654
 20
19.3462265406
 30
0.0
 10
-4.8042800714
 20
19.3476495297
 30
0.0
 10
-4.7906775466
 20
19.3495987534
 30
0.0
 10
-4.7771544972
 20
19.3520363084
 30
0.0
 10
-4.7592439021
 20
19.3558822359
 30
0.0
 10
-4.7459482846
 20
19.3593724449
 30
0.0
 10
-4.7371498474
 20
19.3619123349
 30
0.0
  0
SPLINE
  5
5D6
100
AcDbEntity
  8
0
100
AcDbSpline
 62
7
  6
CONTINUOUS
 70
0
 71
3
 72
20
 73
16
 74
0
 42
0.0000001
 43
0.0000001
 44
0.0000000001
 40
0.0
 40
0.0
 40
0.0
 40
0.0
 40
0.0837825316
 40
0.1668205226
 40
0.3265531609
 40
0.4737997088
 40
0.605775902
 40
0.6658290323
 40
0.7220447888
 40
0.7746430092
 40
0.824011642
 40
0.8706339298
 40
0.915072831
 40
0.9579636695
 40
1.0
 40
1.0
 40
1.0
 40
1.0
 10
-4.7371498474
 20
19.5129768353
 30
0.0
 10
-4.7371498474
 20
19.5137476764
 30
0.0
 10
-4.7371024115
 20
19.515282983
 30
0.0
 10
-4.7368279556
 20
19.5182761939
 30
0.0
 10
-4.7361707805
 20
19.52181487
 30
0.0
 10
-4.7349138777
 20
19.5256654171
 30
0.0
 10
-4.7335129255
 20
19.5284719749
 30
0.0
 10
-4.7322263165
 20
19.5303626273
 30
0.0
 10
-4.7312320936
 20
19.5315599505
 30
0.0
 10
-4.7301876418
 20
19.5325777025
 30
0.0
 10
-4.729101518
 20
19.5334135397
 30
0.0
 10
-4.7279817871
 20
19.5340658768
 30
0.0
 10
-4.7268365566
 20
19.5345329813
 30
0.0
 10
-4.7256753649
 20
19.534813927
 30
0.0
 10
-4.7248926318
 20
19.5348768353
 30
0.0
 10
-4.7245058765
 20
19.5348768353
 30
0.0
  0
SPLINE
  5
5D7
100
AcDbEntity
  8
0
100
AcDbSpline
 62
7
  6
CONTINUOUS
 70
0
 71
3
 72
11
 73
7
 74
0
 42
0.0000001
 43
0.0000001
 44
0.0000000001
 40
0.0
 40
0.0
 40
0.0
 40
0.0
 40
0.2572860881
 40
0.5096780896
 40
0.7571556577
 40
1.0
 40
1.0
 40
1.0
 40
1.0
 10
-5.0619093739
 20
19.3619123349
 30
0.0
 10
-5.0594155663
 20
19.3604725344
 30
0.0
 10
-5.0544105457
 20
19.3577302569
 30
0.0
 10
-5.0467684606
 20
19.3540573732
 30
0.0
 10
-5.0390616457
 20
19.3509267645
 30
0.0
 10
-5.0338360669
 20
19.34922973
 30
0.0
 10
-5.031218803
 20
19.3484967444
 30
0.0
  0
SPLINE
  5
5D8
100
AcDbEntity
  8
0
100
AcDbSpline
 62
7
  6
CONTINUOUS
 70
0
 71
3
 72
19
 73
15
 74
0
 42
0.0000001
 43
0.0000001
 44
0.0000000001
 40
0.0
 40
0.0
 40
0.0
 40
0.0
 40
0.1228781095
 40
0.183704646
 40
0.2442904954
 40
0.3047879769
 40
0.3653556749
 40
0.4261469538
 40
0.4873049404
 40
0.5489546854
 40
0.6111988128
 40
0.7377340531
 40
0.867314928
 40
1.0
 40
1.0
 40
1.0
 40
1.0
 10
-5.0296102819
 20
19.3480608966
 30
0.0
 10
-5.026464517
 20
19.3472372595
 30
0.0
 10
-5.0216932841
 20
19.3462419562
 30
0.0
 10
-5.0152727977
 20
19.3454638183
 30
0.0
 10
-5.0104652958
 20
19.3451625114
 30
0.0
 10
-5.0056553937
 20
19.3451459606
 30
0.0
 10
-5.0008475296
 20
19.345414653
 30
0.0
 10
-4.9960461459
 20
19.3459642316
 30
0.0
 10
-4.9912556597
 20
19.3467902301
 30
0.0
 10
-4.9864793652
 20
19.3478818908
 30
0.0
 10
-4.9801004656
 20
19.3496880997
 30
0.0
 10
-4.9721686233
 20
19.3525646613
 30
0.0
 10
-4.9628045044
 20
19.3568490666
 30
0.0
 10
-4.9566970991
 20
19.3601566701
 30
0.0
 10
-4.9536561984
 20
19.3619123349
 30
0.0
  0
SPLINE
  5
5D9
100
AcDbEntity
  8
0
100
AcDbSpline
 62
7
  6
CONTINUOUS
 70
0
 71
3
 72
20
 73
16
 74
0
 42
0.0000001
 43
0.0000001
 44
0.0000000001
 40
0.0
 40
0.0
 40
0.0
 40
0.0
 40
0.0837825316
 40
0.1668205226
 40
0.3265531609
 40
0.4737997088
 40
0.605775902
 40
0.6658290323
 40
0.7220447888
 40
0.7746430092
 40
0.824011642
 40
0.8706339298
 40
0.915072831
 40
0.9579636695
 40
1.0
 40
1.0
 40
1.0
 40
1.0
 10
-4.9536561984
 20
19.5129768353
 30
0.0
 10
-4.9536561984
 20
19.5137476764
 30
0.0
 10
-4.9537036344
 20
19.515282983
 30
0.0
 10
-4.9539780902
 20
19.5182761939
 30
0.0
 10
-4.9546352653
 20
19.52181487
 30
0.0
 10
-4.9558921681
 20
19.5256654171
 30
0.0
 10
-4.9572931203
 20
19.5284719749
 30
0.0
 10
-4.9585797294
 20
19.5303626273
 30
0.0
 10
-4.9595739522
 20
19.5315599505
 30
0.0
 10
-4.960618404
 20
19.5325777025
 30
0.0
 10
-4.9617045279
 20
19.5334135397
 30
0.0
 10
-4.9628242587
 20
19.5340658768
 30
0.0
 10
-4.9639694892
 20
19.5345329813
 30
0.0
 10
-4.9651306809
 20
19.534813927
 30
0.0
 10
-4.965913414
 20
19.5348768353
 30
0.0
 10
-4.9663001693
 20
19.5348768353
 30
0.0
  0
SPLINE
  5
5DA
100
AcDbEntity
  8
0
100
AcDbSpline
 62
7
  6
CONTINUOUS
 70
0
 71
3
 72
19
 73
15
 74
0
 42
0.0000001
 43
0.0000001
 44
0.0000000001
 40
0.0
 40
0.0
 40
0.0
 40
0.0
 40
0.132685072
 40
0.2622659469
 40
0.3888011872
 40
0.4510453146
 40
0.5126950596
 40
0.5738530462
 40
0.6346443251
 40
0.6952120231
 40
0.7557095046
 40
0.816295354
 40
0.8771218905
 40
1.0
 40
1.0
 40
1.0
 40
1.0
 10
-4.7371498474
 20
19.3619123349
 30
0.0
 10
-4.7341089467
 20
19.3601566701
 30
0.0
 10
-4.7280015414
 20
19.3568490666
 30
0.0
 10
-4.7186374225
 20
19.3525646613
 30
0.0
 10
-4.7107055802
 20
19.3496880997
 30
0.0
 10
-4.7043266807
 20
19.3478818908
 30
0.0
 10
-4.6995503861
 20
19.3467902301
 30
0.0
 10
-4.6947598999
 20
19.3459642316
 30
0.0
 10
-4.6899585162
 20
19.345414653
 30
0.0
 10
-4.6851506521
 20
19.3451459606
 30
0.0
 10
-4.68034075
 20
19.3451625114
 30
0.0
 10
-4.6755332481
 20
19.3454638183
 30
0.0
 10
-4.6691127618
 20
19.3462419562
 30
0.0
 10
-4.6643415288
 20
19.3472372595
 30
0.0
 10
-4.6611957639
 20
19.3480608966
 30
0.0
  0
SPLINE
  5
5DB
100
AcDbEntity
  8
0
100
AcDbSpline
 62
7
  6
CONTINUOUS
 70
0
 71
3
 72
11
 73
7
 74
0
 42
0.0000001
 43
0.0000001
 44
0.0000000001
 40
0.0
 40
0.0
 40
0.0
 40
0.0
 40
0.242525876
 40
0.489855189
 40
0.7423461086
 40
1.0
 40
1.0
 40
1.0
 40
1.0
 10
-4.6611957639
 20
19.3480608966
 30
0.0
 10
-4.6584396288
 20
19.3487825192
 30
0.0
 10
-4.652935007
 20
19.3504864806
 30
0.0
 10
-4.6448212659
 20
19.353701662
 30
0.0
 10
-4.6367795489
 20
19.3575238671
 30
0.0
 10
-4.6315179166
 20
19.3603989586
 30
0.0
 10
-4.628896672
 20
19.3619123349
 30
0.0
  0
SPLINE
  5
5DC
100
AcDbEntity
  8
0
100
AcDbSpline
 62
7
  6
CONTINUOUS
 70
0
 71
3
 72
20
 73
16
 74
0
 42
0.0000001
 43
0.0000001
 44
0.0000000001
 40
0.0
 40
0.0
 40
0.0
 40
0.0
 40
0.0624510153
 40
0.1250358108
 40
0.1875892898
 40
0.2501131682
 40
0.3126275778
 40
0.3751444506
 40
0.437682982
 40
0.5002027013
 40
0.5627223417
 40
0.6252433535
 40
0.7501308459
 40
0.8751337096
 40
1.0
 40
1.0
 40
1.0
 40
1.0
 10
8.188279304
 20
19.5129768353
 30
0.0
 10
8.188279304
 20
19.513748767
 30
0.0
 10
8.1881831862
 20
19.5152958258
 30
0.0
 10
8.1877618534
 20
19.5175813506
 30
0.0
 10
8.1870686496
 20
19.5198008102
 30
0.0
 10
8.1861219602
 20
19.5219230294
 30
0.0
 10
8.1849432576
 20
19.5239248476
 30
0.0
 10
8.1835539303
 20
19.5257863868
 30
0.0
 10
8.1819799396
 20
19.527494231
 30
0.0
 10
8.1802435609
 20
19.529036258
 30
0.0
 10
8.1783681357
 20
19.530405131
 30
0.0
 10
8.175713938
 20
19.5319927207
 30
0.0
 10
8.172147473
 20
19.5335276005
 30
0.0
 10
8.1676290243
 20
19.5346307088
 30
0.0
 10
8.1645347841
 20
19.5348768353
 30
0.0
 10
8.1629913623
 20
19.5348768353
 30
0.0
  0
SPLINE
  5
5DD
100
AcDbEntity
  8
0
100
AcDbSpline
 62
7
  6
CONTINUOUS
 70
0
 71
3
 72
20
 73
16
 74
0
 42
0.0000001
 43
0.0000001
 44
0.0000000001
 40
0.0
 40
0.0
 40
0.0
 40
0.0
 40
0.0624510153
 40
0.1250358108
 40
0.1875892898
 40
0.2501131682
 40
0.3126275778
 40
0.3751444506
 40
0.437682982
 40
0.5002027013
 40
0.5627223417
 40
0.6252433535
 40
0.7501308459
 40
0.8751337096
 40
1.0
 40
1.0
 40
1.0
 40
1.0
 10
8.6212920059
 20
19.5129768353
 30
0.0
 10
8.6212920059
 20
19.513748767
 30
0.0
 10
8.6213881238
 20
19.5152958258
 30
0.0
 10
8.6218094566
 20
19.5175813506
 30
0.0
 10
8.6225026604
 20
19.5198008102
 30
0.0
 10
8.6234493498
 20
19.5219230294
 30
0.0
 10
8.6246280524
 20
19.5239248476
 30
0.0
 10
8.6260173797
 20
19.5257863868
 30
0.0
 10
8.6275913704
 20
19.527494231
 30
0.0
 10
8.629327749
 20
19.529036258
 30
0.0
 10
8.6312031743
 20
19.530405131
 30
0.0
 10
8.633857372
 20
19.5319927207
 30
0.0
 10
8.637423837
 20
19.5335276005
 30
0.0
 10
8.6419422856
 20
19.5346307088
 30
0.0
 10
8.6450365259
 20
19.5348768353
 30
0.0
 10
8.6465799477
 20
19.5348768353
 30
0.0
  0
SPLINE
  5
5DE
100
AcDbEntity
  8
0
100
AcDbSpline
 62
7
  6
CONTINUOUS
 70
0
 71
3
 72
21
 73
17
 74
0
 42
0.0000001
 43
0.0000001
 44
0.0000000001
 40
0.0
 40
0.0
 40
0.0
 40
0.0
 40
0.1249878024
 40
0.1874878899
 40
0.2499891327
 40
0.3124908104
 40
0.3749936014
 40
0.4374965966
 40
0.5
 40
0.5625034034
 40
0.6250063986
 40
0.6875091896
 40
0.7500108673
 40
0.8125121101
 40
0.8750121976
 40
1.0
 40
1.0
 40
1.0
 40
1.0
 10
8.2965324795
 20
19.3619123349
 30
0.0
 10
8.3053309167
 20
19.3593724449
 30
0.0
 10
8.3186265342
 20
19.3558822359
 30
0.0
 10
8.3365371292
 20
19.3520363084
 30
0.0
 10
8.3500601787
 20
19.3495987534
 30
0.0
 10
8.3636627035
 20
19.3476495297
 30
0.0
 10
8.3773308975
 20
19.3462265406
 30
0.0
 10
8.3910460348
 20
19.3453600027
 30
0.0
 10
8.404785655
 20
19.3450682639
 30
0.0
 10
8.4185252752
 20
19.3453600027
 30
0.0
 10
8.4322404125
 20
19.3462265406
 30
0.0
 10
8.4459086065
 20
19.3476495297
 30
0.0
 10
8.4595111313
 20
19.3495987534
 30
0.0
 10
8.4730341807
 20
19.3520363084
 30
0.0
 10
8.4909447758
 20
19.3558822359
 30
0.0
 10
8.5042403933
 20
19.3593724449
 30
0.0
 10
8.5130388305
 20
19.3619123349
 30
0.0
  0
SPLINE
  5
5DF
100
AcDbEntity
  8
0
100
AcDbSpline
 62
7
  6
CONTINUOUS
 70
0
 71
3
 72
20
 73
16
 74
0
 42
0.0000001
 43
0.0000001
 44
0.0000000001
 40
0.0
 40
0.0
 40
0.0
 40
0.0
 40
0.0837825316
 40
0.1668205226
 40
0.3265531609
 40
0.4737997088
 40
0.605775902
 40
0.6658290323
 40
0.7220447888
 40
0.7746430092
 40
0.824011642
 40
0.8706339298
 40
0.915072831
 40
0.9579636695
 40
1.0
 40
1.0
 40
1.0
 40
1.0
 10
8.5130388305
 20
19.5129768353
 30
0.0
 10
8.5130388305
 20
19.5137476764
 30
0.0
 10
8.5130862664
 20
19.515282983
 30
0.0
 10
8.5133607223
 20
19.5182761939
 30
0.0
 10
8.5140178974
 20
19.52181487
 30
0.0
 10
8.5152748002
 20
19.5256654171
 30
0.0
 10
8.5166757524
 20
19.5284719749
 30
0.0
 10
8.5179623614
 20
19.5303626273
 30
0.0
 10
8.5189565843
 20
19.5315599505
 30
0.0
 10
8.5200010361
 20
19.5325777025
 30
0.0
 10
8.5210871599
 20
19.5334135397
 30
0.0
 10
8.5222068908
 20
19.5340658768
 30
0.0
 10
8.5233521213
 20
19.5345329813
 30
0.0
 10
8.524513313
 20
19.534813927
 30
0.0
 10
8.5252960461
 20
19.5348768353
 30
0.0
 10
8.5256828014
 20
19.5348768353
 30
0.0
  0
SPLINE
  5
5E0
100
AcDbEntity
  8
0
100
AcDbSpline
 62
7
  6
CONTINUOUS
 70
0
 71
3
 72
11
 73
7
 74
0
 42
0.0000001
 43
0.0000001
 44
0.0000000001
 40
0.0
 40
0.0
 40
0.0
 40
0.0
 40
0.2572860881
 40
0.5096780896
 40
0.7571556577
 40
1.0
 40
1.0
 40
1.0
 40
1.0
 10
8.188279304
 20
19.3619123349
 30
0.0
 10
8.1907731116
 20
19.3604725344
 30
0.0
 10
8.1957781322
 20
19.3577302569
 30
0.0
 10
8.2034202173
 20
19.3540573732
 30
0.0
 10
8.2111270322
 20
19.3509267645
 30
0.0
 10
8.216352611
 20
19.34922973
 30
0.0
 10
8.2189698749
 20
19.3484967444
 30
0.0
  0
SPLINE
  5
5E1
100
AcDbEntity
  8
0
100
AcDbSpline
 62
7
  6
CONTINUOUS
 70
0
 71
3
 72
19
 73
15
 74
0
 42
0.0000001
 43
0.0000001
 44
0.0000000001
 40
0.0
 40
0.0
 40
0.0
 40
0.0
 40
0.1228781095
 40
0.183704646
 40
0.2442904954
 40
0.3047879769
 40
0.3653556749
 40
0.4261469538
 40
0.4873049404
 40
0.5489546854
 40
0.6111988128
 40
0.7377340531
 40
0.867314928
 40
1.0
 40
1.0
 40
1.0
 40
1.0
 10
8.220578396
 20
19.3480608966
 30
0.0
 10
8.2237241609
 20
19.3472372595
 30
0.0
 10
8.2284953938
 20
19.3462419562
 30
0.0
 10
8.2349158802
 20
19.3454638183
 30
0.0
 10
8.2397233821
 20
19.3451625114
 30
0.0
 10
8.2445332842
 20
19.3451459606
 30
0.0
 10
8.2493411483
 20
19.345414653
 30
0.0
 10
8.254142532
 20
19.3459642316
 30
0.0
 10
8.2589330182
 20
19.3467902301
 30
0.0
 10
8.2637093127
 20
19.3478818908
 30
0.0
 10
8.2700882123
 20
19.3496880997
 30
0.0
 10
8.2780200546
 20
19.3525646613
 30
0.0
 10
8.2873841735
 20
19.3568490666
 30
0.0
 10
8.2934915788
 20
19.3601566701
 30
0.0
 10
8.2965324795
 20
19.3619123349
 30
0.0
  0
SPLINE
  5
5E2
100
AcDbEntity
  8
0
100
AcDbSpline
 62
7
  6
CONTINUOUS
 70
0
 71
3
 72
20
 73
16
 74
0
 42
0.0000001
 43
0.0000001
 44
0.0000000001
 40
0.0
 40
0.0
 40
0.0
 40
0.0
 40
0.0837825316
 40
0.1668205226
 40
0.3265531609
 40
0.4737997088
 40
0.605775902
 40
0.6658290323
 40
0.7220447888
 40
0.7746430092
 40
0.824011642
 40
0.8706339298
 40
0.915072831
 40
0.9579636695
 40
1.0
 40
1.0
 40
1.0
 40
1.0
 10
8.2965324795
 20
19.5129768353
 30
0.0
 10
8.2965324795
 20
19.5137476764
 30
0.0
 10
8.2964850435
 20
19.515282983
 30
0.0
 10
8.2962105877
 20
19.5182761939
 30
0.0
 10
8.2955534126
 20
19.52181487
 30
0.0
 10
8.2942965098
 20
19.5256654171
 30
0.0
 10
8.2928955576
 20
19.5284719749
 30
0.0
 10
8.2916089485
 20
19.5303626273
 30
0.0
 10
8.2906147257
 20
19.5315599505
 30
0.0
 10
8.2895702739
 20
19.5325777025
 30
0.0
 10
8.28848415
 20
19.5334135397
 30
0.0
 10
8.2873644192
 20
19.5340658768
 30
0.0
 10
8.2862191887
 20
19.5345329813
 30
0.0
 10
8.285057997
 20
19.534813927
 30
0.0
 10
8.2842752639
 20
19.5348768353
 30
0.0
 10
8.2838885086
 20
19.5348768353
 30
0.0
  0
SPLINE
  5
5E3
100
AcDbEntity
  8
0
100
AcDbSpline
 62
7
  6
CONTINUOUS
 70
0
 71
3
 72
19
 73
15
 74
0
 42
0.0000001
 43
0.0000001
 44
0.0000000001
 40
0.0
 40
0.0
 40
0.0
 40
0.0
 40
0.132685072
 40
0.2622659469
 40
0.3888011872
 40
0.4510453146
 40
0.5126950596
 40
0.5738530462
 40
0.6346443251
 40
0.6952120231
 40
0.7557095046
 40
0.816295354
 40
0.8771218905
 40
1.0
 40
1.0
 40
1.0
 40
1.0
 10
8.5130388305
 20
19.3619123349
 30
0.0
 10
8.5160797312
 20
19.3601566701
 30
0.0
 10
8.5221871365
 20
19.3568490666
 30
0.0
 10
8.5315512554
 20
19.3525646613
 30
0.0
 10
8.5394830977
 20
19.3496880997
 30
0.0
 10
8.5458619973
 20
19.3478818908
 30
0.0
 10
8.5506382918
 20
19.3467902301
 30
0.0
 10
8.555428778
 20
19.3459642316
 30
0.0
 10
8.5602301617
 20
19.345414653
 30
0.0
 10
8.5650380258
 20
19.3451459606
 30
0.0
 10
8.5698479279
 20
19.3451625114
 30
0.0
 10
8.5746554298
 20
19.3454638183
 30
0.0
 10
8.5810759162
 20
19.3462419562
 30
0.0
 10
8.5858471491
 20
19.3472372595
 30
0.0
 10
8.588992914
 20
19.3480608966
 30
0.0
  0
SPLINE
  5
5E4
100
AcDbEntity
  8
0
100
AcDbSpline
 62
7
  6
CONTINUOUS
 70
0
 71
3
 72
11
 73
7
 74
0
 42
0.0000001
 43
0.0000001
 44
0.0000000001
 40
0.0
 40
0.0
 40
0.0
 40
0.0
 40
0.242525876
 40
0.489855189
 40
0.7423461086
 40
1.0
 40
1.0
 40
1.0
 40
1.0
 10
8.588992914
 20
19.3480608966
 30
0.0
 10
8.5917490491
 20
19.3487825192
 30
0.0
 10
8.5972536709
 20
19.3504864806
 30
0.0
 10
8.605367412
 20
19.353701662
 30
0.0
 10
8.613409129
 20
19.3575238671
 30
0.0
 10
8.6186707613
 20
19.3603989586
 30
0.0
 10
8.6212920059
 20
19.3619123349
 30
0.0
  0
SPLINE
  5
5E5
100
AcDbEntity
  8
0
100
AcDbSpline
 62
7
  6
CONTINUOUS
 70
0
 71
3
 72
22
 73
18
 74
0
 42
0.0000001
 43
0.0000001
 44
0.0000000001
 40
0.0
 40
0.0
 40
0.0
 40
0.0
 40
0.0668355974
 40
0.1336053555
 40
0.265868876
 40
0.3312214053
 40
0.3958812363
 40
0.4597557682
 40
0.5227814317
 40
0.5849316358
 40
0.6462086834
 40
0.706651883
 40
0.7663278692
 40
0.8253550056
 40
0.8838903128
 40
0.9420778484
 40
1.0
 40
1.0
 40
1.0
 40
1.0
 10
6.4227348474
 20
19.9398768353
 30
0.0
 10
6.4227348474
 20
19.9317079463
 30
0.0
 10
6.4234340176
 20
19.9153681641
 30
0.0
 10
6.4275637007
 20
19.8831095434
 30
0.0
 10
6.4357869708
 20
19.8516559592
 30
0.0
 10
6.4479393865
 20
19.8219569842
 30
0.0
 10
6.4588630406
 20
19.8008885137
 30
0.0
 10
6.4715188273
 20
19.7811507299
 30
0.0
 10
6.4857983655
 20
19.762939713
 30
0.0
 10
6.501553011
 20
19.7464227797
 30
0.0
 10
6.5186440864
 20
19.7317707552
 30
0.0
 10
6.536897541
 20
19.7191163379
 30
0.0
 10
6.5561438865
 20
19.7085880725
 30
0.0
 10
6.5761999917
 20
19.7002880661
 30
0.0
 10
6.5968761366
 20
19.6942991438
 30
0.0
 10
6.6179577539
 20
19.6906887866
 30
0.0
 10
6.632161743
 20
19.6898768353
 30
0.0
 10
6.6392411984
 20
19.6898768353
 30
0.0
  0
SPLINE
  5
5E6
100
AcDbEntity
  8
0
100
AcDbSpline
 62
7
  6
CONTINUOUS
 70
0
 71
3
 72
14
 73
10
 74
0
 42
0.0000001
 43
0.0000001
 44
0.0000000001
 40
0.0
 40
0.0
 40
0.0
 40
0.0
 40
0.1188090202
 40
0.2397266908
 40
0.3627224963
 40
0.4876225909
 40
0.7418036495
 40
0.8707842087
 40
1.0
 40
1.0
 40
1.0
 40
1.0
 10
7.0786122148
 20
19.8363226006
 30
0.0
 10
7.0749349259
 20
19.8391941994
 30
0.0
 10
7.0678790803
 20
19.8454706632
 30
0.0
 10
7.0584600529
 20
19.8561997308
 30
0.0
 10
7.0502459039
 20
19.8681712385
 30
0.0
 10
7.0410069137
 20
19.885626669
 30
0.0
 10
7.0347021619
 20
19.9047587367
 30
0.0
 10
7.0315289792
 20
19.9246533843
 30
0.0
 10
7.0309880229
 20
19.9348024813
 30
0.0
 10
7.0309880229
 20
19.9398768353
 30
0.0
  0
SPLINE
  5
5E7
100
AcDbEntity
  8
0
100
AcDbSpline
 62
7
  6
CONTINUOUS
 70
0
 71
3
 72
17
 73
13
 74
0
 42
0.0000001
 43
0.0000001
 44
0.0000000001
 40
0.0
 40
0.0
 40
0.0
 40
0.0
 40
0.1335534506
 40
0.2659536306
 40
0.395915364
 40
0.5227705285
 40
0.6461361633
 40
0.706615475
 40
0.7663312067
 40
0.8254132386
 40
0.884014456
 40
1.0
 40
1.0
 40
1.0
 40
1.0
 10
6.5309880229
 20
19.9398768353
 30
0.0
 10
6.5309880229
 20
19.9317211477
 30
0.0
 10
6.5323717952
 20
19.9154464314
 30
0.0
 10
6.5385111572
 20
19.8919423499
 30
0.0
 10
6.5485115872
 20
19.8702367987
 30
0.0
 10
6.5619853827
 20
19.8511659126
 30
0.0
 10
6.5758257633
 20
19.8379844924
 30
0.0
 10
6.5880677948
 20
19.8294964854
 30
0.0
 10
6.5976916316
 20
19.8242334783
 30
0.0
 10
6.6077226897
 20
19.8200807098
 30
0.0
 10
6.62144839
 20
19.8161083871
 30
0.0
 10
6.6321583274
 20
19.8148768353
 30
0.0
 10
6.6392411984
 20
19.8148768353
 30
0.0
  0
SPLINE
  5
5E8
100
AcDbEntity
  8
0
100
AcDbSpline
 62
7
  6
CONTINUOUS
 70
0
 71
3
 72
14
 73
10
 74
0
 42
0.0000001
 43
0.0000001
 44
0.0000000001
 40
0.0
 40
0.0
 40
0.0
 40
0.0
 40
0.1292157913
 40
0.2581963505
 40
0.5123774091
 40
0.6372775037
 40
0.7602733092
 40
0.8811909798
 40
1.0
 40
1.0
 40
1.0
 40
1.0
 10
-3.4716053908
 20
19.9398768353
 30
0.0
 10
-3.4716053908
 20
19.9348024813
 30
0.0
 10
-3.4721463471
 20
19.9246533843
 30
0.0
 10
-3.4753195299
 20
19.9047587367
 30
0.0
 10
-3.4816242816
 20
19.885626669
 30
0.0
 10
-3.4908632718
 20
19.8681712385
 30
0.0
 10
-3.4990774209
 20
19.8561997308
 30
0.0
 10
-3.5084964483
 20
19.8454706632
 30
0.0
 10
-3.5155522938
 20
19.8391941994
 30
0.0
 10
-3.5192295827
 20
19.8363226006
 30
0.0
  0
SPLINE
  5
5E9
100
AcDbEntity
  8
0
100
AcDbSpline
 62
7
  6
CONTINUOUS
 70
0
 71
3
 72
22
 73
18
 74
0
 42
0.0000001
 43
0.0000001
 44
0.0000000001
 40
0.0
 40
0.0
 40
0.0
 40
0.0
 40
0.0579221516
 40
0.1161096872
 40
0.1746449944
 40
0.2336721308
 40
0.293348117
 40
0.3537913166
 40
0.4150683642
 40
0.4772185683
 40
0.5402442318
 40
0.6041187637
 40
0.6687785947
 40
0.734131124
 40
0.8663946445
 40
0.9331644026
 40
1.0
 40
1.0
 40
1.0
 40
1.0
 10
-3.0798585663
 20
19.6898768353
 30
0.0
 10
-3.072779111
 20
19.6898768353
 30
0.0
 10
-3.0585751218
 20
19.6906887866
 30
0.0
 10
-3.0374935045
 20
19.6942991438
 30
0.0
 10
-3.0168173596
 20
19.7002880661
 30
0.0
 10
-2.9967612544
 20
19.7085880725
 30
0.0
 10
-2.9775149089
 20
19.7191163379
 30
0.0
 10
-2.9592614543
 20
19.7317707552
 30
0.0
 10
-2.9421703789
 20
19.7464227797
 30
0.0
 10
-2.9264157334
 20
19.762939713
 30
0.0
 10
-2.9121361952
 20
19.7811507299
 30
0.0
 10
-2.8994804086
 20
19.8008885137
 30
0.0
 10
-2.8885567544
 20
19.8219569842
 30
0.0
 10
-2.8764043387
 20
19.8516559592
 30
0.0
 10
-2.8681810686
 20
19.8831095434
 30
0.0
 10
-2.8640513856
 20
19.9153681641
 30
0.0
 10
-2.8633522153
 20
19.9317079463
 30
0.0
 10
-2.8633522153
 20
19.9398768353
 30
0.0
  0
SPLINE
  5
5EA
100
AcDbEntity
  8
0
100
AcDbSpline
 62
7
  6
CONTINUOUS
 70
0
 71
3
 72
17
 73
13
 74
0
 42
0.0000001
 43
0.0000001
 44
0.0000000001
 40
0.0
 40
0.0
 40
0.0
 40
0.0
 40
0.115985544
 40
0.1745867614
 40
0.2336687933
 40
0.293384525
 40
0.3538638367
 40
0.4772294715
 40
0.604084636
 40
0.7340463694
 40
0.8664465494
 40
1.0
 40
1.0
 40
1.0
 40
1.0
 10
-3.0798585663
 20
19.8148768353
 30
0.0
 10
-3.0727756953
 20
19.8148768353
 30
0.0
 10
-3.0620657579
 20
19.8161083871
 30
0.0
 10
-3.0483400576
 20
19.8200807098
 30
0.0
 10
-3.0383089995
 20
19.8242334783
 30
0.0
 10
-3.0286851627
 20
19.8294964854
 30
0.0
 10
-3.0164431312
 20
19.8379844924
 30
0.0
 10
-3.0026027507
 20
19.8511659126
 30
0.0
 10
-2.9891289552
 20
19.8702367987
 30
0.0
 10
-2.9791285251
 20
19.8919423499
 30
0.0
 10
-2.9729891631
 20
19.9154464314
 30
0.0
 10
-2.9716053908
 20
19.9317211477
 30
0.0
 10
-2.9716053908
 20
19.9398768353
 30
0.0
  0
SPLINE
  5
5EB
100
AcDbEntity
  8
PARTDTMS
100
AcDbSpline
 62
7
  6
CONTINUOUS
 70
0
 71
3
 72
25
 73
21
 74
0
 42
0.0000001
 43
0.0000001
 44
0.0000000001
 40
0.0
 40
0.0
 40
0.0
 40
0.0
 40
0.06488955
 40
0.1289988604
 40
0.1923314224
 40
0.2549244423
 40
0.3168521965
 40
0.3782302287
 40
0.4087642784
 40
0.439222261
 40
0.5000000078
 40
0.5607777541
 40
0.5912357371
 40
0.6217697863
 40
0.6831478174
 40
0.7450755695
 40
0.8076685875
 40
0.8710011442
 40
0.9351104512
 40
1.0
 40
1.0
 40
1.0
 40
1.0
 10
25.2448863203
 20
19.8338694846
 30
0.0
 10
25.2423402027
 20
19.8350567588
 30
0.0
 10
25.2372366239
 20
19.8373286429
 30
0.0
 10
25.2294975846
 20
19.8404081529
 30
0.0
 10
25.22172048
 20
19.8431022877
 30
0.0
 10
25.2139068842
 20
19.8453728162
 30
0.0
 10
25.2060605522
 20
19.8471844455
 30
0.0
 10
25.1994870769
 20
19.848286134
 30
0.0
 10
25.1942249076
 20
19.8489075973
 30
0.0
 10
25.1889709485
 20
19.8493522247
 30
0.0
 10
25.1823881526
 20
19.8495774013
 30
0.0
 10
25.1758053567
 20
19.8493522243
 30
0.0
 10
25.1705513977
 20
19.8489075966
 30
0.0
 10
25.1652892283
 20
19.8482861349
 30
0.0
 10
25.1587157535
 20
19.8471844442
 30
0.0
 10
25.1508694214
 20
19.8453728163
 30
0.0
 10
25.1430558262
 20
19.8431022873
 30
0.0
 10
25.135278722
 20
19.8404081527
 30
0.0
 10
25.1275396832
 20
19.8373286427
 30
0.0
 10
25.1224361045
 20
19.8350567587
 30
0.0
 10
25.119889987
 20
19.8338694846
 30
0.0
  0
SPLINE
  5
5EC
100
AcDbEntity
  8
PARTDTMS
100
AcDbSpline
 62
7
  6
CONTINUOUS
 70
0
 71
3
 72
25
 73
21
 74
0
 42
0.0000001
 43
0.0000001
 44
0.0000000001
 40
0.0
 40
0.0
 40
0.0
 40
0.0
 40
0.06488955
 40
0.1289988604
 40
0.1923314224
 40
0.2549244423
 40
0.3168521965
 40
0.3782302287
 40
0.4087642784
 40
0.439222261
 40
0.5000000078
 40
0.5607777541
 40
0.5912357371
 40
0.6217697863
 40
0.6831478174
 40
0.7450755695
 40
0.8076685875
 40
0.8710011442
 40
0.9351104512
 40
1.0
 40
1.0
 40
1.0
 40
1.0
 10
25.6198753201
 20
19.8338694846
 30
0.0
 10
25.6173292025
 20
19.8350567588
 30
0.0
 10
25.6122256237
 20
19.8373286429
 30
0.0
 10
25.6044865844
 20
19.8404081529
 30
0.0
 10
25.5967094798
 20
19.8431022877
 30
0.0
 10
25.5888958841
 20
19.8453728162
 30
0.0
 10
25.581049552
 20
19.8471844455
 30
0.0
 10
25.5744760768
 20
19.848286134
 30
0.0
 10
25.5692139074
 20
19.8489075973
 30
0.0
 10
25.5639599484
 20
19.8493522247
 30
0.0
 10
25.5573771525
 20
19.8495774013
 30
0.0
 10
25.5507943566
 20
19.8493522243
 30
0.0
 10
25.5455403976
 20
19.8489075966
 30
0.0
 10
25.5402782281
 20
19.8482861349
 30
0.0
 10
25.5337047533
 20
19.8471844442
 30
0.0
 10
25.5258584213
 20
19.8453728163
 30
0.0
 10
25.518044826
 20
19.8431022873
 30
0.0
 10
25.5102677218
 20
19.8404081527
 30
0.0
 10
25.502528683
 20
19.8373286427
 30
0.0
 10
25.4974251044
 20
19.8350567587
 30
0.0
 10
25.4948789868
 20
19.8338694846
 30
0.0
  0
SPLINE
  5
5ED
100
AcDbEntity
  8
PARTDTMS
100
AcDbSpline
 62
7
  6
CONTINUOUS
 70
0
 71
3
 72
15
 73
11
 74
0
 42
0.0000001
 43
0.0000001
 44
0.0000000001
 40
0.0
 40
0.0
 40
0.0
 40
0.0
 40
0.1250007492
 40
0.1875072892
 40
0.2500120474
 40
0.3750141829
 40
0.5000154017
 40
0.6250167906
 40
0.750016761
 40
1.0
 40
1.0
 40
1.0
 40
1.0
 10
35.5948826535
 20
19.8494873715
 30
0.0
 10
35.589622412
 20
19.8494873715
 30
0.0
 10
35.5817309546
 20
19.8493526401
 30
0.0
 10
35.5712190809
 20
19.8489080928
 30
0.0
 10
35.5607159335
 20
19.8482881353
 30
0.0
 10
35.5476084128
 20
19.847191344
 30
0.0
 10
35.5319291024
 20
19.8453837084
 30
0.0
 10
35.5163097774
 20
19.8431168916
 30
0.0
 10
35.4955758368
 20
19.8395289794
 30
0.0
 10
35.4801312587
 20
19.8362581313
 30
0.0
 10
35.4698863203
 20
19.8338694846
 30
0.0
  0
SPLINE
  5
5EE
100
AcDbEntity
  8
PARTDTMS
100
AcDbSpline
 62
7
  6
CONTINUOUS
 70
0
 71
3
 72
15
 73
11
 74
0
 42
0.0000001
 43
0.0000001
 44
0.0000000001
 40
0.0
 40
0.0
 40
0.0
 40
0.0
 40
0.2499834707
 40
0.3749835405
 40
0.4999849153
 40
0.6249861373
 40
0.7499881945
 40
0.8124928614
 40
0.8749993113
 40
1.0
 40
1.0
 40
1.0
 40
1.0
 10
35.7198789868
 20
19.8338694846
 30
0.0
 10
35.7096340389
 20
19.8362581335
 30
0.0
 10
35.694189447
 20
19.839528984
 30
0.0
 10
35.673455493
 20
19.8431168972
 30
0.0
 10
35.6578361639
 20
19.8453837113
 30
0.0
 10
35.642156858
 20
19.8471913548
 30
0.0
 10
35.6290493433
 20
19.8482881323
 30
0.0
 10
35.6185462072
 20
19.8489080959
 30
0.0
 10
35.6080343438
 20
19.8493526476
 30
0.0
 10
35.6001428925
 20
19.8494873715
 30
0.0
 10
35.5948826535
 20
19.8494873715
 30
0.0
  0
SPLINE
  5
5EF
100
AcDbEntity
  8
PARTDTMS
100
AcDbSpline
 62
7
  6
CONTINUOUS
 70
0
 71
3
 72
25
 73
21
 74
0
 42
0.0000001
 43
0.0000001
 44
0.0000000001
 40
0.0
 40
0.0
 40
0.0
 40
0.0
 40
0.06488955
 40
0.1289988604
 40
0.1923314224
 40
0.2549244423
 40
0.3168521965
 40
0.3782302287
 40
0.4087642784
 40
0.439222261
 40
0.5000000078
 40
0.5607777541
 40
0.5912357371
 40
0.6217697863
 40
0.6831478174
 40
0.7450755695
 40
0.8076685875
 40
0.8710011442
 40
0.9351104512
 40
1.0
 40
1.0
 40
1.0
 40
1.0
 10
35.4698863203
 20
19.8338694846
 30
0.0
 10
35.4673402027
 20
19.8350567588
 30
0.0
 10
35.4622366239
 20
19.8373286429
 30
0.0
 10
35.4544975846
 20
19.8404081529
 30
0.0
 10
35.44672048
 20
19.8431022877
 30
0.0
 10
35.4389068842
 20
19.8453728162
 30
0.0
 10
35.4310605522
 20
19.8471844455
 30
0.0
 10
35.4244870769
 20
19.848286134
 30
0.0
 10
35.4192249076
 20
19.8489075973
 30
0.0
 10
35.4139709485
 20
19.8493522247
 30
0.0
 10
35.4073881526
 20
19.8495774013
 30
0.0
 10
35.4008053567
 20
19.8493522243
 30
0.0
 10
35.3955513977
 20
19.8489075966
 30
0.0
 10
35.3902892283
 20
19.8482861349
 30
0.0
 10
35.3837157535
 20
19.8471844442
 30
0.0
 10
35.3758694214
 20
19.8453728163
 30
0.0
 10
35.3680558262
 20
19.8431022873
 30
0.0
 10
35.360278722
 20
19.8404081527
 30
0.0
 10
35.3525396832
 20
19.8373286427
 30
0.0
 10
35.3474361045
 20
19.8350567587
 30
0.0
 10
35.344889987
 20
19.8338694846
 30
0.0
  0
SPLINE
  5
5F0
100
AcDbEntity
  8
PARTDTMS
100
AcDbSpline
 62
7
  6
CONTINUOUS
 70
0
 71
3
 72
25
 73
21
 74
0
 42
0.0000001
 43
0.0000001
 44
0.0000000001
 40
0.0
 40
0.0
 40
0.0
 40
0.0
 40
0.06488955
 40
0.1289988604
 40
0.1923314224
 40
0.2549244423
 40
0.3168521965
 40
0.3782302287
 40
0.4087642784
 40
0.439222261
 40
0.5000000078
 40
0.5607777541
 40
0.5912357371
 40
0.6217697863
 40
0.6831478174
 40
0.7450755695
 40
0.8076685875
 40
0.8710011442
 40
0.9351104512
 40
1.0
 40
1.0
 40
1.0
 40
1.0
 10
35.8448753201
 20
19.8338694846
 30
0.0
 10
35.8423292025
 20
19.8350567588
 30
0.0
 10
35.8372256237
 20
19.8373286429
 30
0.0
 10
35.8294865844
 20
19.8404081529
 30
0.0
 10
35.8217094798
 20
19.8431022877
 30
0.0
 10
35.8138958841
 20
19.8453728162
 30
0.0
 10
35.806049552
 20
19.8471844455
 30
0.0
 10
35.7994760768
 20
19.848286134
 30
0.0
 10
35.7942139074
 20
19.8489075973
 30
0.0
 10
35.7889599484
 20
19.8493522247
 30
0.0
 10
35.7823771525
 20
19.8495774013
 30
0.0
 10
35.7757943566
 20
19.8493522243
 30
0.0
 10
35.7705403976
 20
19.8489075966
 30
0.0
 10
35.7652782281
 20
19.8482861349
 30
0.0
 10
35.7587047533
 20
19.8471844442
 30
0.0
 10
35.7508584213
 20
19.8453728163
 30
0.0
 10
35.743044826
 20
19.8431022873
 30
0.0
 10
35.7352677218
 20
19.8404081527
 30
0.0
 10
35.727528683
 20
19.8373286427
 30
0.0
 10
35.7224251044
 20
19.8350567587
 30
0.0
 10
35.7198789868
 20
19.8338694846
 30
0.0
  0
SPLINE
  5
5F1
100
AcDbEntity
  8
PARTDTMS
100
AcDbSpline
 62
7
  6
CONTINUOUS
 70
0
 71
3
 72
15
 73
11
 74
0
 42
0.0000001
 43
0.0000001
 44
0.0000000001
 40
0.0
 40
0.0
 40
0.0
 40
0.0
 40
0.1250007492
 40
0.1875072892
 40
0.2500120474
 40
0.3750141829
 40
0.5000154017
 40
0.6250167906
 40
0.750016761
 40
1.0
 40
1.0
 40
1.0
 40
1.0
 10
36.8448826535
 20
19.8494873715
 30
0.0
 10
36.839622412
 20
19.8494873715
 30
0.0
 10
36.8317309546
 20
19.8493526401
 30
0.0
 10
36.8212190809
 20
19.8489080928
 30
0.0
 10
36.8107159335
 20
19.8482881353
 30
0.0
 10
36.7976084128
 20
19.847191344
 30
0.0
 10
36.7819291024
 20
19.8453837084
 30
0.0
 10
36.7663097774
 20
19.8431168916
 30
0.0
 10
36.7455758368
 20
19.8395289794
 30
0.0
 10
36.7301312587
 20
19.8362581313
 30
0.0
 10
36.7198863203
 20
19.8338694846
 30
0.0
  0
SPLINE
  5
5F2
100
AcDbEntity
  8
PARTDTMS
100
AcDbSpline
 62
7
  6
CONTINUOUS
 70
0
 71
3
 72
15
 73
11
 74
0
 42
0.0000001
 43
0.0000001
 44
0.0000000001
 40
0.0
 40
0.0
 40
0.0
 40
0.0
 40
0.2499834707
 40
0.3749835405
 40
0.4999849153
 40
0.6249861373
 40
0.7499881945
 40
0.8124928614
 40
0.8749993113
 40
1.0
 40
1.0
 40
1.0
 40
1.0
 10
36.9698789868
 20
19.8338694846
 30
0.0
 10
36.9596340389
 20
19.8362581335
 30
0.0
 10
36.944189447
 20
19.839528984
 30
0.0
 10
36.923455493
 20
19.8431168972
 30
0.0
 10
36.9078361639
 20
19.8453837113
 30
0.0
 10
36.892156858
 20
19.8471913548
 30
0.0
 10
36.8790493433
 20
19.8482881323
 30
0.0
 10
36.8685462072
 20
19.8489080959
 30
0.0
 10
36.8580343438
 20
19.8493526476
 30
0.0
 10
36.8501428925
 20
19.8494873715
 30
0.0
 10
36.8448826535
 20
19.8494873715
 30
0.0
  0
SPLINE
  5
5F3
100
AcDbEntity
  8
PARTDTMS
100
AcDbSpline
 62
7
  6
CONTINUOUS
 70
0
 71
3
 72
25
 73
21
 74
0
 42
0.0000001
 43
0.0000001
 44
0.0000000001
 40
0.0
 40
0.0
 40
0.0
 40
0.0
 40
0.06488955
 40
0.1289988604
 40
0.1923314224
 40
0.2549244423
 40
0.3168521965
 40
0.3782302287
 40
0.4087642784
 40
0.439222261
 40
0.5000000078
 40
0.5607777541
 40
0.5912357371
 40
0.6217697863
 40
0.6831478174
 40
0.7450755695
 40
0.8076685875
 40
0.8710011442
 40
0.9351104512
 40
1.0
 40
1.0
 40
1.0
 40
1.0
 10
36.7198863203
 20
19.8338694846
 30
0.0
 10
36.7173402027
 20
19.8350567588
 30
0.0
 10
36.7122366239
 20
19.8373286429
 30
0.0
 10
36.7044975846
 20
19.8404081529
 30
0.0
 10
36.69672048
 20
19.8431022877
 30
0.0
 10
36.6889068842
 20
19.8453728162
 30
0.0
 10
36.6810605522
 20
19.8471844455
 30
0.0
 10
36.6744870769
 20
19.848286134
 30
0.0
 10
36.6692249076
 20
19.8489075973
 30
0.0
 10
36.6639709485
 20
19.8493522247
 30
0.0
 10
36.6573881526
 20
19.8495774013
 30
0.0
 10
36.6508053567
 20
19.8493522243
 30
0.0
 10
36.6455513977
 20
19.8489075966
 30
0.0
 10
36.6402892283
 20
19.8482861349
 30
0.0
 10
36.6337157535
 20
19.8471844442
 30
0.0
 10
36.6258694214
 20
19.8453728163
 30
0.0
 10
36.6180558262
 20
19.8431022873
 30
0.0
 10
36.610278722
 20
19.8404081527
 30
0.0
 10
36.6025396832
 20
19.8373286427
 30
0.0
 10
36.5974361045
 20
19.8350567587
 30
0.0
 10
36.594889987
 20
19.8338694846
 30
0.0
  0
SPLINE
  5
5F4
100
AcDbEntity
  8
PARTDTMS
100
AcDbSpline
 62
7
  6
CONTINUOUS
 70
0
 71
3
 72
25
 73
21
 74
0
 42
0.0000001
 43
0.0000001
 44
0.0000000001
 40
0.0
 40
0.0
 40
0.0
 40
0.0
 40
0.06488955
 40
0.1289988604
 40
0.1923314224
 40
0.2549244423
 40
0.3168521965
 40
0.3782302287
 40
0.4087642784
 40
0.439222261
 40
0.5000000078
 40
0.5607777541
 40
0.5912357371
 40
0.6217697863
 40
0.6831478174
 40
0.7450755695
 40
0.8076685875
 40
0.8710011442
 40
0.9351104512
 40
1.0
 40
1.0
 40
1.0
 40
1.0
 10
37.0948753201
 20
19.8338694846
 30
0.0
 10
37.0923292025
 20
19.8350567588
 30
0.0
 10
37.0872256237
 20
19.8373286429
 30
0.0
 10
37.0794865844
 20
19.8404081529
 30
0.0
 10
37.0717094798
 20
19.8431022877
 30
0.0
 10
37.0638958841
 20
19.8453728162
 30
0.0
 10
37.056049552
 20
19.8471844455
 30
0.0
 10
37.0494760768
 20
19.848286134
 30
0.0
 10
37.0442139074
 20
19.8489075973
 30
0.0
 10
37.0389599484
 20
19.8493522247
 30
0.0
 10
37.0323771525
 20
19.8495774013
 30
0.0
 10
37.0257943566
 20
19.8493522243
 30
0.0
 10
37.0205403976
 20
19.8489075966
 30
0.0
 10
37.0152782281
 20
19.8482861349
 30
0.0
 10
37.0087047533
 20
19.8471844442
 30
0.0
 10
37.0008584213
 20
19.8453728163
 30
0.0
 10
36.993044826
 20
19.8431022873
 30
0.0
 10
36.9852677218
 20
19.8404081527
 30
0.0
 10
36.977528683
 20
19.8373286427
 30
0.0
 10
36.9724251044
 20
19.8350567587
 30
0.0
 10
36.9698789868
 20
19.8338694846
 30
0.0
  0
SPLINE
  5
5F5
100
AcDbEntity
  8
PARTDTMS
100
AcDbSpline
 62
7
  6
CONTINUOUS
 70
0
 71
3
 72
15
 73
11
 74
0
 42
0.0000001
 43
0.0000001
 44
0.0000000001
 40
0.0
 40
0.0
 40
0.0
 40
0.0
 40
0.1250007492
 40
0.1875072892
 40
0.2500120474
 40
0.3750141829
 40
0.5000154017
 40
0.6250167906
 40
0.750016761
 40
1.0
 40
1.0
 40
1.0
 40
1.0
 10
25.9948826535
 20
19.8494873715
 30
0.0
 10
25.989622412
 20
19.8494873715
 30
0.0
 10
25.9817309546
 20
19.8493526401
 30
0.0
 10
25.9712190809
 20
19.8489080928
 30
0.0
 10
25.9607159335
 20
19.8482881353
 30
0.0
 10
25.9476084128
 20
19.847191344
 30
0.0
 10
25.9319291024
 20
19.8453837084
 30
0.0
 10
25.9163097774
 20
19.8431168916
 30
0.0
 10
25.8955758368
 20
19.8395289794
 30
0.0
 10
25.8801312587
 20
19.8362581313
 30
0.0
 10
25.8698863203
 20
19.8338694846
 30
0.0
  0
SPLINE
  5
5F6
100
AcDbEntity
  8
PARTDTMS
100
AcDbSpline
 62
7
  6
CONTINUOUS
 70
0
 71
3
 72
15
 73
11
 74
0
 42
0.0000001
 43
0.0000001
 44
0.0000000001
 40
0.0
 40
0.0
 40
0.0
 40
0.0
 40
0.2499834707
 40
0.3749835405
 40
0.4999849153
 40
0.6249861373
 40
0.7499881945
 40
0.8124928614
 40
0.8749993113
 40
1.0
 40
1.0
 40
1.0
 40
1.0
 10
26.1198789868
 20
19.8338694846
 30
0.0
 10
26.1096340389
 20
19.8362581335
 30
0.0
 10
26.094189447
 20
19.839528984
 30
0.0
 10
26.073455493
 20
19.8431168972
 30
0.0
 10
26.0578361639
 20
19.8453837113
 30
0.0
 10
26.042156858
 20
19.8471913548
 30
0.0
 10
26.0290493433
 20
19.8482881323
 30
0.0
 10
26.0185462072
 20
19.8489080959
 30
0.0
 10
26.0080343438
 20
19.8493526476
 30
0.0
 10
26.0001428925
 20
19.8494873715
 30
0.0
 10
25.9948826535
 20
19.8494873715
 30
0.0
  0
SPLINE
  5
5F7
100
AcDbEntity
  8
PARTDTMS
100
AcDbSpline
 62
7
  6
CONTINUOUS
 70
0
 71
3
 72
25
 73
21
 74
0
 42
0.0000001
 43
0.0000001
 44
0.0000000001
 40
0.0
 40
0.0
 40
0.0
 40
0.0
 40
0.06488955
 40
0.1289988604
 40
0.1923314224
 40
0.2549244423
 40
0.3168521965
 40
0.3782302287
 40
0.4087642784
 40
0.439222261
 40
0.5000000078
 40
0.5607777541
 40
0.5912357371
 40
0.6217697863
 40
0.6831478174
 40
0.7450755695
 40
0.8076685875
 40
0.8710011442
 40
0.9351104512
 40
1.0
 40
1.0
 40
1.0
 40
1.0
 10
25.8698863203
 20
19.8338694846
 30
0.0
 10
25.8673402027
 20
19.8350567588
 30
0.0
 10
25.8622366239
 20
19.8373286429
 30
0.0
 10
25.8544975846
 20
19.8404081529
 30
0.0
 10
25.84672048
 20
19.8431022877
 30
0.0
 10
25.8389068842
 20
19.8453728162
 30
0.0
 10
25.8310605522
 20
19.8471844455
 30
0.0
 10
25.8244870769
 20
19.848286134
 30
0.0
 10
25.8192249076
 20
19.8489075973
 30
0.0
 10
25.8139709485
 20
19.8493522247
 30
0.0
 10
25.8073881526
 20
19.8495774013
 30
0.0
 10
25.8008053567
 20
19.8493522243
 30
0.0
 10
25.7955513977
 20
19.8489075966
 30
0.0
 10
25.7902892283
 20
19.8482861349
 30
0.0
 10
25.7837157535
 20
19.8471844442
 30
0.0
 10
25.7758694214
 20
19.8453728163
 30
0.0
 10
25.7680558262
 20
19.8431022873
 30
0.0
 10
25.760278722
 20
19.8404081527
 30
0.0
 10
25.7525396832
 20
19.8373286427
 30
0.0
 10
25.7474361045
 20
19.8350567587
 30
0.0
 10
25.744889987
 20
19.8338694846
 30
0.0
  0
SPLINE
  5
5F8
100
AcDbEntity
  8
PARTDTMS
100
AcDbSpline
 62
7
  6
CONTINUOUS
 70
0
 71
3
 72
25
 73
21
 74
0
 42
0.0000001
 43
0.0000001
 44
0.0000000001
 40
0.0
 40
0.0
 40
0.0
 40
0.0
 40
0.06488955
 40
0.1289988604
 40
0.1923314224
 40
0.2549244423
 40
0.3168521965
 40
0.3782302287
 40
0.4087642784
 40
0.439222261
 40
0.5000000078
 40
0.5607777541
 40
0.5912357371
 40
0.6217697863
 40
0.6831478174
 40
0.7450755695
 40
0.8076685875
 40
0.8710011442
 40
0.9351104512
 40
1.0
 40
1.0
 40
1.0
 40
1.0
 10
26.2448753201
 20
19.8338694846
 30
0.0
 10
26.2423292025
 20
19.8350567588
 30
0.0
 10
26.2372256237
 20
19.8373286429
 30
0.0
 10
26.2294865844
 20
19.8404081529
 30
0.0
 10
26.2217094798
 20
19.8431022877
 30
0.0
 10
26.2138958841
 20
19.8453728162
 30
0.0
 10
26.206049552
 20
19.8471844455
 30
0.0
 10
26.1994760768
 20
19.848286134
 30
0.0
 10
26.1942139074
 20
19.8489075973
 30
0.0
 10
26.1889599484
 20
19.8493522247
 30
0.0
 10
26.1823771525
 20
19.8495774013
 30
0.0
 10
26.1757943566
 20
19.8493522243
 30
0.0
 10
26.1705403976
 20
19.8489075966
 30
0.0
 10
26.1652782281
 20
19.8482861349
 30
0.0
 10
26.1587047533
 20
19.8471844442
 30
0.0
 10
26.1508584213
 20
19.8453728163
 30
0.0
 10
26.143044826
 20
19.8431022873
 30
0.0
 10
26.1352677218
 20
19.8404081527
 30
0.0
 10
26.127528683
 20
19.8373286427
 30
0.0
 10
26.1224251044
 20
19.8350567587
 30
0.0
 10
26.1198789868
 20
19.8338694846
 30
0.0
  0
SPLINE
  5
5F9
100
AcDbEntity
  8
0
100
AcDbSpline
 62
7
  6
CONTINUOUS
 70
0
 71
3
 72
61
 73
57
 74
0
 42
0.0000001
 43
0.0000001
 44
0.0000000001
 40
0.0
 40
0.0
 40
0.0
 40
0.0
 40
0.0334291029
 40
0.0501292469
 40
0.0667963495
 40
0.0999901962
 40
0.1165096459
 40
0.1329636835
 40
0.1493438214
 40
0.165642522
 40
0.1979621793
 40
0.2139807246
 40
0.2298965263
 40
0.245706158
 40
0.2614073778
 40
0.2769989851
 40
0.2924805968
 40
0.3078531257
 40
0.3231185188
 40
0.3382796167
 40
0.3533405906
 40
0.3683065699
 40
0.3831835726
 40
0.4126893505
 40
0.427345898
 40
0.4419471963
 40
0.4565034442
 40
0.4710253968
 40
0.5
 40
0.5289746032
 40
0.5434965558
 40
0.5580528037
 40
0.572654102
 40
0.5873106495
 40
0.6168164274
 40
0.6316934301
 40
0.6466594094
 40
0.6617203833
 40
0.6768814812
 40
0.6921468743
 40
0.7075194032
 40
0.7230010149
 40
0.7385926222
 40
0.754293842
 40
0.7701034737
 40
0.7860192754
 40
0.8020378207
 40
0.834357478
 40
0.8506561786
 40
0.8670363165
 40
0.8834903541
 40
0.9000098038
 40
0.9332036505
 40
0.9498707531
 40
0.9665708971
 40
1.0
 40
1.0
 40
1.0
 40
1.0
 10
26.1135076998
 20
22.2798768353
 30
0.0
 10
26.1135076998
 20
22.2862528742
 30
0.0
 10
26.1139149202
 20
22.2958206671
 30
0.0
 10
26.1152671465
 20
22.3084918459
 30
0.0
 10
26.1171537602
 20
22.3210495015
 30
0.0
 10
26.1198385045
 20
22.3334416919
 30
0.0
 10
26.1233102662
 20
22.3455782699
 30
0.0
 10
26.1262928354
 20
22.3545099597
 30
0.0
 10
26.1296513923
 20
22.3632622109
 30
0.0
 10
26.1346055725
 20
22.3746299447
 30
0.0
 10
26.1402885859
 20
22.3855934053
 30
0.0
 10
26.1466708031
 20
22.3960597432
 30
0.0
 10
26.1517705588
 20
22.4036084349
 30
0.0
 10
26.1571851301
 20
22.4108589909
 30
0.0
 10
26.1629017197
 20
22.4177940966
 30
0.0
 10
26.1689058549
 20
22.4243975643
 30
0.0
 10
26.1751838205
 20
22.430652892
 30
0.0
 10
26.1817204155
 20
22.4365450096
 30
0.0
 10
26.1884993938
 20
22.4420603227
 30
0.0
 10
26.1955051606
 20
22.4471847176
 30
0.0
 10
26.202720484
 20
22.4519059928
 30
0.0
 10
26.2101281272
 20
22.4562135014
 30
0.0
 10
26.2202074228
 20
22.4613744082
 30
0.0
 10
26.2306372269
 20
22.4656906107
 30
0.0
 10
26.2413175395
 20
22.4691042941
 30
0.0
 10
26.2494110238
 20
22.4712036958
 30
0.0
 10
26.2575840408
 20
22.4728422194
 30
0.0
 10
26.2685508269
 20
22.4744044422
 30
0.0
 10
26.2823826535
 20
22.4751915131
 30
0.0
 10
26.2962144802
 20
22.4744044422
 30
0.0
 10
26.3071812663
 20
22.4728422194
 30
0.0
 10
26.3153542833
 20
22.4712036958
 30
0.0
 10
26.3234477676
 20
22.4691042941
 30
0.0
 10
26.3341280801
 20
22.4656906107
 30
0.0
 10
26.3445578843
 20
22.4613744082
 30
0.0
 10
26.3546371799
 20
22.4562135014
 30
0.0
 10
26.3620448231
 20
22.4519059928
 30
0.0
 10
26.3692601465
 20
22.4471847176
 30
0.0
 10
26.3762659133
 20
22.4420603227
 30
0.0
 10
26.3830448916
 20
22.4365450096
 30
0.0
 10
26.3895814866
 20
22.430652892
 30
0.0
 10
26.3958594522
 20
22.4243975643
 30
0.0
 10
26.4018635874
 20
22.4177940966
 30
0.0
 10
26.407580177
 20
22.4108589909
 30
0.0
 10
26.4129947483
 20
22.4036084349
 30
0.0
 10
26.418094504
 20
22.3960597432
 30
0.0
 10
26.4244767212
 20
22.3855934053
 30
0.0
 10
26.4301597346
 20
22.3746299447
 30
0.0
 10
26.4351139148
 20
22.3632622109
 30
0.0
 10
26.4384724717
 20
22.3545099597
 30
0.0
 10
26.4414550409
 20
22.3455782699
 30
0.0
 10
26.4449268026
 20
22.3334416919
 30
0.0
 10
26.4476115469
 20
22.3210495015
 30
0.0
 10
26.4494981606
 20
22.3084918459
 30
0.0
 10
26.4508503869
 20
22.2958206671
 30
0.0
 10
26.4512576073
 20
22.2862528742
 30
0.0
 10
26.4512576073
 20
22.2798768353
 30
0.0
  0
SPLINE
  5
5FA
100
AcDbEntity
  8
0
100
AcDbSpline
 62
7
  6
CONTINUOUS
 70
0
 71
3
 72
61
 73
57
 74
0
 42
0.0000001
 43
0.0000001
 44
0.0000000001
 40
0.0
 40
0.0
 40
0.0
 40
0.0
 40
0.0334291029
 40
0.0501292469
 40
0.0667963495
 40
0.0999901962
 40
0.1165096459
 40
0.1329636835
 40
0.1493438214
 40
0.165642522
 40
0.1979621793
 40
0.2139807246
 40
0.2298965263
 40
0.245706158
 40
0.2614073778
 40
0.2769989851
 40
0.2924805968
 40
0.3078531257
 40
0.3231185188
 40
0.3382796167
 40
0.3533405906
 40
0.3683065699
 40
0.3831835726
 40
0.4126893505
 40
0.427345898
 40
0.4419471963
 40
0.4565034442
 40
0.4710253968
 40
0.5
 40
0.5289746032
 40
0.5434965558
 40
0.5580528037
 40
0.572654102
 40
0.5873106495
 40
0.6168164274
 40
0.6316934301
 40
0.6466594094
 40
0.6617203833
 40
0.6768814812
 40
0.6921468743
 40
0.7075194032
 40
0.7230010149
 40
0.7385926222
 40
0.754293842
 40
0.7701034737
 40
0.7860192754
 40
0.8020378207
 40
0.834357478
 40
0.8506561786
 40
0.8670363165
 40
0.8834903541
 40
0.9000098038
 40
0.9332036505
 40
0.9498707531
 40
0.9665708971
 40
1.0
 40
1.0
 40
1.0
 40
1.0
 10
26.1135076998
 20
22.2798768353
 30
0.0
 10
26.1135076998
 20
22.2735007963
 30
0.0
 10
26.1139149202
 20
22.2639330034
 30
0.0
 10
26.1152671465
 20
22.2512618246
 30
0.0
 10
26.1171537602
 20
22.238704169
 30
0.0
 10
26.1198385045
 20
22.2263119786
 30
0.0
 10
26.1233102662
 20
22.2141754006
 30
0.0
 10
26.1262928354
 20
22.2052437108
 30
0.0
 10
26.1296513923
 20
22.1964914596
 30
0.0
 10
26.1346055725
 20
22.1851237258
 30
0.0
 10
26.1402885859
 20
22.1741602652
 30
0.0
 10
26.1466708031
 20
22.1636939273
 30
0.0
 10
26.1517705588
 20
22.1561452356
 30
0.0
 10
26.1571851301
 20
22.1488946796
 30
0.0
 10
26.1629017197
 20
22.1419595739
 30
0.0
 10
26.1689058549
 20
22.1353561062
 30
0.0
 10
26.1751838205
 20
22.1291007785
 30
0.0
 10
26.1817204155
 20
22.1232086609
 30
0.0
 10
26.1884993938
 20
22.1176933478
 30
0.0
 10
26.1955051606
 20
22.1125689529
 30
0.0
 10
26.202720484
 20
22.1078476777
 30
0.0
 10
26.2101281272
 20
22.1035401691
 30
0.0
 10
26.2202074228
 20
22.0983792623
 30
0.0
 10
26.2306372269
 20
22.0940630598
 30
0.0
 10
26.2413175395
 20
22.0906493764
 30
0.0
 10
26.2494110238
 20
22.0885499747
 30
0.0
 10
26.2575840408
 20
22.0869114511
 30
0.0
 10
26.2685508269
 20
22.0853492283
 30
0.0
 10
26.2823826535
 20
22.0845621574
 30
0.0
 10
26.2962144802
 20
22.0853492283
 30
0.0
 10
26.3071812663
 20
22.0869114511
 30
0.0
 10
26.3153542833
 20
22.0885499747
 30
0.0
 10
26.3234477676
 20
22.0906493764
 30
0.0
 10
26.3341280801
 20
22.0940630598
 30
0.0
 10
26.3445578843
 20
22.0983792623
 30
0.0
 10
26.3546371799
 20
22.1035401691
 30
0.0
 10
26.3620448231
 20
22.1078476777
 30
0.0
 10
26.3692601465
 20
22.1125689529
 30
0.0
 10
26.3762659133
 20
22.1176933478
 30
0.0
 10
26.3830448916
 20
22.1232086609
 30
0.0
 10
26.3895814866
 20
22.1291007785
 30
0.0
 10
26.3958594522
 20
22.1353561062
 30
0.0
 10
26.4018635874
 20
22.1419595739
 30
0.0
 10
26.407580177
 20
22.1488946796
 30
0.0
 10
26.4129947483
 20
22.1561452356
 30
0.0
 10
26.418094504
 20
22.1636939273
 30
0.0
 10
26.4244767212
 20
22.1741602652
 30
0.0
 10
26.4301597346
 20
22.1851237258
 30
0.0
 10
26.4351139148
 20
22.1964914596
 30
0.0
 10
26.4384724717
 20
22.2052437108
 30
0.0
 10
26.4414550409
 20
22.2141754006
 30
0.0
 10
26.4449268026
 20
22.2263119786
 30
0.0
 10
26.4476115469
 20
22.238704169
 30
0.0
 10
26.4494981606
 20
22.2512618246
 30
0.0
 10
26.4508503869
 20
22.2639330034
 30
0.0
 10
26.4512576073
 20
22.2735007963
 30
0.0
 10
26.4512576073
 20
22.2798768353
 30
0.0
  0
SPLINE
  5
5FB
100
AcDbEntity
  8
0
100
AcDbSpline
 62
7
  6
CONTINUOUS
 70
0
 71
3
 72
61
 73
57
 74
0
 42
0.0000001
 43
0.0000001
 44
0.0000000001
 40
0.0
 40
0.0
 40
0.0
 40
0.0
 40
0.0334291029
 40
0.0501292469
 40
0.0667963495
 40
0.0999901962
 40
0.1165096459
 40
0.1329636835
 40
0.1493438214
 40
0.165642522
 40
0.1979621793
 40
0.2139807246
 40
0.2298965263
 40
0.245706158
 40
0.2614073778
 40
0.2769989851
 40
0.2924805968
 40
0.3078531257
 40
0.3231185188
 40
0.3382796167
 40
0.3533405906
 40
0.3683065699
 40
0.3831835726
 40
0.4126893505
 40
0.427345898
 40
0.4419471963
 40
0.4565034442
 40
0.4710253968
 40
0.5
 40
0.5289746032
 40
0.5434965558
 40
0.5580528037
 40
0.572654102
 40
0.5873106495
 40
0.6168164274
 40
0.6316934301
 40
0.6466594094
 40
0.6617203833
 40
0.6768814812
 40
0.6921468743
 40
0.7075194032
 40
0.7230010149
 40
0.7385926222
 40
0.754293842
 40
0.7701034737
 40
0.7860192754
 40
0.8020378207
 40
0.834357478
 40
0.8506561786
 40
0.8670363165
 40
0.8834903541
 40
0.9000098038
 40
0.9332036505
 40
0.9498707531
 40
0.9665708971
 40
1.0
 40
1.0
 40
1.0
 40
1.0
 10
26.1135076998
 20
20.9698768353
 30
0.0
 10
26.1135076998
 20
20.9762528742
 30
0.0
 10
26.1139149202
 20
20.9858206671
 30
0.0
 10
26.1152671465
 20
20.9984918459
 30
0.0
 10
26.1171537602
 20
21.0110495015
 30
0.0
 10
26.1198385045
 20
21.0234416919
 30
0.0
 10
26.1233102662
 20
21.0355782699
 30
0.0
 10
26.1262928354
 20
21.0445099597
 30
0.0
 10
26.1296513923
 20
21.0532622109
 30
0.0
 10
26.1346055725
 20
21.0646299447
 30
0.0
 10
26.1402885859
 20
21.0755934053
 30
0.0
 10
26.1466708031
 20
21.0860597432
 30
0.0
 10
26.1517705588
 20
21.0936084349
 30
0.0
 10
26.1571851301
 20
21.1008589909
 30
0.0
 10
26.1629017197
 20
21.1077940966
 30
0.0
 10
26.1689058549
 20
21.1143975643
 30
0.0
 10
26.1751838205
 20
21.120652892
 30
0.0
 10
26.1817204155
 20
21.1265450096
 30
0.0
 10
26.1884993938
 20
21.1320603227
 30
0.0
 10
26.1955051606
 20
21.1371847176
 30
0.0
 10
26.202720484
 20
21.1419059928
 30
0.0
 10
26.2101281272
 20
21.1462135014
 30
0.0
 10
26.2202074228
 20
21.1513744082
 30
0.0
 10
26.2306372269
 20
21.1556906107
 30
0.0
 10
26.2413175395
 20
21.1591042941
 30
0.0
 10
26.2494110238
 20
21.1612036958
 30
0.0
 10
26.2575840408
 20
21.1628422194
 30
0.0
 10
26.2685508269
 20
21.1644044422
 30
0.0
 10
26.2823826535
 20
21.1651915131
 30
0.0
 10
26.2962144802
 20
21.1644044422
 30
0.0
 10
26.3071812663
 20
21.1628422194
 30
0.0
 10
26.3153542833
 20
21.1612036958
 30
0.0
 10
26.3234477676
 20
21.1591042941
 30
0.0
 10
26.3341280801
 20
21.1556906107
 30
0.0
 10
26.3445578843
 20
21.1513744082
 30
0.0
 10
26.3546371799
 20
21.1462135014
 30
0.0
 10
26.3620448231
 20
21.1419059928
 30
0.0
 10
26.3692601465
 20
21.1371847176
 30
0.0
 10
26.3762659133
 20
21.1320603227
 30
0.0
 10
26.3830448916
 20
21.1265450096
 30
0.0
 10
26.3895814866
 20
21.120652892
 30
0.0
 10
26.3958594522
 20
21.1143975643
 30
0.0
 10
26.4018635874
 20
21.1077940966
 30
0.0
 10
26.407580177
 20
21.1008589909
 30
0.0
 10
26.4129947483
 20
21.0936084349
 30
0.0
 10
26.418094504
 20
21.0860597432
 30
0.0
 10
26.4244767212
 20
21.0755934053
 30
0.0
 10
26.4301597346
 20
21.0646299447
 30
0.0
 10
26.4351139148
 20
21.0532622109
 30
0.0
 10
26.4384724717
 20
21.0445099597
 30
0.0
 10
26.4414550409
 20
21.0355782699
 30
0.0
 10
26.4449268026
 20
21.0234416919
 30
0.0
 10
26.4476115469
 20
21.0110495015
 30
0.0
 10
26.4494981606
 20
20.9984918459
 30
0.0
 10
26.4508503869
 20
20.9858206671
 30
0.0
 10
26.4512576073
 20
20.9762528742
 30
0.0
 10
26.4512576073
 20
20.9698768353
 30
0.0
  0
SPLINE
  5
5FC
100
AcDbEntity
  8
0
100
AcDbSpline
 62
7
  6
CONTINUOUS
 70
0
 71
3
 72
61
 73
57
 74
0
 42
0.0000001
 43
0.0000001
 44
0.0000000001
 40
0.0
 40
0.0
 40
0.0
 40
0.0
 40
0.0334291029
 40
0.0501292469
 40
0.0667963495
 40
0.0999901962
 40
0.1165096459
 40
0.1329636835
 40
0.1493438214
 40
0.165642522
 40
0.1979621793
 40
0.2139807246
 40
0.2298965263
 40
0.245706158
 40
0.2614073778
 40
0.2769989851
 40
0.2924805968
 40
0.3078531257
 40
0.3231185188
 40
0.3382796167
 40
0.3533405906
 40
0.3683065699
 40
0.3831835726
 40
0.4126893505
 40
0.427345898
 40
0.4419471963
 40
0.4565034442
 40
0.4710253968
 40
0.5
 40
0.5289746032
 40
0.5434965558
 40
0.5580528037
 40
0.572654102
 40
0.5873106495
 40
0.6168164274
 40
0.6316934301
 40
0.6466594094
 40
0.6617203833
 40
0.6768814812
 40
0.6921468743
 40
0.7075194032
 40
0.7230010149
 40
0.7385926222
 40
0.754293842
 40
0.7701034737
 40
0.7860192754
 40
0.8020378207
 40
0.834357478
 40
0.8506561786
 40
0.8670363165
 40
0.8834903541
 40
0.9000098038
 40
0.9332036505
 40
0.9498707531
 40
0.9665708971
 40
1.0
 40
1.0
 40
1.0
 40
1.0
 10
26.1135076998
 20
20.9698768353
 30
0.0
 10
26.1135076998
 20
20.9635007963
 30
0.0
 10
26.1139149202
 20
20.9539330034
 30
0.0
 10
26.1152671465
 20
20.9412618246
 30
0.0
 10
26.1171537602
 20
20.928704169
 30
0.0
 10
26.1198385045
 20
20.9163119786
 30
0.0
 10
26.1233102662
 20
20.9041754006
 30
0.0
 10
26.1262928354
 20
20.8952437108
 30
0.0
 10
26.1296513923
 20
20.8864914596
 30
0.0
 10
26.1346055725
 20
20.8751237258
 30
0.0
 10
26.1402885859
 20
20.8641602652
 30
0.0
 10
26.1466708031
 20
20.8536939273
 30
0.0
 10
26.1517705588
 20
20.8461452356
 30
0.0
 10
26.1571851301
 20
20.8388946796
 30
0.0
 10
26.1629017197
 20
20.8319595739
 30
0.0
 10
26.1689058549
 20
20.8253561062
 30
0.0
 10
26.1751838205
 20
20.8191007785
 30
0.0
 10
26.1817204155
 20
20.8132086609
 30
0.0
 10
26.1884993938
 20
20.8076933478
 30
0.0
 10
26.1955051606
 20
20.8025689529
 30
0.0
 10
26.202720484
 20
20.7978476777
 30
0.0
 10
26.2101281272
 20
20.7935401691
 30
0.0
 10
26.2202074228
 20
20.7883792623
 30
0.0
 10
26.2306372269
 20
20.7840630598
 30
0.0
 10
26.2413175395
 20
20.7806493764
 30
0.0
 10
26.2494110238
 20
20.7785499747
 30
0.0
 10
26.2575840408
 20
20.7769114511
 30
0.0
 10
26.2685508269
 20
20.7753492283
 30
0.0
 10
26.2823826535
 20
20.7745621574
 30
0.0
 10
26.2962144802
 20
20.7753492283
 30
0.0
 10
26.3071812663
 20
20.7769114511
 30
0.0
 10
26.3153542833
 20
20.7785499747
 30
0.0
 10
26.3234477676
 20
20.7806493764
 30
0.0
 10
26.3341280801
 20
20.7840630598
 30
0.0
 10
26.3445578843
 20
20.7883792623
 30
0.0
 10
26.3546371799
 20
20.7935401691
 30
0.0
 10
26.3620448231
 20
20.7978476777
 30
0.0
 10
26.3692601465
 20
20.8025689529
 30
0.0
 10
26.3762659133
 20
20.8076933478
 30
0.0
 10
26.3830448916
 20
20.8132086609
 30
0.0
 10
26.3895814866
 20
20.8191007785
 30
0.0
 10
26.3958594522
 20
20.8253561062
 30
0.0
 10
26.4018635874
 20
20.8319595739
 30
0.0
 10
26.407580177
 20
20.8388946796
 30
0.0
 10
26.4129947483
 20
20.8461452356
 30
0.0
 10
26.418094504
 20
20.8536939273
 30
0.0
 10
26.4244767212
 20
20.8641602652
 30
0.0
 10
26.4301597346
 20
20.8751237258
 30
0.0
 10
26.4351139148
 20
20.8864914596
 30
0.0
 10
26.4384724717
 20
20.8952437108
 30
0.0
 10
26.4414550409
 20
20.9041754006
 30
0.0
 10
26.4449268026
 20
20.9163119786
 30
0.0
 10
26.4476115469
 20
20.928704169
 30
0.0
 10
26.4494981606
 20
20.9412618246
 30
0.0
 10
26.4508503869
 20
20.9539330034
 30
0.0
 10
26.4512576073
 20
20.9635007963
 30
0.0
 10
26.4512576073
 20
20.9698768353
 30
0.0
  0
SPLINE
  5
5FD
100
AcDbEntity
  8
0
100
AcDbSpline
 62
7
  6
CONTINUOUS
 70
0
 71
3
 72
21
 73
17
 74
0
 42
0.0000001
 43
0.0000001
 44
0.0000000001
 40
0.0
 40
0.0
 40
0.0
 40
0.0
 40
0.1256853361
 40
0.1883323231
 40
0.2508510309
 40
0.3132535003
 40
0.3755604261
 40
0.4377981636
 40
0.5
 40
0.5622018364
 40
0.6244395739
 40
0.6867464997
 40
0.7491489691
 40
0.8116676769
 40
0.8743146639
 40
1.0
 40
1.0
 40
1.0
 40
1.0
 10
35.4073826535
 20
19.3619123349
 30
0.0
 10
35.4149857103
 20
19.3593779827
 30
0.0
 10
35.4264876024
 20
19.3558898515
 30
0.0
 10
35.4420155647
 20
19.352039072
 30
0.0
 10
35.4537279934
 20
19.3496008012
 30
0.0
 10
35.4655099334
 20
19.3476508252
 30
0.0
 10
35.4773494925
 20
19.3462271536
 30
0.0
 10
35.4892303035
 20
19.3453601368
 30
0.0
 10
35.5011326535
 20
19.3450682253
 30
0.0
 10
35.5130350036
 20
19.3453601368
 30
0.0
 10
35.5249158146
 20
19.3462271536
 30
0.0
 10
35.5367553737
 20
19.3476508252
 30
0.0
 10
35.5485373137
 20
19.3496008012
 30
0.0
 10
35.5602497423
 20
19.352039072
 30
0.0
 10
35.5757777047
 20
19.3558898515
 30
0.0
 10
35.5872795968
 20
19.3593779827
 30
0.0
 10
35.5948826535
 20
19.3619123349
 30
0.0
  0
SPLINE
  5
5FE
100
AcDbEntity
  8
0
100
AcDbSpline
 62
7
  6
CONTINUOUS
 70
0
 71
3
 72
21
 73
17
 74
0
 42
0.0000001
 43
0.0000001
 44
0.0000000001
 40
0.0
 40
0.0
 40
0.0
 40
0.0
 40
0.1256853361
 40
0.1883323231
 40
0.2508510309
 40
0.3132535003
 40
0.3755604261
 40
0.4377981636
 40
0.5
 40
0.5622018364
 40
0.6244395739
 40
0.6867464997
 40
0.7491489691
 40
0.8116676769
 40
0.8743146639
 40
1.0
 40
1.0
 40
1.0
 40
1.0
 10
35.5948826535
 20
19.3619123349
 30
0.0
 10
35.6024857103
 20
19.3593779827
 30
0.0
 10
35.6139876024
 20
19.3558898515
 30
0.0
 10
35.6295155647
 20
19.352039072
 30
0.0
 10
35.6412279934
 20
19.3496008012
 30
0.0
 10
35.6530099334
 20
19.3476508252
 30
0.0
 10
35.6648494925
 20
19.3462271536
 30
0.0
 10
35.6767303035
 20
19.3453601368
 30
0.0
 10
35.6886326535
 20
19.3450682253
 30
0.0
 10
35.7005350036
 20
19.3453601368
 30
0.0
 10
35.7124158146
 20
19.3462271536
 30
0.0
 10
35.7242553737
 20
19.3476508252
 30
0.0
 10
35.7360373137
 20
19.3496008012
 30
0.0
 10
35.7477497423
 20
19.352039072
 30
0.0
 10
35.7632777047
 20
19.3558898515
 30
0.0
 10
35.7747795968
 20
19.3593779827
 30
0.0
 10
35.7823826535
 20
19.3619123349
 30
0.0
  0
LINE
  5
5FF
100
AcDbEntity
  8
0
100
AcDbLine
 62
7
  6
CONTINUOUS
 10
35.5948826535
 20
19.5129768353
 11
35.5948826535
 21
19.5348768353
  0
SPLINE
  5
600
100
AcDbEntity
  8
0
100
AcDbSpline
 62
7
  6
CONTINUOUS
 70
0
 71
3
 72
21
 73
17
 74
0
 42
0.0000001
 43
0.0000001
 44
0.0000000001
 40
0.0
 40
0.0
 40
0.0
 40
0.0
 40
0.1256853361
 40
0.1883323231
 40
0.2508510309
 40
0.3132535003
 40
0.3755604261
 40
0.4377981636
 40
0.5
 40
0.5622018364
 40
0.6244395739
 40
0.6867464997
 40
0.7491489691
 40
0.8116676769
 40
0.8743146639
 40
1.0
 40
1.0
 40
1.0
 40
1.0
 10
36.6573826535
 20
19.3619123349
 30
0.0
 10
36.6649857103
 20
19.3593779827
 30
0.0
 10
36.6764876024
 20
19.3558898515
 30
0.0
 10
36.6920155647
 20
19.352039072
 30
0.0
 10
36.7037279934
 20
19.3496008012
 30
0.0
 10
36.7155099334
 20
19.3476508252
 30
0.0
 10
36.7273494925
 20
19.3462271536
 30
0.0
 10
36.7392303035
 20
19.3453601368
 30
0.0
 10
36.7511326535
 20
19.3450682253
 30
0.0
 10
36.7630350036
 20
19.3453601368
 30
0.0
 10
36.7749158146
 20
19.3462271536
 30
0.0
 10
36.7867553737
 20
19.3476508252
 30
0.0
 10
36.7985373137
 20
19.3496008012
 30
0.0
 10
36.8102497423
 20
19.352039072
 30
0.0
 10
36.8257777047
 20
19.3558898515
 30
0.0
 10
36.8372795968
 20
19.3593779827
 30
0.0
 10
36.8448826535
 20
19.3619123349
 30
0.0
  0
SPLINE
  5
601
100
AcDbEntity
  8
0
100
AcDbSpline
 62
7
  6
CONTINUOUS
 70
0
 71
3
 72
21
 73
17
 74
0
 42
0.0000001
 43
0.0000001
 44
0.0000000001
 40
0.0
 40
0.0
 40
0.0
 40
0.0
 40
0.1256853361
 40
0.1883323231
 40
0.2508510309
 40
0.3132535003
 40
0.3755604261
 40
0.4377981636
 40
0.5
 40
0.5622018364
 40
0.6244395739
 40
0.6867464997
 40
0.7491489691
 40
0.8116676769
 40
0.8743146639
 40
1.0
 40
1.0
 40
1.0
 40
1.0
 10
36.8448826535
 20
19.3619123349
 30
0.0
 10
36.8524857103
 20
19.3593779827
 30
0.0
 10
36.8639876024
 20
19.3558898515
 30
0.0
 10
36.8795155647
 20
19.352039072
 30
0.0
 10
36.8912279934
 20
19.3496008012
 30
0.0
 10
36.9030099334
 20
19.3476508252
 30
0.0
 10
36.9148494925
 20
19.3462271536
 30
0.0
 10
36.9267303035
 20
19.3453601368
 30
0.0
 10
36.9386326535
 20
19.3450682253
 30
0.0
 10
36.9505350036
 20
19.3453601368
 30
0.0
 10
36.9624158146
 20
19.3462271536
 30
0.0
 10
36.9742553737
 20
19.3476508252
 30
0.0
 10
36.9860373137
 20
19.3496008012
 30
0.0
 10
36.9977497423
 20
19.352039072
 30
0.0
 10
37.0132777047
 20
19.3558898515
 30
0.0
 10
37.0247795968
 20
19.3593779827
 30
0.0
 10
37.0323826535
 20
19.3619123349
 30
0.0
  0
LINE
  5
602
100
AcDbEntity
  8
0
100
AcDbLine
 62
7
  6
CONTINUOUS
 10
36.8448826535
 20
19.5129768353
 11
36.8448826535
 21
19.5348768353
  0
SPLINE
  5
603
100
AcDbEntity
  8
0
100
AcDbSpline
 62
7
  6
CONTINUOUS
 70
0
 71
3
 72
21
 73
17
 74
0
 42
0.0000001
 43
0.0000001
 44
0.0000000001
 40
0.0
 40
0.0
 40
0.0
 40
0.0
 40
0.1256853361
 40
0.1883323231
 40
0.2508510309
 40
0.3132535003
 40
0.3755604261
 40
0.4377981636
 40
0.5
 40
0.5622018364
 40
0.6244395739
 40
0.6867464997
 40
0.7491489691
 40
0.8116676769
 40
0.8743146639
 40
1.0
 40
1.0
 40
1.0
 40
1.0
 10
25.8073826535
 20
19.3619123349
 30
0.0
 10
25.8149857103
 20
19.3593779827
 30
0.0
 10
25.8264876024
 20
19.3558898515
 30
0.0
 10
25.8420155647
 20
19.352039072
 30
0.0
 10
25.8537279934
 20
19.3496008012
 30
0.0
 10
25.8655099334
 20
19.3476508252
 30
0.0
 10
25.8773494925
 20
19.3462271536
 30
0.0
 10
25.8892303035
 20
19.3453601368
 30
0.0
 10
25.9011326535
 20
19.3450682253
 30
0.0
 10
25.9130350036
 20
19.3453601368
 30
0.0
 10
25.9249158146
 20
19.3462271536
 30
0.0
 10
25.9367553737
 20
19.3476508252
 30
0.0
 10
25.9485373137
 20
19.3496008012
 30
0.0
 10
25.9602497423
 20
19.352039072
 30
0.0
 10
25.9757777047
 20
19.3558898515
 30
0.0
 10
25.9872795968
 20
19.3593779827
 30
0.0
 10
25.9948826535
 20
19.3619123349
 30
0.0
  0
SPLINE
  5
604
100
AcDbEntity
  8
0
100
AcDbSpline
 62
7
  6
CONTINUOUS
 70
0
 71
3
 72
21
 73
17
 74
0
 42
0.0000001
 43
0.0000001
 44
0.0000000001
 40
0.0
 40
0.0
 40
0.0
 40
0.0
 40
0.1256853361
 40
0.1883323231
 40
0.2508510309
 40
0.3132535003
 40
0.3755604261
 40
0.4377981636
 40
0.5
 40
0.5622018364
 40
0.6244395739
 40
0.6867464997
 40
0.7491489691
 40
0.8116676769
 40
0.8743146639
 40
1.0
 40
1.0
 40
1.0
 40
1.0
 10
25.9948826535
 20
19.3619123349
 30
0.0
 10
26.0024857103
 20
19.3593779827
 30
0.0
 10
26.0139876024
 20
19.3558898515
 30
0.0
 10
26.0295155647
 20
19.352039072
 30
0.0
 10
26.0412279934
 20
19.3496008012
 30
0.0
 10
26.0530099334
 20
19.3476508252
 30
0.0
 10
26.0648494925
 20
19.3462271536
 30
0.0
 10
26.0767303035
 20
19.3453601368
 30
0.0
 10
26.0886326535
 20
19.3450682253
 30
0.0
 10
26.1005350036
 20
19.3453601368
 30
0.0
 10
26.1124158146
 20
19.3462271536
 30
0.0
 10
26.1242553737
 20
19.3476508252
 30
0.0
 10
26.1360373137
 20
19.3496008012
 30
0.0
 10
26.1477497423
 20
19.352039072
 30
0.0
 10
26.1632777047
 20
19.3558898515
 30
0.0
 10
26.1747795968
 20
19.3593779827
 30
0.0
 10
26.1823826535
 20
19.3619123349
 30
0.0
  0
LINE
  5
605
100
AcDbEntity
  8
0
100
AcDbLine
 62
7
  6
CONTINUOUS
 10
25.9948826535
 20
19.5129768353
 11
25.9948826535
 21
19.5348768353
  0
SPLINE
  5
606
100
AcDbEntity
  8
0
100
AcDbSpline
 62
7
  6
CONTINUOUS
 70
0
 71
3
 72
21
 73
17
 74
0
 42
0.0000001
 43
0.0000001
 44
0.0000000001
 40
0.0
 40
0.0
 40
0.0
 40
0.0
 40
0.1256853361
 40
0.1883323231
 40
0.2508510309
 40
0.3132535003
 40
0.3755604261
 40
0.4377981636
 40
0.5
 40
0.5622018364
 40
0.6244395739
 40
0.6867464997
 40
0.7491489691
 40
0.8116676769
 40
0.8743146639
 40
1.0
 40
1.0
 40
1.0
 40
1.0
 10
25.1823826535
 20
19.3619123349
 30
0.0
 10
25.1899857103
 20
19.3593779827
 30
0.0
 10
25.2014876024
 20
19.3558898515
 30
0.0
 10
25.2170155647
 20
19.352039072
 30
0.0
 10
25.2287279934
 20
19.3496008012
 30
0.0
 10
25.2405099334
 20
19.3476508252
 30
0.0
 10
25.2523494925
 20
19.3462271536
 30
0.0
 10
25.2642303035
 20
19.3453601368
 30
0.0
 10
25.2761326535
 20
19.3450682253
 30
0.0
 10
25.2880350036
 20
19.3453601368
 30
0.0
 10
25.2999158146
 20
19.3462271536
 30
0.0
 10
25.3117553737
 20
19.3476508252
 30
0.0
 10
25.3235373137
 20
19.3496008012
 30
0.0
 10
25.3352497423
 20
19.352039072
 30
0.0
 10
25.3507777047
 20
19.3558898515
 30
0.0
 10
25.3622795968
 20
19.3593779827
 30
0.0
 10
25.3698826535
 20
19.3619123349
 30
0.0
  0
SPLINE
  5
607
100
AcDbEntity
  8
0
100
AcDbSpline
 62
7
  6
CONTINUOUS
 70
0
 71
3
 72
21
 73
17
 74
0
 42
0.0000001
 43
0.0000001
 44
0.0000000001
 40
0.0
 40
0.0
 40
0.0
 40
0.0
 40
0.1256853361
 40
0.1883323231
 40
0.2508510309
 40
0.3132535003
 40
0.3755604261
 40
0.4377981636
 40
0.5
 40
0.5622018364
 40
0.6244395739
 40
0.6867464997
 40
0.7491489691
 40
0.8116676769
 40
0.8743146639
 40
1.0
 40
1.0
 40
1.0
 40
1.0
 10
25.3698826535
 20
19.3619123349
 30
0.0
 10
25.3774857103
 20
19.3593779827
 30
0.0
 10
25.3889876024
 20
19.3558898515
 30
0.0
 10
25.4045155647
 20
19.352039072
 30
0.0
 10
25.4162279934
 20
19.3496008012
 30
0.0
 10
25.4280099334
 20
19.3476508252
 30
0.0
 10
25.4398494925
 20
19.3462271536
 30
0.0
 10
25.4517303035
 20
19.3453601368
 30
0.0
 10
25.4636326535
 20
19.3450682253
 30
0.0
 10
25.4755350036
 20
19.3453601368
 30
0.0
 10
25.4874158146
 20
19.3462271536
 30
0.0
 10
25.4992553737
 20
19.3476508252
 30
0.0
 10
25.5110373137
 20
19.3496008012
 30
0.0
 10
25.5227497423
 20
19.352039072
 30
0.0
 10
25.5382777047
 20
19.3558898515
 30
0.0
 10
25.5497795968
 20
19.3593779827
 30
0.0
 10
25.5573826535
 20
19.3619123349
 30
0.0
  0
LINE
  5
608
100
AcDbEntity
  8
0
100
AcDbLine
 62
7
  6
CONTINUOUS
 10
25.3698826535
 20
19.5129768353
 11
25.3698826535
 21
19.5348768353
  0
SPLINE
  5
609
100
AcDbEntity
  8
0
100
AcDbSpline
 62
7
  6
CONTINUOUS
 70
0
 71
3
 72
23
 73
19
 74
0
 42
0.0000001
 43
0.0000001
 44
0.0000000001
 40
0.0
 40
0.0
 40
0.0
 40
0.0
 40
0.0406468583
 40
0.0824909175
 40
0.1264826918
 40
0.1734086736
 40
0.2238398497
 40
0.2781133878
 40
0.3363511742
 40
0.3985295425
 40
0.4644744872
 40
0.5339237011
 40
0.6065090356
 40
0.6818001024
 40
0.75933268
 40
0.8386148575
 40
0.9190729798
 40
1.0
 40
1.0
 40
1.0
 40
1.0
 10
26.6778953554
 20
19.6898768353
 30
0.0
 10
26.6819958252
 20
19.6898768353
 30
0.0
 10
26.6903386429
 20
19.690712982
 30
0.0
 10
26.7026254425
 20
19.6944033433
 30
0.0
 10
26.7146269243
 20
19.7004902895
 30
0.0
 10
26.7262202731
 20
19.7088783619
 30
0.0
 10
26.7373122406
 20
19.7194706706
 30
0.0
 10
26.7478111523
 20
19.7321604482
 30
0.0
 10
26.7576320555
 20
19.74682452
 30
0.0
 10
26.7666785172
 20
19.7633296072
 30
0.0
 10
26.7748780992
 20
19.7815157755
 30
0.0
 10
26.7821443089
 20
19.8012149731
 30
0.0
 10
26.7884172945
 20
19.8222363352
 30
0.0
 10
26.7936330306
 20
19.8443819688
 30
0.0
 10
26.7977431217
 20
19.8674446197
 30
0.0
 10
26.8007075956
 20
19.8912072411
 30
0.0
 10
26.8024942364
 20
19.9154295291
 30
0.0
 10
26.8028953554
 20
19.9317128883
 30
0.0
 10
26.8028953554
 20
19.9398768353
 30
0.0
  0
SPLINE
  5
60A
100
AcDbEntity
  8
0
100
AcDbSpline
 62
7
  6
CONTINUOUS
 70
0
 71
3
 72
20
 73
16
 74
0
 42
0.0000001
 43
0.0000001
 44
0.0000000001
 40
0.0
 40
0.0
 40
0.0
 40
0.0
 40
0.0406344169
 40
0.0824877297
 40
0.1264997528
 40
0.17344409
 40
0.2238788609
 40
0.2781569249
 40
0.336408707
 40
0.3985923964
 40
0.4645582598
 40
0.5340156751
 40
0.6818360949
 40
0.8386722574
 40
1.0
 40
1.0
 40
1.0
 40
1.0
 10
26.6778953554
 20
19.8148768353
 30
0.0
 10
26.6799446104
 20
19.8148768353
 30
0.0
 10
26.6841151162
 20
19.8152959089
 30
0.0
 10
26.6902578037
 20
19.8171416443
 30
0.0
 10
26.6962615173
 20
19.8201822137
 30
0.0
 10
26.7020578322
 20
19.8243785223
 30
0.0
 10
26.7076048357
 20
19.8296734565
 30
0.0
 10
26.7128532835
 20
19.8360190046
 30
0.0
 10
26.7177619712
 20
19.8433516722
 30
0.0
 10
26.7222885731
 20
19.8516028285
 30
0.0
 10
26.726385276
 20
19.8606976164
 30
0.0
 10
26.7313336845
 20
19.87410755
 30
0.0
 10
26.7361393656
 20
19.8924033599
 30
0.0
 10
26.7396141817
 20
19.9156833365
 30
0.0
 10
26.7403953554
 20
19.9317408339
 30
0.0
 10
26.7403953554
 20
19.9398768353
 30
0.0
  0
ELLIPSE
  5
60B
100
AcDbEntity
  8
0
100
AcDbEllipse
 62
7
  6
CONTINUOUS
 10
0.9993442333
 20
2.4982766809
 30
0.0
 11
0.0
 21
0.155
 31
0.0
 40
0.0524077793
 41
-3.1415926536
 42
-0.0
  0
ELLIPSE
  5
60C
100
AcDbEntity
  8
0
100
AcDbEllipse
 62
7
  6
CONTINUOUS
 10
1.779691316
 20
2.2904283176
 30
0.0
 11
0.0
 21
0.62405217
 31
0.0
 40
0.942904759
 41
-4.7078287653
 42
-4.6447924614
  0
ELLIPSE
  5
60D
100
AcDbEntity
  8
0
100
AcDbEllipse
 62
7
  6
CONTINUOUS
 10
1.779691316
 20
2.7061250441
 30
0.0
 11
0.0
 21
0.62405217
 31
0.0
 40
0.942904759
 41
1.5031998078
 42
1.5662361117
  0
ENDSEC
  0
SECTION
  2
OBJECTS
  0
DICTIONARY
  5
C
100
AcDbDictionary
280
0
281
1
  3
ACAD_GROUP
350
D
  3
ACAD_MLINESTYLE
350
17
  3
ACAD_LAYOUT
350
1A
  3
ACAD_PLOTSETTINGS
350
19
  3
ACAD_PLOTSTYLENAME
350
E
  0
DICTIONARY
  5
D
102
{ACAD_REACTORS
330
C
102
}
100
AcDbDictionary
280
0
281
1
  0
ACDBDICTIONARYWDFLT
  5
E
102
{ACAD_REACTORS
330
C
102
}
100
AcDbDictionary
281
1
  3
Normal
350
F
100
AcDbDictionaryWithDefault
340
F
  0
DICTIONARY
  5
17
102
{ACAD_REACTORS
330
C
102
}
100
AcDbDictionary
280
0
281
1
  3
Standard
350
18
  0
DICTIONARY
  5
19
102
{ACAD_REACTORS
330
C
102
}
100
AcDbDictionary
281
1
  0
DICTIONARY
  5
1A
102
{ACAD_REACTORS
330
C
102
}
100
AcDbDictionary
281
1
  3
Model
350
60E
  3
Layout1
350
60F
  0
ACDBPLACEHOLDER
  5
F
102
{ACAD_REACTORS
330
E
102
}
  0
MLINESTYLE
  5
18
102
{ACAD_REACTORS
330
17
102
}
100
AcDbMlineStyle
  2
STANDARD
 70
0
  3

 62
256
 51
90.0
 52
90.0
 71
2
 49
0.5
 62
256
  6
BYLAYER
 49
-0.5
 62
256
  6
BYLAYER
  0
LAYOUT
  5
60E
102
{ACAD_REACTORS
330
1A
102
}
100
AcDbPlotSettings
  1

  2
none_device
  4

  6

 40
0.0
 41
0.0
 42
0.0
 43
0.0
 44
431.8
 45
279.4
 46
0.0
 47
0.0
 48
0.0
 49
0.0
140
0.0
141
0.0
142
1.0
143
1.0
 70
1024
 72
0
 73
0
 74
0
  7

 75
0
147
1.0
148
0.0
149
0.0
100
AcDbLayout
  1
Model
 70
0
 71
0
 10
0.0
 20
0.0
 11
17.0
 21
11.0
 12
0.0
 22
0.0
 32
0.0
 14
0.0
 24
0.0
 34
0.0
 15
0.0
 25
0.0
 35
0.0
146
0.0
 13
0.0
 23
0.0
 33
0.0
 16
1.0
 26
0.0
 36
0.0
 17
0.0
 27
1.0
 37
0.0
 76
0
330
22A
345
0
346
0
  0
LAYOUT
  5
60F
102
{ACAD_REACTORS
330
1A
102
}
100
AcDbPlotSettings
  1

  2
none_device
  4

  6

 40
0.0
 41
0.0
 42
0.0
 43
0.0
 44
431.8
 45
279.4
 46
0.0
 47
0.0
 48
0.0
 49
0.0
140
0.0
141
0.0
142
1.0
143
1.0
 70
0
 72
0
 73
0
 74
0
  7

 75
0
147
1.0
148
0.0
149
0.0
100
AcDbLayout
  1
Layout1
 70
0
 71
1
 10
0.0
 20
0.0
 11
17.0
 21
11.0
 12
0.0
 22
0.0
 32
0.0
 14
0.0
 24
0.0
 34
0.0
 15
0.0
 25
0.0
 35
0.0
146
0.0
 13
0.0
 23
0.0
 33
0.0
 16
1.0
 26
0.0
 36
0.0
 17
0.0
 27
1.0
 37
0.0
 76
0
330
22B
345
0
346
0
  0
ENDSEC
  0
EOF
