999
DXF file: N:\Master\master\M3_ProE_files\Lenexa\MADAM DXF\47333.dxf
999
Pro/ENGINEER 2010280 by Parametric Technology Corporation
  0
SECTION
  2
HEADER
  9
$ACADVER
  1
AC1021
  9
$DWGCODEPAGE
  3
ANSI_1252
  9
$EXTMAX
 10
17.0
 20
11.0
 30
0.0
  9
$EXTMIN
 10
0.0
 20
-0.0
 30
0.0
  9
$LIMMIN
 10
0.0
 20
-0.0
  9
$LIMMAX
 10
17.0
 20
11.0
  9
$VIEWCTR
 10
8.5
 20
5.5
  9
$VIEWSIZE
 40
11.0
  9
$CLAYER
  8
0
  9
$LTSCALE
 40
0.935
  9
$CELTYPE
  6
BYLAYER
  9
$DIMSCALE
 40
1.0
  9
$DIMASZ
 40
0.1875
  9
$DIMEXO
 40
0.10625
  9
$DIMDLI
 40
0.646
  9
$DIMEXE
 40
0.306
  9
$DIMCEN
 40
0.153
  9
$DIMLFAC
 40
1.0
  9
$DIMBLK
  1
_CLOSED
  9
$DIMTXT
 40
0.15625
  9
$DIMTOL
 70
1
  9
$DIMLIM
 70
0
  9
$DIMTFAC
 40
1.0
  9
$DIMTP
 40
0.01
  9
$DIMTM
 40
0.01
  9
$PDMODE
 70
3
  9
$PDSIZE
 40
0.3125
  9
$HANDSEED
  5
642
  9
$TILEMODE
 70
1
  9
$MEASUREMENT
 70
0
  9
$INSUNITS
 70
1
  0
ENDSEC
  0
SECTION
  2
CLASSES
  0
CLASS
  1
ACDBDICTIONARYWDFLT
  2
AcDbDictionaryWithDefault
  3
AutoCAD 2000
 90
0
 91
1
280
0
281
0
  0
CLASS
  1
ACDBPLACEHOLDER
  2
AcDbPlaceHolder
  3
AutoCAD 2000
 90
0
 91
1
280
0
281
0
  0
CLASS
  1
LAYOUT
  2
AcDbLayout
  3
AutoCAD 2000
 90
0
 91
0
280
0
281
0
  0
ENDSEC
  0
SECTION
  2
TABLES
  0
TABLE
  2
VPORT
  5
8
100
AcDbSymbolTable
 70
2
  0
VPORT
  5
1F4
100
AcDbSymbolTableRecord
100
AcDbViewportTableRecord
  2
*ACTIVE
 70
0
 10
0.0
 20
0.0
 11
1.0
 21
1.0
 12
8.5
 22
5.5
 13
0.0
 23
0.0
 14
1.0
 24
1.0
 15
0.0
 25
0.0
 16
0.0
 26
0.0
 36
1.0
 17
0.0
 27
0.0
 37
0.0
 40
11.0
 41
1.5454545455
 42
50.0
 43
0.0
 44
0.0
 50
0.0
 51
0.0
 71
0
 72
100
 73
1
 74
1
 75
0
 76
0
 77
0
 78
0
  0
ENDTAB
  0
TABLE
  2
LTYPE
  5
5
100
AcDbSymbolTable
 70
6
  0
LTYPE
  5
14
100
AcDbSymbolTableRecord
100
AcDbLinetypeTableRecord
  2
BYBLOCK
 70
0
  3

 72
65
 73
0
 40
0.0
  0
LTYPE
  5
15
100
AcDbSymbolTableRecord
100
AcDbLinetypeTableRecord
  2
BYLAYER
 70
0
  3

 72
65
 73
0
 40
0.0
  0
LTYPE
  5
16
100
AcDbSymbolTableRecord
100
AcDbLinetypeTableRecord
  2
CONTINUOUS
 70
64
  3
Solid line
 72
65
 73
0
 40
0.0
  0
LTYPE
  5
1F5
100
AcDbSymbolTableRecord
100
AcDbLinetypeTableRecord
  2
CENTER
 70
64
  3
____ _ ____ _ ____ _ ____ _ ____ _ ____ _ ____
 72
65
 73
4
 40
0.6
 49
0.375
 74
0
 49
-0.075
 74
0
 49
0.075
 74
0
 49
-0.075
 74
0
  0
LTYPE
  5
1F6
100
AcDbSymbolTableRecord
100
AcDbLinetypeTableRecord
  2
HIDDEN
 70
64
  3
- - - - - - - - - - - - - - - - - - - -
 72
65
 73
2
 40
0.2
 49
0.1
 74
0
 49
-0.1
 74
0
  0
LTYPE
  5
1F7
100
AcDbSymbolTableRecord
100
AcDbLinetypeTableRecord
  2
PHANTOM
 70
64
  3
_____ _ _ _____ _ _ _____ _ _ _____
 72
65
 73
6
 40
0.8
 49
0.45
 74
0
 49
-0.05
 74
0
 49
0.1
 74
0
 49
-0.05
 74
0
 49
0.1
 74
0
 49
-0.05
 74
0
  0
LTYPE
  5
1F8
100
AcDbSymbolTableRecord
100
AcDbLinetypeTableRecord
  2
DOT
 70
64
  3
. . . . . . . . . . . . . . . . . . . .
 72
65
 73
2
 40
0.2
 49
0.1
 74
0
 49
-0.1
 74
0
  0
LTYPE
  5
1F9
100
AcDbSymbolTableRecord
100
AcDbLinetypeTableRecord
  2
DASHED
 70
64
  3
- - - - - - - - - - - - - - - - - - - -
 72
65
 73
2
 40
0.2
 49
0.1
 74
0
 49
-0.1
 74
0
  0
ENDTAB
  0
TABLE
  2
LAYER
  5
2
100
AcDbSymbolTable
 70
36
  0
LAYER
  5
10
100
AcDbSymbolTableRecord
100
AcDbLayerTableRecord
  2
0
 70
0
 62
7
  6
CONTINUOUS
370
-3
390
F
  0
LAYER
  5
1FA
100
AcDbSymbolTableRecord
100
AcDbLayerTableRecord
  2
DEFAULT_1
 70
0
 62
7
  6
CENTER
370
-3
390
F
  0
LAYER
  5
1FB
100
AcDbSymbolTableRecord
100
AcDbLayerTableRecord
  2
DEFAULT_2
 70
0
 62
8
  6
HIDDEN
370
-3
390
F
  0
LAYER
  5
1FC
100
AcDbSymbolTableRecord
100
AcDbLayerTableRecord
  2
DEFAULT_3
 70
0
 62
7
  6
PHANTOM
370
-3
390
F
  0
LAYER
  5
1FD
100
AcDbSymbolTableRecord
100
AcDbLayerTableRecord
  2
01_ALL_DTM_PLN
 70
0
 62
7
  6
CONTINUOUS
370
-3
390
F
  0
LAYER
  5
1FE
100
AcDbSymbolTableRecord
100
AcDbLayerTableRecord
  2
01__ASM_ALL_DTM_PLN
 70
0
 62
7
  6
CONTINUOUS
370
-3
390
F
  0
LAYER
  5
1FF
100
AcDbSymbolTableRecord
100
AcDbLayerTableRecord
  2
01__ASM_DEF_DTM_PLN
 70
0
 62
7
  6
CONTINUOUS
370
-3
390
F
  0
LAYER
  5
200
100
AcDbSymbolTableRecord
100
AcDbLayerTableRecord
  2
01___PRT_ALL_DTM_PLN
 70
0
 62
7
  6
CONTINUOUS
370
-3
390
F
  0
LAYER
  5
201
100
AcDbSymbolTableRecord
100
AcDbLayerTableRecord
  2
01___PRT_DEF_DTM_PLN
 70
0
 62
7
  6
CONTINUOUS
370
-3
390
F
  0
LAYER
  5
202
100
AcDbSymbolTableRecord
100
AcDbLayerTableRecord
  2
02_ALL_AXES
 70
0
 62
7
  6
CONTINUOUS
370
-3
390
F
  0
LAYER
  5
203
100
AcDbSymbolTableRecord
100
AcDbLayerTableRecord
  2
02__ASM_ALL_AXES
 70
0
 62
7
  6
CONTINUOUS
370
-3
390
F
  0
LAYER
  5
204
100
AcDbSymbolTableRecord
100
AcDbLayerTableRecord
  2
02___PRT_ALL_AXES
 70
0
 62
7
  6
CONTINUOUS
370
-3
390
F
  0
LAYER
  5
205
100
AcDbSymbolTableRecord
100
AcDbLayerTableRecord
  2
03_ALL_CURVES
 70
0
 62
7
  6
CONTINUOUS
370
-3
390
F
  0
LAYER
  5
206
100
AcDbSymbolTableRecord
100
AcDbLayerTableRecord
  2
03__ASM_ALL_CURVES
 70
0
 62
7
  6
CONTINUOUS
370
-3
390
F
  0
LAYER
  5
207
100
AcDbSymbolTableRecord
100
AcDbLayerTableRecord
  2
03___PRT_ALL_CURVES
 70
0
 62
7
  6
CONTINUOUS
370
-3
390
F
  0
LAYER
  5
208
100
AcDbSymbolTableRecord
100
AcDbLayerTableRecord
  2
04_ALL_DTM_PNT
 70
0
 62
7
  6
CONTINUOUS
370
-3
390
F
  0
LAYER
  5
209
100
AcDbSymbolTableRecord
100
AcDbLayerTableRecord
  2
04__ASM_ALL_DTM_PNT
 70
0
 62
7
  6
CONTINUOUS
370
-3
390
F
  0
LAYER
  5
20A
100
AcDbSymbolTableRecord
100
AcDbLayerTableRecord
  2
04___PRT_ALL_DTM_PNT
 70
0
 62
7
  6
CONTINUOUS
370
-3
390
F
  0
LAYER
  5
20B
100
AcDbSymbolTableRecord
100
AcDbLayerTableRecord
  2
05_ALL_DTM_CSYS
 70
0
 62
7
  6
CONTINUOUS
370
-3
390
F
  0
LAYER
  5
20C
100
AcDbSymbolTableRecord
100
AcDbLayerTableRecord
  2
05__ASM_ALL_DTM_CSYS
 70
0
 62
7
  6
CONTINUOUS
370
-3
390
F
  0
LAYER
  5
20D
100
AcDbSymbolTableRecord
100
AcDbLayerTableRecord
  2
05__ASM_DEF_DTM_CSYS
 70
0
 62
7
  6
CONTINUOUS
370
-3
390
F
  0
LAYER
  5
20E
100
AcDbSymbolTableRecord
100
AcDbLayerTableRecord
  2
05___PRT_ALL_DTM_CSYS
 70
0
 62
7
  6
CONTINUOUS
370
-3
390
F
  0
LAYER
  5
20F
100
AcDbSymbolTableRecord
100
AcDbLayerTableRecord
  2
05___PRT_DEF_DTM_CSYS
 70
0
 62
7
  6
CONTINUOUS
370
-3
390
F
  0
LAYER
  5
210
100
AcDbSymbolTableRecord
100
AcDbLayerTableRecord
  2
06_ALL_SURFS
 70
0
 62
7
  6
CONTINUOUS
370
-3
390
F
  0
LAYER
  5
211
100
AcDbSymbolTableRecord
100
AcDbLayerTableRecord
  2
06__ASM_ALL_SURFS
 70
0
 62
7
  6
CONTINUOUS
370
-3
390
F
  0
LAYER
  5
212
100
AcDbSymbolTableRecord
100
AcDbLayerTableRecord
  2
06___PRT_ALL_SURFS
 70
0
 62
7
  6
CONTINUOUS
370
-3
390
F
  0
LAYER
  5
213
100
AcDbSymbolTableRecord
100
AcDbLayerTableRecord
  2
07__ASM_ALL_SKELETONS
 70
0
 62
7
  6
CONTINUOUS
370
-3
390
F
  0
LAYER
  5
214
100
AcDbSymbolTableRecord
100
AcDbLayerTableRecord
  2
AXIS
 70
0
 62
7
  6
CONTINUOUS
370
-3
390
F
  0
LAYER
  5
215
100
AcDbSymbolTableRecord
100
AcDbLayerTableRecord
  2
BAFFLE_DTMS
 70
0
 62
7
  6
CONTINUOUS
370
-3
390
F
  0
LAYER
  5
216
100
AcDbSymbolTableRecord
100
AcDbLayerTableRecord
  2
BD_ANGLE
 70
0
 62
7
  6
CONTINUOUS
370
-3
390
F
  0
LAYER
  5
217
100
AcDbSymbolTableRecord
100
AcDbLayerTableRecord
  2
CONDUIT_DTMS
 70
0
 62
7
  6
CONTINUOUS
370
-3
390
F
  0
LAYER
  5
218
100
AcDbSymbolTableRecord
100
AcDbLayerTableRecord
  2
CS
 70
0
 62
7
  6
CONTINUOUS
370
-3
390
F
  0
LAYER
  5
219
100
AcDbSymbolTableRecord
100
AcDbLayerTableRecord
  2
CSYS
 70
0
 62
7
  6
CONTINUOUS
370
-3
390
F
  0
LAYER
  5
21A
100
AcDbSymbolTableRecord
100
AcDbLayerTableRecord
  2
CURVE
 70
0
 62
7
  6
CONTINUOUS
370
-3
390
F
  0
LAYER
  5
21B
100
AcDbSymbolTableRecord
100
AcDbLayerTableRecord
  2
CURVES
 70
0
 62
7
  6
CONTINUOUS
370
-3
390
F
  0
LAYER
  5
21C
100
AcDbSymbolTableRecord
100
AcDbLayerTableRecord
  2
DATUM_PLANES
 70
0
 62
7
  6
CONTINUOUS
370
-3
390
F
  0
LAYER
  5
21D
100
AcDbSymbolTableRecord
100
AcDbLayerTableRecord
  2
DEF_DTMS
 70
0
 62
7
  6
CONTINUOUS
370
-3
390
F
  0
LAYER
  5
21E
100
AcDbSymbolTableRecord
100
AcDbLayerTableRecord
  2
G90647DTMS
 70
0
 62
7
  6
CONTINUOUS
370
-3
390
F
  0
LAYER
  5
21F
100
AcDbSymbolTableRecord
100
AcDbLayerTableRecord
  2
HEAD
 70
0
 62
7
  6
CONTINUOUS
370
-3
390
F
  0
LAYER
  5
220
100
AcDbSymbolTableRecord
100
AcDbLayerTableRecord
  2
HOOD
 70
0
 62
7
  6
CONTINUOUS
370
-3
390
F
  0
LAYER
  5
221
100
AcDbSymbolTableRecord
100
AcDbLayerTableRecord
  2
J_BOX_ANG
 70
0
 62
7
  6
CONTINUOUS
370
-3
390
F
  0
LAYER
  5
222
100
AcDbSymbolTableRecord
100
AcDbLayerTableRecord
  2
J_BOX_ANGLE
 70
0
 62
7
  6
CONTINUOUS
370
-3
390
F
  0
LAYER
  5
223
100
AcDbSymbolTableRecord
100
AcDbLayerTableRecord
  2
MTR_HOLE_ANG_DTM
 70
0
 62
7
  6
CONTINUOUS
370
-3
390
F
  0
LAYER
  5
224
100
AcDbSymbolTableRecord
100
AcDbLayerTableRecord
  2
PARTDTMS
 70
0
 62
7
  6
CONTINUOUS
370
-3
390
F
  0
LAYER
  5
225
100
AcDbSymbolTableRecord
100
AcDbLayerTableRecord
  2
PLANE
 70
0
 62
7
  6
CONTINUOUS
370
-3
390
F
  0
LAYER
  5
226
100
AcDbSymbolTableRecord
100
AcDbLayerTableRecord
  2
PLANES
 70
0
 62
7
  6
CONTINUOUS
370
-3
390
F
  0
LAYER
  5
227
100
AcDbSymbolTableRecord
100
AcDbLayerTableRecord
  2
POINT
 70
0
 62
7
  6
CONTINUOUS
370
-3
390
F
  0
LAYER
  5
228
100
AcDbSymbolTableRecord
100
AcDbLayerTableRecord
  2
ROUND
 70
0
 62
7
  6
CONTINUOUS
370
-3
390
F
  0
LAYER
  5
229
100
AcDbSymbolTableRecord
100
AcDbLayerTableRecord
  2
STANDOFF_DTMS
 70
0
 62
7
  6
CONTINUOUS
370
-3
390
F
  0
LAYER
  5
22A
100
AcDbSymbolTableRecord
100
AcDbLayerTableRecord
  2
STIFF_ANGLE
 70
0
 62
7
  6
CONTINUOUS
370
-3
390
F
  0
LAYER
  5
22B
100
AcDbSymbolTableRecord
100
AcDbLayerTableRecord
  2
SURFACE
 70
0
 62
7
  6
CONTINUOUS
370
-3
390
F
  0
LAYER
  5
22C
100
AcDbSymbolTableRecord
100
AcDbLayerTableRecord
  2
WINDBAND
 70
0
 62
7
  6
CONTINUOUS
370
-3
390
F
  0
ENDTAB
  0
TABLE
  2
STYLE
  5
3
100
AcDbSymbolTable
 70
1
  0
STYLE
  5
11
100
AcDbSymbolTableRecord
100
AcDbTextStyleTableRecord
  2
STANDARD
 70
0
 40
0.0
 41
0.8
 50
0.0
 71
0
 42
0.2
  3
txt
  4

  0
STYLE
  5
22D
100
AcDbSymbolTableRecord
100
AcDbTextStyleTableRecord
  2
TEXTSTYLE_1
 70
0
 40
0.0
 41
0.8
 50
0.0
 71
0
 42
0.2
  3
gdt
  4

  0
ENDTAB
  0
TABLE
  2
VIEW
  5
6
100
AcDbSymbolTable
 70
0
  0
ENDTAB
  0
TABLE
  2
UCS
  5
7
100
AcDbSymbolTable
 70
0
  0
ENDTAB
  0
TABLE
  2
APPID
  5
9
100
AcDbSymbolTable
 70
1
  0
APPID
  5
22E
100
AcDbSymbolTableRecord
100
AcDbRegAppTableRecord
  2
ACAD
 70
0
  0
ENDTAB
  0
TABLE
  2
BLOCK_RECORD
  5
1
100
AcDbSymbolTable
 70
0
  0
BLOCK_RECORD
  5
22F
100
AcDbSymbolTableRecord
100
AcDbBlockTableRecord
  2
*Model_Space
  0
BLOCK_RECORD
  5
230
100
AcDbSymbolTableRecord
100
AcDbBlockTableRecord
  2
*Paper_Space
  0
ENDTAB
  0
TABLE
  2
DIMSTYLE
  5
A
100
AcDbSymbolTable
 70
1
100
AcDbDimStyleTable
 71
0
  0
DIMSTYLE
105
231
100
AcDbSymbolTableRecord
100
AcDbDimStyleTableRecord
  2
STANDARD
 70
0
  3

  4

 40
1.0
 41
0.1875
 42
0.0625
 43
0.38
 44
0.18
 45
0.0
 46
0.0
 47
0.01
 48
0.01
140
0.15625
141
0.09
142
0.0
143
25.4
144
1.0
145
0.0
146
1.0
147
0.09
 71
1.0
 72
0.0
 73
1
 74
1
 75
0
 76
0
 77
0
 78
4
170
0
171
2
172
0
173
0
174
0
175
0
176
0
177
0
178
0
270
2
271
2
272
2
273
2
274
2
275
0
280
0
281
0
282
0
283
1
284
4
285
0
286
0
287
3
288
0
340
11
  0
ENDTAB
  0
ENDSEC
  0
SECTION
  2
BLOCKS
  0
BLOCK
  5
20
100
AcDbEntity
  8
0
100
AcDbBlockBegin
  2
*Model_Space
 70
0
 10
0.0
 20
0.0
 30
0.0
  3
*Model_Space
  1

  0
ENDBLK
  5
21
100
AcDbEntity
  8
0
100
AcDbBlockEnd
  0
BLOCK
  5
1C
100
AcDbEntity
  8
0
100
AcDbBlockBegin
  2
*Paper_Space
 70
0
 10
0.0
 20
0.0
 30
0.0
  3
*Paper_Space
  1

  0
ENDBLK
  5
1D
100
AcDbEntity
  8
0
100
AcDbBlockEnd
  0
ENDSEC
  0
SECTION
  2
ENTITIES
  0
MTEXT
  5
232
100
AcDbEntity
  8
0
100
AcDbMText
 62
2
  6
CONTINUOUS
  7
STANDARD
 71
1
 72
1
 10
-38.4886425072
 20
31.5595500202
 30
0.0
 11
1.0
 21
0.0
 31
0.0
 44
0.9
  1
47333
 40
4.0
 41
16.0
  0
LINE
  5
233
100
AcDbEntity
  8
0
100
AcDbLine
 62
7
  6
CONTINUOUS
 10
-12.0235081157
 20
2.1718428099
 11
-12.0235081157
 21
0.7718428099
  0
LINE
  5
234
100
AcDbEntity
  8
0
100
AcDbLine
 62
7
  6
CONTINUOUS
 10
-11.7406654032
 20
2.2718428099
 11
-11.7406654032
 21
2.3368428099
  0
LINE
  5
235
100
AcDbEntity
  8
0
100
AcDbLine
 62
7
  6
CONTINUOUS
 10
-10.5951524177
 20
2.2718428099
 11
-10.5951524177
 21
2.3368428099
  0
LINE
  5
236
100
AcDbEntity
  8
0
100
AcDbLine
 62
7
  6
CONTINUOUS
 10
-10.5032285362
 20
2.2718428099
 11
-10.5032285362
 21
2.3343428099
  0
LINE
  5
237
100
AcDbEntity
  8
0
100
AcDbLine
 62
7
  6
CONTINUOUS
 10
-8.6506087694
 20
2.3343428099
 11
-8.6506087694
 21
2.3368428099
  0
LINE
  5
238
100
AcDbEntity
  8
0
100
AcDbLine
 62
7
  6
CONTINUOUS
 10
-8.028354802
 20
2.2718428099
 11
-8.028354802
 21
2.3343428099
  0
LINE
  5
239
100
AcDbEntity
  8
WINDBAND
100
AcDbLine
 62
7
  6
CONTINUOUS
 10
-7.860768595
 20
11.2348428099
 11
-7.860768595
 21
9.7729459756
  0
LINE
  5
23A
100
AcDbEntity
  8
0
100
AcDbLine
 62
7
  6
CONTINUOUS
 10
-6.260587849
 20
2.2718428099
 11
-6.260587849
 21
2.3343428099
  0
LINE
  5
23B
100
AcDbEntity
  8
WINDBAND
100
AcDbLine
 62
7
  6
CONTINUOUS
 10
-5.206768595
 20
5.08744835
 11
-5.206768595
 21
2.2718428099
  0
LINE
  5
23C
100
AcDbEntity
  8
0
100
AcDbLine
 62
7
  6
CONTINUOUS
 10
-5.0826437589
 20
12.8687191824
 11
-5.0909416552
 21
12.2348428099
  0
LINE
  5
23D
100
AcDbEntity
  8
0
100
AcDbLine
 62
7
  6
CONTINUOUS
 10
14.9879709256
 20
0.7718428099
 11
1.517586744
 21
0.7718428099
  0
LINE
  5
23E
100
AcDbEntity
  8
0
100
AcDbLine
 62
7
  6
CONTINUOUS
 10
1.4468760659
 20
0.7718428099
 11
-12.0235081157
 21
0.7718428099
  0
LINE
  5
23F
100
AcDbEntity
  8
0
100
AcDbLine
 62
7
  6
CONTINUOUS
 10
14.9879709256
 20
2.1718428099
 11
1.517586744
 21
2.1718428099
  0
LINE
  5
240
100
AcDbEntity
  8
0
100
AcDbLine
 62
7
  6
CONTINUOUS
 10
1.4468760659
 20
2.1718428099
 11
-12.0235081157
 21
2.1718428099
  0
LINE
  5
241
100
AcDbEntity
  8
0
100
AcDbLine
 62
7
  6
CONTINUOUS
 10
14.9172602475
 20
2.2718428099
 11
-11.9527974376
 21
2.2718428099
  0
LINE
  5
242
100
AcDbEntity
  8
0
100
AcDbLine
 62
7
  6
CONTINUOUS
 10
0.3862158941
 20
2.2868428099
 11
2.684312933
 21
2.2868428099
  0
LINE
  5
243
100
AcDbEntity
  8
0
100
AcDbLine
 62
7
  6
CONTINUOUS
 10
-10.5032285362
 20
2.3343428099
 11
-6.260587849
 21
2.3343428099
  0
LINE
  5
244
100
AcDbEntity
  8
WINDBAND
100
AcDbLine
 62
7
  6
CONTINUOUS
 10
8.171231405
 20
2.3348428099
 11
8.0759478077
 21
2.3348428099
  0
LINE
  5
245
100
AcDbEntity
  8
0
100
AcDbLine
 62
7
  6
CONTINUOUS
 10
-11.7406654032
 20
2.3368428099
 11
-8.6506087694
 21
2.3368428099
  0
LINE
  5
246
100
AcDbEntity
  8
WINDBAND
100
AcDbLine
 62
7
  6
CONTINUOUS
 10
8.171231405
 20
4.0848428099
 11
8.0759478077
 21
4.0848428099
  0
LINE
  5
247
100
AcDbEntity
  8
WINDBAND
100
AcDbLine
 62
7
  6
CONTINUOUS
 10
8.171231405
 20
5.08744835
 11
-5.206768595
 21
5.08744835
  0
LINE
  5
248
100
AcDbEntity
  8
0
100
AcDbLine
 62
7
  6
CONTINUOUS
 10
0.3862158941
 20
2.2868428099
 11
0.3862158941
 21
2.2718428099
  0
LINE
  5
249
100
AcDbEntity
  8
WINDBAND
100
AcDbLine
 62
7
  6
CONTINUOUS
 10
8.5598823294
 20
5.7735911471
 11
-5.5954195194
 21
5.7735911471
  0
LINE
  5
24A
100
AcDbEntity
  8
0
100
AcDbLine
 62
7
  6
CONTINUOUS
 10
1.2700993706
 20
2.2868428099
 11
1.2700993706
 21
2.2718428099
  0
LINE
  5
24B
100
AcDbEntity
  8
0
100
AcDbLine
 62
7
  6
CONTINUOUS
 10
1.4115207268
 20
2.1718428099
 11
1.4115207268
 21
0.7718428099
  0
LINE
  5
24C
100
AcDbEntity
  8
0
100
AcDbLine
 62
3
  6
CONTINUOUS
 10
1.4468760659
 20
2.1718428099
 11
1.4468760659
 21
0.7718428099
  0
LINE
  5
24D
100
AcDbEntity
  8
0
100
AcDbLine
 62
7
  6
CONTINUOUS
 10
1.482231405
 20
2.2718428099
 11
1.482231405
 21
2.2218428099
  0
LINE
  5
24E
100
AcDbEntity
  8
0
100
AcDbLine
 62
3
  6
CONTINUOUS
 10
1.517586744
 20
2.1718428099
 11
1.517586744
 21
0.7718428099
  0
LINE
  5
24F
100
AcDbEntity
  8
0
100
AcDbLine
 62
7
  6
CONTINUOUS
 10
1.5529420831
 20
2.1718428099
 11
1.5529420831
 21
0.7718428099
  0
LINE
  5
250
100
AcDbEntity
  8
0
100
AcDbLine
 62
7
  6
CONTINUOUS
 10
2.684312933
 20
2.2718428099
 11
2.684312933
 21
2.2868428099
  0
LINE
  5
251
100
AcDbEntity
  8
0
100
AcDbLine
 62
7
  6
CONTINUOUS
 10
8.109943265
 20
9.3193428099
 11
8.0887300616
 21
9.3193428099
  0
LINE
  5
252
100
AcDbEntity
  8
0
100
AcDbLine
 62
7
  6
CONTINUOUS
 10
-5.1454804551
 20
9.3193428099
 11
-5.1242672517
 21
9.3193428099
  0
LINE
  5
253
100
AcDbEntity
  8
0
100
AcDbLine
 62
7
  6
CONTINUOUS
 10
8.1963486675
 20
9.3325407423
 11
8.11244386
 21
9.3325407423
  0
LINE
  5
254
100
AcDbEntity
  8
0
100
AcDbLine
 62
7
  6
CONTINUOUS
 10
-5.2318858576
 20
9.3325407423
 11
-5.1479810501
 21
9.3325407423
  0
LINE
  5
255
100
AcDbEntity
  8
0
100
AcDbLine
 62
7
  6
CONTINUOUS
 10
8.0418458358
 20
9.4586917761
 11
7.9579410283
 21
9.4586917761
  0
LINE
  5
256
100
AcDbEntity
  8
0
100
AcDbLine
 62
7
  6
CONTINUOUS
 10
-5.0773830259
 20
9.4586917761
 11
-4.9934782184
 21
9.4586917761
  0
LINE
  5
257
100
AcDbEntity
  8
0
100
AcDbLine
 62
7
  6
CONTINUOUS
 10
8.0418458358
 20
9.7109938437
 11
7.9579410283
 21
9.7109938437
  0
LINE
  5
258
100
AcDbEntity
  8
0
100
AcDbLine
 62
7
  6
CONTINUOUS
 10
-5.0773830259
 20
9.7109938437
 11
-4.9934782184
 21
9.7109938437
  0
LINE
  5
259
100
AcDbEntity
  8
WINDBAND
100
AcDbLine
 62
7
  6
CONTINUOUS
 10
10.825231405
 20
9.7729459756
 11
8.2887222461
 21
9.7729459756
  0
LINE
  5
25A
100
AcDbEntity
  8
WINDBAND
100
AcDbLine
 62
7
  6
CONTINUOUS
 10
-7.860768595
 20
9.7729459756
 11
-5.3242594362
 21
9.7729459756
  0
LINE
  5
25B
100
AcDbEntity
  8
WINDBAND
100
AcDbLine
 62
7
  6
CONTINUOUS
 10
7.9570003014
 20
9.7729459756
 11
-4.9924722037
 21
9.7729459756
  0
LINE
  5
25C
100
AcDbEntity
  8
0
100
AcDbLine
 62
7
  6
CONTINUOUS
 10
8.1963486675
 20
9.8371448776
 11
8.11244386
 21
9.8371448776
  0
LINE
  5
25D
100
AcDbEntity
  8
0
100
AcDbLine
 62
7
  6
CONTINUOUS
 10
-5.2318858576
 20
9.8371448776
 11
-5.1479810501
 21
9.8371448776
  0
LINE
  5
25E
100
AcDbEntity
  8
0
100
AcDbLine
 62
7
  6
CONTINUOUS
 10
8.109943265
 20
9.8503428099
 11
8.0887300616
 21
9.8503428099
  0
LINE
  5
25F
100
AcDbEntity
  8
0
100
AcDbLine
 62
7
  6
CONTINUOUS
 10
-5.1454804551
 20
9.8503428099
 11
-5.1242672517
 21
9.8503428099
  0
LINE
  5
260
100
AcDbEntity
  8
WINDBAND
100
AcDbLine
 62
7
  6
CONTINUOUS
 10
11.262231405
 20
11.2348428099
 11
-8.297768595
 21
11.2348428099
  0
LINE
  5
261
100
AcDbEntity
  8
WINDBAND
100
AcDbLine
 62
7
  6
CONTINUOUS
 10
11.262231405
 20
12.2348428099
 11
-8.297768595
 21
12.2348428099
  0
LINE
  5
262
100
AcDbEntity
  8
ROUND
100
AcDbLine
 62
7
  6
CONTINUOUS
 10
-5.0826437588
 20
12.8687191825
 11
8.0471065687
 21
12.8687191825
  0
LINE
  5
263
100
AcDbEntity
  8
ROUND
100
AcDbLine
 62
7
  6
CONTINUOUS
 10
-4.6127487687
 20
13.3612698317
 11
7.5772115787
 21
13.3612698317
  0
LINE
  5
264
100
AcDbEntity
  8
0
100
AcDbLine
 62
7
  6
CONTINUOUS
 10
8.0471065688
 20
12.8687191824
 11
8.0554044651
 21
12.2348428099
  0
LINE
  5
265
100
AcDbEntity
  8
WINDBAND
100
AcDbLine
 62
7
  6
CONTINUOUS
 10
8.0759478077
 20
4.0848428099
 11
8.0759478077
 21
2.3348428099
  0
LINE
  5
266
100
AcDbEntity
  8
WINDBAND
100
AcDbLine
 62
7
  6
CONTINUOUS
 10
8.171231405
 20
5.08744835
 11
8.171231405
 21
4.0848428099
  0
LINE
  5
267
100
AcDbEntity
  8
WINDBAND
100
AcDbLine
 62
7
  6
CONTINUOUS
 10
8.171231405
 20
2.3348428099
 11
8.171231405
 21
2.2718428099
  0
LINE
  5
268
100
AcDbEntity
  8
0
100
AcDbLine
 62
7
  6
CONTINUOUS
 10
1.232231405
 20
13.7133328099
 11
-4.6127487741
 21
13.3612698314
  0
LINE
  5
269
100
AcDbEntity
  8
0
100
AcDbLine
 62
7
  6
CONTINUOUS
 10
1.2322553267
 20
13.7133328099
 11
1.7322074833
 21
13.7133328099
  0
LINE
  5
26A
100
AcDbEntity
  8
0
100
AcDbLine
 62
7
  6
CONTINUOUS
 10
1.732231405
 20
13.7133328099
 11
7.577211584
 21
13.3612698314
  0
LINE
  5
26B
100
AcDbEntity
  8
WINDBAND
100
AcDbLine
 62
7
  6
CONTINUOUS
 10
10.825231405
 20
11.2348428099
 11
10.825231405
 21
9.7729459756
  0
LINE
  5
26C
100
AcDbEntity
  8
0
100
AcDbLine
 62
7
  6
CONTINUOUS
 10
14.9879709256
 20
2.1718428099
 11
14.9879709256
 21
0.7718428099
  0
LINE
  5
26D
100
AcDbEntity
  8
0
100
AcDbLine
 62
7
  6
CONTINUOUS
 10
-42.8496584739
 20
2.1718428099
 11
-42.8496584739
 21
0.7718428099
  0
LINE
  5
26E
100
AcDbEntity
  8
WINDBAND
100
AcDbLine
 62
7
  6
CONTINUOUS
 10
-38.6869189533
 20
11.2348428099
 11
-38.6869189533
 21
9.7729459756
  0
LINE
  5
26F
100
AcDbEntity
  8
WINDBAND
100
AcDbLine
 62
7
  6
CONTINUOUS
 10
-36.0329189533
 20
5.08744835
 11
-36.0329189533
 21
2.2718428099
  0
LINE
  5
270
100
AcDbEntity
  8
0
100
AcDbLine
 62
7
  6
CONTINUOUS
 10
-35.9087941171
 20
12.8687191825
 11
-35.9170920134
 21
12.2348428099
  0
LINE
  5
271
100
AcDbEntity
  8
0
100
AcDbLine
 62
7
  6
CONTINUOUS
 10
-15.8381794326
 20
0.7718428099
 11
-29.3085636142
 21
0.7718428099
  0
LINE
  5
272
100
AcDbEntity
  8
0
100
AcDbLine
 62
7
  6
CONTINUOUS
 10
-29.3792742923
 20
0.7718428099
 11
-42.8496584739
 21
0.7718428099
  0
LINE
  5
273
100
AcDbEntity
  8
0
100
AcDbLine
 62
7
  6
CONTINUOUS
 10
-15.8381794326
 20
2.1718428099
 11
-29.3085636142
 21
2.1718428099
  0
LINE
  5
274
100
AcDbEntity
  8
0
100
AcDbLine
 62
7
  6
CONTINUOUS
 10
-29.3792742923
 20
2.1718428099
 11
-42.8496584739
 21
2.1718428099
  0
LINE
  5
275
100
AcDbEntity
  8
0
100
AcDbLine
 62
7
  6
CONTINUOUS
 10
-42.7789477958
 20
2.2718428099
 11
-15.9088901107
 21
2.2718428099
  0
LINE
  5
276
100
AcDbEntity
  8
0
100
AcDbLine
 62
7
  6
CONTINUOUS
 10
-18.9848046089
 20
2.2868428099
 11
-16.68670757
 21
2.2868428099
  0
LINE
  5
277
100
AcDbEntity
  8
0
100
AcDbLine
 62
7
  6
CONTINUOUS
 10
-28.1984059677
 20
2.3343428099
 11
-25.631608352
 21
2.3343428099
  0
LINE
  5
278
100
AcDbEntity
  8
0
100
AcDbLine
 62
7
  6
CONTINUOUS
 10
-31.2884626015
 20
2.3368428099
 11
-28.1984059677
 21
2.3368428099
  0
LINE
  5
279
100
AcDbEntity
  8
0
100
AcDbLine
 62
7
  6
CONTINUOUS
 10
-31.2884626015
 20
2.2718428099
 11
-31.2884626015
 21
2.3368428099
  0
LINE
  5
27A
100
AcDbEntity
  8
WINDBAND
100
AcDbLine
 62
7
  6
CONTINUOUS
 10
-36.0329189533
 20
5.08744835
 11
-22.6549189533
 21
5.08744835
  0
LINE
  5
27B
100
AcDbEntity
  8
WINDBAND
100
AcDbLine
 62
7
  6
CONTINUOUS
 10
-36.4215698777
 20
5.7735911471
 11
-22.2662680289
 21
5.7735911471
  0
LINE
  5
27C
100
AcDbEntity
  8
0
100
AcDbLine
 62
7
  6
CONTINUOUS
 10
-29.4146296314
 20
2.1718428099
 11
-29.4146296314
 21
0.7718428099
  0
LINE
  5
27D
100
AcDbEntity
  8
0
100
AcDbLine
 62
3
  6
CONTINUOUS
 10
-29.3792742923
 20
2.1718428099
 11
-29.3792742923
 21
0.7718428099
  0
LINE
  5
27E
100
AcDbEntity
  8
0
100
AcDbLine
 62
7
  6
CONTINUOUS
 10
-29.3439189533
 20
2.2218428099
 11
-29.3439189533
 21
2.3368428099
  0
LINE
  5
27F
100
AcDbEntity
  8
0
100
AcDbLine
 62
3
  6
CONTINUOUS
 10
-29.3085636142
 20
2.1718428099
 11
-29.3085636142
 21
0.7718428099
  0
LINE
  5
280
100
AcDbEntity
  8
0
100
AcDbLine
 62
7
  6
CONTINUOUS
 10
-29.2732082751
 20
2.1718428099
 11
-29.2732082751
 21
0.7718428099
  0
LINE
  5
281
100
AcDbEntity
  8
0
100
AcDbLine
 62
7
  6
CONTINUOUS
 10
-28.1984059677
 20
2.2718428099
 11
-28.1984059677
 21
2.3368428099
  0
LINE
  5
282
100
AcDbEntity
  8
0
100
AcDbLine
 62
7
  6
CONTINUOUS
 10
-28.1064820862
 20
2.2718428099
 11
-28.1064820862
 21
2.3343428099
  0
LINE
  5
283
100
AcDbEntity
  8
0
100
AcDbLine
 62
7
  6
CONTINUOUS
 10
-35.9716308133
 20
9.3193428099
 11
-35.9504176099
 21
9.3193428099
  0
LINE
  5
284
100
AcDbEntity
  8
0
100
AcDbLine
 62
7
  6
CONTINUOUS
 10
-22.7162070932
 20
9.3193428099
 11
-22.7374202966
 21
9.3193428099
  0
LINE
  5
285
100
AcDbEntity
  8
0
100
AcDbLine
 62
7
  6
CONTINUOUS
 10
-36.0580362158
 20
9.3325407423
 11
-35.9741314083
 21
9.3325407423
  0
LINE
  5
286
100
AcDbEntity
  8
0
100
AcDbLine
 62
7
  6
CONTINUOUS
 10
-22.6298016907
 20
9.3325407423
 11
-22.7137064982
 21
9.3325407423
  0
LINE
  5
287
100
AcDbEntity
  8
0
100
AcDbLine
 62
7
  6
CONTINUOUS
 10
-35.9035333841
 20
9.4586917761
 11
-35.8196285766
 21
9.4586917761
  0
LINE
  5
288
100
AcDbEntity
  8
0
100
AcDbLine
 62
7
  6
CONTINUOUS
 10
-22.7843045224
 20
9.4586917761
 11
-22.8682093299
 21
9.4586917761
  0
LINE
  5
289
100
AcDbEntity
  8
0
100
AcDbLine
 62
7
  6
CONTINUOUS
 10
-35.9035333841
 20
9.7109938437
 11
-35.8196285766
 21
9.7109938437
  0
LINE
  5
28A
100
AcDbEntity
  8
0
100
AcDbLine
 62
7
  6
CONTINUOUS
 10
-22.7843045224
 20
9.7109938437
 11
-22.8682093299
 21
9.7109938437
  0
LINE
  5
28B
100
AcDbEntity
  8
WINDBAND
100
AcDbLine
 62
7
  6
CONTINUOUS
 10
-38.6869189533
 20
9.7729459756
 11
-36.1504097944
 21
9.7729459756
  0
LINE
  5
28C
100
AcDbEntity
  8
WINDBAND
100
AcDbLine
 62
7
  6
CONTINUOUS
 10
-35.8186225619
 20
9.7729459756
 11
-22.8691500568
 21
9.7729459756
  0
LINE
  5
28D
100
AcDbEntity
  8
WINDBAND
100
AcDbLine
 62
7
  6
CONTINUOUS
 10
-22.5374281121
 20
9.7729459756
 11
-20.0009189533
 21
9.7729459756
  0
LINE
  5
28E
100
AcDbEntity
  8
0
100
AcDbLine
 62
7
  6
CONTINUOUS
 10
-36.0580362158
 20
9.8371448776
 11
-35.9741314083
 21
9.8371448776
  0
LINE
  5
28F
100
AcDbEntity
  8
0
100
AcDbLine
 62
7
  6
CONTINUOUS
 10
-22.6298016907
 20
9.8371448776
 11
-22.7137064982
 21
9.8371448776
  0
LINE
  5
290
100
AcDbEntity
  8
0
100
AcDbLine
 62
7
  6
CONTINUOUS
 10
-35.9716308133
 20
9.8503428099
 11
-35.9504176099
 21
9.8503428099
  0
LINE
  5
291
100
AcDbEntity
  8
0
100
AcDbLine
 62
7
  6
CONTINUOUS
 10
-22.7162070932
 20
9.8503428099
 11
-22.7374202966
 21
9.8503428099
  0
LINE
  5
292
100
AcDbEntity
  8
0
100
AcDbLine
 62
7
  6
CONTINUOUS
 10
-25.631608352
 20
2.2718428099
 11
-25.631608352
 21
2.3343428099
  0
LINE
  5
293
100
AcDbEntity
  8
WINDBAND
100
AcDbLine
 62
7
  6
CONTINUOUS
 10
-19.5639189533
 20
11.2348428099
 11
-39.1239189533
 21
11.2348428099
  0
LINE
  5
294
100
AcDbEntity
  8
WINDBAND
100
AcDbLine
 62
7
  6
CONTINUOUS
 10
-19.5639189533
 20
12.2348428099
 11
-39.1239189533
 21
12.2348428099
  0
LINE
  5
295
100
AcDbEntity
  8
ROUND
100
AcDbLine
 62
7
  6
CONTINUOUS
 10
-35.9087941171
 20
12.8687191825
 11
-22.7790437894
 21
12.8687191825
  0
LINE
  5
296
100
AcDbEntity
  8
ROUND
100
AcDbLine
 62
7
  6
CONTINUOUS
 10
-35.4388991237
 20
13.3612698319
 11
-23.2489387828
 21
13.3612698319
  0
LINE
  5
297
100
AcDbEntity
  8
0
100
AcDbLine
 62
7
  6
CONTINUOUS
 10
-22.7790437894
 20
12.8687191825
 11
-22.7707458931
 21
12.2348428099
  0
LINE
  5
298
100
AcDbEntity
  8
WINDBAND
100
AcDbLine
 62
7
  6
CONTINUOUS
 10
-22.6549189533
 20
5.08744835
 11
-22.6549189533
 21
2.2718428099
  0
LINE
  5
299
100
AcDbEntity
  8
0
100
AcDbLine
 62
7
  6
CONTINUOUS
 10
-29.5939189533
 20
13.7133328099
 11
-35.4388991237
 21
13.3612698319
  0
LINE
  5
29A
100
AcDbEntity
  8
0
100
AcDbLine
 62
7
  6
CONTINUOUS
 10
-29.093942875
 20
13.7133328099
 11
-29.5938950316
 21
13.7133328099
  0
LINE
  5
29B
100
AcDbEntity
  8
0
100
AcDbLine
 62
7
  6
CONTINUOUS
 10
-29.0939189533
 20
13.7133328099
 11
-23.2489387828
 21
13.3612698319
  0
LINE
  5
29C
100
AcDbEntity
  8
WINDBAND
100
AcDbLine
 62
7
  6
CONTINUOUS
 10
-20.0009189533
 20
11.2348428099
 11
-20.0009189533
 21
9.7729459756
  0
LINE
  5
29D
100
AcDbEntity
  8
0
100
AcDbLine
 62
7
  6
CONTINUOUS
 10
-18.9848046089
 20
2.2718428099
 11
-18.9848046089
 21
2.2868428099
  0
LINE
  5
29E
100
AcDbEntity
  8
0
100
AcDbLine
 62
7
  6
CONTINUOUS
 10
-17.5705910465
 20
2.2868428099
 11
-17.5705910465
 21
2.2718428099
  0
LINE
  5
29F
100
AcDbEntity
  8
0
100
AcDbLine
 62
7
  6
CONTINUOUS
 10
-16.68670757
 20
2.2868428099
 11
-16.68670757
 21
2.2718428099
  0
LINE
  5
2A0
100
AcDbEntity
  8
0
100
AcDbLine
 62
7
  6
CONTINUOUS
 10
-15.8381794326
 20
2.1718428099
 11
-15.8381794326
 21
0.7718428099
  0
LINE
  5
2A1
100
AcDbEntity
  8
0
100
AcDbLine
 62
7
  6
CONTINUOUS
 10
-10.9594427587
 20
32.3331951947
 11
-10.9597113214
 21
32.3471625605
  0
LINE
  5
2A2
100
AcDbEntity
  8
0
100
AcDbLine
 62
7
  6
CONTINUOUS
 10
-10.6601732419
 20
32.6229740744
 11
-10.6599046767
 21
32.609006711
  0
LINE
  5
2A3
100
AcDbEntity
  8
0
100
AcDbLine
 62
7
  6
CONTINUOUS
 10
-10.5859949884
 20
32.2748198177
 11
-10.5862635536
 21
32.2887871811
  0
LINE
  5
2A4
100
AcDbEntity
  8
0
100
AcDbLine
 62
7
  6
CONTINUOUS
 10
-10.475867453
 20
32.3564754961
 11
-10.4755988879
 21
32.3425081327
  0
LINE
  5
2A5
100
AcDbEntity
  8
0
100
AcDbLine
 62
7
  6
CONTINUOUS
 10
-10.2504208209
 20
32.0077396414
 11
-10.2501522557
 21
31.993772278
  0
LINE
  5
2A6
100
AcDbEntity
  8
0
100
AcDbLine
 62
7
  6
CONTINUOUS
 10
-9.983990153
 20
32.7773597454
 11
-9.9764717548
 21
32.826893431
  0
LINE
  5
2A7
100
AcDbEntity
  8
0
100
AcDbLine
 62
7
  6
CONTINUOUS
 10
-10.9871089221
 20
32.3197649598
 11
-10.982900732
 21
32.3429543698
  0
LINE
  5
2A8
100
AcDbEntity
  8
0
100
AcDbLine
 62
7
  6
CONTINUOUS
 10
-10.6875708384
 20
32.5955764779
 11
-10.6896749189
 21
32.5839817602
  0
LINE
  5
2A9
100
AcDbEntity
  8
0
100
AcDbLine
 62
7
  6
CONTINUOUS
 10
-10.6599046767
 20
32.609006711
 11
-10.6620087573
 21
32.5974119933
  0
LINE
  5
2AA
100
AcDbEntity
  8
0
100
AcDbLine
 62
7
  6
CONTINUOUS
 10
-10.6741870319
 20
32.020541869
 11
-10.6762911402
 21
32.0089471779
  0
LINE
  5
2AB
100
AcDbEntity
  8
0
100
AcDbLine
 62
7
  6
CONTINUOUS
 10
-10.6255244057
 20
32.2732528403
 11
-10.6297325669
 21
32.2500634049
  0
LINE
  5
2AC
100
AcDbEntity
  8
0
100
AcDbLine
 62
7
  6
CONTINUOUS
 10
-10.5709533645
 20
32.218681799
 11
-10.566745149
 21
32.2418711801
  0
LINE
  5
2AD
100
AcDbEntity
  8
0
100
AcDbLine
 62
7
  6
CONTINUOUS
 10
-10.5471379321
 20
31.9482879694
 11
-10.5513461499
 21
31.925098586
  0
LINE
  5
2AE
100
AcDbEntity
  8
0
100
AcDbLine
 62
7
  6
CONTINUOUS
 10
-10.4349507615
 20
32.1648719855
 11
-10.4328466537
 21
32.176466676
  0
LINE
  5
2AF
100
AcDbEntity
  8
0
100
AcDbLine
 62
7
  6
CONTINUOUS
 10
-10.2867719242
 20
31.9618979552
 11
-10.2846678165
 21
31.9734926457
  0
LINE
  5
2B0
100
AcDbEntity
  8
0
100
AcDbLine
 62
7
  6
CONTINUOUS
 10
-10.162364066
 20
31.9059840882
 11
-10.1644681194
 21
31.8943893434
  0
LINE
  5
2B1
100
AcDbEntity
  8
0
100
AcDbLine
 62
7
  6
CONTINUOUS
 10
-10.7720030421
 20
32.1457554782
 11
-10.7806879313
 21
32.113343969
  0
LINE
  5
2B2
100
AcDbEntity
  8
0
100
AcDbLine
 62
7
  6
CONTINUOUS
 10
-10.9597113214
 20
32.3471625605
 11
-10.9531304874
 21
32.367979323
  0
LINE
  5
2B3
100
AcDbEntity
  8
0
100
AcDbLine
 62
7
  6
CONTINUOUS
 10
-10.5862635536
 20
32.2887871811
 11
-10.5796827196
 21
32.3096039436
  0
LINE
  5
2B4
100
AcDbEntity
  8
0
100
AcDbLine
 62
7
  6
CONTINUOUS
 10
-10.6102142166
 20
32.2031474582
 11
-10.6167950506
 21
32.1823306957
  0
LINE
  5
2B5
100
AcDbEntity
  8
0
100
AcDbLine
 62
7
  6
CONTINUOUS
 10
-10.5813849319
 20
31.9140409696
 11
-10.5748040961
 21
31.9348577339
  0
LINE
  5
2B6
100
AcDbEntity
  8
0
100
AcDbLine
 62
7
  6
CONTINUOUS
 10
-10.7806879313
 20
32.113343969
 11
-10.7756740753
 21
32.0946313136
  0
LINE
  5
2B7
100
AcDbEntity
  8
0
100
AcDbLine
 62
7
  6
CONTINUOUS
 10
-10.566745149
 20
32.2418711801
 11
-10.5717590599
 21
32.2605838892
  0
LINE
  5
2B8
100
AcDbEntity
  8
0
100
AcDbLine
 62
7
  6
CONTINUOUS
 10
-10.4321298203
 20
32.3812318546
 11
-10.4371436768
 21
32.3999445094
  0
LINE
  5
2B9
100
AcDbEntity
  8
0
100
AcDbLine
 62
7
  6
CONTINUOUS
 10
-10.9844676847
 20
32.303424923
 11
-10.9871089221
 21
32.3197649598
  0
LINE
  5
2BA
100
AcDbEntity
  8
0
100
AcDbLine
 62
7
  6
CONTINUOUS
 10
-10.7345776758
 20
32.1357277131
 11
-10.7372189138
 21
32.1520677494
  0
LINE
  5
2BB
100
AcDbEntity
  8
0
100
AcDbLine
 62
7
  6
CONTINUOUS
 10
-10.6762911402
 20
32.0089471779
 11
-10.6736499028
 21
31.9926071411
  0
LINE
  5
2BC
100
AcDbEntity
  8
0
100
AcDbLine
 62
7
  6
CONTINUOUS
 10
-10.6441482481
 20
32.0315994872
 11
-10.6415070125
 21
32.0152594485
  0
LINE
  5
2BD
100
AcDbEntity
  8
0
100
AcDbLine
 62
7
  6
CONTINUOUS
 10
-10.5787437488
 20
31.8977009871
 11
-10.5813849319
 21
31.9140409696
  0
LINE
  5
2BE
100
AcDbEntity
  8
0
100
AcDbLine
 62
7
  6
CONTINUOUS
 10
-10.6297325669
 20
32.2500634049
 11
-10.6270913832
 21
32.233723423
  0
LINE
  5
2BF
100
AcDbEntity
  8
0
100
AcDbLine
 62
7
  6
CONTINUOUS
 10
-10.6128554546
 20
32.2194874944
 11
-10.6102142166
 21
32.2031474582
  0
LINE
  5
2C0
100
AcDbEntity
  8
0
100
AcDbLine
 62
7
  6
CONTINUOUS
 10
-10.3984219693
 20
31.7173792076
 11
-10.4010631524
 21
31.7337191902
  0
LINE
  5
2C1
100
AcDbEntity
  8
0
100
AcDbLine
 62
7
  6
CONTINUOUS
 10
-10.4649895959
 20
32.1538144252
 11
-10.4676307796
 21
32.1701544071
  0
LINE
  5
2C2
100
AcDbEntity
  8
0
100
AcDbLine
 62
7
  6
CONTINUOUS
 10
-10.4328466537
 20
32.176466676
 11
-10.4354878917
 21
32.1928067122
  0
LINE
  5
2C3
100
AcDbEntity
  8
0
100
AcDbLine
 62
7
  6
CONTINUOUS
 10
-10.3594296232
 20
31.7468808623
 11
-10.3620709155
 21
31.7632209529
  0
LINE
  5
2C4
100
AcDbEntity
  8
0
100
AcDbLine
 62
7
  6
CONTINUOUS
 10
-10.2846678165
 20
31.9734926457
 11
-10.2873090545
 21
31.989832682
  0
LINE
  5
2C5
100
AcDbEntity
  8
0
100
AcDbLine
 62
7
  6
CONTINUOUS
 10
-10.1992522453
 20
31.8880770746
 11
-10.1966110616
 21
31.8717370926
  0
LINE
  5
2C6
100
AcDbEntity
  8
0
100
AcDbLine
 62
7
  6
CONTINUOUS
 10
-10.1650052497
 20
31.9223240702
 11
-10.162364066
 21
31.9059840882
  0
LINE
  5
2C7
100
AcDbEntity
  8
0
100
AcDbLine
 62
7
  6
CONTINUOUS
 10
-9.2423677731
 20
33.3194092397
 11
-9.2498861675
 21
33.2698755579
  0
LINE
  5
2C8
100
AcDbEntity
  8
0
100
AcDbLine
 62
7
  6
CONTINUOUS
 10
-9.8803897735
 20
32.9019677085
 11
-9.8931600738
 21
32.8576859126
  0
LINE
  5
2C9
100
AcDbEntity
  8
0
100
AcDbLine
 62
7
  6
CONTINUOUS
 10
-9.3459681339
 20
33.1948012953
 11
-9.3331978435
 21
33.2390830813
  0
LINE
  5
2CA
100
AcDbEntity
  8
0
100
AcDbLine
 62
7
  6
CONTINUOUS
 10
-10.4010631524
 20
31.7337191902
 11
-10.3944823166
 21
31.7545359545
  0
LINE
  5
2CB
100
AcDbEntity
  8
0
100
AcDbLine
 62
7
  6
CONTINUOUS
 10
-10.3620709155
 20
31.7632209529
 11
-10.3554900815
 21
31.7840377154
  0
LINE
  5
2CC
100
AcDbEntity
  8
0
100
AcDbLine
 62
7
  6
CONTINUOUS
 10
-10.2501522557
 20
31.993772278
 11
-10.2567330897
 21
31.9729555155
  0
LINE
  5
2CD
100
AcDbEntity
  8
0
100
AcDbLine
 62
7
  6
CONTINUOUS
 10
-10.1966110616
 20
31.8717370926
 11
-10.2031918956
 21
31.8509203301
  0
LINE
  5
2CE
100
AcDbEntity
  8
0
100
AcDbLine
 62
7
  6
CONTINUOUS
 10
-10.4431873805
 20
32.3511930201
 11
-10.4321298203
 21
32.3812318546
  0
LINE
  5
2CF
100
AcDbEntity
  8
0
100
AcDbLine
 62
7
  6
CONTINUOUS
 10
-9.9764717548
 20
32.826893431
 11
-9.9404273172
 21
32.904953156
  0
LINE
  5
2D0
100
AcDbEntity
  8
0
100
AcDbLine
 62
7
  6
CONTINUOUS
 10
-9.2498861675
 20
33.2698755579
 11
-9.2859306002
 21
33.1918158379
  0
LINE
  5
2D1
100
AcDbEntity
  8
0
100
AcDbLine
 62
7
  6
CONTINUOUS
 10
-10.982900732
 20
32.3429543698
 11
-10.9694704965
 21
32.3706205339
  0
LINE
  5
2D2
100
AcDbEntity
  8
0
100
AcDbLine
 62
7
  6
CONTINUOUS
 10
-10.9531304874
 20
32.367979323
 11
-10.9441769758
 21
32.3864234175
  0
LINE
  5
2D3
100
AcDbEntity
  8
0
100
AcDbLine
 62
7
  6
CONTINUOUS
 10
-10.7372189138
 20
32.1520677494
 11
-10.7237886759
 21
32.1797339158
  0
LINE
  5
2D4
100
AcDbEntity
  8
0
100
AcDbLine
 62
7
  6
CONTINUOUS
 10
-10.6076174464
 20
32.3101410739
 11
-10.6255244057
 21
32.2732528403
  0
LINE
  5
2D5
100
AcDbEntity
  8
0
100
AcDbLine
 62
7
  6
CONTINUOUS
 10
-10.6652335781
 20
32.0389860142
 11
-10.6741870319
 21
32.020541869
  0
LINE
  5
2D6
100
AcDbEntity
  8
0
100
AcDbLine
 62
7
  6
CONTINUOUS
 10
-10.5888603238
 20
32.1817935654
 11
-10.5709533645
 21
32.218681799
  0
LINE
  5
2D7
100
AcDbEntity
  8
0
100
AcDbLine
 62
7
  6
CONTINUOUS
 10
-10.6351947412
 20
32.0500435768
 11
-10.6441482481
 21
32.0315994872
  0
LINE
  5
2D8
100
AcDbEntity
  8
0
100
AcDbLine
 62
7
  6
CONTINUOUS
 10
-10.4755988879
 20
32.3425081327
 11
-10.4845523404
 21
32.3240639887
  0
LINE
  5
2D9
100
AcDbEntity
  8
0
100
AcDbLine
 62
7
  6
CONTINUOUS
 10
-10.5748040961
 20
31.9348577339
 11
-10.5613738606
 21
31.9625238979
  0
LINE
  5
2DA
100
AcDbEntity
  8
0
100
AcDbLine
 62
7
  6
CONTINUOUS
 10
-10.4739430485
 20
32.1353702812
 11
-10.4649895959
 21
32.1538144252
  0
LINE
  5
2DB
100
AcDbEntity
  8
0
100
AcDbLine
 62
7
  6
CONTINUOUS
 10
-10.4439042683
 20
32.1464278958
 11
-10.4349507615
 21
32.1648719855
  0
LINE
  5
2DC
100
AcDbEntity
  8
0
100
AcDbLine
 62
7
  6
CONTINUOUS
 10
-10.3944823166
 20
31.7545359545
 11
-10.3810520811
 21
31.7822021185
  0
LINE
  5
2DD
100
AcDbEntity
  8
0
100
AcDbLine
 62
7
  6
CONTINUOUS
 10
-10.2957253767
 20
31.9434538113
 11
-10.2867719242
 21
31.9618979552
  0
LINE
  5
2DE
100
AcDbEntity
  8
0
100
AcDbLine
 62
7
  6
CONTINUOUS
 10
-10.2567330897
 20
31.9729555155
 11
-10.2656865965
 21
31.9545114258
  0
LINE
  5
2DF
100
AcDbEntity
  8
0
100
AcDbLine
 62
7
  6
CONTINUOUS
 10
-10.1644681194
 20
31.8943893434
 11
-10.1734215719
 21
31.8759451995
  0
LINE
  5
2E0
100
AcDbEntity
  8
0
100
AcDbLine
 62
7
  6
CONTINUOUS
 10
-10.4634670127
 20
32.3166774593
 11
-10.4431873805
 21
32.3511930201
  0
LINE
  5
2E1
100
AcDbEntity
  8
0
100
AcDbLine
 62
7
  6
CONTINUOUS
 10
-10.9694704965
 20
32.3706205339
 11
-10.9536676129
 21
32.3959140546
  0
LINE
  5
2E2
100
AcDbEntity
  8
0
100
AcDbLine
 62
7
  6
CONTINUOUS
 10
-10.9536231819
 20
32.2725804202
 11
-10.9378203007
 21
32.2978739385
  0
LINE
  5
2E3
100
AcDbEntity
  8
0
100
AcDbLine
 62
7
  6
CONTINUOUS
 10
-10.9101541367
 20
32.311304174
 11
-10.9417598991
 21
32.2607171374
  0
LINE
  5
2E4
100
AcDbEntity
  8
0
100
AcDbLine
 62
7
  6
CONTINUOUS
 10
-10.7813583647
 20
32.5112795887
 11
-10.7655554587
 21
32.5365730775
  0
LINE
  5
2E5
100
AcDbEntity
  8
0
100
AcDbLine
 62
7
  6
CONTINUOUS
 10
-10.6896749189
 20
32.5839817602
 11
-10.7054778249
 21
32.5586882715
  0
LINE
  5
2E6
100
AcDbEntity
  8
0
100
AcDbLine
 62
7
  6
CONTINUOUS
 10
-10.6620087573
 20
32.5974119933
 11
-10.6778116632
 21
32.5721185046
  0
LINE
  5
2E7
100
AcDbEntity
  8
0
100
AcDbLine
 62
7
  6
CONTINUOUS
 10
-10.6167950506
 20
32.1823306957
 11
-10.6325979662
 21
32.1570371973
  0
LINE
  5
2E8
100
AcDbEntity
  8
0
100
AcDbLine
 62
7
  6
CONTINUOUS
 10
-10.6494306698
 20
32.0642795054
 11
-10.6652335781
 21
32.0389860142
  0
LINE
  5
2E9
100
AcDbEntity
  8
0
100
AcDbLine
 62
7
  6
CONTINUOUS
 10
-10.6193918305
 20
32.0753370704
 11
-10.6351947412
 21
32.0500435768
  0
LINE
  5
2EA
100
AcDbEntity
  8
0
100
AcDbLine
 62
7
  6
CONTINUOUS
 10
-10.8316768043
 20
32.4657064405
 11
-10.9220173924
 21
32.3231674297
  0
LINE
  5
2EB
100
AcDbEntity
  8
0
100
AcDbLine
 62
7
  6
CONTINUOUS
 10
-10.8040106426
 20
32.4791366736
 11
-10.8943512259
 21
32.3365976676
  0
LINE
  5
2EC
100
AcDbEntity
  8
0
100
AcDbLine
 62
7
  6
CONTINUOUS
 10
-10.8090245263
 20
32.4978493556
 11
-10.781895495
 21
32.5392143155
  0
LINE
  5
2ED
100
AcDbEntity
  8
0
100
AcDbLine
 62
7
  6
CONTINUOUS
 10
-10.7448740035
 20
32.1871204452
 11
-10.7720030421
 21
32.1457554782
  0
LINE
  5
2EE
100
AcDbEntity
  8
0
100
AcDbLine
 62
7
  6
CONTINUOUS
 10
-10.9441769758
 20
32.3864234175
 11
-10.9328508504
 21
32.4024948886
  0
LINE
  5
2EF
100
AcDbEntity
  8
0
100
AcDbLine
 62
7
  6
CONTINUOUS
 10
-10.781895495
 20
32.5392143155
 11
-10.7592431707
 21
32.5713572225
  0
LINE
  5
2F0
100
AcDbEntity
  8
0
100
AcDbLine
 62
7
  6
CONTINUOUS
 10
-10.7655554587
 20
32.5365730775
 11
-10.7429031616
 21
32.5687160117
  0
LINE
  5
2F1
100
AcDbEntity
  8
0
100
AcDbLine
 62
7
  6
CONTINUOUS
 10
-10.959127741
 20
32.9219285735
 11
-11.2430870643
 21
32.5620443026
  0
LINE
  5
2F2
100
AcDbEntity
  8
0
100
AcDbLine
 62
7
  6
CONTINUOUS
 10
-11.2573229928
 20
32.5762802311
 11
-11.1846208105
 21
32.6679636469
  0
LINE
  5
2F3
100
AcDbEntity
  8
0
100
AcDbLine
 62
7
  6
CONTINUOUS
 10
-10.9960159576
 20
32.9040215972
 11
-11.1595958665
 21
32.6977338959
  0
LINE
  5
2F4
100
AcDbEntity
  8
0
100
AcDbLine
 62
7
  6
CONTINUOUS
 10
-9.9719935736
 20
32.7368371253
 11
-9.983990153
 21
32.7773597454
  0
LINE
  5
2F5
100
AcDbEntity
  8
0
100
AcDbLine
 62
7
  6
CONTINUOUS
 10
-9.2543643537
 20
33.3599318585
 11
-9.2423677731
 21
33.3194092397
  0
LINE
  5
2F6
100
AcDbEntity
  8
0
100
AcDbLine
 62
7
  6
CONTINUOUS
 10
-9.8931600738
 20
32.8576859126
 11
-9.8864154492
 21
32.8224152498
  0
LINE
  5
2F7
100
AcDbEntity
  8
0
100
AcDbLine
 62
7
  6
CONTINUOUS
 10
-9.3331978435
 20
33.2390830813
 11
-9.3399424682
 21
33.274353744
  0
LINE
  5
2F8
100
AcDbEntity
  8
0
100
AcDbLine
 62
7
  6
CONTINUOUS
 10
-9.8481045681
 20
32.9552606176
 11
-9.8803897735
 21
32.9019677085
  0
LINE
  5
2F9
100
AcDbEntity
  8
0
100
AcDbLine
 62
7
  6
CONTINUOUS
 10
-10.4897459544
 20
32.1100767925
 11
-10.4739430485
 21
32.1353702812
  0
LINE
  5
2FA
100
AcDbEntity
  8
0
100
AcDbLine
 62
7
  6
CONTINUOUS
 10
-10.4597071199
 20
32.1211343527
 11
-10.4439042683
 21
32.1464278958
  0
LINE
  5
2FB
100
AcDbEntity
  8
0
100
AcDbLine
 62
7
  6
CONTINUOUS
 10
-10.5313350756
 20
31.9735815173
 11
-10.5471379321
 21
31.9482879694
  0
LINE
  5
2FC
100
AcDbEntity
  8
0
100
AcDbLine
 62
7
  6
CONTINUOUS
 10
-10.2031918956
 20
31.8509203301
 11
-10.2189947472
 21
31.825626787
  0
LINE
  5
2FD
100
AcDbEntity
  8
0
100
AcDbLine
 62
7
  6
CONTINUOUS
 10
-9.9404273172
 20
32.904953156
 11
-9.8938790828
 21
32.9725090941
  0
LINE
  5
2FE
100
AcDbEntity
  8
0
100
AcDbLine
 62
7
  6
CONTINUOUS
 10
-10.6115126385
 20
32.1496506679
 11
-10.5888603238
 21
32.1817935654
  0
LINE
  5
2FF
100
AcDbEntity
  8
0
100
AcDbLine
 62
7
  6
CONTINUOUS
 10
-10.4845523404
 20
32.3240639887
 11
-10.4958785201
 21
32.3079925719
  0
LINE
  5
300
100
AcDbEntity
  8
0
100
AcDbLine
 62
7
  6
CONTINUOUS
 10
-10.5613738606
 20
31.9625238979
 11
-10.5500477352
 21
31.9785953691
  0
LINE
  5
301
100
AcDbEntity
  8
0
100
AcDbLine
 62
7
  6
CONTINUOUS
 10
-10.5199644909
 20
31.8663193281
 11
-10.5312906175
 21
31.8502478558
  0
LINE
  5
302
100
AcDbEntity
  8
0
100
AcDbLine
 62
7
  6
CONTINUOUS
 10
-10.3810520811
 20
31.7822021185
 11
-10.3697260101
 21
31.7982736439
  0
LINE
  5
303
100
AcDbEntity
  8
0
100
AcDbLine
 62
7
  6
CONTINUOUS
 10
-10.1734215719
 20
31.8759451995
 11
-10.1847477516
 21
31.8598737827
  0
LINE
  5
304
100
AcDbEntity
  8
0
100
AcDbLine
 62
7
  6
CONTINUOUS
 10
-10.2450932121
 20
33.0099367638
 11
-9.7908882394
 21
33.6111953626
  0
LINE
  5
305
100
AcDbEntity
  8
0
100
AcDbLine
 62
7
  6
CONTINUOUS
 10
-10.5431539275
 20
31.8621111658
 11
-10.5136522185
 21
31.9011034576
  0
LINE
  5
306
100
AcDbEntity
  8
0
100
AcDbLine
 62
7
  6
CONTINUOUS
 10
-10.3554900815
 20
31.7840377154
 11
-10.3259883182
 21
31.8230299529
  0
LINE
  5
307
100
AcDbEntity
  8
0
100
AcDbLine
 62
7
  6
CONTINUOUS
 10
-9.6325023008
 20
33.7380698056
 11
-10.152770433
 21
33.0602441955
  0
LINE
  5
308
100
AcDbEntity
  8
0
100
AcDbLine
 62
7
  6
CONTINUOUS
 10
-9.8058155266
 20
33.9113830314
 11
-10.3921468532
 21
33.1569904049
  0
LINE
  5
309
100
AcDbEntity
  8
0
100
AcDbLine
 62
7
  6
CONTINUOUS
 10
-10.4236583488
 20
33.1885019005
 11
-10.2735097586
 21
33.3806658081
  0
LINE
  5
30A
100
AcDbEntity
  8
0
100
AcDbLine
 62
7
  6
CONTINUOUS
 10
-9.8838752691
 20
33.8753386213
 11
-10.2217095933
 21
33.4429697954
  0
LINE
  5
30B
100
AcDbEntity
  8
0
100
AcDbLine
 62
7
  6
CONTINUOUS
 10
-9.3835052751
 20
33.1467602421
 11
-9.3459681339
 21
33.1948012953
  0
LINE
  5
30C
100
AcDbEntity
  8
0
100
AcDbLine
 62
7
  6
CONTINUOUS
 10
-9.630619018
 20
32.3954625697
 11
-9.4804704729
 21
32.5876265224
  0
LINE
  5
30D
100
AcDbEntity
  8
0
100
AcDbLine
 62
7
  6
CONTINUOUS
 10
-9.0908359609
 20
33.082299313
 11
-9.4286702925
 21
32.6499304946
  0
LINE
  5
30E
100
AcDbEntity
  8
0
100
AcDbLine
 62
7
  6
CONTINUOUS
 10
-10.9536676129
 20
32.3959140546
 11
-10.9354920612
 21
32.4188348977
  0
LINE
  5
30F
100
AcDbEntity
  8
0
100
AcDbLine
 62
7
  6
CONTINUOUS
 10
-10.6778116632
 20
32.5721185046
 11
-10.6959871878
 21
32.5491976343
  0
LINE
  5
310
100
AcDbEntity
  8
0
100
AcDbLine
 62
7
  6
CONTINUOUS
 10
-10.7237886759
 20
32.1797339158
 11
-10.7056130971
 21
32.2026547317
  0
LINE
  5
311
100
AcDbEntity
  8
0
100
AcDbLine
 62
7
  6
CONTINUOUS
 10
-10.5796827196
 20
32.3096039436
 11
-10.5615071408
 21
32.3325247595
  0
LINE
  5
312
100
AcDbEntity
  8
0
100
AcDbLine
 62
7
  6
CONTINUOUS
 10
-10.4816425916
 20
32.2937566434
 11
-10.4634670127
 21
32.3166774593
  0
LINE
  5
313
100
AcDbEntity
  8
0
100
AcDbLine
 62
7
  6
CONTINUOUS
 10
-10.4778826988
 20
32.0982135368
 11
-10.4597071199
 21
32.1211343527
  0
LINE
  5
314
100
AcDbEntity
  8
0
100
AcDbLine
 62
7
  6
CONTINUOUS
 10
-10.5131594968
 20
31.9965023332
 11
-10.5313350756
 21
31.9735815173
  0
LINE
  5
315
100
AcDbEntity
  8
0
100
AcDbLine
 62
7
  6
CONTINUOUS
 10
-10.2656865965
 20
31.9545114258
 11
-10.2838621211
 21
31.9315905556
  0
LINE
  5
316
100
AcDbEntity
  8
0
100
AcDbLine
 62
7
  6
CONTINUOUS
 10
-10.6062301625
 20
32.1169705954
 11
-10.6494306698
 21
32.0642795054
  0
LINE
  5
317
100
AcDbEntity
  8
0
100
AcDbLine
 62
7
  6
CONTINUOUS
 10
-9.7963043877
 20
33.0175645898
 11
-9.8481045681
 21
32.9552606176
  0
LINE
  5
318
100
AcDbEntity
  8
0
100
AcDbLine
 62
7
  6
CONTINUOUS
 10
-10.7198490256
 20
32.2168906603
 11
-10.7448740035
 21
32.1871204452
  0
LINE
  5
319
100
AcDbEntity
  8
0
100
AcDbLine
 62
7
  6
CONTINUOUS
 10
-10.5825924684
 20
32.3399112889
 11
-10.6076174464
 21
32.3101410739
  0
LINE
  5
31A
100
AcDbEntity
  8
0
100
AcDbLine
 62
7
  6
CONTINUOUS
 10
-10.5943669068
 20
32.1051073398
 11
-10.6193918305
 21
32.0753370704
  0
LINE
  5
31B
100
AcDbEntity
  8
0
100
AcDbLine
 62
7
  6
CONTINUOUS
 10
-10.5147708781
 20
32.0803065231
 11
-10.4897459544
 21
32.1100767925
  0
LINE
  5
31C
100
AcDbEntity
  8
0
100
AcDbLine
 62
7
  6
CONTINUOUS
 10
-10.5029076224
 20
32.0684432675
 11
-10.4778826988
 21
32.0982135368
  0
LINE
  5
31D
100
AcDbEntity
  8
0
100
AcDbLine
 62
7
  6
CONTINUOUS
 10
-10.5500477352
 20
31.9785953691
 11
-10.5250228068
 21
32.0083656432
  0
LINE
  5
31E
100
AcDbEntity
  8
0
100
AcDbLine
 62
7
  6
CONTINUOUS
 10
-10.4949395637
 20
31.896089601
 11
-10.5199644909
 21
31.8663193281
  0
LINE
  5
31F
100
AcDbEntity
  8
0
100
AcDbLine
 62
7
  6
CONTINUOUS
 10
-9.8938790828
 20
32.9725090941
 11
-9.8278158833
 21
33.0490760854
  0
LINE
  5
320
100
AcDbEntity
  8
0
100
AcDbLine
 62
7
  6
CONTINUOUS
 10
-12.0235081157
 20
32.4548992895
 11
-7.9013301692
 21
36.577077236
  0
LINE
  5
321
100
AcDbEntity
  8
0
100
AcDbLine
 62
7
  6
CONTINUOUS
 10
-2.7106572196
 20
41.7677501856
 11
1.4115207268
 21
45.889928132
  0
LINE
  5
322
100
AcDbEntity
  8
0
100
AcDbLine
 62
7
  6
CONTINUOUS
 10
-12.0235081157
 20
32.3134779332
 11
-8.0124516982
 21
36.3245343507
  0
LINE
  5
323
100
AcDbEntity
  8
0
100
AcDbLine
 62
7
  6
CONTINUOUS
 10
-2.4581143344
 20
41.8788717146
 11
1.5529420831
 21
45.889928132
  0
LINE
  5
324
100
AcDbEntity
  8
0
100
AcDbLine
 62
7
  6
CONTINUOUS
 10
-9.796121755
 20
34.3287322596
 11
-11.7406654032
 21
32.3841886114
  0
LINE
  5
325
100
AcDbEntity
  8
0
100
AcDbLine
 62
7
  6
CONTINUOUS
 10
-4.8347573044
 20
39.0390738029
 11
-5.1656264379
 21
38.7082046694
  0
LINE
  5
326
100
AcDbEntity
  8
0
100
AcDbLine
 62
7
  6
CONTINUOUS
 10
-11.224105824
 20
32.5430630623
 11
-11.0049250329
 21
32.7622438534
  0
LINE
  5
327
100
AcDbEntity
  8
0
100
AcDbLine
 62
7
  6
CONTINUOUS
 10
-10.9364310225
 20
32.8307378638
 11
-10.9021840268
 21
32.8649848594
  0
LINE
  5
328
100
AcDbEntity
  8
0
100
AcDbLine
 62
7
  6
CONTINUOUS
 10
-10.8903207576
 20
32.8531215901
 11
-10.9245677532
 21
32.8188745945
  0
LINE
  5
329
100
AcDbEntity
  8
0
100
AcDbLine
 62
7
  6
CONTINUOUS
 10
-10.9930617636
 20
32.7503805841
 11
-11.2122425547
 21
32.531199793
  0
LINE
  5
32A
100
AcDbEntity
  8
0
100
AcDbLine
 62
7
  6
CONTINUOUS
 10
-11.1932613076
 20
32.5122185459
 11
-10.9740805165
 21
32.731399337
  0
LINE
  5
32B
100
AcDbEntity
  8
0
100
AcDbLine
 62
7
  6
CONTINUOUS
 10
-10.9622172473
 20
32.7195360678
 11
-11.003313642
 21
32.678439673
  0
LINE
  5
32C
100
AcDbEntity
  8
0
100
AcDbLine
 62
7
  6
CONTINUOUS
 10
-11.0444100367
 20
32.6373432783
 11
-11.1813980384
 21
32.5003552767
  0
LINE
  5
32D
100
AcDbEntity
  8
0
100
AcDbLine
 62
7
  6
CONTINUOUS
 10
-10.9313727309
 20
32.6886915514
 11
-10.9656197266
 21
32.6544445558
  0
LINE
  5
32E
100
AcDbEntity
  8
0
100
AcDbLine
 62
7
  6
CONTINUOUS
 10
-4.6756582786
 20
38.8799747771
 11
-4.6919340771
 21
38.8636989787
  0
LINE
  5
32F
100
AcDbEntity
  8
0
100
AcDbLine
 62
7
  6
CONTINUOUS
 10
-4.9976951378
 20
38.5579379179
 11
-5.0065274121
 21
38.5491056436
  0
LINE
  5
330
100
AcDbEntity
  8
0
100
AcDbLine
 62
7
  6
CONTINUOUS
 10
-10.3501315208
 20
33.1149750725
 11
-9.6797695442
 21
33.785337049
  0
LINE
  5
331
100
AcDbEntity
  8
0
100
AcDbLine
 62
7
  6
CONTINUOUS
 10
-9.7908882394
 20
33.6111953626
 11
-10.3186200252
 21
33.0834635769
  0
LINE
  5
332
100
AcDbEntity
  8
0
100
AcDbLine
 62
7
  6
CONTINUOUS
 10
-10.9354920612
 20
32.4188348977
 11
-10.921793263
 21
32.4325336959
  0
LINE
  5
333
100
AcDbEntity
  8
0
100
AcDbLine
 62
7
  6
CONTINUOUS
 10
-10.9328508504
 20
32.4024948886
 11
-10.912302653
 21
32.4230430859
  0
LINE
  5
334
100
AcDbEntity
  8
0
100
AcDbLine
 62
7
  6
CONTINUOUS
 10
-10.7592431707
 20
32.5713572225
 11
-10.7386949733
 21
32.5919054199
  0
LINE
  5
335
100
AcDbEntity
  8
0
100
AcDbLine
 62
7
  6
CONTINUOUS
 10
-10.7429031616
 20
32.5687160117
 11
-10.7292043634
 21
32.5824148099
  0
LINE
  5
336
100
AcDbEntity
  8
0
100
AcDbLine
 62
7
  6
CONTINUOUS
 10
1.4115207268
 20
18.8784490907
 11
-2.7106572196
 21
23.0006270372
  0
LINE
  5
337
100
AcDbEntity
  8
0
100
AcDbLine
 62
7
  6
CONTINUOUS
 10
-7.9013301692
 20
28.1912999868
 11
-12.0235081157
 21
32.3134779332
  0
LINE
  5
338
100
AcDbEntity
  8
0
100
AcDbLine
 62
7
  6
CONTINUOUS
 10
1.5529420831
 20
18.8784490907
 11
-2.4581143344
 21
22.8895055082
  0
LINE
  5
339
100
AcDbEntity
  8
0
100
AcDbLine
 62
7
  6
CONTINUOUS
 10
-8.0124516982
 20
28.443842872
 11
-12.0235081157
 21
32.4548992895
  0
LINE
  5
33A
100
AcDbEntity
  8
0
100
AcDbLine
 62
7
  6
CONTINUOUS
 10
-11.7406654032
 20
32.3841886114
 11
-10.5951524177
 21
31.2386756258
  0
LINE
  5
33B
100
AcDbEntity
  8
0
100
AcDbLine
 62
7
  6
CONTINUOUS
 10
-10.5032285362
 20
31.1467517443
 11
-8.14797118
 21
28.7914943881
  0
LINE
  5
33C
100
AcDbEntity
  8
0
100
AcDbLine
 62
7
  6
CONTINUOUS
 10
-5.1726537865
 20
26.067199902
 11
-4.841784653
 21
25.7363307685
  0
LINE
  5
33D
100
AcDbEntity
  8
0
100
AcDbLine
 62
7
  6
CONTINUOUS
 10
0.3862158941
 20
20.6108607046
 11
1.2700993706
 21
19.7269772281
  0
LINE
  5
33E
100
AcDbEntity
  8
0
100
AcDbLine
 62
7
  6
CONTINUOUS
 10
-5.0135547608
 20
26.2262989278
 11
-4.9972789623
 21
26.2100231293
  0
LINE
  5
33F
100
AcDbEntity
  8
0
100
AcDbLine
 62
7
  6
CONTINUOUS
 10
-4.6915179016
 20
25.9042620686
 11
-4.6826856273
 21
25.8954297943
  0
LINE
  5
340
100
AcDbEntity
  8
0
100
AcDbLine
 62
7
  6
CONTINUOUS
 10
-10.7756740753
 20
32.0946313136
 11
-10.7566928554
 21
32.0756500937
  0
LINE
  5
341
100
AcDbEntity
  8
0
100
AcDbLine
 62
7
  6
CONTINUOUS
 10
-10.6736499028
 20
31.9926071411
 11
-10.6546686828
 21
31.9736259211
  0
LINE
  5
342
100
AcDbEntity
  8
0
100
AcDbLine
 62
7
  6
CONTINUOUS
 10
-10.350968838
 20
31.6699260763
 11
-10.362832148
 21
31.6817893863
  0
LINE
  5
343
100
AcDbEntity
  8
0
100
AcDbLine
 62
7
  6
CONTINUOUS
 10
-10.3841860408
 20
31.7031432791
 11
-10.3984219693
 21
31.7173792076
  0
LINE
  5
344
100
AcDbEntity
  8
0
100
AcDbLine
 62
7
  6
CONTINUOUS
 10
-10.4458750463
 20
31.7648322846
 11
-10.4577383563
 21
31.7766955946
  0
LINE
  5
345
100
AcDbEntity
  8
0
100
AcDbLine
 62
7
  6
CONTINUOUS
 10
-10.5004461419
 20
31.8194033802
 11
-10.5123093976
 21
31.8312666358
  0
LINE
  5
346
100
AcDbEntity
  8
0
100
AcDbLine
 62
7
  6
CONTINUOUS
 10
-10.5312906175
 20
31.8502478558
 11
-10.5431539275
 21
31.8621111658
  0
LINE
  5
347
100
AcDbEntity
  8
0
100
AcDbLine
 62
7
  6
CONTINUOUS
 10
-10.5692531117
 20
31.88821035
 11
-10.5787437488
 21
31.8977009871
  0
LINE
  5
348
100
AcDbEntity
  8
0
100
AcDbLine
 62
7
  6
CONTINUOUS
 10
-10.9417598991
 20
32.2607171374
 11
-10.9536231819
 21
32.2725804202
  0
LINE
  5
349
100
AcDbEntity
  8
0
100
AcDbLine
 62
7
  6
CONTINUOUS
 10
-10.9773497204
 20
32.2963069587
 11
-10.9844676847
 21
32.303424923
  0
LINE
  5
34A
100
AcDbEntity
  8
0
100
AcDbLine
 62
7
  6
CONTINUOUS
 10
-11.1813980384
 20
32.5003552767
 11
-11.1932613076
 21
32.5122185459
  0
LINE
  5
34B
100
AcDbEntity
  8
0
100
AcDbLine
 62
7
  6
CONTINUOUS
 10
-11.2122425547
 20
32.531199793
 11
-11.224105824
 21
32.5430630623
  0
LINE
  5
34C
100
AcDbEntity
  8
0
100
AcDbLine
 62
7
  6
CONTINUOUS
 10
-11.2430870643
 20
32.5620443026
 11
-11.2573229928
 21
32.5762802311
  0
LINE
  5
34D
100
AcDbEntity
  8
0
100
AcDbLine
 62
7
  6
CONTINUOUS
 10
-11.3237573237
 20
32.642714562
 11
-11.3379932522
 21
32.6569504905
  0
LINE
  5
34E
100
AcDbEntity
  8
0
100
AcDbLine
 62
7
  6
CONTINUOUS
 10
-10.6415070125
 20
32.0152594485
 11
-10.6320163754
 21
32.0057688114
  0
LINE
  5
34F
100
AcDbEntity
  8
0
100
AcDbLine
 62
7
  6
CONTINUOUS
 10
-10.5513461499
 20
31.925098586
 11
-10.5418555128
 21
31.9156079488
  0
LINE
  5
350
100
AcDbEntity
  8
0
100
AcDbLine
 62
7
  6
CONTINUOUS
 10
-10.9499521215
 20
32.3237045576
 11
-10.9594427587
 21
32.3331951947
  0
LINE
  5
351
100
AcDbEntity
  8
0
100
AcDbLine
 62
7
  6
CONTINUOUS
 10
-10.3499390404
 20
31.7373902795
 11
-10.3594296232
 21
31.7468808623
  0
LINE
  5
352
100
AcDbEntity
  8
0
100
AcDbLine
 62
7
  6
CONTINUOUS
 10
-10.7155964559
 20
32.1167464932
 11
-10.7345776758
 21
32.1357277131
  0
LINE
  5
353
100
AcDbEntity
  8
0
100
AcDbLine
 62
7
  6
CONTINUOUS
 10
-11.1846208105
 20
32.6679636469
 11
-11.2320739062
 21
32.7154167426
  0
LINE
  5
354
100
AcDbEntity
  8
0
100
AcDbLine
 62
7
  6
CONTINUOUS
 10
-10.7056130971
 20
32.2026547317
 11
-10.7198490256
 21
32.2168906603
  0
LINE
  5
355
100
AcDbEntity
  8
PARTDTMS
100
AcDbLine
 62
7
  6
CONTINUOUS
 10
-4.8598874765
 20
38.4201302565
 11
-4.8838509461
 21
38.3542911649
  0
LINE
  5
356
100
AcDbEntity
  8
0
100
AcDbLine
 62
7
  6
CONTINUOUS
 10
-9.0127762408
 20
33.1183437456
 11
-9.5991075224
 21
32.3639510741
  0
LINE
  5
357
100
AcDbEntity
  8
0
100
AcDbLine
 62
7
  6
CONTINUOUS
 10
-10.3697260101
 20
31.7982736439
 11
-10.3447010273
 21
31.8280438637
  0
LINE
  5
358
100
AcDbEntity
  8
0
100
AcDbLine
 62
7
  6
CONTINUOUS
 10
-9.2859306002
 20
33.1918158379
 11
-9.3519937795
 21
33.1152487465
  0
LINE
  5
359
100
AcDbEntity
  8
0
100
AcDbLine
 62
7
  6
CONTINUOUS
 10
-10.3275997538
 20
31.9068341971
 11
-10.2957253767
 21
31.9434538113
  0
LINE
  5
35A
100
AcDbEntity
  8
0
100
AcDbLine
 62
7
  6
CONTINUOUS
 10
-10.2838621211
 20
31.9315905556
 11
-10.3157364438
 21
31.8949708871
  0
LINE
  5
35B
100
AcDbEntity
  8
0
100
AcDbLine
 62
7
  6
CONTINUOUS
 10
-10.7054778249
 20
32.5586882715
 11
-10.7191766231
 21
32.5449894732
  0
LINE
  5
35C
100
AcDbEntity
  8
0
100
AcDbLine
 62
7
  6
CONTINUOUS
 10
-10.6959871878
 20
32.5491976343
 11
-10.7165353851
 21
32.528649437
  0
LINE
  5
35D
100
AcDbEntity
  8
PARTDTMS
100
AcDbLine
 62
7
  6
CONTINUOUS
 10
-4.4878711486
 20
38.7502709624
 11
-4.8838509461
 21
38.3542911649
  0
LINE
  5
35E
100
AcDbEntity
  8
0
100
AcDbLine
 62
7
  6
CONTINUOUS
 10
-10.8553589389
 20
32.3660993718
 11
-10.8142625346
 21
32.4071957761
  0
LINE
  5
35F
100
AcDbEntity
  8
0
100
AcDbLine
 62
7
  6
CONTINUOUS
 10
-10.8047718975
 20
32.397705139
 11
-10.8458683018
 21
32.3566087347
  0
LINE
  5
360
100
AcDbEntity
  8
PARTDTMS
100
AcDbLine
 62
7
  6
CONTINUOUS
 10
-4.4454447417
 20
38.7078445555
 11
-4.8414245392
 21
38.311864758
  0
LINE
  5
361
100
AcDbEntity
  8
0
100
AcDbLine
 62
7
  6
CONTINUOUS
 10
-4.6823247704
 20
38.3719695775
 11
-4.5055495612
 21
38.5487447867
  0
LINE
  5
362
100
AcDbEntity
  8
0
100
AcDbLine
 62
7
  6
CONTINUOUS
 10
-10.1295510516
 20
32.8943946033
 11
-9.6018192658
 21
33.4221263891
  0
LINE
  5
363
100
AcDbEntity
  8
0
100
AcDbLine
 62
7
  6
CONTINUOUS
 10
-9.4276775795
 20
33.5332450843
 11
-10.098039556
 21
32.8628831077
  0
LINE
  5
364
100
AcDbEntity
  8
0
100
AcDbLine
 62
7
  6
CONTINUOUS
 10
-10.5551948527
 20
32.3673089046
 11
-10.5825924684
 21
32.3399112889
  0
LINE
  5
365
100
AcDbEntity
  8
0
100
AcDbLine
 62
7
  6
CONTINUOUS
 10
-10.5615071408
 20
32.3325247595
 11
-10.5478083425
 21
32.3462235578
  0
LINE
  5
366
100
AcDbEntity
  8
0
100
AcDbLine
 62
7
  6
CONTINUOUS
 10
-9.8278158833
 20
33.0490760854
 11
-9.6138705772
 21
33.2630213916
  0
LINE
  5
367
100
AcDbEntity
  8
0
100
AcDbLine
 62
7
  6
CONTINUOUS
 10
-9.5823590816
 20
33.231509896
 11
-9.7963043877
 21
33.0175645898
  0
LINE
  5
368
100
AcDbEntity
  8
0
100
AcDbLine
 62
7
  6
CONTINUOUS
 10
-10.6325979662
 20
32.1570371973
 11
-10.6531461635
 21
32.1364889999
  0
LINE
  5
369
100
AcDbEntity
  8
0
100
AcDbLine
 62
7
  6
CONTINUOUS
 10
-10.6457596341
 20
32.1154036723
 11
-10.6115126385
 21
32.1496506679
  0
LINE
  5
36A
100
AcDbEntity
  8
0
100
AcDbLine
 62
7
  6
CONTINUOUS
 10
-10.5788325564
 20
32.1443682015
 11
-10.6062301625
 21
32.1169705954
  0
LINE
  5
36B
100
AcDbEntity
  8
0
100
AcDbLine
 62
7
  6
CONTINUOUS
 10
-10.5669693008
 20
32.1325049458
 11
-10.5943669068
 21
32.1051073398
  0
LINE
  5
36C
100
AcDbEntity
  8
0
100
AcDbLine
 62
7
  6
CONTINUOUS
 10
-10.5421684841
 20
32.052908917
 11
-10.5147708781
 21
32.0803065231
  0
LINE
  5
36D
100
AcDbEntity
  8
0
100
AcDbLine
 62
7
  6
CONTINUOUS
 10
-10.5303052285
 20
32.0410456614
 11
-10.5029076224
 21
32.0684432675
  0
LINE
  5
36E
100
AcDbEntity
  8
0
100
AcDbLine
 62
7
  6
CONTINUOUS
 10
-10.5250228068
 20
32.0083656432
 11
-10.3880348147
 21
32.1453536352
  0
LINE
  5
36F
100
AcDbEntity
  8
0
100
AcDbLine
 62
7
  6
CONTINUOUS
 10
-10.3761715048
 20
32.1334903253
 11
-10.5131594968
 21
31.9965023332
  0
LINE
  5
370
100
AcDbEntity
  8
0
100
AcDbLine
 62
7
  6
CONTINUOUS
 10
-10.4794052181
 20
31.935350458
 11
-10.3287184278
 21
32.0860372483
  0
LINE
  5
371
100
AcDbEntity
  8
0
100
AcDbLine
 62
7
  6
CONTINUOUS
 10
-10.3168551721
 20
32.0741739926
 11
-10.4949395637
 21
31.896089601
  0
LINE
  5
372
100
AcDbEntity
  8
0
100
AcDbLine
 62
7
  6
CONTINUOUS
 10
-10.5123093976
 20
31.8312666358
 11
-10.2931286065
 21
32.0504474269
  0
LINE
  5
373
100
AcDbEntity
  8
0
100
AcDbLine
 62
7
  6
CONTINUOUS
 10
-10.2812653508
 20
32.0385841713
 11
-10.3155123464
 21
32.0043371757
  0
LINE
  5
374
100
AcDbEntity
  8
0
100
AcDbLine
 62
7
  6
CONTINUOUS
 10
-10.3429099429
 20
31.9769395792
 11
-10.5004461419
 21
31.8194033802
  0
LINE
  5
375
100
AcDbEntity
  8
0
100
AcDbLine
 62
7
  6
CONTINUOUS
 10
-10.4577383563
 20
31.7766955946
 11
-10.3275997538
 21
31.9068341971
  0
LINE
  5
376
100
AcDbEntity
  8
0
100
AcDbLine
 62
7
  6
CONTINUOUS
 10
-10.3157364438
 20
31.8949708871
 11
-10.4458750463
 21
31.7648322846
  0
LINE
  5
377
100
AcDbEntity
  8
0
100
AcDbLine
 62
7
  6
CONTINUOUS
 10
-10.3447010273
 20
31.8280438637
 11
-10.2899058247
 21
31.8828390663
  0
LINE
  5
378
100
AcDbEntity
  8
0
100
AcDbLine
 62
7
  6
CONTINUOUS
 10
-10.3259883182
 20
31.8230299529
 11
-10.2848919139
 21
31.8641263572
  0
LINE
  5
379
100
AcDbEntity
  8
0
100
AcDbLine
 62
7
  6
CONTINUOUS
 10
-10.2189947472
 20
31.825626787
 11
-10.2874887481
 21
31.7571327862
  0
LINE
  5
37A
100
AcDbEntity
  8
0
100
AcDbLine
 62
7
  6
CONTINUOUS
 10
-10.362832148
 20
31.6817893863
 11
-10.3217357485
 21
31.7228857858
  0
LINE
  5
37B
100
AcDbEntity
  8
0
100
AcDbLine
 62
7
  6
CONTINUOUS
 10
-10.1847477516
 20
31.8598737827
 11
-10.0409103509
 21
32.0037111834
  0
LINE
  5
37C
100
AcDbEntity
  8
0
100
AcDbLine
 62
7
  6
CONTINUOUS
 10
-10.0290470409
 20
31.9918478734
 11
-10.350968838
 21
31.6699260763
  0
LINE
  5
37D
100
AcDbEntity
  8
0
100
AcDbLine
 62
7
  6
CONTINUOUS
 10
-10.5951524177
 20
31.2386756258
 11
-8.7730269555
 21
33.060801088
  0
LINE
  5
37E
100
AcDbEntity
  8
0
100
AcDbLine
 62
7
  6
CONTINUOUS
 10
-8.7859221717
 20
32.8640581088
 11
-10.5032285362
 21
31.1467517443
  0
LINE
  5
37F
100
AcDbEntity
  8
0
100
AcDbLine
 62
7
  6
CONTINUOUS
 10
-9.6138705772
 20
33.2630213916
 11
-9.5373035459
 21
33.329084631
  0
LINE
  5
380
100
AcDbEntity
  8
0
100
AcDbLine
 62
7
  6
CONTINUOUS
 10
-9.6800432383
 20
32.7871992878
 11
-9.7566102996
 21
32.7211361384
  0
LINE
  5
381
100
AcDbEntity
  8
0
100
AcDbLine
 62
7
  6
CONTINUOUS
 10
-10.5254246377
 20
32.3923338825
 11
-10.5551948527
 21
32.3673089046
  0
LINE
  5
382
100
AcDbEntity
  8
0
100
AcDbLine
 62
7
  6
CONTINUOUS
 10
-10.5490623414
 20
32.1693931794
 11
-10.5788325564
 21
32.1443682015
  0
LINE
  5
383
100
AcDbEntity
  8
0
100
AcDbLine
 62
7
  6
CONTINUOUS
 10
-10.5371990314
 20
32.1575298695
 11
-10.5669693008
 21
32.1325049458
  0
LINE
  5
384
100
AcDbEntity
  8
0
100
AcDbLine
 62
7
  6
CONTINUOUS
 10
-10.5719387535
 20
32.0278839934
 11
-10.5421684841
 21
32.052908917
  0
LINE
  5
385
100
AcDbEntity
  8
0
100
AcDbLine
 62
7
  6
CONTINUOUS
 10
-9.5200551094
 20
33.2833100764
 11
-9.5823590816
 21
33.231509896
  0
LINE
  5
386
100
AcDbEntity
  8
0
100
AcDbLine
 62
7
  6
CONTINUOUS
 10
-11.2023036538
 20
32.7404416832
 11
-10.9960159576
 21
32.9040215972
  0
LINE
  5
387
100
AcDbEntity
  8
0
100
AcDbLine
 62
7
  6
CONTINUOUS
 10
-11.2320739062
 20
32.7154167426
 11
-11.3237573237
 21
32.642714562
  0
LINE
  5
388
100
AcDbEntity
  8
0
100
AcDbLine
 62
7
  6
CONTINUOUS
 10
-10.7386949733
 20
32.5919054199
 11
-10.7157741303
 21
32.6100809716
  0
LINE
  5
389
100
AcDbEntity
  8
0
100
AcDbLine
 62
7
  6
CONTINUOUS
 10
-10.921793263
 20
32.4325336959
 11
-10.8988724199
 21
32.4507092476
  0
LINE
  5
38A
100
AcDbEntity
  8
0
100
AcDbLine
 62
7
  6
CONTINUOUS
 10
-10.878279782
 20
32.3479238202
 11
-10.8553589389
 21
32.3660993718
  0
LINE
  5
38B
100
AcDbEntity
  8
0
100
AcDbLine
 62
7
  6
CONTINUOUS
 10
-11.3379932522
 20
32.6569504905
 11
-10.9781089779
 21
32.9409098104
  0
LINE
  5
38C
100
AcDbEntity
  8
0
100
AcDbLine
 62
7
  6
CONTINUOUS
 10
-10.3162440838
 20
33.5375042859
 11
-9.8838752691
 21
33.8753386213
  0
LINE
  5
38D
100
AcDbEntity
  8
0
100
AcDbLine
 62
7
  6
CONTINUOUS
 10
-10.3785480785
 20
33.485704128
 11
-10.5707119899
 21
33.3355555416
  0
LINE
  5
38E
100
AcDbEntity
  8
0
100
AcDbLine
 62
7
  6
CONTINUOUS
 10
-10.6022234855
 20
33.3670670372
 11
-9.8478308515
 21
33.9533983563
  0
LINE
  5
38F
100
AcDbEntity
  8
0
100
AcDbLine
 62
7
  6
CONTINUOUS
 10
-10.152770433
 20
33.0602441955
 11
-9.4749448229
 21
33.5805123277
  0
LINE
  5
390
100
AcDbEntity
  8
0
100
AcDbLine
 62
7
  6
CONTINUOUS
 10
-9.6018192658
 20
33.4221263891
 11
-10.2030778646
 21
32.9679214163
  0
LINE
  5
391
100
AcDbEntity
  8
PARTDTMS
100
AcDbLine
 62
7
  6
CONTINUOUS
 10
-4.5537102402
 20
38.7263074928
 11
-4.4878711486
 21
38.7502709624
  0
LINE
  5
392
100
AcDbEntity
  8
PARTDTMS
100
AcDbLine
 62
7
  6
CONTINUOUS
 10
-4.5537102402
 20
26.0420697299
 11
-4.4878711486
 21
26.0181062603
  0
LINE
  5
393
100
AcDbEntity
  8
PARTDTMS
100
AcDbLine
 62
7
  6
CONTINUOUS
 10
-4.8838509461
 20
26.4140860578
 11
-4.4878711486
 21
26.0181062603
  0
LINE
  5
394
100
AcDbEntity
  8
0
100
AcDbLine
 62
7
  6
CONTINUOUS
 10
-11.1595958665
 20
32.6977338959
 11
-11.2023036538
 21
32.7404416832
  0
LINE
  5
395
100
AcDbEntity
  8
0
100
AcDbLine
 62
7
  6
CONTINUOUS
 10
-10.8142625346
 20
32.4071957761
 11
-10.8047718975
 21
32.397705139
  0
LINE
  5
396
100
AcDbEntity
  8
0
100
AcDbLine
 62
7
  6
CONTINUOUS
 10
-10.6270913832
 20
32.233723423
 11
-10.6128554546
 21
32.2194874944
  0
LINE
  5
397
100
AcDbEntity
  8
PARTDTMS
100
AcDbLine
 62
7
  6
CONTINUOUS
 10
-4.8414245392
 20
26.4565124647
 11
-4.4454447417
 21
26.0605326672
  0
LINE
  5
398
100
AcDbEntity
  8
0
100
AcDbLine
 62
7
  6
CONTINUOUS
 10
-10.2134881738
 20
31.9023130031
 11
-10.1992522453
 21
31.8880770746
  0
LINE
  5
399
100
AcDbEntity
  8
0
100
AcDbLine
 62
7
  6
CONTINUOUS
 10
-10.5717590599
 20
32.2605838892
 11
-10.5859949884
 21
32.2748198177
  0
LINE
  5
39A
100
AcDbEntity
  8
0
100
AcDbLine
 62
7
  6
CONTINUOUS
 10
-10.4676307796
 20
32.1701544071
 11
-10.4771214168
 21
32.1796450443
  0
LINE
  5
39B
100
AcDbEntity
  8
0
100
AcDbLine
 62
7
  6
CONTINUOUS
 10
-4.5055495612
 20
26.219632436
 11
-4.6823247704
 21
26.3964076452
  0
LINE
  5
39C
100
AcDbEntity
  8
0
100
AcDbLine
 62
7
  6
CONTINUOUS
 10
-11.0049250329
 20
32.7622438534
 11
-10.9930617636
 21
32.7503805841
  0
LINE
  5
39D
100
AcDbEntity
  8
0
100
AcDbLine
 62
7
  6
CONTINUOUS
 10
-10.9740805165
 20
32.731399337
 11
-10.9622172473
 21
32.7195360678
  0
LINE
  5
39E
100
AcDbEntity
  8
0
100
AcDbLine
 62
7
  6
CONTINUOUS
 10
-10.3880348147
 20
32.1453536352
 11
-10.3761715048
 21
32.1334903253
  0
LINE
  5
39F
100
AcDbEntity
  8
0
100
AcDbLine
 62
7
  6
CONTINUOUS
 10
-10.3287184278
 20
32.0860372483
 11
-10.3168551721
 21
32.0741739926
  0
LINE
  5
3A0
100
AcDbEntity
  8
0
100
AcDbLine
 62
7
  6
CONTINUOUS
 10
-10.2931286065
 20
32.0504474269
 11
-10.2812653508
 21
32.0385841713
  0
LINE
  5
3A1
100
AcDbEntity
  8
0
100
AcDbLine
 62
7
  6
CONTINUOUS
 10
-10.259911458
 20
32.0172302785
 11
-10.2504208209
 21
32.0077396414
  0
LINE
  5
3A2
100
AcDbEntity
  8
0
100
AcDbLine
 62
7
  6
CONTINUOUS
 10
-10.1792411782
 20
31.9365599987
 11
-10.1650052497
 21
31.9223240702
  0
LINE
  5
3A3
100
AcDbEntity
  8
0
100
AcDbLine
 62
7
  6
CONTINUOUS
 10
-10.4354878917
 20
32.1928067122
 11
-10.4544691117
 21
32.2117879322
  0
LINE
  5
3A4
100
AcDbEntity
  8
0
100
AcDbLine
 62
7
  6
CONTINUOUS
 10
-10.4958785201
 20
32.3079925719
 11
-10.4816425916
 21
32.2937566434
  0
LINE
  5
3A5
100
AcDbEntity
  8
0
100
AcDbLine
 62
7
  6
CONTINUOUS
 10
-10.4901033815
 20
32.3707114246
 11
-10.475867453
 21
32.3564754961
  0
LINE
  5
3A6
100
AcDbEntity
  8
0
100
AcDbLine
 62
7
  6
CONTINUOUS
 10
-10.9245677532
 20
32.8188745945
 11
-10.9364310225
 21
32.8307378638
  0
LINE
  5
3A7
100
AcDbEntity
  8
0
100
AcDbLine
 62
7
  6
CONTINUOUS
 10
-10.6923161569
 20
32.6003217965
 11
-10.6875708384
 21
32.5955764779
  0
LINE
  5
3A8
100
AcDbEntity
  8
0
100
AcDbLine
 62
7
  6
CONTINUOUS
 10
-10.9781089779
 20
32.9409098104
 11
-10.959127741
 21
32.9219285735
  0
LINE
  5
3A9
100
AcDbEntity
  8
0
100
AcDbLine
 62
7
  6
CONTINUOUS
 10
-10.9021840268
 20
32.8649848594
 11
-10.8903207576
 21
32.8531215901
  0
LINE
  5
3AA
100
AcDbEntity
  8
0
100
AcDbLine
 62
7
  6
CONTINUOUS
 10
-10.6649185604
 20
32.627719393
 11
-10.6601732419
 21
32.6229740744
  0
LINE
  5
3AB
100
AcDbEntity
  8
0
100
AcDbLine
 62
7
  6
CONTINUOUS
 10
-10.0409103509
 20
32.0037111834
 11
-10.0290470409
 21
31.9918478734
  0
LINE
  5
3AC
100
AcDbEntity
  8
0
100
AcDbLine
 62
7
  6
CONTINUOUS
 10
-10.4371436768
 20
32.3999445094
 11
-10.4490069868
 21
32.4118078193
  0
LINE
  5
3AD
100
AcDbEntity
  8
0
100
AcDbLine
 62
7
  6
CONTINUOUS
 10
-9.5991075224
 20
32.3639510741
 11
-9.630619018
 21
32.3954625697
  0
LINE
  5
3AE
100
AcDbEntity
  8
0
100
AcDbLine
 62
7
  6
CONTINUOUS
 10
-9.7776727042
 20
32.5425162559
 11
-9.8091841998
 21
32.5740277515
  0
LINE
  5
3AF
100
AcDbEntity
  8
0
100
AcDbLine
 62
7
  6
CONTINUOUS
 10
-9.9247263303
 20
32.6895698819
 11
-9.9719935736
 21
32.7368371253
  0
LINE
  5
3B0
100
AcDbEntity
  8
0
100
AcDbLine
 62
7
  6
CONTINUOUS
 10
-10.098039556
 20
32.8628831077
 11
-10.1295510516
 21
32.8943946033
  0
LINE
  5
3B1
100
AcDbEntity
  8
0
100
AcDbLine
 62
7
  6
CONTINUOUS
 10
-10.2030778646
 20
32.9679214163
 11
-10.2450932121
 21
33.0099367638
  0
LINE
  5
3B2
100
AcDbEntity
  8
0
100
AcDbLine
 62
7
  6
CONTINUOUS
 10
-10.3186200252
 20
33.0834635769
 11
-10.3501315208
 21
33.1149750725
  0
LINE
  5
3B3
100
AcDbEntity
  8
0
100
AcDbLine
 62
7
  6
CONTINUOUS
 10
-10.3921468532
 20
33.1569904049
 11
-10.4236583488
 21
33.1885019005
  0
LINE
  5
3B4
100
AcDbEntity
  8
0
100
AcDbLine
 62
7
  6
CONTINUOUS
 10
-10.5707119899
 20
33.3355555416
 11
-10.6022234855
 21
33.3670670372
  0
LINE
  5
3B5
100
AcDbEntity
  8
0
100
AcDbLine
 62
7
  6
CONTINUOUS
 10
-9.8864154492
 20
32.8224152498
 11
-9.8391482058
 21
32.7751480064
  0
LINE
  5
3B6
100
AcDbEntity
  8
0
100
AcDbLine
 62
7
  6
CONTINUOUS
 10
-9.7115547339
 20
32.8187107834
 11
-9.6800432383
 21
32.7871992878
  0
LINE
  5
3B7
100
AcDbEntity
  8
0
100
AcDbLine
 62
7
  6
CONTINUOUS
 10
-9.4804704729
 20
32.5876265224
 11
-9.5855087515
 21
32.692664801
  0
LINE
  5
3B8
100
AcDbEntity
  8
0
100
AcDbLine
 62
7
  6
CONTINUOUS
 10
-10.2735097586
 20
33.3806658081
 11
-10.3785480785
 21
33.485704128
  0
LINE
  5
3B9
100
AcDbEntity
  8
0
100
AcDbLine
 62
7
  6
CONTINUOUS
 10
-9.4286702925
 20
32.6499304946
 11
-9.5232047793
 21
32.7444649814
  0
LINE
  5
3BA
100
AcDbEntity
  8
0
100
AcDbLine
 62
7
  6
CONTINUOUS
 10
-10.2217095933
 20
33.4429697954
 11
-10.3162440838
 21
33.5375042859
  0
LINE
  5
3BB
100
AcDbEntity
  8
PARTDTMS
100
AcDbLine
 62
7
  6
CONTINUOUS
 10
-4.8598874765
 20
26.3482469662
 11
-4.8838509461
 21
26.4140860578
  0
LINE
  5
3BC
100
AcDbEntity
  8
0
100
AcDbLine
 62
7
  6
CONTINUOUS
 10
-5.0509122271
 20
34.2134044786
 11
-4.9186016754
 21
34.6330399369
  0
LINE
  5
3BD
100
AcDbEntity
  8
0
100
AcDbLine
 62
7
  6
CONTINUOUS
 10
-4.9459597692
 20
34.1803130957
 11
-4.9417192614
 21
34.1937622681
  0
LINE
  5
3BE
100
AcDbEntity
  8
0
100
AcDbLine
 62
7
  6
CONTINUOUS
 10
-4.8178897251
 20
34.5864993817
 11
-4.8136492174
 21
34.599948554
  0
LINE
  5
3BF
100
AcDbEntity
  8
0
100
AcDbLine
 62
7
  6
CONTINUOUS
 10
-10.2899058247
 20
31.8828390663
 11
-10.2601356097
 21
31.9078640442
  0
LINE
  5
3C0
100
AcDbEntity
  8
0
100
AcDbLine
 62
7
  6
CONTINUOUS
 10
-10.5829963185
 20
31.9978451541
 11
-10.5303052285
 21
32.0410456614
  0
LINE
  5
3C1
100
AcDbEntity
  8
0
100
AcDbLine
 62
7
  6
CONTINUOUS
 10
-10.5478083425
 20
32.3462235578
 11
-10.5248875074
 21
32.3643991558
  0
LINE
  5
3C2
100
AcDbEntity
  8
0
100
AcDbLine
 62
7
  6
CONTINUOUS
 10
-10.5261414712
 20
32.187568704
 11
-10.5490623414
 21
32.1693931794
  0
LINE
  5
3C3
100
AcDbEntity
  8
0
100
AcDbLine
 62
7
  6
CONTINUOUS
 10
-10.2848919139
 20
31.8641263572
 11
-10.261971098
 21
31.882301936
  0
LINE
  5
3C4
100
AcDbEntity
  8
0
100
AcDbLine
 62
7
  6
CONTINUOUS
 10
-9.7595957471
 20
32.7811736821
 11
-9.7115547339
 21
32.8187107834
  0
LINE
  5
3C5
100
AcDbEntity
  8
0
100
AcDbLine
 62
7
  6
CONTINUOUS
 10
-9.5232047793
 20
32.7444649814
 11
-9.0908359609
 21
33.082299313
  0
LINE
  5
3C6
100
AcDbEntity
  8
0
100
AcDbLine
 62
7
  6
CONTINUOUS
 10
-9.5855087515
 20
32.692664801
 11
-9.7776727042
 21
32.5425162559
  0
LINE
  5
3C7
100
AcDbEntity
  8
0
100
AcDbLine
 62
7
  6
CONTINUOUS
 10
-9.8091841998
 20
32.5740277515
 11
-9.0547915282
 21
33.160359033
  0
LINE
  5
3C8
100
AcDbEntity
  8
0
100
AcDbLine
 62
7
  6
CONTINUOUS
 10
-10.8458683018
 20
32.3566087347
 11
-10.884860616
 21
32.3271070576
  0
LINE
  5
3C9
100
AcDbEntity
  8
0
100
AcDbLine
 62
7
  6
CONTINUOUS
 10
-10.7292043634
 20
32.5824148099
 11
-10.7131329194
 21
32.5937409625
  0
LINE
  5
3CA
100
AcDbEntity
  8
0
100
AcDbLine
 62
7
  6
CONTINUOUS
 10
-10.7165353851
 20
32.528649437
 11
-10.7486783194
 21
32.5059971398
  0
LINE
  5
3CB
100
AcDbEntity
  8
0
100
AcDbLine
 62
7
  6
CONTINUOUS
 10
-10.8943512259
 20
32.3365976676
 11
-10.878279782
 21
32.3479238202
  0
LINE
  5
3CC
100
AcDbEntity
  8
0
100
AcDbLine
 62
7
  6
CONTINUOUS
 10
-10.6779025268
 20
32.0927513624
 11
-10.6457596341
 21
32.1154036723
  0
LINE
  5
3CD
100
AcDbEntity
  8
0
100
AcDbLine
 62
7
  6
CONTINUOUS
 10
-10.2601356097
 20
31.9078640442
 11
-10.2440640843
 21
31.9191901153
  0
LINE
  5
3CE
100
AcDbEntity
  8
0
100
AcDbLine
 62
7
  6
CONTINUOUS
 10
-10.3217357485
 20
31.7228857858
 11
-10.3378071677
 21
31.7115596037
  0
LINE
  5
3CF
100
AcDbEntity
  8
0
100
AcDbLine
 62
7
  6
CONTINUOUS
 10
-9.5373035459
 20
33.329084631
 11
-9.4697476177
 21
33.3756328554
  0
LINE
  5
3D0
100
AcDbEntity
  8
0
100
AcDbLine
 62
7
  6
CONTINUOUS
 10
-10.7157741303
 20
32.6100809716
 11
-10.6904806143
 21
32.6258838504
  0
LINE
  5
3D1
100
AcDbEntity
  8
0
100
AcDbLine
 62
7
  6
CONTINUOUS
 10
-10.7191766231
 20
32.5449894732
 11
-10.7444701311
 21
32.5291865481
  0
LINE
  5
3D2
100
AcDbEntity
  8
0
100
AcDbLine
 62
7
  6
CONTINUOUS
 10
-10.912302653
 20
32.4230430859
 11
-10.8870091371
 21
32.4388459647
  0
LINE
  5
3D3
100
AcDbEntity
  8
0
100
AcDbLine
 62
7
  6
CONTINUOUS
 10
-10.884860616
 20
32.3271070576
 11
-10.9101541367
 21
32.311304174
  0
LINE
  5
3D4
100
AcDbEntity
  8
0
100
AcDbLine
 62
7
  6
CONTINUOUS
 10
-10.6531461635
 20
32.1364889999
 11
-10.6784396523
 21
32.120686094
  0
LINE
  5
3D5
100
AcDbEntity
  8
0
100
AcDbLine
 62
7
  6
CONTINUOUS
 10
-10.5008479824
 20
32.2033716099
 11
-10.5261414712
 21
32.187568704
  0
LINE
  5
3D6
100
AcDbEntity
  8
0
100
AcDbLine
 62
7
  6
CONTINUOUS
 10
-9.4667621603
 20
33.3155953217
 11
-9.5200551094
 21
33.2833100764
  0
LINE
  5
3D7
100
AcDbEntity
  8
0
100
AcDbLine
 62
7
  6
CONTINUOUS
 10
-11.009894476
 20
32.6576229105
 11
-11.0444100367
 21
32.6373432783
  0
LINE
  5
3D8
100
AcDbEntity
  8
0
100
AcDbLine
 62
7
  6
CONTINUOUS
 10
-10.8988724199
 20
32.4507092476
 11
-10.8643568496
 21
32.4709888894
  0
LINE
  5
3D9
100
AcDbEntity
  8
0
100
AcDbLine
 62
7
  6
CONTINUOUS
 10
-0.3469844623
 20
25.8510449793
 11
-0.7666199206
 21
25.983355531
  0
LINE
  5
3DA
100
AcDbEntity
  8
0
100
AcDbLine
 62
7
  6
CONTINUOUS
 10
-0.3138930794
 20
25.9559974372
 11
-0.3273422517
 21
25.960237945
  0
LINE
  5
3DB
100
AcDbEntity
  8
0
100
AcDbLine
 62
7
  6
CONTINUOUS
 10
-0.7200793654
 20
26.0840674813
 11
-0.7335285377
 21
26.088307989
  0
LINE
  5
3DC
100
AcDbEntity
  8
0
100
AcDbLine
 62
7
  6
CONTINUOUS
 10
-9.3519937795
 20
33.1152487465
 11
-9.3835052751
 21
33.1467602421
  0
LINE
  5
3DD
100
AcDbEntity
  8
0
100
AcDbLine
 62
7
  6
CONTINUOUS
 10
1.8004294565
 20
22.025074267
 11
2.684312933
 21
21.1411907905
  0
LINE
  5
3DE
100
AcDbEntity
  8
0
100
AcDbLine
 62
7
  6
CONTINUOUS
 10
-9.3399424682
 20
33.274353744
 11
-9.3872097116
 21
33.3216209874
  0
LINE
  5
3DF
100
AcDbEntity
  8
0
100
AcDbLine
 62
7
  6
CONTINUOUS
 10
-9.8478308515
 20
33.9533983563
 11
-9.8058155266
 21
33.9113830314
  0
LINE
  5
3E0
100
AcDbEntity
  8
0
100
AcDbLine
 62
7
  6
CONTINUOUS
 10
-9.6797695442
 20
33.785337049
 11
-9.6325023008
 21
33.7380698056
  0
LINE
  5
3E1
100
AcDbEntity
  8
0
100
AcDbLine
 62
7
  6
CONTINUOUS
 10
-9.4749448229
 20
33.5805123277
 11
-9.4276775795
 21
33.5332450843
  0
LINE
  5
3E2
100
AcDbEntity
  8
0
100
AcDbLine
 62
7
  6
CONTINUOUS
 10
-9.3016315971
 20
33.4071991019
 11
-9.2543643537
 21
33.3599318585
  0
LINE
  5
3E3
100
AcDbEntity
  8
0
100
AcDbLine
 62
7
  6
CONTINUOUS
 10
-9.0547915282
 20
33.160359033
 11
-9.0127762408
 21
33.1183437456
  0
LINE
  5
3E4
100
AcDbEntity
  8
0
100
AcDbLine
 62
7
  6
CONTINUOUS
 10
-8.7575533566
 20
33.2901638612
 11
-9.796121755
 21
34.3287322596
  0
LINE
  5
3E5
100
AcDbEntity
  8
0
100
AcDbLine
 62
7
  6
CONTINUOUS
 10
-10.5119055426
 20
32.1733327754
 11
-10.5371990314
 21
32.1575298695
  0
LINE
  5
3E6
100
AcDbEntity
  8
0
100
AcDbLine
 62
7
  6
CONTINUOUS
 10
-10.5972322471
 20
32.0120810827
 11
-10.5719387535
 21
32.0278839934
  0
LINE
  5
3E7
100
AcDbEntity
  8
0
100
AcDbLine
 62
7
  6
CONTINUOUS
 10
-10.608289864
 20
31.9820423001
 11
-10.5829963185
 21
31.9978451541
  0
LINE
  5
3E8
100
AcDbEntity
  8
0
100
AcDbLine
 62
7
  6
CONTINUOUS
 10
-10.5046987116
 20
31.9195475472
 11
-10.4794052181
 21
31.935350458
  0
LINE
  5
3E9
100
AcDbEntity
  8
0
100
AcDbLine
 62
7
  6
CONTINUOUS
 10
-10.261971098
 20
31.882301936
 11
-10.2366775549
 21
31.8981047877
  0
LINE
  5
3EA
100
AcDbEntity
  8
0
100
AcDbLine
 62
7
  6
CONTINUOUS
 10
-10.2874887481
 20
31.7571327862
 11
-10.3127822959
 21
31.7413299298
  0
LINE
  5
3EB
100
AcDbEntity
  8
0
100
AcDbLine
 62
7
  6
CONTINUOUS
 10
-11.003313642
 20
32.678439673
 11
-10.9848695388
 21
32.6873931663
  0
LINE
  5
3EC
100
AcDbEntity
  8
0
100
AcDbLine
 62
7
  6
CONTINUOUS
 10
-10.7131329194
 20
32.5937409625
 11
-10.7039108474
 21
32.5982176888
  0
LINE
  5
3ED
100
AcDbEntity
  8
0
100
AcDbLine
 62
7
  6
CONTINUOUS
 10
-10.8643568496
 20
32.4709888894
 11
-10.8090245263
 21
32.4978493556
  0
LINE
  5
3EE
100
AcDbEntity
  8
0
100
AcDbLine
 62
7
  6
CONTINUOUS
 10
-10.7444701311
 20
32.5291865481
 11
-10.7813583647
 21
32.5112795887
  0
LINE
  5
3EF
100
AcDbEntity
  8
0
100
AcDbLine
 62
7
  6
CONTINUOUS
 10
-10.8870091371
 20
32.4388459647
 11
-10.8316768043
 21
32.4657064405
  0
LINE
  5
3F0
100
AcDbEntity
  8
0
100
AcDbLine
 62
7
  6
CONTINUOUS
 10
-10.7486783194
 20
32.5059971398
 11
-10.8040106426
 21
32.4791366736
  0
LINE
  5
3F1
100
AcDbEntity
  8
0
100
AcDbLine
 62
7
  6
CONTINUOUS
 10
-10.4885364041
 20
32.4102408419
 11
-10.5254246377
 21
32.3923338825
  0
LINE
  5
3F2
100
AcDbEntity
  8
0
100
AcDbLine
 62
7
  6
CONTINUOUS
 10
-10.4824038384
 20
32.2123250624
 11
-10.5008479824
 21
32.2033716099
  0
LINE
  5
3F3
100
AcDbEntity
  8
0
100
AcDbLine
 62
7
  6
CONTINUOUS
 10
-10.493461453
 20
32.1822862823
 11
-10.5119055426
 21
32.1733327754
  0
LINE
  5
3F4
100
AcDbEntity
  8
0
100
AcDbLine
 62
7
  6
CONTINUOUS
 10
-10.7147907628
 20
32.0748444007
 11
-10.6779025268
 21
32.0927513624
  0
LINE
  5
3F5
100
AcDbEntity
  8
0
100
AcDbLine
 62
7
  6
CONTINUOUS
 10
-10.615676391
 20
32.0031276301
 11
-10.5972322471
 21
32.0120810827
  0
LINE
  5
3F6
100
AcDbEntity
  8
0
100
AcDbLine
 62
7
  6
CONTINUOUS
 10
-9.4697476177
 20
33.3756328554
 11
-9.3916878977
 21
33.411677288
  0
LINE
  5
3F7
100
AcDbEntity
  8
0
100
AcDbLine
 62
7
  6
CONTINUOUS
 10
-9.7566102996
 20
32.7211361384
 11
-9.8346700246
 21
32.6850917008
  0
LINE
  5
3F8
100
AcDbEntity
  8
0
100
AcDbLine
 62
7
  6
CONTINUOUS
 10
-10.6267339549
 20
31.973088792
 11
-10.608289864
 21
31.9820423001
  0
LINE
  5
3F9
100
AcDbEntity
  8
0
100
AcDbLine
 62
7
  6
CONTINUOUS
 10
-10.3155123464
 20
32.0043371757
 11
-10.2970682024
 21
32.0132906282
  0
LINE
  5
3FA
100
AcDbEntity
  8
0
100
AcDbLine
 62
7
  6
CONTINUOUS
 10
-10.5136522185
 20
31.9011034576
 11
-10.5413183837
 21
31.8876732209
  0
LINE
  5
3FB
100
AcDbEntity
  8
0
100
AcDbLine
 62
7
  6
CONTINUOUS
 10
-10.3244657989
 20
31.9858930317
 11
-10.3429099429
 21
31.9769395792
  0
LINE
  5
3FC
100
AcDbEntity
  8
0
100
AcDbLine
 62
7
  6
CONTINUOUS
 10
-10.2440640843
 20
31.9191901153
 11
-10.2163979227
 21
31.9326203484
  0
LINE
  5
3FD
100
AcDbEntity
  8
0
100
AcDbLine
 62
7
  6
CONTINUOUS
 10
-10.3378071677
 20
31.7115596037
 11
-10.3562513128
 21
31.70260615
  0
LINE
  5
3FE
100
AcDbEntity
  8
0
100
AcDbLine
 62
7
  6
CONTINUOUS
 10
-10.9848695388
 20
32.6873931663
 11
-10.9640527763
 21
32.6939740003
  0
LINE
  5
3FF
100
AcDbEntity
  8
0
100
AcDbLine
 62
7
  6
CONTINUOUS
 10
-9.4224803743
 20
33.328365612
 11
-9.4667621603
 21
33.3155953217
  0
LINE
  5
400
100
AcDbEntity
  8
0
100
AcDbLine
 62
7
  6
CONTINUOUS
 10
-10.9656197266
 20
32.6544445558
 11
-10.9867050542
 21
32.6618310852
  0
LINE
  5
401
100
AcDbEntity
  8
0
100
AcDbLine
 62
7
  6
CONTINUOUS
 10
-10.5248875074
 20
32.3643991558
 11
-10.5040707449
 21
32.3709799897
  0
LINE
  5
402
100
AcDbEntity
  8
0
100
AcDbLine
 62
7
  6
CONTINUOUS
 10
-10.6784396523
 20
32.120686094
 11
-10.6992564196
 21
32.1141052552
  0
LINE
  5
403
100
AcDbEntity
  8
0
100
AcDbLine
 62
7
  6
CONTINUOUS
 10
-10.2970682024
 20
32.0132906282
 11
-10.2762514399
 21
32.0198714622
  0
LINE
  5
404
100
AcDbEntity
  8
0
100
AcDbLine
 62
7
  6
CONTINUOUS
 10
-10.3036490364
 20
31.9924738657
 11
-10.3244657989
 21
31.9858930317
  0
LINE
  5
405
100
AcDbEntity
  8
0
100
AcDbLine
 62
7
  6
CONTINUOUS
 10
-10.5255154741
 20
31.9129667132
 11
-10.5046987116
 21
31.9195475472
  0
LINE
  5
406
100
AcDbEntity
  8
0
100
AcDbLine
 62
7
  6
CONTINUOUS
 10
-10.2163979227
 20
31.9326203484
 11
-10.1955811602
 21
31.9392011824
  0
LINE
  5
407
100
AcDbEntity
  8
0
100
AcDbLine
 62
7
  6
CONTINUOUS
 10
-10.3127822959
 20
31.7413299298
 11
-10.3335990585
 21
31.7347490958
  0
LINE
  5
408
100
AcDbEntity
  8
0
100
AcDbLine
 62
7
  6
CONTINUOUS
 10
-9.803877543
 20
32.7684033818
 11
-9.7595957471
 21
32.7811736821
  0
LINE
  5
409
100
AcDbEntity
  8
0
100
AcDbLine
 62
7
  6
CONTINUOUS
 10
-10.3678460583
 20
31.700502096
 11
-10.3841860408
 21
31.7031432791
  0
LINE
  5
40A
100
AcDbEntity
  8
0
100
AcDbLine
 62
7
  6
CONTINUOUS
 10
-10.3335990585
 20
31.7347490958
 11
-10.3499390404
 21
31.7373902795
  0
LINE
  5
40B
100
AcDbEntity
  8
0
100
AcDbLine
 62
7
  6
CONTINUOUS
 10
-10.5529130748
 20
31.8855691126
 11
-10.5692531117
 21
31.88821035
  0
LINE
  5
40C
100
AcDbEntity
  8
0
100
AcDbLine
 62
7
  6
CONTINUOUS
 10
-10.5418555128
 20
31.9156079488
 11
-10.5255154741
 21
31.9129667132
  0
LINE
  5
40D
100
AcDbEntity
  8
0
100
AcDbLine
 62
7
  6
CONTINUOUS
 10
-10.7566928554
 20
32.0756500937
 11
-10.7379801457
 21
32.0706361834
  0
LINE
  5
40E
100
AcDbEntity
  8
0
100
AcDbLine
 62
7
  6
CONTINUOUS
 10
-10.9500854129
 20
32.6937054351
 11
-10.9313727309
 21
32.6886915514
  0
LINE
  5
40F
100
AcDbEntity
  8
0
100
AcDbLine
 62
7
  6
CONTINUOUS
 10
-9.8842037102
 20
32.6775733026
 11
-9.9247263303
 21
32.6895698819
  0
LINE
  5
410
100
AcDbEntity
  8
0
100
AcDbLine
 62
7
  6
CONTINUOUS
 10
-10.6546686828
 20
31.9736259211
 11
-10.638328646
 21
31.9709846837
  0
LINE
  5
411
100
AcDbEntity
  8
0
100
AcDbLine
 62
7
  6
CONTINUOUS
 10
-10.6320163754
 20
32.0057688114
 11
-10.615676391
 21
32.0031276301
  0
LINE
  5
412
100
AcDbEntity
  8
0
100
AcDbLine
 62
7
  6
CONTINUOUS
 10
-10.1955811602
 20
31.9392011824
 11
-10.1792411782
 21
31.9365599987
  0
LINE
  5
413
100
AcDbEntity
  8
0
100
AcDbLine
 62
7
  6
CONTINUOUS
 10
-10.2873090545
 20
31.989832682
 11
-10.3036490364
 21
31.9924738657
  0
LINE
  5
414
100
AcDbEntity
  8
0
100
AcDbLine
 62
7
  6
CONTINUOUS
 10
-10.2762514399
 20
32.0198714622
 11
-10.259911458
 21
32.0172302785
  0
LINE
  5
415
100
AcDbEntity
  8
0
100
AcDbLine
 62
7
  6
CONTINUOUS
 10
-10.6992564196
 20
32.1141052552
 11
-10.7155964559
 21
32.1167464932
  0
LINE
  5
416
100
AcDbEntity
  8
0
100
AcDbLine
 62
7
  6
CONTINUOUS
 10
-10.4771214168
 20
32.1796450443
 11
-10.493461453
 21
32.1822862823
  0
LINE
  5
417
100
AcDbEntity
  8
0
100
AcDbLine
 62
7
  6
CONTINUOUS
 10
-10.4544691117
 20
32.2117879322
 11
-10.4708091479
 21
32.2144291702
  0
LINE
  5
418
100
AcDbEntity
  8
0
100
AcDbLine
 62
7
  6
CONTINUOUS
 10
-10.9610097107
 20
32.2936657485
 11
-10.9773497204
 21
32.2963069587
  0
LINE
  5
419
100
AcDbEntity
  8
0
100
AcDbLine
 62
7
  6
CONTINUOUS
 10
-10.93361211
 20
32.3210633492
 11
-10.9499521215
 21
32.3237045576
  0
LINE
  5
41A
100
AcDbEntity
  8
0
100
AcDbLine
 62
7
  6
CONTINUOUS
 10
-10.4490069868
 20
32.4118078193
 11
-10.4653469687
 21
32.414449003
  0
LINE
  5
41B
100
AcDbEntity
  8
0
100
AcDbLine
 62
7
  6
CONTINUOUS
 10
-9.8391482058
 20
32.7751480064
 11
-9.803877543
 21
32.7684033818
  0
LINE
  5
41C
100
AcDbEntity
  8
0
100
AcDbLine
 62
7
  6
CONTINUOUS
 10
-9.3872097116
 20
33.3216209874
 11
-9.4224803743
 21
33.328365612
  0
LINE
  5
41D
100
AcDbEntity
  8
0
100
AcDbLine
 62
7
  6
CONTINUOUS
 10
-9.3421542159
 20
33.4191956825
 11
-9.3016315971
 21
33.4071991019
  0
LINE
  5
41E
100
AcDbEntity
  8
0
100
AcDbLine
 62
7
  6
CONTINUOUS
 10
3.3114464531
 20
38.9173296458
 11
3.3092966324
 21
38.9105112853
  0
LINE
  5
41F
100
AcDbEntity
  8
0
100
AcDbLine
 62
7
  6
CONTINUOUS
 10
3.2915373926
 20
38.8541861727
 11
3.2512168208
 21
38.7263056568
  0
LINE
  5
420
100
AcDbEntity
  8
0
100
AcDbLine
 62
7
  6
CONTINUOUS
 10
-0.7666191016
 20
25.9833581287
 11
-0.7644692808
 21
25.9901764892
  0
LINE
  5
421
100
AcDbEntity
  8
0
100
AcDbLine
 62
7
  6
CONTINUOUS
 10
-0.746710041
 20
26.0465016018
 11
-0.7063894692
 21
26.1743821177
  0
LINE
  5
422
100
AcDbEntity
  8
PARTDTMS
100
AcDbLine
 62
7
  6
CONTINUOUS
 10
7.4523339585
 20
38.7502709624
 11
7.4099075516
 21
38.7078445555
  0
LINE
  5
423
100
AcDbEntity
  8
PARTDTMS
100
AcDbLine
 62
7
  6
CONTINUOUS
 10
-4.8838509461
 20
26.4140860578
 11
-4.8414245392
 21
26.4565124647
  0
LINE
  5
424
100
AcDbEntity
  8
PARTDTMS
100
AcDbLine
 62
7
  6
CONTINUOUS
 10
-4.8488439627
 20
26.3592904799
 11
-4.9976951378
 21
26.2104393048
  0
LINE
  5
425
100
AcDbEntity
  8
PARTDTMS
100
AcDbLine
 62
7
  6
CONTINUOUS
 10
7.5071295364
 20
38.715263979
 11
7.6559807115
 21
38.8641151542
  0
LINE
  5
426
100
AcDbEntity
  8
0
100
AcDbLine
 62
7
  6
CONTINUOUS
 10
7.9542160908
 20
39.0329499925
 11
7.8797800077
 21
38.9585139094
  0
LINE
  5
427
100
AcDbEntity
  8
0
100
AcDbLine
 62
7
  6
CONTINUOUS
 10
7.5195091027
 20
38.5982430044
 11
7.470011628
 21
38.5487455297
  0
LINE
  5
428
100
AcDbEntity
  8
0
100
AcDbLine
 62
7
  6
CONTINUOUS
 10
-5.1664558021
 20
25.9122780996
 11
-5.0920938931
 21
25.9866400086
  0
LINE
  5
429
100
AcDbEntity
  8
0
100
AcDbLine
 62
7
  6
CONTINUOUS
 10
-4.7318229881
 20
26.3469109136
 11
-4.6823255134
 21
26.3964083883
  0
LINE
  5
42A
100
AcDbEntity
  8
0
100
AcDbLine
 62
7
  6
CONTINUOUS
 10
-3.3875037395
 20
27.6735524927
 11
-3.411268435
 21
27.6497877971
  0
LINE
  5
42B
100
AcDbEntity
  8
0
100
AcDbLine
 62
7
  6
CONTINUOUS
 10
-3.4876359674
 20
27.5734202648
 11
-3.8496746394
 21
27.2113815928
  0
LINE
  5
42C
100
AcDbEntity
  8
0
100
AcDbLine
 62
7
  6
CONTINUOUS
 10
-3.9260421717
 20
27.1350140604
 11
-4.2883290014
 21
26.7727272308
  0
LINE
  5
42D
100
AcDbEntity
  8
0
100
AcDbLine
 62
7
  6
CONTINUOUS
 10
-4.3646965338
 20
26.6963596984
 11
-4.6734866787
 21
26.3875695535
  0
LINE
  5
42E
100
AcDbEntity
  8
0
100
AcDbLine
 62
7
  6
CONTINUOUS
 10
6.1864017765
 20
37.2474580087
 11
6.2166322192
 21
37.2776884514
  0
LINE
  5
42F
100
AcDbEntity
  8
0
100
AcDbLine
 62
7
  6
CONTINUOUS
 10
6.2929997516
 20
37.3540559837
 11
6.6550384235
 21
37.7160946557
  0
LINE
  5
430
100
AcDbEntity
  8
0
100
AcDbLine
 62
7
  6
CONTINUOUS
 10
6.7314059559
 20
37.7924621881
 11
7.0936927856
 21
38.1547490177
  0
LINE
  5
431
100
AcDbEntity
  8
0
100
AcDbLine
 62
7
  6
CONTINUOUS
 10
7.1700603179
 20
38.2311165501
 11
7.4788504628
 21
38.539906695
  0
LINE
  5
432
100
AcDbEntity
  8
PARTDTMS
100
AcDbLine
 62
7
  6
CONTINUOUS
 10
-4.6957553446
 20
26.2062018618
 11
-4.8555666748
 21
26.0463905316
  0
LINE
  5
433
100
AcDbEntity
  8
PARTDTMS
100
AcDbLine
 62
7
  6
CONTINUOUS
 10
7.6602181545
 20
38.5621753609
 11
7.8200294847
 21
38.7219866911
  0
LINE
  5
434
100
AcDbEntity
  8
0
100
AcDbLine
 62
7
  6
CONTINUOUS
 10
-3.2219389666
 20
27.5209192141
 11
-3.2521694093
 21
27.4906887714
  0
LINE
  5
435
100
AcDbEntity
  8
0
100
AcDbLine
 62
7
  6
CONTINUOUS
 10
-3.3285369416
 20
27.414321239
 11
-3.6905756136
 21
27.052282567
  0
LINE
  5
436
100
AcDbEntity
  8
0
100
AcDbLine
 62
7
  6
CONTINUOUS
 10
-3.766943146
 20
26.9759150347
 11
-4.1292299756
 21
26.613628205
  0
LINE
  5
437
100
AcDbEntity
  8
0
100
AcDbLine
 62
7
  6
CONTINUOUS
 10
-4.205597508
 20
26.5372606726
 11
-4.5143876529
 21
26.2284705277
  0
LINE
  5
438
100
AcDbEntity
  8
0
100
AcDbLine
 62
7
  6
CONTINUOUS
 10
6.3519665494
 20
37.09482473
 11
6.375731245
 21
37.1185894256
  0
LINE
  5
439
100
AcDbEntity
  8
0
100
AcDbLine
 62
7
  6
CONTINUOUS
 10
6.4520987773
 20
37.194956958
 11
6.8141374493
 21
37.5569956299
  0
LINE
  5
43A
100
AcDbEntity
  8
0
100
AcDbLine
 62
7
  6
CONTINUOUS
 10
6.8905049817
 20
37.6333631623
 11
7.2527918113
 21
37.995649992
  0
LINE
  5
43B
100
AcDbEntity
  8
0
100
AcDbLine
 62
7
  6
CONTINUOUS
 10
7.3291593437
 20
38.0720175243
 11
7.6379494886
 21
38.3808076692
  0
LINE
  5
43C
100
AcDbEntity
  8
0
100
AcDbLine
 62
7
  6
CONTINUOUS
 10
8.1309927861
 20
38.8561732972
 11
8.056556703
 21
38.7817372141
  0
LINE
  5
43D
100
AcDbEntity
  8
0
100
AcDbLine
 62
7
  6
CONTINUOUS
 10
7.696285798
 20
38.4214663091
 11
7.6467883233
 21
38.3719688344
  0
LINE
  5
43E
100
AcDbEntity
  8
0
100
AcDbLine
 62
7
  6
CONTINUOUS
 10
-4.9896791069
 20
25.7355014043
 11
-4.9153171978
 21
25.8098633133
  0
LINE
  5
43F
100
AcDbEntity
  8
0
100
AcDbLine
 62
7
  6
CONTINUOUS
 10
-4.5550462928
 20
26.1701342183
 11
-4.5055488181
 21
26.219631693
  0
LINE
  5
440
100
AcDbEntity
  8
0
100
AcDbLine
 62
7
  6
CONTINUOUS
 10
-10.5040707449
 20
32.3709799897
 11
-10.4901033815
 21
32.3707114246
  0
LINE
  5
441
100
AcDbEntity
  8
0
100
AcDbLine
 62
7
  6
CONTINUOUS
 10
-10.6788859238
 20
32.6279879581
 11
-10.6649185604
 21
32.627719393
  0
LINE
  5
442
100
AcDbEntity
  8
0
100
AcDbLine
 62
7
  6
CONTINUOUS
 10
-10.9640527763
 20
32.6939740003
 11
-10.9500854129
 21
32.6937054351
  0
LINE
  5
443
100
AcDbEntity
  8
0
100
AcDbLine
 62
7
  6
CONTINUOUS
 10
-5.0509096294
 20
34.2134036596
 11
-5.044091269
 21
34.2112538388
  0
LINE
  5
444
100
AcDbEntity
  8
0
100
AcDbLine
 62
7
  6
CONTINUOUS
 10
-4.9877661563
 20
34.193494599
 11
-4.8598856405
 21
34.1531740272
  0
LINE
  5
445
100
AcDbEntity
  8
0
100
AcDbLine
 62
7
  6
CONTINUOUS
 10
7.8830618876
 20
30.1353381048
 11
7.8762435272
 21
30.1374879256
  0
LINE
  5
446
100
AcDbEntity
  8
0
100
AcDbLine
 62
7
  6
CONTINUOUS
 10
7.8199184145
 20
30.1552471654
 11
7.6920378986
 21
30.1955677372
  0
LINE
  5
447
100
AcDbEntity
  8
PARTDTMS
100
AcDbLine
 62
7
  6
CONTINUOUS
 10
-4.8838509461
 20
38.3542911649
 11
-4.8414245392
 21
38.311864758
  0
LINE
  5
448
100
AcDbEntity
  8
PARTDTMS
100
AcDbLine
 62
7
  6
CONTINUOUS
 10
7.4523339585
 20
26.0181062603
 11
7.4099075516
 21
26.0605326672
  0
LINE
  5
449
100
AcDbEntity
  8
PARTDTMS
100
AcDbLine
 62
7
  6
CONTINUOUS
 10
7.5071295364
 20
26.0531132437
 11
7.6559807115
 21
25.9042620686
  0
LINE
  5
44A
100
AcDbEntity
  8
PARTDTMS
100
AcDbLine
 62
7
  6
CONTINUOUS
 10
-4.8488439627
 20
38.4090867428
 11
-4.9976951378
 21
38.5579379179
  0
LINE
  5
44B
100
AcDbEntity
  8
0
100
AcDbLine
 62
7
  6
CONTINUOUS
 10
-5.1664558021
 20
38.8560991232
 11
-5.0920938931
 21
38.7817372141
  0
LINE
  5
44C
100
AcDbEntity
  8
0
100
AcDbLine
 62
7
  6
CONTINUOUS
 10
-4.7318229881
 20
38.4214663091
 11
-4.6823255134
 21
38.3719688344
  0
LINE
  5
44D
100
AcDbEntity
  8
0
100
AcDbLine
 62
7
  6
CONTINUOUS
 10
7.9542160908
 20
25.7354272302
 11
7.8797800077
 21
25.8098633133
  0
LINE
  5
44E
100
AcDbEntity
  8
0
100
AcDbLine
 62
7
  6
CONTINUOUS
 10
7.5195091027
 20
26.1701342183
 11
7.470011628
 21
26.219631693
  0
LINE
  5
44F
100
AcDbEntity
  8
0
100
AcDbLine
 62
7
  6
CONTINUOUS
 10
6.1853168144
 20
27.5220041761
 11
6.2166322192
 21
27.4906887714
  0
LINE
  5
450
100
AcDbEntity
  8
0
100
AcDbLine
 62
7
  6
CONTINUOUS
 10
6.2929997516
 20
27.414321239
 11
6.6550384235
 21
27.052282567
  0
LINE
  5
451
100
AcDbEntity
  8
0
100
AcDbLine
 62
7
  6
CONTINUOUS
 10
6.7314059559
 20
26.9759150347
 11
7.0858543764
 21
26.6214666142
  0
LINE
  5
452
100
AcDbEntity
  8
0
100
AcDbLine
 62
7
  6
CONTINUOUS
 10
7.1620438784
 20
26.5452771122
 11
7.4788504628
 21
26.2284705277
  0
LINE
  5
453
100
AcDbEntity
  8
0
100
AcDbLine
 62
7
  6
CONTINUOUS
 10
-3.3843577103
 20
37.0916787009
 11
-3.411268435
 21
37.1185894256
  0
LINE
  5
454
100
AcDbEntity
  8
0
100
AcDbLine
 62
7
  6
CONTINUOUS
 10
-3.4876359674
 20
37.194956958
 11
-3.8496746394
 21
37.5569956299
  0
LINE
  5
455
100
AcDbEntity
  8
0
100
AcDbLine
 62
7
  6
CONTINUOUS
 10
-3.9260421717
 20
37.6333631623
 11
-4.2804905922
 21
37.9878115828
  0
LINE
  5
456
100
AcDbEntity
  8
0
100
AcDbLine
 62
7
  6
CONTINUOUS
 10
-4.3566800942
 20
38.0640010848
 11
-4.6734866787
 21
38.3808076692
  0
LINE
  5
457
100
AcDbEntity
  8
PARTDTMS
100
AcDbLine
 62
7
  6
CONTINUOUS
 10
7.6602181545
 20
26.2062018618
 11
7.8200294847
 21
26.0463905316
  0
LINE
  5
458
100
AcDbEntity
  8
PARTDTMS
100
AcDbLine
 62
7
  6
CONTINUOUS
 10
-4.6957553446
 20
38.5621753609
 11
-4.8555666748
 21
38.7219866911
  0
LINE
  5
459
100
AcDbEntity
  8
0
100
AcDbLine
 62
7
  6
CONTINUOUS
 10
6.3488205203
 20
27.6766985218
 11
6.375731245
 21
27.6497877971
  0
LINE
  5
45A
100
AcDbEntity
  8
0
100
AcDbLine
 62
7
  6
CONTINUOUS
 10
6.4520987773
 20
27.5734202648
 11
6.8141374493
 21
27.2113815928
  0
LINE
  5
45B
100
AcDbEntity
  8
0
100
AcDbLine
 62
7
  6
CONTINUOUS
 10
6.8905049817
 20
27.1350140604
 11
7.2449534021
 21
26.7805656399
  0
LINE
  5
45C
100
AcDbEntity
  8
0
100
AcDbLine
 62
7
  6
CONTINUOUS
 10
7.3211429042
 20
26.7043761379
 11
7.6379494886
 21
26.3875695535
  0
LINE
  5
45D
100
AcDbEntity
  8
0
100
AcDbLine
 62
7
  6
CONTINUOUS
 10
-3.2208540045
 20
37.2463730466
 11
-3.2521694093
 21
37.2776884514
  0
LINE
  5
45E
100
AcDbEntity
  8
0
100
AcDbLine
 62
7
  6
CONTINUOUS
 10
-3.3285369416
 20
37.3540559837
 11
-3.6905756136
 21
37.7160946557
  0
LINE
  5
45F
100
AcDbEntity
  8
0
100
AcDbLine
 62
7
  6
CONTINUOUS
 10
-3.766943146
 20
37.7924621881
 11
-4.1213915665
 21
38.1469106085
  0
LINE
  5
460
100
AcDbEntity
  8
0
100
AcDbLine
 62
7
  6
CONTINUOUS
 10
-4.1975810685
 20
38.2231001106
 11
-4.5143876529
 21
38.539906695
  0
LINE
  5
461
100
AcDbEntity
  8
0
100
AcDbLine
 62
7
  6
CONTINUOUS
 10
-4.9896791069
 20
39.0328758185
 11
-4.9153171978
 21
38.9585139094
  0
LINE
  5
462
100
AcDbEntity
  8
0
100
AcDbLine
 62
7
  6
CONTINUOUS
 10
-4.5550462928
 20
38.5982430044
 11
-4.5055488181
 21
38.5487455297
  0
LINE
  5
463
100
AcDbEntity
  8
0
100
AcDbLine
 62
7
  6
CONTINUOUS
 10
8.1309927861
 20
25.9122039255
 11
8.056556703
 21
25.9866400086
  0
LINE
  5
464
100
AcDbEntity
  8
0
100
AcDbLine
 62
7
  6
CONTINUOUS
 10
7.696285798
 20
26.3469109136
 11
7.6467883233
 21
26.3964083883
  0
LINE
  5
465
100
AcDbEntity
  8
0
100
AcDbLine
 62
7
  6
CONTINUOUS
 10
3.7310819115
 20
38.785019094
 11
3.7289320907
 21
38.7782007336
  0
LINE
  5
466
100
AcDbEntity
  8
0
100
AcDbLine
 62
7
  6
CONTINUOUS
 10
3.7111728509
 20
38.7218756209
 11
3.6708522791
 21
38.5939951051
  0
LINE
  5
467
100
AcDbEntity
  8
0
100
AcDbLine
 62
7
  6
CONTINUOUS
 10
-0.3469836432
 20
25.851047577
 11
-0.3448338225
 21
25.8578659374
  0
LINE
  5
468
100
AcDbEntity
  8
0
100
AcDbLine
 62
7
  6
CONTINUOUS
 10
-0.3270745826
 20
25.9141910501
 11
-0.2867540109
 21
26.0420715659
  0
LINE
  5
469
100
AcDbEntity
  8
PARTDTMS
100
AcDbLine
 62
7
  6
CONTINUOUS
 10
-4.5426667265
 20
26.0531132437
 11
-4.6915179016
 21
25.9042620686
  0
LINE
  5
46A
100
AcDbEntity
  8
PARTDTMS
100
AcDbLine
 62
7
  6
CONTINUOUS
 10
7.8133067726
 20
38.4090867428
 11
7.9621579478
 21
38.5579379179
  0
LINE
  5
46B
100
AcDbEntity
  8
PARTDTMS
100
AcDbLine
 62
7
  6
CONTINUOUS
 10
7.848313756
 20
38.3542911649
 11
7.8058873491
 21
38.311864758
  0
LINE
  5
46C
100
AcDbEntity
  8
PARTDTMS
100
AcDbLine
 62
7
  6
CONTINUOUS
 10
-4.4878711486
 20
26.0181062603
 11
-4.4454447417
 21
26.0605326672
  0
LINE
  5
46D
100
AcDbEntity
  8
0
100
AcDbLine
 62
7
  6
CONTINUOUS
 10
-10.3562513128
 20
31.70260615
 11
-10.3678460583
 21
31.700502096
  0
LINE
  5
46E
100
AcDbEntity
  8
0
100
AcDbLine
 62
7
  6
CONTINUOUS
 10
-4.9185990777
 20
34.6330391179
 11
-4.9117807172
 21
34.6308892971
  0
LINE
  5
46F
100
AcDbEntity
  8
0
100
AcDbLine
 62
7
  6
CONTINUOUS
 10
-4.8554556046
 20
34.6131300573
 11
-4.7275750887
 21
34.5728094855
  0
LINE
  5
470
100
AcDbEntity
  8
0
100
AcDbLine
 62
7
  6
CONTINUOUS
 10
8.0153724394
 20
30.5549735632
 11
8.0085540789
 21
30.557123384
  0
LINE
  5
471
100
AcDbEntity
  8
0
100
AcDbLine
 62
7
  6
CONTINUOUS
 10
7.9522289663
 20
30.5748826238
 11
7.8243484504
 21
30.6152031955
  0
LINE
  5
472
100
AcDbEntity
  8
PARTDTMS
100
AcDbLine
 62
7
  6
CONTINUOUS
 10
7.8133067726
 20
26.3592904799
 11
7.9621579478
 21
26.2104393048
  0
LINE
  5
473
100
AcDbEntity
  8
PARTDTMS
100
AcDbLine
 62
7
  6
CONTINUOUS
 10
-4.5426667265
 20
38.715263979
 11
-4.6915179016
 21
38.8641151542
  0
LINE
  5
474
100
AcDbEntity
  8
PARTDTMS
100
AcDbLine
 62
7
  6
CONTINUOUS
 10
-4.4878711486
 20
38.7502709624
 11
-4.4454447417
 21
38.7078445555
  0
LINE
  5
475
100
AcDbEntity
  8
PARTDTMS
100
AcDbLine
 62
7
  6
CONTINUOUS
 10
7.848313756
 20
26.4140860578
 11
7.8058873491
 21
26.4565124647
  0
LINE
  5
476
100
AcDbEntity
  8
0
100
AcDbLine
 62
7
  6
CONTINUOUS
 10
-10.2366775549
 20
31.8981047877
 11
-10.2134881738
 21
31.9023130031
  0
LINE
  5
477
100
AcDbEntity
  8
0
100
AcDbLine
 62
7
  6
CONTINUOUS
 10
-10.5413183837
 20
31.8876732209
 11
-10.5529130748
 21
31.8855691126
  0
LINE
  5
478
100
AcDbEntity
  8
0
100
AcDbLine
 62
7
  6
CONTINUOUS
 10
-10.638328646
 20
31.9709846837
 11
-10.6267339549
 21
31.973088792
  0
LINE
  5
479
100
AcDbEntity
  8
0
100
AcDbLine
 62
7
  6
CONTINUOUS
 10
-10.7379801457
 20
32.0706361834
 11
-10.7147907628
 21
32.0748444007
  0
LINE
  5
47A
100
AcDbEntity
  8
0
100
AcDbLine
 62
7
  6
CONTINUOUS
 10
-10.4708091479
 20
32.2144291702
 11
-10.4824038384
 21
32.2123250624
  0
LINE
  5
47B
100
AcDbEntity
  8
0
100
AcDbLine
 62
7
  6
CONTINUOUS
 10
-10.9378203007
 20
32.2978739385
 11
-10.9610097107
 21
32.2936657485
  0
LINE
  5
47C
100
AcDbEntity
  8
0
100
AcDbLine
 62
7
  6
CONTINUOUS
 10
-10.9220173924
 20
32.3231674297
 11
-10.93361211
 21
32.3210633492
  0
LINE
  5
47D
100
AcDbEntity
  8
0
100
AcDbLine
 62
7
  6
CONTINUOUS
 10
-10.4653469687
 20
32.414449003
 11
-10.4885364041
 21
32.4102408419
  0
LINE
  5
47E
100
AcDbEntity
  8
0
100
AcDbLine
 62
7
  6
CONTINUOUS
 10
-10.7039108474
 20
32.5982176888
 11
-10.6923161569
 21
32.6003217965
  0
LINE
  5
47F
100
AcDbEntity
  8
0
100
AcDbLine
 62
7
  6
CONTINUOUS
 10
-10.6904806143
 20
32.6258838504
 11
-10.6788859238
 21
32.6279879581
  0
LINE
  5
480
100
AcDbEntity
  8
0
100
AcDbLine
 62
7
  6
CONTINUOUS
 10
-10.9867050542
 20
32.6618310852
 11
-11.009894476
 21
32.6576229105
  0
LINE
  5
481
100
AcDbEntity
  8
0
100
AcDbLine
 62
7
  6
CONTINUOUS
 10
-9.8346700246
 20
32.6850917008
 11
-9.8842037102
 21
32.6775733026
  0
LINE
  5
482
100
AcDbEntity
  8
0
100
AcDbLine
 62
7
  6
CONTINUOUS
 10
-9.3916878977
 20
33.411677288
 11
-9.3421542159
 21
33.4191956825
  0
LINE
  5
483
100
AcDbEntity
  8
0
100
AcDbLine
 62
7
  6
CONTINUOUS
 10
7.9104225791
 20
30.588064127
 11
7.9061820713
 21
30.5746149547
  0
LINE
  5
484
100
AcDbEntity
  8
0
100
AcDbLine
 62
7
  6
CONTINUOUS
 10
7.7823525351
 20
30.181877841
 11
7.7781120273
 21
30.1684286687
  0
LINE
  5
485
100
AcDbEntity
  8
0
100
AcDbLine
 62
7
  6
CONTINUOUS
 10
8.0153750371
 20
30.5549727441
 11
7.8830644853
 21
30.1353372858
  0
LINE
  5
486
100
AcDbEntity
  8
0
100
AcDbLine
 62
7
  6
CONTINUOUS
 10
1.8004294565
 20
22.025074267
 11
0.3862158941
 21
20.6108607046
  0
LINE
  5
487
100
AcDbEntity
  8
0
100
AcDbLine
 62
7
  6
CONTINUOUS
 10
3.2783558893
 20
38.8123797855
 11
3.2918050617
 21
38.8081392777
  0
LINE
  5
488
100
AcDbEntity
  8
0
100
AcDbLine
 62
7
  6
CONTINUOUS
 10
3.6845421753
 20
38.6843097415
 11
3.6979913476
 21
38.6800692337
  0
LINE
  5
489
100
AcDbEntity
  8
0
100
AcDbLine
 62
7
  6
CONTINUOUS
 10
3.3114472722
 20
38.9173322435
 11
3.7310827305
 21
38.7850216917
  0
LINE
  5
48A
100
AcDbEntity
  8
PARTDTMS
100
AcDbLine
 62
7
  6
CONTINUOUS
 10
7.8243502864
 20
26.3482469662
 11
7.848313756
 21
26.4140860578
  0
LINE
  5
48B
100
AcDbEntity
  8
0
100
AcDbLine
 62
7
  6
CONTINUOUS
 10
7.4700123711
 20
26.219632436
 11
7.6467875803
 21
26.3964076452
  0
LINE
  5
48C
100
AcDbEntity
  8
PARTDTMS
100
AcDbLine
 62
7
  6
CONTINUOUS
 10
7.4099075516
 20
26.0605326672
 11
7.8058873491
 21
26.4565124647
  0
LINE
  5
48D
100
AcDbEntity
  8
PARTDTMS
100
AcDbLine
 62
7
  6
CONTINUOUS
 10
7.4523339585
 20
26.0181062603
 11
7.848313756
 21
26.4140860578
  0
LINE
  5
48E
100
AcDbEntity
  8
0
100
AcDbLine
 62
7
  6
CONTINUOUS
 10
2.684312933
 20
21.1411907905
 11
1.2700993706
 21
19.7269772281
  0
LINE
  5
48F
100
AcDbEntity
  8
0
100
AcDbLine
 62
7
  6
CONTINUOUS
 10
7.6401210886
 20
25.8884024456
 11
7.656396887
 21
25.9046782441
  0
LINE
  5
490
100
AcDbEntity
  8
0
100
AcDbLine
 62
7
  6
CONTINUOUS
 10
7.9621579478
 20
26.2104393048
 11
7.9709902221
 21
26.2192715791
  0
LINE
  5
491
100
AcDbEntity
  8
PARTDTMS
100
AcDbLine
 62
7
  6
CONTINUOUS
 10
7.5181730501
 20
26.0420697299
 11
7.4523339585
 21
26.0181062603
  0
LINE
  5
492
100
AcDbEntity
  8
PARTDTMS
100
AcDbLine
 62
7
  6
CONTINUOUS
 10
7.5181730501
 20
38.7263074928
 11
7.4523339585
 21
38.7502709624
  0
LINE
  5
493
100
AcDbEntity
  8
0
100
AcDbLine
 62
7
  6
CONTINUOUS
 10
7.6467875803
 20
38.3719695775
 11
7.4700123711
 21
38.5487447867
  0
LINE
  5
494
100
AcDbEntity
  8
PARTDTMS
100
AcDbLine
 62
7
  6
CONTINUOUS
 10
7.8058873491
 20
38.311864758
 11
7.4099075516
 21
38.7078445555
  0
LINE
  5
495
100
AcDbEntity
  8
PARTDTMS
100
AcDbLine
 62
7
  6
CONTINUOUS
 10
7.848313756
 20
38.3542911649
 11
7.4523339585
 21
38.7502709624
  0
LINE
  5
496
100
AcDbEntity
  8
0
100
AcDbLine
 62
7
  6
CONTINUOUS
 10
7.9780175707
 20
38.542078295
 11
7.9617417723
 21
38.5583540934
  0
LINE
  5
497
100
AcDbEntity
  8
0
100
AcDbLine
 62
7
  6
CONTINUOUS
 10
7.6559807115
 20
38.8641151542
 11
7.6471484372
 21
38.8729474285
  0
LINE
  5
498
100
AcDbEntity
  8
PARTDTMS
100
AcDbLine
 62
7
  6
CONTINUOUS
 10
7.8243502864
 20
38.4201302565
 11
7.848313756
 21
38.3542911649
  0
LINE
  5
499
100
AcDbEntity
  8
0
100
AcDbLine
 62
7
  6
CONTINUOUS
 10
7.7992201143
 20
25.7293034199
 11
8.1300892478
 21
26.0601725534
  0
LINE
  5
49A
100
AcDbEntity
  8
0
100
AcDbLine
 62
7
  6
CONTINUOUS
 10
5.4225771443
 20
22.8895055082
 11
1.4115207268
 21
18.8784490907
  0
LINE
  5
49B
100
AcDbEntity
  8
0
100
AcDbLine
 62
7
  6
CONTINUOUS
 10
10.9769145082
 20
28.443842872
 11
14.9879709256
 21
32.4548992895
  0
LINE
  5
49C
100
AcDbEntity
  8
0
100
AcDbLine
 62
7
  6
CONTINUOUS
 10
14.9879709256
 20
32.3134779332
 11
10.8657929791
 21
28.1912999868
  0
LINE
  5
49D
100
AcDbEntity
  8
0
100
AcDbLine
 62
7
  6
CONTINUOUS
 10
5.6751200295
 20
23.0006270372
 11
1.5529420831
 21
18.8784490907
  0
LINE
  5
49E
100
AcDbEntity
  8
0
100
AcDbLine
 62
7
  6
CONTINUOUS
 10
8.1371165965
 20
38.7011773207
 11
7.806247463
 21
39.0320464542
  0
LINE
  5
49F
100
AcDbEntity
  8
0
100
AcDbLine
 62
7
  6
CONTINUOUS
 10
10.9769145082
 20
36.3245343507
 11
14.9879709256
 21
32.3134779332
  0
LINE
  5
4A0
100
AcDbEntity
  8
0
100
AcDbLine
 62
7
  6
CONTINUOUS
 10
5.4225771443
 20
41.8788717146
 11
1.4115207268
 21
45.889928132
  0
LINE
  5
4A1
100
AcDbEntity
  8
0
100
AcDbLine
 62
7
  6
CONTINUOUS
 10
1.5529420831
 20
45.889928132
 11
5.6751200295
 21
41.7677501856
  0
LINE
  5
4A2
100
AcDbEntity
  8
0
100
AcDbLine
 62
7
  6
CONTINUOUS
 10
10.8657929791
 20
36.577077236
 11
14.9879709256
 21
32.4548992895
  0
ARC
  5
4A3
100
AcDbEntity
  8
WINDBAND
100
AcDbCircle
 62
7
  6
CONTINUOUS
 10
-6.006768595
 20
5.08744835
 40
0.8
100
AcDbArc
 50
0.0
 51
59.0569153843
  0
ARC
  5
4A4
100
AcDbEntity
  8
0
100
AcDbCircle
 62
7
  6
CONTINUOUS
 10
-1.8411468859
 20
1.5218457176
 40
0.215691149
100
AcDbArc
 50
178.8407542122
 51
181.1592457878
  0
ARC
  5
4A5
100
AcDbEntity
  8
0
100
AcDbCircle
 62
7
  6
CONTINUOUS
 10
-8.5586613072
 20
1.5218457176
 40
0.215691149
100
AcDbArc
 50
178.8407542121
 51
181.1592457879
  0
ARC
  5
4A6
100
AcDbEntity
  8
0
100
AcDbCircle
 62
7
  6
CONTINUOUS
 10
-11.8868427297
 20
2.1718281253
 40
0.1366653868
100
AcDbArc
 50
177.2386711024
 51
179.9938435965
  0
ARC
  5
4A7
100
AcDbEntity
  8
0
100
AcDbCircle
 62
7
  6
CONTINUOUS
 10
1.4162766971
 20
2.1718281253
 40
0.1366653868
100
AcDbArc
 50
0.0061564035
 51
2.7613288975
  0
ARC
  5
4A8
100
AcDbEntity
  8
0
100
AcDbCircle
 62
7
  6
CONTINUOUS
 10
-8.6648122252
 20
1.5980370373
 40
0.0787991785
100
AcDbArc
 50
75.9773805836
 51
89.9554134635
  0
ARC
  5
4A9
100
AcDbEntity
  8
0
100
AcDbCircle
 62
7
  6
CONTINUOUS
 10
-1.9472978039
 20
1.5980370373
 40
0.0787991785
100
AcDbArc
 50
75.9773805836
 51
89.9554134635
  0
ARC
  5
4AA
100
AcDbEntity
  8
0
100
AcDbCircle
 62
7
  6
CONTINUOUS
 10
-8.664689585
 20
1.4456485826
 40
0.0787991785
100
AcDbArc
 50
255.9773805836
 51
269.9554134635
  0
ARC
  5
4AB
100
AcDbEntity
  8
0
100
AcDbCircle
 62
7
  6
CONTINUOUS
 10
-1.9471751637
 20
1.4456485826
 40
0.0787991785
100
AcDbArc
 50
255.9773805836
 51
269.9554134635
  0
ARC
  5
4AC
100
AcDbEntity
  8
0
100
AcDbCircle
 62
7
  6
CONTINUOUS
 10
-1.9472218854
 20
1.598415719
 40
0.0784204743
100
AcDbArc
 50
90.0106658935
 51
104.0565400594
  0
ARC
  5
4AD
100
AcDbEntity
  8
0
100
AcDbCircle
 62
7
  6
CONTINUOUS
 10
-8.6647363067
 20
1.598415719
 40
0.0784204743
100
AcDbArc
 50
90.0106658935
 51
104.0565400594
  0
ARC
  5
4AE
100
AcDbEntity
  8
0
100
AcDbCircle
 62
7
  6
CONTINUOUS
 10
-1.9472481864
 20
1.4452014229
 40
0.0783519959
100
AcDbArc
 50
270.0085576794
 51
283.0616833431
  0
ARC
  5
4AF
100
AcDbEntity
  8
0
100
AcDbCircle
 62
7
  6
CONTINUOUS
 10
-8.6647626077
 20
1.4452014229
 40
0.0783519959
100
AcDbArc
 50
270.0085576794
 51
283.0616833431
  0
ARC
  5
4B0
100
AcDbEntity
  8
WINDBAND
100
AcDbCircle
 62
7
  6
CONTINUOUS
 10
-3.197768595
 20
9.7729459756
 40
4.663
100
AcDbArc
 50
180.0
 51
239.0569153843
  0
ARC
  5
4B1
100
AcDbEntity
  8
ROUND
100
AcDbCircle
 62
7
  6
CONTINUOUS
 10
-4.5826865951
 20
12.8621743842
 40
0.5
100
AcDbArc
 50
93.446950841
 51
179.2499999508
  0
ARC
  5
4B2
100
AcDbEntity
  8
WINDBAND
100
AcDbCircle
 62
7
  6
CONTINUOUS
 10
-8.297768595
 20
11.7348428099
 40
0.5
100
AcDbArc
 50
90.0
 51
270.0
  0
ARC
  5
4B3
100
AcDbEntity
  8
0
100
AcDbCircle
 62
7
  6
CONTINUOUS
 10
-5.1455059321
 20
9.7168341552
 40
0.133508321
100
AcDbArc
 50
81.0450442369
 51
89.9890664014
  0
ARC
  5
4B4
100
AcDbEntity
  8
0
100
AcDbCircle
 62
7
  6
CONTINUOUS
 10
-5.1454958941
 20
9.4526963085
 40
0.1333531634
100
AcDbArc
 50
270.0066334281
 51
278.9956620778
  0
ARC
  5
4B5
100
AcDbEntity
  8
WINDBAND
100
AcDbCircle
 62
7
  6
CONTINUOUS
 10
8.971231405
 20
5.08744835
 40
0.8
100
AcDbArc
 50
120.9430846157
 51
180.0
  0
ARC
  5
4B6
100
AcDbEntity
  8
0
100
AcDbCircle
 62
7
  6
CONTINUOUS
 10
1.482231405
 20
2.4584499528
 40
0.3066071429
100
AcDbArc
 50
263.4177211315
 51
276.5822788685
  0
ARC
  5
4B7
100
AcDbEntity
  8
0
100
AcDbCircle
 62
7
  6
CONTINUOUS
 10
4.8056096958
 20
1.5218457176
 40
0.215691149
100
AcDbArc
 50
358.8407542122
 51
1.1592457878
  0
ARC
  5
4B8
100
AcDbEntity
  8
0
100
AcDbCircle
 62
7
  6
CONTINUOUS
 10
11.5231241171
 20
1.5218399022
 40
0.215691149
100
AcDbArc
 50
358.8407542121
 51
1.1592457879
  0
ARC
  5
4B9
100
AcDbEntity
  8
0
100
AcDbCircle
 62
7
  6
CONTINUOUS
 10
14.8513055396
 20
2.1718281253
 40
0.1366653868
100
AcDbArc
 50
0.0061564035
 51
2.7613288976
  0
ARC
  5
4BA
100
AcDbEntity
  8
0
100
AcDbCircle
 62
7
  6
CONTINUOUS
 10
1.5481861128
 20
2.1718281253
 40
0.1366653868
100
AcDbArc
 50
177.2386711025
 51
179.9938435965
  0
ARC
  5
4BB
100
AcDbEntity
  8
0
100
AcDbCircle
 62
7
  6
CONTINUOUS
 10
11.6292750351
 20
1.5980370373
 40
0.0787991785
100
AcDbArc
 50
90.0445865365
 51
104.0226194164
  0
ARC
  5
4BC
100
AcDbEntity
  8
0
100
AcDbCircle
 62
7
  6
CONTINUOUS
 10
4.9117606138
 20
1.5980370373
 40
0.0787991785
100
AcDbArc
 50
90.0445865365
 51
104.0226194164
  0
ARC
  5
4BD
100
AcDbEntity
  8
0
100
AcDbCircle
 62
7
  6
CONTINUOUS
 10
11.6291523949
 20
1.4456485826
 40
0.0787991785
100
AcDbArc
 50
270.0445865365
 51
284.0226194164
  0
ARC
  5
4BE
100
AcDbEntity
  8
0
100
AcDbCircle
 62
7
  6
CONTINUOUS
 10
4.9116379736
 20
1.4456485826
 40
0.0787991785
100
AcDbArc
 50
270.0445865365
 51
284.0226194164
  0
ARC
  5
4BF
100
AcDbEntity
  8
0
100
AcDbCircle
 62
7
  6
CONTINUOUS
 10
4.9116846954
 20
1.598415719
 40
0.0784204743
100
AcDbArc
 50
75.9434599406
 51
89.9893341065
  0
ARC
  5
4C0
100
AcDbEntity
  8
0
100
AcDbCircle
 62
7
  6
CONTINUOUS
 10
11.6291991166
 20
1.598415719
 40
0.0784204743
100
AcDbArc
 50
75.9434599406
 51
89.9893341065
  0
ARC
  5
4C1
100
AcDbEntity
  8
0
100
AcDbCircle
 62
7
  6
CONTINUOUS
 10
4.9117109963
 20
1.4452014229
 40
0.0783519959
100
AcDbArc
 50
256.9383166569
 51
269.9914423206
  0
ARC
  5
4C2
100
AcDbEntity
  8
0
100
AcDbCircle
 62
7
  6
CONTINUOUS
 10
11.6292254176
 20
1.4452014229
 40
0.0783519959
100
AcDbArc
 50
256.9383166569
 51
269.9914423206
  0
ARC
  5
4C3
100
AcDbEntity
  8
WINDBAND
100
AcDbCircle
 62
7
  6
CONTINUOUS
 10
6.162231405
 20
9.7729459756
 40
4.663
100
AcDbArc
 50
300.9430846157
 51
360.0
  0
ARC
  5
4C4
100
AcDbEntity
  8
ROUND
100
AcDbCircle
 62
7
  6
CONTINUOUS
 10
7.5471494051
 20
12.8621743842
 40
0.5
100
AcDbArc
 50
0.7500000492
 51
86.553049159
  0
ARC
  5
4C5
100
AcDbEntity
  8
WINDBAND
100
AcDbCircle
 62
7
  6
CONTINUOUS
 10
11.262231405
 20
11.7348428099
 40
0.5
100
AcDbArc
 50
270.0
 51
90.0
  0
ARC
  5
4C6
100
AcDbEntity
  8
0
100
AcDbCircle
 62
7
  6
CONTINUOUS
 10
8.1099687421
 20
9.4528514646
 40
0.133508321
100
AcDbArc
 50
261.0450442369
 51
269.9890664014
  0
ARC
  5
4C7
100
AcDbEntity
  8
0
100
AcDbCircle
 62
7
  6
CONTINUOUS
 10
8.109958704
 20
9.7169893113
 40
0.1333531634
100
AcDbArc
 50
90.0066334282
 51
98.9956620778
  0
ARC
  5
4C8
100
AcDbEntity
  8
WINDBAND
100
AcDbCircle
 62
7
  6
CONTINUOUS
 10
-36.8329189533
 20
5.08744835
 40
0.8
100
AcDbArc
 50
0.0
 51
59.0569153843
  0
ARC
  5
4C9
100
AcDbEntity
  8
0
100
AcDbCircle
 62
7
  6
CONTINUOUS
 10
-32.667297244
 20
1.5218457176
 40
0.2156911491
100
AcDbArc
 50
178.8407542123
 51
181.1592457877
  0
ARC
  5
4CA
100
AcDbEntity
  8
0
100
AcDbCircle
 62
7
  6
CONTINUOUS
 10
-39.3848116654
 20
1.5218399022
 40
0.215691149
100
AcDbArc
 50
178.840754212
 51
181.159245788
  0
ARC
  5
4CB
100
AcDbEntity
  8
0
100
AcDbCircle
 62
7
  6
CONTINUOUS
 10
-42.7129930879
 20
2.1718281253
 40
0.1366653868
100
AcDbArc
 50
177.2386711025
 51
179.9938435964
  0
ARC
  5
4CC
100
AcDbEntity
  8
0
100
AcDbCircle
 62
7
  6
CONTINUOUS
 10
-29.4098736611
 20
2.1718281253
 40
0.1366653868
100
AcDbArc
 50
0.0061564036
 51
2.7613288975
  0
ARC
  5
4CD
100
AcDbEntity
  8
0
100
AcDbCircle
 62
7
  6
CONTINUOUS
 10
-39.4909625834
 20
1.5980370373
 40
0.0787991785
100
AcDbArc
 50
75.9773805836
 51
89.9554134635
  0
ARC
  5
4CE
100
AcDbEntity
  8
0
100
AcDbCircle
 62
7
  6
CONTINUOUS
 10
-32.7734481621
 20
1.5980370373
 40
0.0787991785
100
AcDbArc
 50
75.9773805836
 51
89.9554134635
  0
ARC
  5
4CF
100
AcDbEntity
  8
0
100
AcDbCircle
 62
7
  6
CONTINUOUS
 10
-39.4908399432
 20
1.4456485826
 40
0.0787991785
100
AcDbArc
 50
255.9773805836
 51
269.9554134635
  0
ARC
  5
4D0
100
AcDbEntity
  8
0
100
AcDbCircle
 62
7
  6
CONTINUOUS
 10
-32.7733255219
 20
1.4456485826
 40
0.0787991785
100
AcDbArc
 50
255.9773805836
 51
269.9554134635
  0
ARC
  5
4D1
100
AcDbEntity
  8
0
100
AcDbCircle
 62
7
  6
CONTINUOUS
 10
-32.7733722437
 20
1.598415719
 40
0.0784204743
100
AcDbArc
 50
90.0106658935
 51
104.0565400594
  0
ARC
  5
4D2
100
AcDbEntity
  8
0
100
AcDbCircle
 62
7
  6
CONTINUOUS
 10
-39.4908866649
 20
1.598415719
 40
0.0784204743
100
AcDbArc
 50
90.0106658935
 51
104.0565400594
  0
ARC
  5
4D3
100
AcDbEntity
  8
0
100
AcDbCircle
 62
7
  6
CONTINUOUS
 10
-32.7733985446
 20
1.4452014229
 40
0.0783519959
100
AcDbArc
 50
270.0085576794
 51
283.0616833431
  0
ARC
  5
4D4
100
AcDbEntity
  8
0
100
AcDbCircle
 62
7
  6
CONTINUOUS
 10
-39.4909129659
 20
1.4452014229
 40
0.0783519959
100
AcDbArc
 50
270.0085576794
 51
283.0616833431
  0
ARC
  5
4D5
100
AcDbEntity
  8
WINDBAND
100
AcDbCircle
 62
7
  6
CONTINUOUS
 10
-34.0239189533
 20
9.7729459756
 40
4.663
100
AcDbArc
 50
180.0
 51
239.0569153843
  0
ARC
  5
4D6
100
AcDbEntity
  8
ROUND
100
AcDbCircle
 62
7
  6
CONTINUOUS
 10
-35.4088369533
 20
12.8621743842
 40
0.5
100
AcDbArc
 50
93.4469498498
 51
179.2499999376
  0
ARC
  5
4D7
100
AcDbEntity
  8
WINDBAND
100
AcDbCircle
 62
7
  6
CONTINUOUS
 10
-39.1239189533
 20
11.7348428099
 40
0.5
100
AcDbArc
 50
90.0
 51
270.0
  0
ARC
  5
4D8
100
AcDbEntity
  8
0
100
AcDbCircle
 62
7
  6
CONTINUOUS
 10
-35.9716562904
 20
9.7168341552
 40
0.133508321
100
AcDbArc
 50
81.0450442369
 51
89.9890664014
  0
ARC
  5
4D9
100
AcDbEntity
  8
0
100
AcDbCircle
 62
7
  6
CONTINUOUS
 10
-35.9716462523
 20
9.4526963085
 40
0.1333531634
100
AcDbArc
 50
270.0066334282
 51
278.9956620778
  0
ARC
  5
4DA
100
AcDbEntity
  8
WINDBAND
100
AcDbCircle
 62
7
  6
CONTINUOUS
 10
-21.8549189533
 20
5.08744835
 40
0.8
100
AcDbArc
 50
120.9430846157
 51
180.0
  0
ARC
  5
4DB
100
AcDbEntity
  8
0
100
AcDbCircle
 62
7
  6
CONTINUOUS
 10
-29.3439189533
 20
2.4584499528
 40
0.3066071429
100
AcDbArc
 50
263.4177211315
 51
276.5822788685
  0
ARC
  5
4DC
100
AcDbEntity
  8
0
100
AcDbCircle
 62
7
  6
CONTINUOUS
 10
-19.3030262412
 20
1.5218399022
 40
0.2156911491
100
AcDbArc
 50
358.8407542123
 51
1.1592457877
  0
ARC
  5
4DD
100
AcDbEntity
  8
0
100
AcDbCircle
 62
7
  6
CONTINUOUS
 10
-26.0205406625
 20
1.5218457176
 40
0.2156911491
100
AcDbArc
 50
358.8407542123
 51
1.1592457877
  0
ARC
  5
4DE
100
AcDbEntity
  8
0
100
AcDbCircle
 62
7
  6
CONTINUOUS
 10
-15.9748448186
 20
2.1718281253
 40
0.1366653868
100
AcDbArc
 50
0.0061564035
 51
2.7613288976
  0
ARC
  5
4DF
100
AcDbEntity
  8
0
100
AcDbCircle
 62
7
  6
CONTINUOUS
 10
-29.2779642454
 20
2.1718281253
 40
0.1366653868
100
AcDbArc
 50
177.2386711025
 51
179.9938435964
  0
ARC
  5
4E0
100
AcDbEntity
  8
0
100
AcDbCircle
 62
7
  6
CONTINUOUS
 10
-25.9143897444
 20
1.4456485826
 40
0.0787991785
100
AcDbArc
 50
255.9773805836
 51
269.9554134635
  0
ARC
  5
4E1
100
AcDbEntity
  8
0
100
AcDbCircle
 62
7
  6
CONTINUOUS
 10
-19.1968753231
 20
1.4456485826
 40
0.0787991785
100
AcDbArc
 50
255.9773805836
 51
269.9554134635
  0
ARC
  5
4E2
100
AcDbEntity
  8
0
100
AcDbCircle
 62
7
  6
CONTINUOUS
 10
-25.9145123846
 20
1.5980370373
 40
0.0787991785
100
AcDbArc
 50
75.9773805836
 51
89.9554134635
  0
ARC
  5
4E3
100
AcDbEntity
  8
0
100
AcDbCircle
 62
7
  6
CONTINUOUS
 10
-19.1969979633
 20
1.5980370373
 40
0.0787991785
100
AcDbArc
 50
75.9773805836
 51
89.9554134635
  0
ARC
  5
4E4
100
AcDbEntity
  8
0
100
AcDbCircle
 62
7
  6
CONTINUOUS
 10
-19.1969512416
 20
1.4452699008
 40
0.0784204743
100
AcDbArc
 50
270.0106658935
 51
284.0565400594
  0
ARC
  5
4E5
100
AcDbEntity
  8
0
100
AcDbCircle
 62
7
  6
CONTINUOUS
 10
-25.9144656629
 20
1.4452699008
 40
0.0784204743
100
AcDbArc
 50
270.0106658935
 51
284.0565400594
  0
ARC
  5
4E6
100
AcDbEntity
  8
0
100
AcDbCircle
 62
7
  6
CONTINUOUS
 10
-19.1969249406
 20
1.5984841969
 40
0.0783519959
100
AcDbArc
 50
90.0085576794
 51
103.0616833431
  0
ARC
  5
4E7
100
AcDbEntity
  8
0
100
AcDbCircle
 62
7
  6
CONTINUOUS
 10
-25.9144393619
 20
1.5984841969
 40
0.0783519959
100
AcDbArc
 50
90.0085576794
 51
103.0616833431
  0
ARC
  5
4E8
100
AcDbEntity
  8
WINDBAND
100
AcDbCircle
 62
7
  6
CONTINUOUS
 10
-24.6639189533
 20
9.7729459756
 40
4.663
100
AcDbArc
 50
300.9430846157
 51
360.0
  0
ARC
  5
4E9
100
AcDbEntity
  8
ROUND
100
AcDbCircle
 62
7
  6
CONTINUOUS
 10
-23.2790009532
 20
12.8621743842
 40
0.5
100
AcDbArc
 50
0.7500000624
 51
86.5530501502
  0
ARC
  5
4EA
100
AcDbEntity
  8
WINDBAND
100
AcDbCircle
 62
7
  6
CONTINUOUS
 10
-19.5639189533
 20
11.7348428099
 40
0.5
100
AcDbArc
 50
270.0
 51
90.0
  0
ARC
  5
4EB
100
AcDbEntity
  8
0
100
AcDbCircle
 62
7
  6
CONTINUOUS
 10
-22.7161816162
 20
9.4528514646
 40
0.133508321
100
AcDbArc
 50
261.0450442369
 51
269.9890664015
  0
ARC
  5
4EC
100
AcDbEntity
  8
0
100
AcDbCircle
 62
7
  6
CONTINUOUS
 10
-22.7161916542
 20
9.7169893113
 40
0.1333531634
100
AcDbArc
 50
90.0066334282
 51
98.9956620778
  0
ARC
  5
4ED
100
AcDbEntity
  8
0
100
AcDbCircle
 62
7
  6
CONTINUOUS
 10
-0.4972673258
 20
30.4046898807
 40
6.4804469375
100
AcDbArc
 50
224.9356852467
 51
225.0643145711
  0
ARC
  5
4EE
100
AcDbEntity
  8
0
100
AcDbCircle
 62
7
  6
CONTINUOUS
 10
-4.6657934782
 20
26.3728137017
 40
0.680744181
100
AcDbArc
 50
221.7898807133
 51
222.5978898751
  0
ARC
  5
4EF
100
AcDbEntity
  8
0
100
AcDbCircle
 62
7
  6
CONTINUOUS
 10
-4.5700826276
 20
26.1910044978
 40
0.6197920278
100
AcDbArc
 50
227.3623685145
 51
228.2498458577
  0
ARC
  5
4F0
100
AcDbEntity
  8
0
100
AcDbCircle
 62
7
  6
CONTINUOUS
 10
-4.8313117742
 20
26.224222556
 40
0.4583137818
100
AcDbArc
 50
221.5111191006
 51
221.728986398
  0
ARC
  5
4F1
100
AcDbEntity
  8
0
100
AcDbCircle
 62
7
  6
CONTINUOUS
 10
-4.6843793393
 20
26.0631666028
 40
0.4483095622
100
AcDbArc
 50
228.2685733469
 51
228.4912936284
  0
ARC
  5
4F2
100
AcDbEntity
  8
0
100
AcDbCircle
 62
7
  6
CONTINUOUS
 10
-4.7551575119
 20
25.8088026531
 40
0.1125
100
AcDbArc
 50
225.0
 51
45.0
  0
ARC
  5
4F3
100
AcDbEntity
  8
0
100
AcDbCircle
 62
7
  6
CONTINUOUS
 10
-5.0931545533
 20
26.1467996945
 40
0.1125
100
AcDbArc
 50
45.0
 51
225.0
  0
ARC
  5
4F4
100
AcDbEntity
  8
0
100
AcDbCircle
 62
7
  6
CONTINUOUS
 10
-0.4972673145
 20
34.3636873309
 40
6.4804469533
100
AcDbArc
 50
134.9356852469
 51
135.064314571
  0
ARC
  5
4F5
100
AcDbEntity
  8
0
100
AcDbCircle
 62
7
  6
CONTINUOUS
 10
-4.5291435049
 20
38.5322134947
 40
0.6807441807
100
AcDbArc
 50
131.7898807131
 51
132.5978898752
  0
ARC
  5
4F6
100
AcDbEntity
  8
0
100
AcDbCircle
 62
7
  6
CONTINUOUS
 10
-4.7109527086
 20
38.4365026439
 40
0.6197920278
100
AcDbArc
 50
137.3623685145
 51
138.2498458577
  0
ARC
  5
4F7
100
AcDbEntity
  8
0
100
AcDbCircle
 62
7
  6
CONTINUOUS
 10
-4.6777346528
 20
38.6977317932
 40
0.4583137782
100
AcDbArc
 50
131.5111190998
 51
131.7289863988
  0
ARC
  5
4F8
100
AcDbEntity
  8
0
100
AcDbCircle
 62
7
  6
CONTINUOUS
 10
-4.8387906016
 20
38.5507993538
 40
0.4483095649
100
AcDbArc
 50
138.2685733476
 51
138.4912936277
  0
ARC
  5
4F9
100
AcDbEntity
  8
0
100
AcDbCircle
 62
7
  6
CONTINUOUS
 10
-5.0931545533
 20
38.6215775282
 40
0.1125
100
AcDbArc
 50
135.0
 51
315.0
  0
ARC
  5
4FA
100
AcDbEntity
  8
0
100
AcDbCircle
 62
7
  6
CONTINUOUS
 10
-4.7551575119
 20
38.9595745696
 40
0.1125
100
AcDbArc
 50
315.0
 51
135.0
  0
ARC
  5
4FB
100
AcDbEntity
  8
0
100
AcDbCircle
 62
7
  6
CONTINUOUS
 10
3.4617301294
 20
30.4046898868
 40
6.4804469462
100
AcDbArc
 50
314.9356852468
 51
315.0643145711
  0
ARC
  5
4FC
100
AcDbEntity
  8
0
100
AcDbCircle
 62
7
  6
CONTINUOUS
 10
7.4936063149
 20
26.236163728
 40
0.6807441806
100
AcDbArc
 50
311.7898807131
 51
312.5978898753
  0
ARC
  5
4FD
100
AcDbEntity
  8
0
100
AcDbCircle
 62
7
  6
CONTINUOUS
 10
7.6754155184
 20
26.3318745789
 40
0.619792028
100
AcDbArc
 50
317.3623685146
 51
318.2498458576
  0
ARC
  5
4FE
100
AcDbEntity
  8
0
100
AcDbCircle
 62
7
  6
CONTINUOUS
 10
7.6421974621
 20
26.0706454302
 40
0.4583137791
100
AcDbArc
 50
311.5111191
 51
311.7289863986
  0
ARC
  5
4FF
100
AcDbEntity
  8
0
100
AcDbCircle
 62
7
  6
CONTINUOUS
 10
7.8032534116
 20
26.2175778688
 40
0.4483095647
100
AcDbArc
 50
318.2685733477
 51
318.491293628
  0
ARC
  5
500
100
AcDbEntity
  8
0
100
AcDbCircle
 62
7
  6
CONTINUOUS
 10
7.7196203218
 20
25.8088026531
 40
0.1125
100
AcDbArc
 50
135.0
 51
315.0
  0
ARC
  5
501
100
AcDbEntity
  8
0
100
AcDbCircle
 62
7
  6
CONTINUOUS
 10
8.0576173632
 20
26.1467996945
 40
0.1125
100
AcDbArc
 50
315.0
 51
135.0
  0
CIRCLE
  5
502
100
AcDbEntity
  8
WINDBAND
100
AcDbCircle
 62
7
  6
CONTINUOUS
 10
1.482231405
 20
32.3841886114
 40
10.28
  0
CIRCLE
  5
503
100
AcDbEntity
  8
WINDBAND
100
AcDbCircle
 62
7
  6
CONTINUOUS
 10
1.482231405
 20
32.3841886114
 40
9.28
  0
ARC
  5
504
100
AcDbEntity
  8
0
100
AcDbCircle
 62
7
  6
CONTINUOUS
 10
1.482231405
 20
32.3841886114
 40
8.784
100
AcDbArc
 50
46.4309182626
 51
133.5867276251
  0
ARC
  5
505
100
AcDbEntity
  8
0
100
AcDbCircle
 62
7
  6
CONTINUOUS
 10
1.482231405
 20
32.3841886114
 40
8.784
100
AcDbArc
 50
136.4132723749
 51
223.5690817374
  0
ARC
  5
506
100
AcDbEntity
  8
0
100
AcDbCircle
 62
7
  6
CONTINUOUS
 10
1.482231405
 20
32.3841886114
 40
8.784
100
AcDbArc
 50
226.4309182626
 51
313.5867276251
  0
ARC
  5
507
100
AcDbEntity
  8
0
100
AcDbCircle
 62
7
  6
CONTINUOUS
 10
1.482231405
 20
32.3841886114
 40
8.784
100
AcDbArc
 50
316.4132723749
 51
43.5690817374
  0
ARC
  5
508
100
AcDbEntity
  8
0
100
AcDbCircle
 62
7
  6
CONTINUOUS
 10
1.482231405
 20
32.3841886114
 40
8.676
100
AcDbArc
 50
46.8520905219
 51
133.1494586901
  0
ARC
  5
509
100
AcDbEntity
  8
0
100
AcDbCircle
 62
7
  6
CONTINUOUS
 10
1.482231405
 20
32.3841886114
 40
8.676
100
AcDbArc
 50
136.8505413099
 51
223.1479094781
  0
ARC
  5
50A
100
AcDbEntity
  8
0
100
AcDbCircle
 62
7
  6
CONTINUOUS
 10
1.482231405
 20
32.3841886114
 40
8.676
100
AcDbArc
 50
226.8520905219
 51
313.1494586901
  0
ARC
  5
50B
100
AcDbEntity
  8
0
100
AcDbCircle
 62
7
  6
CONTINUOUS
 10
1.482231405
 20
32.3841886114
 40
8.676
100
AcDbArc
 50
316.8505413099
 51
43.1479094781
  0
CIRCLE
  5
50C
100
AcDbEntity
  8
0
100
AcDbCircle
 62
7
  6
CONTINUOUS
 10
1.482231405
 20
32.3841886114
 40
8.164
  0
CIRCLE
  5
50D
100
AcDbEntity
  8
0
100
AcDbCircle
 62
7
  6
CONTINUOUS
 10
1.482231405
 20
32.3841886114
 40
8.056
  0
CIRCLE
  5
50E
100
AcDbEntity
  8
0
100
AcDbCircle
 62
7
  6
CONTINUOUS
 10
1.482231405
 20
32.3841886114
 40
7.544
  0
CIRCLE
  5
50F
100
AcDbEntity
  8
0
100
AcDbCircle
 62
7
  6
CONTINUOUS
 10
1.482231405
 20
32.3841886114
 40
7.436
  0
ARC
  5
510
100
AcDbEntity
  8
WINDBAND
100
AcDbCircle
 62
7
  6
CONTINUOUS
 10
1.482231405
 20
32.3841886114
 40
7.0191851852
100
AcDbArc
 50
315.918394883
 51
44.081605117
  0
ARC
  5
511
100
AcDbEntity
  8
WINDBAND
100
AcDbCircle
 62
7
  6
CONTINUOUS
 10
1.482231405
 20
32.3841886114
 40
7.0191851852
100
AcDbArc
 50
45.918394883
 51
134.081605117
  0
ARC
  5
512
100
AcDbEntity
  8
WINDBAND
100
AcDbCircle
 62
7
  6
CONTINUOUS
 10
1.482231405
 20
32.3841886114
 40
7.0191851852
100
AcDbArc
 50
135.918394883
 51
224.081605117
  0
ARC
  5
513
100
AcDbEntity
  8
WINDBAND
100
AcDbCircle
 62
7
  6
CONTINUOUS
 10
1.482231405
 20
32.3841886114
 40
7.0191851852
100
AcDbArc
 50
225.918394883
 51
314.081605117
  0
CIRCLE
  5
514
100
AcDbEntity
  8
0
100
AcDbCircle
 62
7
  6
CONTINUOUS
 10
1.482231405
 20
32.3841886114
 40
6.924
  0
CIRCLE
  5
515
100
AcDbEntity
  8
0
100
AcDbCircle
 62
7
  6
CONTINUOUS
 10
1.482231405
 20
32.3841886114
 40
6.816
  0
ARC
  5
516
100
AcDbEntity
  8
0
100
AcDbCircle
 62
7
  6
CONTINUOUS
 10
1.482231405
 20
32.3841886114
 40
6.779995716
100
AcDbArc
 50
254.3592783742
 51
340.6384838108
  0
ARC
  5
517
100
AcDbEntity
  8
0
100
AcDbCircle
 62
7
  6
CONTINUOUS
 10
1.482231405
 20
32.3841886114
 40
6.779995716
100
AcDbArc
 50
164.3601066631
 51
250.6397010714
  0
ARC
  5
518
100
AcDbEntity
  8
0
100
AcDbCircle
 62
7
  6
CONTINUOUS
 10
1.482231405
 20
32.3841886114
 40
6.779995716
100
AcDbArc
 50
74.3592783742
 51
160.6384838108
  0
ARC
  5
519
100
AcDbEntity
  8
0
100
AcDbCircle
 62
7
  6
CONTINUOUS
 10
1.482231405
 20
32.3841886114
 40
6.779995716
100
AcDbArc
 50
344.3601066631
 51
70.6397010714
  0
ARC
  5
51A
100
AcDbEntity
  8
0
100
AcDbCircle
 62
7
  6
CONTINUOUS
 10
1.482231405
 20
32.3841886114
 40
6.5886143212
100
AcDbArc
 50
74.4142145891
 51
160.584647296
  0
ARC
  5
51B
100
AcDbEntity
  8
0
100
AcDbCircle
 62
7
  6
CONTINUOUS
 10
1.482231405
 20
32.3841886114
 40
6.5886143212
100
AcDbArc
 50
344.4142145891
 51
70.584647296
  0
ARC
  5
51C
100
AcDbEntity
  8
0
100
AcDbCircle
 62
7
  6
CONTINUOUS
 10
1.482231405
 20
32.3841886114
 40
6.5886143212
100
AcDbArc
 50
254.4142145891
 51
340.584647296
  0
ARC
  5
51D
100
AcDbEntity
  8
0
100
AcDbCircle
 62
7
  6
CONTINUOUS
 10
1.482231405
 20
32.3841886114
 40
6.5886143212
100
AcDbArc
 50
164.4142145891
 51
250.584647296
  0
ARC
  5
51E
100
AcDbEntity
  8
0
100
AcDbCircle
 62
7
  6
CONTINUOUS
 10
1.482231405
 20
32.3841886114
 40
6.58
100
AcDbArc
 50
74.4246734708
 51
160.5785081083
  0
ARC
  5
51F
100
AcDbEntity
  8
0
100
AcDbCircle
 62
7
  6
CONTINUOUS
 10
1.482231405
 20
32.3841886114
 40
6.58
100
AcDbArc
 50
164.4163881267
 51
250.5673683906
  0
ARC
  5
520
100
AcDbEntity
  8
0
100
AcDbCircle
 62
7
  6
CONTINUOUS
 10
1.482231405
 20
32.3841886114
 40
6.58
100
AcDbArc
 50
254.4246734708
 51
340.5785081083
  0
ARC
  5
521
100
AcDbEntity
  8
0
100
AcDbCircle
 62
7
  6
CONTINUOUS
 10
1.482231405
 20
32.3841886114
 40
6.58
100
AcDbArc
 50
344.4163881267
 51
70.5673683906
  0
CIRCLE
  5
522
100
AcDbEntity
  8
ROUND
100
AcDbCircle
 62
7
  6
CONTINUOUS
 10
1.482231405
 20
32.3841886114
 40
6.5648751639
  0
CIRCLE
  5
523
100
AcDbEntity
  8
ROUND
100
AcDbCircle
 62
7
  6
CONTINUOUS
 10
1.482231405
 20
32.3841886114
 40
6.0949802132
  0
CIRCLE
  5
524
100
AcDbEntity
  8
0
100
AcDbCircle
 62
7
  6
CONTINUOUS
 10
1.482231405
 20
32.3841886114
 40
0.25
  0
ARC
  5
525
100
AcDbEntity
  8
0
100
AcDbCircle
 62
7
  6
CONTINUOUS
 10
3.4617301418
 20
34.3636873481
 40
6.4804469288
100
AcDbArc
 50
44.9356852466
 51
45.0643145712
  0
ARC
  5
526
100
AcDbEntity
  8
0
100
AcDbCircle
 62
7
  6
CONTINUOUS
 10
7.6302562882
 20
38.3955635212
 40
0.6807441808
100
AcDbArc
 50
41.7898807132
 51
42.5978898751
  0
ARC
  5
527
100
AcDbEntity
  8
0
100
AcDbCircle
 62
7
  6
CONTINUOUS
 10
7.5345454373
 20
38.5773727247
 40
0.6197920281
100
AcDbArc
 50
47.3623685148
 51
48.2498458576
  0
ARC
  5
528
100
AcDbEntity
  8
0
100
AcDbCircle
 62
7
  6
CONTINUOUS
 10
7.7957745857
 20
38.5441546681
 40
0.4583137797
100
AcDbArc
 50
41.5111190998
 51
41.7289863982
  0
ARC
  5
529
100
AcDbEntity
  8
0
100
AcDbCircle
 62
7
  6
CONTINUOUS
 10
7.6488421474
 20
38.705210618
 40
0.4483095648
100
AcDbArc
 50
48.2685733477
 51
48.4912936279
  0
ARC
  5
52A
100
AcDbEntity
  8
0
100
AcDbCircle
 62
7
  6
CONTINUOUS
 10
8.0576173632
 20
38.6215775282
 40
0.1125
100
AcDbArc
 50
225.0
 51
45.0
  0
ARC
  5
52B
100
AcDbEntity
  8
0
100
AcDbCircle
 62
7
  6
CONTINUOUS
 10
7.7196203218
 20
38.9595745696
 40
0.1125
100
AcDbArc
 50
45.0
 51
225.0
  0
SPLINE
  5
52C
100
AcDbEntity
  8
0
100
AcDbSpline
 62
7
  6
CONTINUOUS
 70
0
 71
3
 72
12
 73
8
 74
0
 42
0.0000001
 43
0.0000001
 44
0.0000000001
 40
0.0
 40
0.0
 40
0.0
 40
0.0
 40
0.1231806656
 40
0.2465429676
 40
0.4944406066
 40
0.7451668819
 40
1.0
 40
1.0
 40
1.0
 40
1.0
 10
-5.1454804551
 20
9.8503424738
 30
0.0
 10
-5.1478873946
 20
9.8503425561
 30
0.0
 10
-5.1527059954
 20
9.8502116932
 30
0.0
 10
-5.1623388802
 20
9.8494243433
 30
0.0
 10
-5.1743571231
 20
9.8474487974
 30
0.0
 10
-5.1885730275
 20
9.8435240802
 30
0.0
 10
-5.1977910356
 20
9.8399165529
 30
0.0
 10
-5.2023329956
 20
9.8378756728
 30
0.0
  0
SPLINE
  5
52D
100
AcDbEntity
  8
0
100
AcDbSpline
 62
7
  6
CONTINUOUS
 70
0
 71
3
 72
17
 73
13
 74
0
 42
0.0000001
 43
0.0000001
 44
0.0000000001
 40
0.0
 40
0.0
 40
0.0
 40
0.0
 40
0.1453496714
 40
0.2868025825
 40
0.4230890175
 40
0.5529370658
 40
0.6754398658
 40
0.7338432018
 40
0.790386199
 40
0.8451538698
 40
0.8982574751
 40
1.0
 40
1.0
 40
1.0
 40
1.0
 10
-5.2318858576
 20
9.3325407423
 30
0.0
 10
-5.2401685992
 20
9.3376128649
 30
0.0
 10
-5.2564128156
 20
9.3477850074
 30
0.0
 10
-5.2799760035
 20
9.3634137548
 30
0.0
 10
-5.3021630298
 20
9.3792202293
 30
0.0
 10
-5.3226838404
 20
9.3951488666
 30
0.0
 10
-5.3384654294
 20
9.4086590582
 30
0.0
 10
-5.3501009586
 20
9.4194485041
 30
0.0
 10
-5.3582113173
 20
9.4273767715
 30
0.0
 10
-5.3658640439
 20
9.4352611441
 30
0.0
 10
-5.3753580703
 20
9.4455605363
 30
0.0
 10
-5.3820889322
 20
9.4534256707
 30
0.0
 10
-5.3863886892
 20
9.4586917761
 30
0.0
  0
SPLINE
  5
52E
100
AcDbEntity
  8
0
100
AcDbSpline
 62
7
  6
CONTINUOUS
 70
0
 71
3
 72
21
 73
17
 74
0
 42
0.0000001
 43
0.0000001
 44
0.0000000001
 40
0.0
 40
0.0
 40
0.0
 40
0.0
 40
0.1239113141
 40
0.1861867064
 40
0.2486629406
 40
0.3113187116
 40
0.3741233319
 40
0.4370338648
 40
0.5
 40
0.5629661352
 40
0.6258766681
 40
0.6886812884
 40
0.7513370594
 40
0.8138132936
 40
0.8760886859
 40
1.0
 40
1.0
 40
1.0
 40
1.0
 10
-5.3863886892
 20
9.4586917761
 30
0.0
 10
-5.3884888776
 20
9.4689805555
 30
0.0
 10
-5.3913673924
 20
9.4844999211
 30
0.0
 10
-5.3945302076
 20
9.505335795
 30
0.0
 10
-5.3965378485
 20
9.5210920747
 30
0.0
 10
-5.3981430756
 20
9.5369396586
 30
0.0
 10
-5.3993147814
 20
9.552862345
 30
0.0
 10
-5.4000282267
 20
9.5688386221
 30
0.0
 10
-5.4002684104
 20
9.5848428099
 30
0.0
 10
-5.4000282267
 20
9.6008469977
 30
0.0
 10
-5.3993147814
 20
9.6168232748
 30
0.0
 10
-5.3981430756
 20
9.6327459613
 30
0.0
 10
-5.3965378485
 20
9.6485935452
 30
0.0
 10
-5.3945302076
 20
9.6643498248
 30
0.0
 10
-5.3913673924
 20
9.6851856987
 30
0.0
 10
-5.3884888776
 20
9.7007050643
 30
0.0
 10
-5.3863886892
 20
9.7109938437
 30
0.0
  0
SPLINE
  5
52F
100
AcDbEntity
  8
0
100
AcDbSpline
 62
7
  6
CONTINUOUS
 70
0
 71
3
 72
12
 73
8
 74
0
 42
0.0000001
 43
0.0000001
 44
0.0000000001
 40
0.0
 40
0.0
 40
0.0
 40
0.0
 40
0.2464318161
 40
0.3701481614
 40
0.4944064007
 40
0.7451388235
 40
1.0
 40
1.0
 40
1.0
 40
1.0
 10
-5.1454804551
 20
9.319343146
 30
0.0
 10
-5.1503113332
 20
9.3193433113
 30
0.0
 10
-5.157575469
 20
9.3197408152
 30
0.0
 10
-5.1671811423
 20
9.3210560979
 30
0.0
 10
-5.1767858952
 20
9.3229031905
 30
0.0
 10
-5.1887081265
 20
9.3262049795
 30
0.0
 10
-5.1979522157
 20
9.3298343383
 30
0.0
 10
-5.2025067071
 20
9.3318880755
 30
0.0
  0
SPLINE
  5
530
100
AcDbEntity
  8
0
100
AcDbSpline
 62
7
  6
CONTINUOUS
 70
0
 71
3
 72
17
 73
13
 74
0
 42
0.0000001
 43
0.0000001
 44
0.0000000001
 40
0.0
 40
0.0
 40
0.0
 40
0.0
 40
0.1017425249
 40
0.1548461302
 40
0.209613801
 40
0.2661567982
 40
0.3245601342
 40
0.4470629342
 40
0.5769109825
 40
0.7131974175
 40
0.8546503286
 40
1.0
 40
1.0
 40
1.0
 40
1.0
 10
-5.3863886892
 20
9.7109938437
 30
0.0
 10
-5.3820889322
 20
9.7162599491
 30
0.0
 10
-5.3753580703
 20
9.7241250836
 30
0.0
 10
-5.3658640439
 20
9.7344244758
 30
0.0
 10
-5.3582113173
 20
9.7423088483
 30
0.0
 10
-5.3501009586
 20
9.7502371158
 30
0.0
 10
-5.3384654294
 20
9.7610265616
 30
0.0
 10
-5.3226838404
 20
9.7745367532
 30
0.0
 10
-5.3021630298
 20
9.7904653905
 30
0.0
 10
-5.2799760035
 20
9.806271865
 30
0.0
 10
-5.2564128156
 20
9.8219006124
 30
0.0
 10
-5.2401685992
 20
9.8320727549
 30
0.0
 10
-5.2318858576
 20
9.8371448776
 30
0.0
  0
SPLINE
  5
531
100
AcDbEntity
  8
0
100
AcDbSpline
 62
7
  6
CONTINUOUS
 70
0
 71
3
 72
33
 73
29
 74
0
 42
0.0000001
 43
0.0000001
 44
0.0000000001
 40
0.0
 40
0.0
 40
0.0
 40
0.0
 40
0.033118039
 40
0.0667387692
 40
0.1351518206
 40
0.2047216555
 40
0.2748923214
 40
0.3100240992
 40
0.3450806149
 40
0.3799879884
 40
0.4146734428
 40
0.449066382
 40
0.4831003246
 40
0.5167119081
 40
0.5498436422
 40
0.6144413694
 40
0.6765850197
 40
0.736081464
 40
0.7648382962
 40
0.7929392653
 40
0.8204104553
 40
0.8472925828
 40
0.8736379259
 40
0.8995125738
 40
0.9249940424
 40
0.9501702614
 40
0.975138117
 40
1.0
 40
1.0
 40
1.0
 40
1.0
 10
-4.96168237
 20
9.7175928099
 30
0.0
 10
-4.959619543
 20
9.7125399363
 30
0.0
 10
-4.9557339069
 20
9.7022443454
 30
0.0
 10
-4.9489420265
 20
9.6810248143
 30
0.0
 10
-4.9423577719
 20
9.6534709915
 30
0.0
 10
-4.9375945825
 20
9.6194522152
 30
0.0
 10
-4.9362632279
 20
9.5906193471
 30
0.0
 10
-4.9367979096
 20
9.5674882359
 30
0.0
 10
-4.9379999703
 20
9.5502040586
 30
0.0
 10
-4.9399986579
 20
9.5330681897
 30
0.0
 10
-4.9427834674
 20
9.5161529811
 30
0.0
 10
-4.9463453702
 20
9.4995311828
 30
0.0
 10
-4.9506663865
 20
9.4832733861
 30
0.0
 10
-4.9557304693
 20
9.4674486341
 30
0.0
 10
-4.9633770425
 20
9.4471919414
 30
0.0
 10
-4.9746093524
 20
9.4232967635
 30
0.0
 10
-4.9907540853
 20
9.3971162047
 30
0.0
 10
-5.0063019116
 20
9.3777161491
 30
0.0
 10
-5.0197684539
 20
9.3640474339
 30
0.0
 10
-5.0302049664
 20
9.3548519963
 30
0.0
 10
-5.0410482243
 20
9.3466414938
 30
0.0
 10
-5.0522505183
 20
9.3394486687
 30
0.0
 10
-5.0637656726
 20
9.3333072725
 30
0.0
 10
-5.0755439254
 20
9.3282439602
 30
0.0
 10
-5.0875343589
 20
9.3242804571
 30
0.0
 10
-5.0996861909
 20
9.3214374988
 30
0.0
 10
-5.1119442909
 20
9.3197245411
 30
0.0
 10
-5.1201611061
 20
9.3193432835
 30
0.0
 10
-5.1242582502
 20
9.319343146
 30
0.0
  0
SPLINE
  5
532
100
AcDbEntity
  8
0
100
AcDbSpline
 62
7
  6
CONTINUOUS
 70
0
 71
3
 72
23
 73
19
 74
0
 42
0.0000001
 43
0.0000001
 44
0.0000000001
 40
0.0
 40
0.0
 40
0.0
 40
0.0
 40
0.0723751114
 40
0.143519556
 40
0.2132937201
 40
0.2816189339
 40
0.348466309
 40
0.4138240839
 40
0.4776963976
 40
0.5401094145
 40
0.6011242401
 40
0.6608295059
 40
0.7193433524
 40
0.7768121898
 40
0.8334071424
 40
0.889325078
 40
0.9447798089
 40
1.0
 40
1.0
 40
1.0
 40
1.0
 10
-4.96168237
 20
9.7175928099
 30
0.0
 10
-4.9637121719
 20
9.7225647889
 30
0.0
 10
-4.9679975054
 20
9.7323204954
 30
0.0
 10
-4.9751464272
 20
9.7464493778
 30
0.0
 10
-4.9829355016
 20
9.7598906342
 30
0.0
 10
-4.9913298246
 20
9.7725823503
 30
0.0
 10
-5.000292995
 20
9.7844718595
 30
0.0
 10
-5.0097893176
 20
9.7955085019
 30
0.0
 10
-5.0197765996
 20
9.8056470803
 30
0.0
 10
-5.0302150972
 20
9.8148410679
 30
0.0
 10
-5.0410588162
 20
9.8230520944
 30
0.0
 10
-5.0522624816
 20
9.8302439877
 30
0.0
 10
-5.0637788859
 20
9.8363842081
 30
0.0
 10
-5.0755577542
 20
9.8414478318
 30
0.0
 10
-5.0875498001
 20
9.8454085841
 30
0.0
 10
-5.0997022121
 20
9.8482519272
 30
0.0
 10
-5.1119615118
 20
9.8499622603
 30
0.0
 10
-5.1201788251
 20
9.8503426112
 30
0.0
 10
-5.1242762532
 20
9.8503424738
 30
0.0
  0
SPLINE
  5
533
100
AcDbEntity
  8
0
100
AcDbSpline
 62
7
  6
CONTINUOUS
 70
0
 71
3
 72
15
 73
11
 74
0
 42
0.0000001
 43
0.0000001
 44
0.0000000001
 40
0.0
 40
0.0
 40
0.0
 40
0.0
 40
0.1247548064
 40
0.2497027523
 40
0.3748070069
 40
0.4999999975
 40
0.6251929827
 40
0.7502972276
 40
0.8752451699
 40
1.0
 40
1.0
 40
1.0
 40
1.0
 10
-4.9934782184
 20
9.7109938437
 30
0.0
 10
-4.9944693653
 20
9.7005314619
 30
0.0
 10
-4.9962699576
 20
9.6795724565
 30
0.0
 10
-4.9983125491
 20
9.6480625892
 30
0.0
 10
-4.9995918009
 20
9.6164746989
 30
0.0
 10
-5.0000281289
 20
9.584842811
 30
0.0
 10
-4.9995918012
 20
9.5532109239
 30
0.0
 10
-4.9983125494
 20
9.5216230351
 30
0.0
 10
-4.9962699585
 20
9.490113167
 30
0.0
 10
-4.9944693655
 20
9.4691541599
 30
0.0
 10
-4.9934782184
 20
9.4586917761
 30
0.0
  0
SPLINE
  5
534
100
AcDbEntity
  8
0
100
AcDbSpline
 62
7
  6
CONTINUOUS
 70
0
 71
3
 72
21
 73
17
 74
0
 42
0.0000001
 43
0.0000001
 44
0.0000000001
 40
0.0
 40
0.0
 40
0.0
 40
0.0
 40
0.1239113141
 40
0.1861867064
 40
0.2486629406
 40
0.3113187116
 40
0.3741233319
 40
0.4370338648
 40
0.5
 40
0.5629661352
 40
0.6258766681
 40
0.6886812884
 40
0.7513370594
 40
0.8138132936
 40
0.8760886859
 40
1.0
 40
1.0
 40
1.0
 40
1.0
 10
-5.0773830259
 20
9.7109938437
 30
0.0
 10
-5.0794832142
 20
9.7007050643
 30
0.0
 10
-5.082361729
 20
9.6851856987
 30
0.0
 10
-5.0855245442
 20
9.6643498248
 30
0.0
 10
-5.0875321851
 20
9.6485935452
 30
0.0
 10
-5.0891374122
 20
9.6327459613
 30
0.0
 10
-5.0903091181
 20
9.6168232748
 30
0.0
 10
-5.0910225633
 20
9.6008469977
 30
0.0
 10
-5.091262747
 20
9.5848428099
 30
0.0
 10
-5.0910225633
 20
9.5688386221
 30
0.0
 10
-5.0903091181
 20
9.552862345
 30
0.0
 10
-5.0891374122
 20
9.5369396586
 30
0.0
 10
-5.0875321851
 20
9.5210920747
 30
0.0
 10
-5.0855245442
 20
9.505335795
 30
0.0
 10
-5.082361729
 20
9.4844999211
 30
0.0
 10
-5.0794832142
 20
9.4689805555
 30
0.0
 10
-5.0773830259
 20
9.4586917761
 30
0.0
  0
SPLINE
  5
535
100
AcDbEntity
  8
0
100
AcDbSpline
 62
7
  6
CONTINUOUS
 70
0
 71
3
 72
15
 73
11
 74
0
 42
0.0000001
 43
0.0000001
 44
0.0000000001
 40
0.0
 40
0.0
 40
0.0
 40
0.0
 40
0.1350418497
 40
0.2678181341
 40
0.39787093
 40
0.5248074749
 40
0.6483951003
 40
0.7686251307
 40
0.8857070957
 40
1.0
 40
1.0
 40
1.0
 40
1.0
 10
-4.9934782184
 20
9.4586917761
 30
0.0
 10
-5.0008169659
 20
9.453502498
 30
0.0
 10
-5.0153116415
 20
9.4431260873
 30
0.0
 10
-5.0366188651
 20
9.4273994742
 30
0.0
 10
-5.0572194789
 20
9.4116298634
 30
0.0
 10
-5.077019488
 20
9.3958284434
 30
0.0
 10
-5.0959645951
 20
9.3800132503
 30
0.0
 10
-5.1140542983
 20
9.3642065106
 30
0.0
 10
-5.1313405165
 20
9.3484293382
 30
0.0
 10
-5.1425096167
 20
9.3378257411
 30
0.0
 10
-5.1479810501
 20
9.3325407423
 30
0.0
  0
SPLINE
  5
536
100
AcDbEntity
  8
0
100
AcDbSpline
 62
7
  6
CONTINUOUS
 70
0
 71
3
 72
9
 73
5
 74
0
 42
0.0000001
 43
0.0000001
 44
0.0000000001
 40
0.0
 40
0.0
 40
0.0
 40
0.0
 40
0.5051109414
 40
1.0
 40
1.0
 40
1.0
 40
1.0
 10
-5.0773830259
 20
9.4586917761
 30
0.0
 10
-5.0840672244
 20
9.4545985571
 30
0.0
 10
-5.0972351143
 20
9.4463877146
 30
0.0
 10
-5.1102357581
 20
9.4379133432
 30
0.0
 10
-5.1166162628
 20
9.4336400722
 30
0.0
  0
LINE
  5
537
100
AcDbEntity
  8
0
100
AcDbLine
 62
7
  6
CONTINUOUS
 10
-5.1166162628
 20
9.4336400722
 11
-5.1175367861
 21
9.4330227564
  0
SPLINE
  5
538
100
AcDbEntity
  8
0
100
AcDbSpline
 62
7
  6
CONTINUOUS
 70
0
 71
3
 72
15
 73
11
 74
0
 42
0.0000001
 43
0.0000001
 44
0.0000000001
 40
0.0
 40
0.0
 40
0.0
 40
0.0
 40
0.1445635932
 40
0.2843711919
 40
0.4186280386
 40
0.5467803042
 40
0.6686442529
 40
0.7844296498
 40
0.8946534163
 40
1.0
 40
1.0
 40
1.0
 40
1.0
 10
-5.1175367861
 20
9.4330227564
 30
0.0
 10
-5.1236497721
 20
9.4289179297
 30
0.0
 10
-5.1355780173
 20
9.42069773
 30
0.0
 10
-5.1527766915
 20
9.4080878139
 30
0.0
 10
-5.1688802939
 20
9.3954163066
 30
0.0
 10
-5.1837931303
 20
9.38273146
 30
0.0
 10
-5.1974832025
 20
9.3700849401
 30
0.0
 10
-5.2099861797
 20
9.3575224252
 30
0.0
 10
-5.2213922911
 20
9.3450766079
 30
0.0
 10
-5.2284922309
 20
9.3366970692
 30
0.0
 10
-5.2318858576
 20
9.3325407423
 30
0.0
  0
SPLINE
  5
539
100
AcDbEntity
  8
0
100
AcDbSpline
 62
7
  6
CONTINUOUS
 70
0
 71
3
 72
50
 73
46
 74
0
 42
0.0000001
 43
0.0000001
 44
0.0000000001
 40
0.0
 40
0.0
 40
0.0
 40
0.0
 40
0.0335593411
 40
0.0662064547
 40
0.09784588
 40
0.1132821976
 40
0.1284582097
 40
0.1580236386
 40
0.1865900763
 40
0.2005296522
 40
0.214255553
 40
0.2277855249
 40
0.2411397528
 40
0.2543414387
 40
0.2674158975
 40
0.2803902603
 40
0.2932935579
 40
0.3061558131
 40
0.3190077183
 40
0.3318802764
 40
0.34480396
 40
0.357808549
 40
0.3709225009
 40
0.3841723031
 40
0.3975826651
 40
0.4249583038
 40
0.4532086807
 40
0.4824339765
 40
0.4974362833
 40
0.5126991777
 40
0.5439972826
 40
0.5763103855
 40
0.5928332986
 40
0.6095840112
 40
0.6437116788
 40
0.6785833346
 40
0.7140616842
 40
0.749993104
 40
0.7862127593
 40
0.8225488219
 40
0.8588271786
 40
0.8948729581
 40
0.9305179753
 40
0.9656157344
 40
1.0
 40
1.0
 40
1.0
 40
1.0
 10
-5.112392427
 20
9.4758428099
 30
0.0
 10
-5.1148816106
 20
9.4697455802
 30
0.0
 10
-5.120266427
 20
9.4579028661
 30
0.0
 10
-5.1296519356
 20
9.4411264436
 30
0.0
 10
-5.1384821638
 20
9.4281821778
 30
0.0
 10
-5.1460726596
 20
9.4186045923
 30
0.0
 10
-5.1538536778
 20
9.4097156752
 30
0.0
 10
-5.1641353506
 20
9.3996145164
 30
0.0
 10
-5.1752643911
 20
9.3908338326
 30
0.0
 10
-5.1844985591
 20
9.384781836
 30
0.0
 10
-5.1915178294
 20
9.3807608106
 30
0.0
 10
-5.1986687061
 20
9.3772310677
 30
0.0
 10
-5.2059347599
 20
9.3742024102
 30
0.0
 10
-5.2132980112
 20
9.3716817402
 30
0.0
 10
-5.2207405287
 20
9.3696746848
 30
0.0
 10
-5.228244585
 20
9.3681875838
 30
0.0
 10
-5.2357916795
 20
9.3672235643
 30
0.0
 10
-5.2433634042
 20
9.3667843058
 30
0.0
 10
-5.2509413495
 20
9.3668722682
 30
0.0
 10
-5.2585068917
 20
9.3674866992
 30
0.0
 10
-5.2660417096
 20
9.3686252166
 30
0.0
 10
-5.273527278
 20
9.3702862518
 30
0.0
 10
-5.2809452851
 20
9.3724651758
 30
0.0
 10
-5.2882783463
 20
9.3751558608
 30
0.0
 10
-5.2979823607
 20
9.3794465229
 30
0.0
 10
-5.3098297398
 20
9.3860949691
 30
0.0
 10
-5.3233108065
 20
9.3959281618
 30
0.0
 10
-5.3338251113
 20
9.4055506078
 30
0.0
 10
-5.3418074105
 20
9.4140753203
 30
0.0
 10
-5.3496172811
 20
9.4232989098
 30
0.0
 10
-5.3587433542
 20
9.4358309921
 30
0.0
 10
-5.3668265587
 20
9.4493446593
 30
0.0
 10
-5.3727217681
 20
9.4607896255
 30
0.0
 10
-5.3782889453
 20
9.4727916027
 30
0.0
 10
-5.3844355394
 20
9.4884770995
 30
0.0
 10
-5.3904360633
 20
9.5081019235
 30
0.0
 10
-5.3950497567
 20
9.5284611547
 30
0.0
 10
-5.3982332648
 20
9.5493591348
 30
0.0
 10
-5.3999570165
 20
9.5705963357
 30
0.0
 10
-5.400203579
 20
9.5919698673
 30
0.0
 10
-5.3989709856
 20
9.6132751627
 30
0.0
 10
-5.3962718788
 20
9.6343082202
 30
0.0
 10
-5.3921304915
 20
9.6548701712
 30
0.0
 10
-5.3865859927
 20
9.6747601065
 30
0.0
 10
-5.3819371794
 20
9.6875957038
 30
0.0
 10
-5.379386809
 20
9.6938428099
 30
0.0
  0
SPLINE
  5
53A
100
AcDbEntity
  8
0
100
AcDbSpline
 62
7
  6
CONTINUOUS
 70
0
 71
3
 72
15
 73
11
 74
0
 42
0.0000001
 43
0.0000001
 44
0.0000000001
 40
0.0
 40
0.0
 40
0.0
 40
0.0
 40
0.1142929029
 40
0.2313748769
 40
0.3516049135
 40
0.4751925433
 40
0.6021290974
 40
0.7321819093
 40
0.8649581884
 40
1.0
 40
1.0
 40
1.0
 40
1.0
 10
-5.1479810501
 20
9.8371448776
 30
0.0
 10
-5.1425096168
 20
9.8318598788
 30
0.0
 10
-5.1313405162
 20
9.8212562813
 30
0.0
 10
-5.1140542974
 20
9.8054791083
 30
0.0
 10
-5.0959645932
 20
9.7896723677
 30
0.0
 10
-5.077019485
 20
9.7738571739
 30
0.0
 10
-5.0572194742
 20
9.7580557529
 30
0.0
 10
-5.0366188592
 20
9.7422861414
 30
0.0
 10
-5.0153116368
 20
9.7265595297
 30
0.0
 10
-5.0008169638
 20
9.7161831204
 30
0.0
 10
-4.9934782184
 20
9.7109938437
 30
0.0
  0
SPLINE
  5
53B
100
AcDbEntity
  8
0
100
AcDbSpline
 62
7
  6
CONTINUOUS
 70
0
 71
3
 72
15
 73
11
 74
0
 42
0.0000001
 43
0.0000001
 44
0.0000000001
 40
0.0
 40
0.0
 40
0.0
 40
0.0
 40
0.1060164924
 40
0.2167149812
 40
0.3327353826
 40
0.4545802181
 40
0.5824921439
 40
0.71637016
 40
0.8557702419
 40
1.0
 40
1.0
 40
1.0
 40
1.0
 10
-5.2318858576
 20
9.8371448776
 30
0.0
 10
-5.2286350057
 20
9.8331634134
 30
0.0
 10
-5.2218471904
 20
9.8251397386
 30
0.0
 10
-5.2109747887
 20
9.8132166192
 30
0.0
 10
-5.1991022989
 20
9.8011835903
 30
0.0
 10
-5.1861456938
 20
9.7890676863
 30
0.0
 10
-5.1720650736
 20
9.776907655
 30
0.0
 10
-5.1568772403
 20
9.7647488848
 30
0.0
 10
-5.1406552481
 20
9.7526357914
 30
0.0
 10
-5.1293980727
 20
9.7447345402
 30
0.0
 10
-5.1236254645
 20
9.7407879356
 30
0.0
  0
SPLINE
  5
53C
100
AcDbEntity
  8
0
100
AcDbSpline
 62
7
  6
CONTINUOUS
 70
0
 71
3
 72
9
 73
5
 74
0
 42
0.0000001
 43
0.0000001
 44
0.0000000001
 40
0.0
 40
0.0
 40
0.0
 40
0.0
 40
0.4936069805
 40
1.0
 40
1.0
 40
1.0
 40
1.0
 10
-5.1236254645
 20
9.7407879356
 30
0.0
 10
-5.1161531434
 20
9.7356792749
 30
0.0
 10
-5.1008499533
 20
9.7255699722
 30
0.0
 10
-5.0853023321
 20
9.7158434086
 30
0.0
 10
-5.0773830259
 20
9.7109938437
 30
0.0
  0
SPLINE
  5
53D
100
AcDbEntity
  8
0
100
AcDbSpline
 62
7
  6
CONTINUOUS
 70
0
 71
3
 72
34
 73
30
 74
0
 42
0.0000001
 43
0.0000001
 44
0.0000000001
 40
0.0
 40
0.0
 40
0.0
 40
0.0
 40
0.0327288211
 40
0.0659323147
 40
0.1334619026
 40
0.2021252839
 40
0.2714398446
 40
0.3061831028
 40
0.340889351
 40
0.3754925157
 40
0.4099275842
 40
0.4780221607
 40
0.5447118022
 40
0.577405719
 40
0.6095970729
 40
0.6412459356
 40
0.6723197293
 40
0.7027915996
 40
0.732644107
 40
0.7618677038
 40
0.7904618623
 40
0.8184372976
 40
0.8458135767
 40
0.8726224577
 40
0.8989061756
 40
0.9247174115
 40
0.9501202911
 40
0.9751873079
 40
1.0
 40
1.0
 40
1.0
 40
1.0
 10
-4.9828955734
 20
9.7175928099
 30
0.0
 10
-4.9809430468
 20
9.7128101159
 30
0.0
 10
-4.9772527462
 20
9.7030740987
 30
0.0
 10
-4.9707478401
 20
9.6830313396
 30
0.0
 10
-4.9643189336
 20
9.6570343646
 30
0.0
 10
-4.9594121535
 20
9.6249291903
 30
0.0
 10
-4.9576834929
 20
9.5976831851
 30
0.0
 10
-4.9577334389
 20
9.5757751342
 30
0.0
 10
-4.9584892885
 20
9.559363437
 30
0.0
 10
-4.9599630009
 20
9.5430493711
 30
0.0
 10
-4.962863609
 20
9.5215937051
 30
0.0
 10
-4.9682127966
 20
9.4953858096
 30
0.0
 10
-4.97588432
 20
9.4700439132
 30
0.0
 10
-4.9833476741
 20
9.4506557697
 30
0.0
 10
-4.9895303864
 20
9.436722155
 30
0.0
 10
-4.9963124353
 20
9.4233563048
 30
0.0
 10
-5.0036658309
 20
9.4106079138
 30
0.0
 10
-5.0115648784
 20
9.398527073
 30
0.0
 10
-5.0199783535
 20
9.3871594491
 30
0.0
 10
-5.0288741233
 20
9.3765483254
 30
0.0
 10
-5.0382200734
 20
9.3667359663
 30
0.0
 10
-5.0479786024
 20
9.3577582282
 30
0.0
 10
-5.0581145591
 20
9.349651672
 30
0.0
 10
-5.0685886009
 20
9.3424471876
 30
0.0
 10
-5.079360482
 20
9.3361721107
 30
0.0
 10
-5.0903902298
 20
9.3308536933
 30
0.0
 10
-5.1016343047
 20
9.3265101691
 30
0.0
 10
-5.1130492033
 20
9.3231614728
 30
0.0
 10
-5.1207763756
 20
9.3215944153
 30
0.0
 10
-5.1246448354
 20
9.3209833648
 30
0.0
  0
SPLINE
  5
53E
100
AcDbEntity
  8
0
100
AcDbSpline
 62
7
  6
CONTINUOUS
 70
0
 71
3
 72
50
 73
46
 74
0
 42
0.0000001
 43
0.0000001
 44
0.0000000001
 40
0.0
 40
0.0
 40
0.0
 40
0.0
 40
0.0335593411
 40
0.0662064547
 40
0.09784588
 40
0.1132821976
 40
0.1284582097
 40
0.1580236386
 40
0.1865900763
 40
0.2005296522
 40
0.214255553
 40
0.2277855249
 40
0.2411397528
 40
0.2543414387
 40
0.2674158975
 40
0.2803902603
 40
0.2932935579
 40
0.3061558131
 40
0.3190077183
 40
0.3318802764
 40
0.34480396
 40
0.357808549
 40
0.3709225009
 40
0.3841723031
 40
0.3975826651
 40
0.4249583038
 40
0.4532086807
 40
0.4824339765
 40
0.4974362833
 40
0.5126991777
 40
0.5439972826
 40
0.5763103855
 40
0.5928332986
 40
0.6095840112
 40
0.6437116788
 40
0.6785833346
 40
0.7140616842
 40
0.749993104
 40
0.7862127593
 40
0.8225488219
 40
0.8588271786
 40
0.8948729581
 40
0.9305179753
 40
0.9656157344
 40
1.0
 40
1.0
 40
1.0
 40
1.0
 10
-5.379386809
 20
9.6938428099
 30
0.0
 10
-5.3768976254
 20
9.6999400396
 30
0.0
 10
-5.371512809
 20
9.7117827537
 30
0.0
 10
-5.3621273004
 20
9.7285591762
 30
0.0
 10
-5.3532970723
 20
9.741503442
 30
0.0
 10
-5.3457065765
 20
9.7510810275
 30
0.0
 10
-5.3379255582
 20
9.7599699446
 30
0.0
 10
-5.3276438855
 20
9.7700711034
 30
0.0
 10
-5.3165148449
 20
9.7788517873
 30
0.0
 10
-5.307280677
 20
9.7849037838
 30
0.0
 10
-5.3002614067
 20
9.7889248093
 30
0.0
 10
-5.29311053
 20
9.7924545521
 30
0.0
 10
-5.2858444761
 20
9.7954832096
 30
0.0
 10
-5.2784812249
 20
9.7980038796
 30
0.0
 10
-5.2710387073
 20
9.8000109351
 30
0.0
 10
-5.2635346511
 20
9.801498036
 30
0.0
 10
-5.2559875565
 20
9.8024620556
 30
0.0
 10
-5.2484158319
 20
9.802901314
 30
0.0
 10
-5.2408378865
 20
9.8028133516
 30
0.0
 10
-5.2332723443
 20
9.8021989207
 30
0.0
 10
-5.2257375264
 20
9.8010604032
 30
0.0
 10
-5.2182519581
 20
9.799399368
 30
0.0
 10
-5.210833951
 20
9.797220444
 30
0.0
 10
-5.2035008898
 20
9.794529759
 30
0.0
 10
-5.1937968754
 20
9.7902390969
 30
0.0
 10
-5.1819494963
 20
9.7835906507
 30
0.0
 10
-5.1684684295
 20
9.7737574581
 30
0.0
 10
-5.1579541247
 20
9.7641350121
 30
0.0
 10
-5.1499718256
 20
9.7556102996
 30
0.0
 10
-5.142161955
 20
9.74638671
 30
0.0
 10
-5.1330358819
 20
9.7338546278
 30
0.0
 10
-5.1249526773
 20
9.7203409605
 30
0.0
 10
-5.119057468
 20
9.7088959943
 30
0.0
 10
-5.1134902907
 20
9.6968940172
 30
0.0
 10
-5.1073436967
 20
9.6812085204
 30
0.0
 10
-5.1013431728
 20
9.6615836963
 30
0.0
 10
-5.0967294794
 20
9.6412244651
 30
0.0
 10
-5.0935459713
 20
9.6203264851
 30
0.0
 10
-5.0918222196
 20
9.5990892841
 30
0.0
 10
-5.0915756571
 20
9.5777157525
 30
0.0
 10
-5.0928082504
 20
9.5564104571
 30
0.0
 10
-5.0955073572
 20
9.5353773997
 30
0.0
 10
-5.0996487446
 20
9.5148154486
 30
0.0
 10
-5.1051932433
 20
9.4949255133
 30
0.0
 10
-5.1098420567
 20
9.482089916
 30
0.0
 10
-5.112392427
 20
9.4758428099
 30
0.0
  0
SPLINE
  5
53F
100
AcDbEntity
  8
0
100
AcDbSpline
 62
7
  6
CONTINUOUS
 70
0
 71
3
 72
21
 73
17
 74
0
 42
0.0000001
 43
0.0000001
 44
0.0000000001
 40
0.0
 40
0.0
 40
0.0
 40
0.0
 40
0.0714677447
 40
0.1418637253
 40
0.2789723574
 40
0.4109097938
 40
0.4749348902
 40
0.5376530534
 40
0.5990895423
 40
0.6592956568
 40
0.7183410806
 40
0.7763160648
 40
0.8333321501
 40
0.889517376
 40
0.9450193257
 40
1.0
 40
1.0
 40
1.0
 40
1.0
 10
-4.9828955734
 20
9.7175928099
 30
0.0
 10
-4.9847121569
 20
9.7220425125
 30
0.0
 10
-4.9885268106
 20
9.7307920694
 30
0.0
 10
-4.9968537454
 20
9.7476102209
 30
0.0
 10
-5.0085040101
 20
9.7672910808
 30
0.0
 10
-5.0219590942
 20
9.7852632725
 30
0.0
 10
-5.0335840708
 20
9.7982174426
 30
0.0
 10
-5.0426006793
 20
9.8071094275
 30
0.0
 10
-5.0519721275
 20
9.8152402201
 30
0.0
 10
-5.0616651722
 20
9.822583584
 30
0.0
 10
-5.0716473596
 20
9.8291137253
 30
0.0
 10
-5.0818855051
 20
9.8348065299
 30
0.0
 10
-5.0923432858
 20
9.8396442874
 30
0.0
 10
-5.1029862128
 20
9.8436077923
 30
0.0
 10
-5.1137762414
 20
9.8466830729
 30
0.0
 10
-5.121071768
 20
9.8481404739
 30
0.0
 10
-5.1247243038
 20
9.8487151459
 30
0.0
  0
SPLINE
  5
540
100
AcDbEntity
  8
0
100
AcDbSpline
 62
7
  6
CONTINUOUS
 70
0
 71
3
 72
33
 73
29
 74
0
 42
0.0000001
 43
0.0000001
 44
0.0000000001
 40
0.0
 40
0.0
 40
0.0
 40
0.0
 40
0.024861883
 40
0.0498297386
 40
0.0750059576
 40
0.1004874262
 40
0.1263620741
 40
0.1527074172
 40
0.1795895447
 40
0.2070607347
 40
0.2351617038
 40
0.263918536
 40
0.3234149803
 40
0.3855586306
 40
0.4501563578
 40
0.4832880919
 40
0.5168996754
 40
0.550933618
 40
0.5853265572
 40
0.6200120116
 40
0.6549193851
 40
0.6899759008
 40
0.7251076786
 40
0.7952783445
 40
0.8648481794
 40
0.9332612308
 40
0.966881961
 40
1.0
 40
1.0
 40
1.0
 40
1.0
 10
8.0887210601
 20
9.8503424738
 30
0.0
 10
8.084623916
 20
9.8503423364
 30
0.0
 10
8.0764071008
 20
9.8499610787
 30
0.0
 10
8.0641490009
 20
9.848248121
 30
0.0
 10
8.0519971688
 20
9.8454051627
 30
0.0
 10
8.0400067353
 20
9.8414416596
 30
0.0
 10
8.0282284825
 20
9.8363783473
 30
0.0
 10
8.0167133282
 20
9.8302369511
 30
0.0
 10
8.0055110342
 20
9.8230441261
 30
0.0
 10
7.9946677763
 20
9.8148336235
 30
0.0
 10
7.9842312638
 20
9.8056381859
 30
0.0
 10
7.9707647215
 20
9.7919694707
 30
0.0
 10
7.9552168953
 20
9.7725694151
 30
0.0
 10
7.9390721623
 20
9.7463888564
 30
0.0
 10
7.9278398524
 20
9.7224936784
 30
0.0
 10
7.9201932792
 20
9.7022369857
 30
0.0
 10
7.9151291964
 20
9.6864122337
 30
0.0
 10
7.9108081802
 20
9.670154437
 30
0.0
 10
7.9072462774
 20
9.6535326388
 30
0.0
 10
7.9044614679
 20
9.6366174301
 30
0.0
 10
7.9024627802
 20
9.6194815612
 30
0.0
 10
7.9012607195
 20
9.6021973839
 30
0.0
 10
7.9007260378
 20
9.5790662728
 30
0.0
 10
7.9020573924
 20
9.5502334046
 30
0.0
 10
7.9068205818
 20
9.5162146283
 30
0.0
 10
7.9134048365
 20
9.4886608055
 30
0.0
 10
7.9201967168
 20
9.4674412744
 30
0.0
 10
7.9240823529
 20
9.4571456835
 30
0.0
 10
7.9261451799
 20
9.4520928099
 30
0.0
  0
SPLINE
  5
541
100
AcDbEntity
  8
0
100
AcDbSpline
 62
7
  6
CONTINUOUS
 70
0
 71
3
 72
17
 73
13
 74
0
 42
0.0000001
 43
0.0000001
 44
0.0000000001
 40
0.0
 40
0.0
 40
0.0
 40
0.0
 40
0.1453496714
 40
0.2868025825
 40
0.4230890175
 40
0.5529370658
 40
0.6754398658
 40
0.7338432018
 40
0.790386199
 40
0.8451538698
 40
0.8982574751
 40
1.0
 40
1.0
 40
1.0
 40
1.0
 10
8.1963486675
 20
9.8371448776
 30
0.0
 10
8.2046314091
 20
9.8320727549
 30
0.0
 10
8.2208756256
 20
9.8219006124
 30
0.0
 10
8.2444388134
 20
9.806271865
 30
0.0
 10
8.2666258397
 20
9.7904653905
 30
0.0
 10
8.2871466503
 20
9.7745367532
 30
0.0
 10
8.3029282393
 20
9.7610265616
 30
0.0
 10
8.3145637685
 20
9.7502371158
 30
0.0
 10
8.3226741272
 20
9.7423088483
 30
0.0
 10
8.3303268539
 20
9.7344244758
 30
0.0
 10
8.3398208802
 20
9.7241250836
 30
0.0
 10
8.3465517421
 20
9.7162599491
 30
0.0
 10
8.3508514992
 20
9.7109938437
 30
0.0
  0
SPLINE
  5
542
100
AcDbEntity
  8
0
100
AcDbSpline
 62
7
  6
CONTINUOUS
 70
0
 71
3
 72
21
 73
17
 74
0
 42
0.0000001
 43
0.0000001
 44
0.0000000001
 40
0.0
 40
0.0
 40
0.0
 40
0.0
 40
0.1239113141
 40
0.1861867064
 40
0.2486629406
 40
0.3113187116
 40
0.3741233319
 40
0.4370338648
 40
0.5
 40
0.5629661352
 40
0.6258766681
 40
0.6886812884
 40
0.7513370594
 40
0.8138132936
 40
0.8760886859
 40
1.0
 40
1.0
 40
1.0
 40
1.0
 10
8.3508514992
 20
9.7109938437
 30
0.0
 10
8.3529516875
 20
9.7007050643
 30
0.0
 10
8.3558302023
 20
9.6851856987
 30
0.0
 10
8.3589930175
 20
9.6643498248
 30
0.0
 10
8.3610006584
 20
9.6485935452
 30
0.0
 10
8.3626058855
 20
9.6327459613
 30
0.0
 10
8.3637775914
 20
9.6168232748
 30
0.0
 10
8.3644910366
 20
9.6008469977
 30
0.0
 10
8.3647312203
 20
9.5848428099
 30
0.0
 10
8.3644910366
 20
9.5688386221
 30
0.0
 10
8.3637775914
 20
9.552862345
 30
0.0
 10
8.3626058855
 20
9.5369396586
 30
0.0
 10
8.3610006584
 20
9.5210920747
 30
0.0
 10
8.3589930175
 20
9.505335795
 30
0.0
 10
8.3558302023
 20
9.4844999211
 30
0.0
 10
8.3529516875
 20
9.4689805555
 30
0.0
 10
8.3508514992
 20
9.4586917761
 30
0.0
  0
SPLINE
  5
543
100
AcDbEntity
  8
0
100
AcDbSpline
 62
7
  6
CONTINUOUS
 70
0
 71
3
 72
23
 73
19
 74
0
 42
0.0000001
 43
0.0000001
 44
0.0000000001
 40
0.0
 40
0.0
 40
0.0
 40
0.0
 40
0.0552201911
 40
0.110674922
 40
0.1665928576
 40
0.2231878102
 40
0.2806566476
 40
0.3391704941
 40
0.3988757599
 40
0.4598905855
 40
0.5223036024
 40
0.5861759161
 40
0.651533691
 40
0.7183810661
 40
0.7867062799
 40
0.856480444
 40
0.9276248886
 40
1.0
 40
1.0
 40
1.0
 40
1.0
 10
8.0887390631
 20
9.319343146
 30
0.0
 10
8.084641635
 20
9.3193430086
 30
0.0
 10
8.0764243217
 20
9.3197233596
 30
0.0
 10
8.064165022
 20
9.3214336926
 30
0.0
 10
8.05201261
 20
9.3242770357
 30
0.0
 10
8.0400205642
 20
9.328237788
 30
0.0
 10
8.0282416958
 20
9.3333014117
 30
0.0
 10
8.0167252916
 20
9.3394416322
 30
0.0
 10
8.0055216261
 20
9.3466335254
 30
0.0
 10
7.9946779071
 20
9.3548445519
 30
0.0
 10
7.9842394095
 20
9.3640385395
 30
0.0
 10
7.9742521276
 20
9.3741771179
 30
0.0
 10
7.9647558049
 20
9.3852137603
 30
0.0
 10
7.9557926345
 20
9.3971032695
 30
0.0
 10
7.9473983115
 20
9.4097949857
 30
0.0
 10
7.9396092371
 20
9.423236242
 30
0.0
 10
7.9324603153
 20
9.4373651245
 30
0.0
 10
7.9281749818
 20
9.4471208309
 30
0.0
 10
7.9261451799
 20
9.4520928099
 30
0.0
  0
SPLINE
  5
544
100
AcDbEntity
  8
0
100
AcDbSpline
 62
7
  6
CONTINUOUS
 70
0
 71
3
 72
17
 73
13
 74
0
 42
0.0000001
 43
0.0000001
 44
0.0000000001
 40
0.0
 40
0.0
 40
0.0
 40
0.0
 40
0.1017425249
 40
0.1548461302
 40
0.209613801
 40
0.2661567982
 40
0.3245601342
 40
0.4470629342
 40
0.5769109825
 40
0.7131974175
 40
0.8546503286
 40
1.0
 40
1.0
 40
1.0
 40
1.0
 10
8.3508514992
 20
9.4586917761
 30
0.0
 10
8.3465517421
 20
9.4534256707
 30
0.0
 10
8.3398208802
 20
9.4455605363
 30
0.0
 10
8.3303268539
 20
9.4352611441
 30
0.0
 10
8.3226741272
 20
9.4273767715
 30
0.0
 10
8.3145637685
 20
9.4194485041
 30
0.0
 10
8.3029282393
 20
9.4086590582
 30
0.0
 10
8.2871466503
 20
9.3951488666
 30
0.0
 10
8.2666258397
 20
9.3792202293
 30
0.0
 10
8.2444388134
 20
9.3634137548
 30
0.0
 10
8.2208756256
 20
9.3477850074
 30
0.0
 10
8.2046314091
 20
9.3376128649
 30
0.0
 10
8.1963486675
 20
9.3325407423
 30
0.0
  0
SPLINE
  5
545
100
AcDbEntity
  8
0
100
AcDbSpline
 62
7
  6
CONTINUOUS
 70
0
 71
3
 72
12
 73
8
 74
0
 42
0.0000001
 43
0.0000001
 44
0.0000000001
 40
0.0
 40
0.0
 40
0.0
 40
0.0
 40
0.2548331181
 40
0.5055593934
 40
0.7534570324
 40
0.8768193344
 40
1.0
 40
1.0
 40
1.0
 40
1.0
 10
8.1667958056
 20
9.3318099471
 30
0.0
 10
8.1622538455
 20
9.3297690669
 30
0.0
 10
8.1530358374
 20
9.3261615397
 30
0.0
 10
8.138819933
 20
9.3222368225
 30
0.0
 10
8.1268016901
 20
9.3202612765
 30
0.0
 10
8.1171688054
 20
9.3194739267
 30
0.0
 10
8.1123502045
 20
9.3193430637
 30
0.0
 10
8.109943265
 20
9.319343146
 30
0.0
  0
SPLINE
  5
546
100
AcDbEntity
  8
0
100
AcDbSpline
 62
7
  6
CONTINUOUS
 70
0
 71
3
 72
12
 73
8
 74
0
 42
0.0000001
 43
0.0000001
 44
0.0000000001
 40
0.0
 40
0.0
 40
0.0
 40
0.0
 40
0.2548611765
 40
0.5055935993
 40
0.6298518386
 40
0.7535681839
 40
1.0
 40
1.0
 40
1.0
 40
1.0
 10
8.166969517
 20
9.8377975443
 30
0.0
 10
8.1624150256
 20
9.8398512816
 30
0.0
 10
8.1531709364
 20
9.8434806403
 30
0.0
 10
8.1412487051
 20
9.8467824294
 30
0.0
 10
8.1316439522
 20
9.848629522
 30
0.0
 10
8.1220382789
 20
9.8499448047
 30
0.0
 10
8.1147741431
 20
9.8503423085
 30
0.0
 10
8.109943265
 20
9.8503424738
 30
0.0
  0
SPLINE
  5
547
100
AcDbEntity
  8
0
100
AcDbSpline
 62
7
  6
CONTINUOUS
 70
0
 71
3
 72
21
 73
17
 74
0
 42
0.0000001
 43
0.0000001
 44
0.0000000001
 40
0.0
 40
0.0
 40
0.0
 40
0.0
 40
0.1239113141
 40
0.1861867064
 40
0.2486629406
 40
0.3113187116
 40
0.3741233319
 40
0.4370338648
 40
0.5
 40
0.5629661352
 40
0.6258766681
 40
0.6886812884
 40
0.7513370594
 40
0.8138132936
 40
0.8760886859
 40
1.0
 40
1.0
 40
1.0
 40
1.0
 10
8.0418458358
 20
9.4586917761
 30
0.0
 10
8.0439460241
 20
9.4689805555
 30
0.0
 10
8.0468245389
 20
9.4844999211
 30
0.0
 10
8.0499873541
 20
9.505335795
 30
0.0
 10
8.0519949951
 20
9.5210920747
 30
0.0
 10
8.0536002221
 20
9.5369396586
 30
0.0
 10
8.054771928
 20
9.552862345
 30
0.0
 10
8.0554853733
 20
9.5688386221
 30
0.0
 10
8.0557255569
 20
9.5848428099
 30
0.0
 10
8.0554853733
 20
9.6008469977
 30
0.0
 10
8.054771928
 20
9.6168232748
 30
0.0
 10
8.0536002221
 20
9.6327459613
 30
0.0
 10
8.0519949951
 20
9.6485935452
 30
0.0
 10
8.0499873541
 20
9.6643498248
 30
0.0
 10
8.0468245389
 20
9.6851856987
 30
0.0
 10
8.0439460241
 20
9.7007050643
 30
0.0
 10
8.0418458358
 20
9.7109938437
 30
0.0
  0
SPLINE
  5
548
100
AcDbEntity
  8
0
100
AcDbSpline
 62
7
  6
CONTINUOUS
 70
0
 71
3
 72
15
 73
11
 74
0
 42
0.0000001
 43
0.0000001
 44
0.0000000001
 40
0.0
 40
0.0
 40
0.0
 40
0.0
 40
0.1350418497
 40
0.2678181341
 40
0.39787093
 40
0.5248074749
 40
0.6483951003
 40
0.7686251307
 40
0.8857070957
 40
1.0
 40
1.0
 40
1.0
 40
1.0
 10
7.9579410283
 20
9.7109938437
 30
0.0
 10
7.9652797758
 20
9.7161831219
 30
0.0
 10
7.9797744514
 20
9.7265595325
 30
0.0
 10
8.001081675
 20
9.7422861456
 30
0.0
 10
8.0216822889
 20
9.7580557564
 30
0.0
 10
8.0414822979
 20
9.7738571764
 30
0.0
 10
8.060427405
 20
9.7896723695
 30
0.0
 10
8.0785171082
 20
9.8054791093
 30
0.0
 10
8.0958033264
 20
9.8212562816
 30
0.0
 10
8.1069724266
 20
9.8318598788
 30
0.0
 10
8.11244386
 20
9.8371448776
 30
0.0
  0
SPLINE
  5
549
100
AcDbEntity
  8
0
100
AcDbSpline
 62
7
  6
CONTINUOUS
 70
0
 71
3
 72
9
 73
5
 74
0
 42
0.0000001
 43
0.0000001
 44
0.0000000001
 40
0.0
 40
0.0
 40
0.0
 40
0.0
 40
0.5063930195
 40
1.0
 40
1.0
 40
1.0
 40
1.0
 10
8.0418458358
 20
9.7109938437
 30
0.0
 10
8.049765142
 20
9.7158434086
 30
0.0
 10
8.0653127632
 20
9.7255699722
 30
0.0
 10
8.0806159533
 20
9.7356792749
 30
0.0
 10
8.0880882744
 20
9.7407879356
 30
0.0
  0
SPLINE
  5
54A
100
AcDbEntity
  8
0
100
AcDbSpline
 62
7
  6
CONTINUOUS
 70
0
 71
3
 72
15
 73
11
 74
0
 42
0.0000001
 43
0.0000001
 44
0.0000000001
 40
0.0
 40
0.0
 40
0.0
 40
0.0
 40
0.1442297581
 40
0.28362984
 40
0.4175078561
 40
0.5454197819
 40
0.6672646174
 40
0.7832850188
 40
0.8939835076
 40
1.0
 40
1.0
 40
1.0
 40
1.0
 10
8.0880882744
 20
9.7407879356
 30
0.0
 10
8.0938608826
 20
9.7447345402
 30
0.0
 10
8.105118058
 20
9.7526357914
 30
0.0
 10
8.1213400502
 20
9.7647488848
 30
0.0
 10
8.1365278835
 20
9.776907655
 30
0.0
 10
8.1506085038
 20
9.7890676863
 30
0.0
 10
8.1635651088
 20
9.8011835903
 30
0.0
 10
8.1754375986
 20
9.8132166192
 30
0.0
 10
8.1863100003
 20
9.8251397386
 30
0.0
 10
8.1930978156
 20
9.8331634134
 30
0.0
 10
8.1963486675
 20
9.8371448776
 30
0.0
  0
SPLINE
  5
54B
100
AcDbEntity
  8
0
100
AcDbSpline
 62
7
  6
CONTINUOUS
 70
0
 71
3
 72
34
 73
30
 74
0
 42
0.0000001
 43
0.0000001
 44
0.0000000001
 40
0.0
 40
0.0
 40
0.0
 40
0.0
 40
0.0248126921
 40
0.0498797089
 40
0.0752825885
 40
0.1010938244
 40
0.1273775423
 40
0.1541864233
 40
0.1815627024
 40
0.2095381377
 40
0.2381322962
 40
0.267355893
 40
0.2972084004
 40
0.3276802707
 40
0.3587540644
 40
0.3904029271
 40
0.422594281
 40
0.4552881978
 40
0.5219778393
 40
0.5900724158
 40
0.6245074843
 40
0.659110649
 40
0.6938168972
 40
0.7285601554
 40
0.7978747161
 40
0.8665380974
 40
0.9340676853
 40
0.9672711789
 40
1.0
 40
1.0
 40
1.0
 40
1.0
 10
8.0891076453
 20
9.848702255
 30
0.0
 10
8.0852391855
 20
9.8480912046
 30
0.0
 10
8.0775120132
 20
9.846524147
 30
0.0
 10
8.0660971146
 20
9.8431754507
 30
0.0
 10
8.0548530398
 20
9.8388319266
 30
0.0
 10
8.0438232919
 20
9.8335135092
 30
0.0
 10
8.0330514108
 20
9.8272384322
 30
0.0
 10
8.022577369
 20
9.8200339479
 30
0.0
 10
8.0124414124
 20
9.8119273916
 30
0.0
 10
8.0026828833
 20
9.8029496535
 30
0.0
 10
7.9933369332
 20
9.7931372945
 30
0.0
 10
7.9844411634
 20
9.7825261708
 30
0.0
 10
7.9760276883
 20
9.7711585469
 30
0.0
 10
7.9681286408
 20
9.759077706
 30
0.0
 10
7.9607752452
 20
9.746329315
 30
0.0
 10
7.9539931963
 20
9.7329634649
 30
0.0
 10
7.947810484
 20
9.7190298502
 30
0.0
 10
7.9403471299
 20
9.6996417067
 30
0.0
 10
7.9326756066
 20
9.6742998102
 30
0.0
 10
7.9273264189
 20
9.6480919147
 30
0.0
 10
7.9244258108
 20
9.6266362487
 30
0.0
 10
7.9229520984
 20
9.6103221829
 30
0.0
 10
7.9221962488
 20
9.5939104856
 30
0.0
 10
7.9221463028
 20
9.5720024347
 30
0.0
 10
7.9238749635
 20
9.5447564295
 30
0.0
 10
7.9287817435
 20
9.5126512552
 30
0.0
 10
7.93521065
 20
9.4866542803
 30
0.0
 10
7.9417155561
 20
9.4666115211
 30
0.0
 10
7.9454058567
 20
9.4568755039
 30
0.0
 10
7.9473583833
 20
9.4520928099
 30
0.0
  0
SPLINE
  5
54C
100
AcDbEntity
  8
0
100
AcDbSpline
 62
7
  6
CONTINUOUS
 70
0
 71
3
 72
50
 73
46
 74
0
 42
0.0000001
 43
0.0000001
 44
0.0000000001
 40
0.0
 40
0.0
 40
0.0
 40
0.0
 40
0.0335593411
 40
0.0662064547
 40
0.09784588
 40
0.1132821976
 40
0.1284582097
 40
0.1580236386
 40
0.1865900763
 40
0.2005296522
 40
0.214255553
 40
0.2277855249
 40
0.2411397528
 40
0.2543414387
 40
0.2674158975
 40
0.2803902603
 40
0.2932935579
 40
0.3061558131
 40
0.3190077183
 40
0.3318802764
 40
0.34480396
 40
0.357808549
 40
0.3709225009
 40
0.3841723031
 40
0.3975826651
 40
0.4249583038
 40
0.4532086807
 40
0.4824339765
 40
0.4974362833
 40
0.5126991777
 40
0.5439972826
 40
0.5763103855
 40
0.5928332986
 40
0.6095840112
 40
0.6437116788
 40
0.6785833346
 40
0.7140616842
 40
0.749993104
 40
0.7862127593
 40
0.8225488219
 40
0.8588271786
 40
0.8948729581
 40
0.9305179753
 40
0.9656157344
 40
1.0
 40
1.0
 40
1.0
 40
1.0
 10
8.3438496189
 20
9.4758428099
 30
0.0
 10
8.3413604353
 20
9.4697455802
 30
0.0
 10
8.335975619
 20
9.4579028661
 30
0.0
 10
8.3265901103
 20
9.4411264436
 30
0.0
 10
8.3177598822
 20
9.4281821778
 30
0.0
 10
8.3101693864
 20
9.4186045923
 30
0.0
 10
8.3023883681
 20
9.4097156752
 30
0.0
 10
8.2921066954
 20
9.3996145164
 30
0.0
 10
8.2809776549
 20
9.3908338326
 30
0.0
 10
8.2717434869
 20
9.384781836
 30
0.0
 10
8.2647242166
 20
9.3807608106
 30
0.0
 10
8.2575733399
 20
9.3772310677
 30
0.0
 10
8.250307286
 20
9.3742024102
 30
0.0
 10
8.2429440348
 20
9.3716817402
 30
0.0
 10
8.2355015173
 20
9.3696746848
 30
0.0
 10
8.227997461
 20
9.3681875838
 30
0.0
 10
8.2204503664
 20
9.3672235643
 30
0.0
 10
8.2128786418
 20
9.3667843058
 30
0.0
 10
8.2053006965
 20
9.3668722682
 30
0.0
 10
8.1977351543
 20
9.3674866992
 30
0.0
 10
8.1902003363
 20
9.3686252166
 30
0.0
 10
8.182714768
 20
9.3702862518
 30
0.0
 10
8.1752967609
 20
9.3724651758
 30
0.0
 10
8.1679636997
 20
9.3751558608
 30
0.0
 10
8.1582596853
 20
9.3794465229
 30
0.0
 10
8.1464123062
 20
9.3860949691
 30
0.0
 10
8.1329312394
 20
9.3959281618
 30
0.0
 10
8.1224169346
 20
9.4055506078
 30
0.0
 10
8.1144346355
 20
9.4140753203
 30
0.0
 10
8.1066247649
 20
9.4232989098
 30
0.0
 10
8.0974986918
 20
9.4358309921
 30
0.0
 10
8.0894154873
 20
9.4493446593
 30
0.0
 10
8.0835202779
 20
9.4607896255
 30
0.0
 10
8.0779531007
 20
9.4727916027
 30
0.0
 10
8.0718065066
 20
9.4884770995
 30
0.0
 10
8.0658059827
 20
9.5081019235
 30
0.0
 10
8.0611922893
 20
9.5284611547
 30
0.0
 10
8.0580087812
 20
9.5493591348
 30
0.0
 10
8.0562850295
 20
9.5705963357
 30
0.0
 10
8.056038467
 20
9.5919698673
 30
0.0
 10
8.0572710603
 20
9.6132751627
 30
0.0
 10
8.0599701672
 20
9.6343082202
 30
0.0
 10
8.0641115545
 20
9.6548701712
 30
0.0
 10
8.0696560533
 20
9.6747601065
 30
0.0
 10
8.0743048666
 20
9.6875957038
 30
0.0
 10
8.076855237
 20
9.6938428099
 30
0.0
  0
SPLINE
  5
54D
100
AcDbEntity
  8
0
100
AcDbSpline
 62
7
  6
CONTINUOUS
 70
0
 71
3
 72
21
 73
17
 74
0
 42
0.0000001
 43
0.0000001
 44
0.0000000001
 40
0.0
 40
0.0
 40
0.0
 40
0.0
 40
0.0549806743
 40
0.110482624
 40
0.1666678499
 40
0.2236839352
 40
0.2816589194
 40
0.3407043432
 40
0.4009104577
 40
0.4623469466
 40
0.5250651098
 40
0.5890902062
 40
0.7210276426
 40
0.8581362747
 40
0.9285322553
 40
1.0
 40
1.0
 40
1.0
 40
1.0
 10
8.0891871138
 20
9.3209704739
 30
0.0
 10
8.0855345779
 20
9.3215451459
 30
0.0
 10
8.0782390513
 20
9.323002547
 30
0.0
 10
8.0674490227
 20
9.3260778275
 30
0.0
 10
8.0568060957
 20
9.3300413324
 30
0.0
 10
8.046348315
 20
9.3348790899
 30
0.0
 10
8.0361101695
 20
9.3405718945
 30
0.0
 10
8.0261279821
 20
9.3471020358
 30
0.0
 10
8.0164349374
 20
9.3544453998
 30
0.0
 10
8.0070634893
 20
9.3625761924
 30
0.0
 10
7.9980468807
 20
9.3714681773
 30
0.0
 10
7.9864219041
 20
9.3844223474
 30
0.0
 10
7.97296682
 20
9.4023945391
 30
0.0
 10
7.9613165553
 20
9.4220753989
 30
0.0
 10
7.9529896205
 20
9.4388935504
 30
0.0
 10
7.9491749668
 20
9.4476431073
 30
0.0
 10
7.9473583833
 20
9.4520928099
 30
0.0
  0
SPLINE
  5
54E
100
AcDbEntity
  8
0
100
AcDbSpline
 62
7
  6
CONTINUOUS
 70
0
 71
3
 72
15
 73
11
 74
0
 42
0.0000001
 43
0.0000001
 44
0.0000000001
 40
0.0
 40
0.0
 40
0.0
 40
0.0
 40
0.1142929029
 40
0.2313748769
 40
0.3516049135
 40
0.4751925433
 40
0.6021290974
 40
0.7321819093
 40
0.8649581884
 40
1.0
 40
1.0
 40
1.0
 40
1.0
 10
8.11244386
 20
9.3325407423
 30
0.0
 10
8.1069724267
 20
9.337825741
 30
0.0
 10
8.0958033261
 20
9.3484293385
 30
0.0
 10
8.0785171073
 20
9.3642065115
 30
0.0
 10
8.0604274031
 20
9.3800132521
 30
0.0
 10
8.0414822949
 20
9.3958284459
 30
0.0
 10
8.0216822841
 20
9.4116298669
 30
0.0
 10
8.0010816691
 20
9.4273994785
 30
0.0
 10
7.9797744467
 20
9.4431260901
 30
0.0
 10
7.9652797737
 20
9.4535024994
 30
0.0
 10
7.9579410283
 20
9.4586917761
 30
0.0
  0
SPLINE
  5
54F
100
AcDbEntity
  8
0
100
AcDbSpline
 62
7
  6
CONTINUOUS
 70
0
 71
3
 72
15
 73
11
 74
0
 42
0.0000001
 43
0.0000001
 44
0.0000000001
 40
0.0
 40
0.0
 40
0.0
 40
0.0
 40
0.1053465837
 40
0.2155703502
 40
0.3313557471
 40
0.4532196958
 40
0.5813719614
 40
0.7156288081
 40
0.8554364068
 40
1.0
 40
1.0
 40
1.0
 40
1.0
 10
8.1963486675
 20
9.3325407423
 30
0.0
 10
8.1929550408
 20
9.3366970692
 30
0.0
 10
8.1858551011
 20
9.3450766079
 30
0.0
 10
8.1744489896
 20
9.3575224252
 30
0.0
 10
8.1619460124
 20
9.3700849401
 30
0.0
 10
8.1482559402
 20
9.3827314601
 30
0.0
 10
8.1333431039
 20
9.3954163066
 30
0.0
 10
8.1172395014
 20
9.4080878139
 30
0.0
 10
8.1000408273
 20
9.42069773
 30
0.0
 10
8.088112582
 20
9.4289179297
 30
0.0
 10
8.081999596
 20
9.4330227564
 30
0.0
  0
LINE
  5
550
100
AcDbEntity
  8
0
100
AcDbLine
 62
7
  6
CONTINUOUS
 10
8.081999596
 20
9.4330227564
 11
8.0810790727
 21
9.4336400722
  0
SPLINE
  5
551
100
AcDbEntity
  8
0
100
AcDbSpline
 62
7
  6
CONTINUOUS
 70
0
 71
3
 72
9
 73
5
 74
0
 42
0.0000001
 43
0.0000001
 44
0.0000000001
 40
0.0
 40
0.0
 40
0.0
 40
0.0
 40
0.4948890586
 40
1.0
 40
1.0
 40
1.0
 40
1.0
 10
8.0810790727
 20
9.4336400722
 30
0.0
 10
8.074698568
 20
9.4379133432
 30
0.0
 10
8.0616979242
 20
9.4463877146
 30
0.0
 10
8.0485300344
 20
9.4545985571
 30
0.0
 10
8.0418458358
 20
9.4586917761
 30
0.0
  0
SPLINE
  5
552
100
AcDbEntity
  8
0
100
AcDbSpline
 62
7
  6
CONTINUOUS
 70
0
 71
3
 72
50
 73
46
 74
0
 42
0.0000001
 43
0.0000001
 44
0.0000000001
 40
0.0
 40
0.0
 40
0.0
 40
0.0
 40
0.0335593411
 40
0.0662064547
 40
0.09784588
 40
0.1132821976
 40
0.1284582097
 40
0.1580236386
 40
0.1865900763
 40
0.2005296522
 40
0.214255553
 40
0.2277855249
 40
0.2411397528
 40
0.2543414387
 40
0.2674158975
 40
0.2803902603
 40
0.2932935579
 40
0.3061558131
 40
0.3190077183
 40
0.3318802764
 40
0.34480396
 40
0.357808549
 40
0.3709225009
 40
0.3841723031
 40
0.3975826651
 40
0.4249583038
 40
0.4532086807
 40
0.4824339765
 40
0.4974362833
 40
0.5126991777
 40
0.5439972826
 40
0.5763103855
 40
0.5928332986
 40
0.6095840112
 40
0.6437116788
 40
0.6785833346
 40
0.7140616842
 40
0.749993104
 40
0.7862127593
 40
0.8225488219
 40
0.8588271786
 40
0.8948729581
 40
0.9305179753
 40
0.9656157344
 40
1.0
 40
1.0
 40
1.0
 40
1.0
 10
8.076855237
 20
9.6938428099
 30
0.0
 10
8.0793444206
 20
9.6999400396
 30
0.0
 10
8.0847292369
 20
9.7117827537
 30
0.0
 10
8.0941147456
 20
9.7285591762
 30
0.0
 10
8.1029449737
 20
9.741503442
 30
0.0
 10
8.1105354695
 20
9.7510810275
 30
0.0
 10
8.1183164878
 20
9.7599699446
 30
0.0
 10
8.1285981605
 20
9.7700711034
 30
0.0
 10
8.139727201
 20
9.7788517873
 30
0.0
 10
8.148961369
 20
9.7849037838
 30
0.0
 10
8.1559806393
 20
9.7889248093
 30
0.0
 10
8.163131516
 20
9.7924545521
 30
0.0
 10
8.1703975698
 20
9.7954832096
 30
0.0
 10
8.1777608211
 20
9.7980038796
 30
0.0
 10
8.1852033386
 20
9.8000109351
 30
0.0
 10
8.1927073949
 20
9.801498036
 30
0.0
 10
8.2002544895
 20
9.8024620556
 30
0.0
 10
8.2078262141
 20
9.802901314
 30
0.0
 10
8.2154041594
 20
9.8028133516
 30
0.0
 10
8.2229697016
 20
9.8021989207
 30
0.0
 10
8.2305045196
 20
9.8010604032
 30
0.0
 10
8.2379900879
 20
9.799399368
 30
0.0
 10
8.245408095
 20
9.797220444
 30
0.0
 10
8.2527411562
 20
9.794529759
 30
0.0
 10
8.2624451706
 20
9.7902390969
 30
0.0
 10
8.2742925497
 20
9.7835906507
 30
0.0
 10
8.2877736165
 20
9.7737574581
 30
0.0
 10
8.2982879212
 20
9.7641350121
 30
0.0
 10
8.3062702204
 20
9.7556102996
 30
0.0
 10
8.314080091
 20
9.74638671
 30
0.0
 10
8.3232061641
 20
9.7338546278
 30
0.0
 10
8.3312893686
 20
9.7203409605
 30
0.0
 10
8.337184578
 20
9.7088959943
 30
0.0
 10
8.3427517552
 20
9.6968940172
 30
0.0
 10
8.3488983493
 20
9.6812085204
 30
0.0
 10
8.3548988732
 20
9.6615836963
 30
0.0
 10
8.3595125666
 20
9.6412244651
 30
0.0
 10
8.3626960747
 20
9.6203264851
 30
0.0
 10
8.3644198264
 20
9.5990892841
 30
0.0
 10
8.3646663889
 20
9.5777157525
 30
0.0
 10
8.3634337956
 20
9.5564104571
 30
0.0
 10
8.3607346887
 20
9.5353773997
 30
0.0
 10
8.3565933014
 20
9.5148154486
 30
0.0
 10
8.3510488026
 20
9.4949255133
 30
0.0
 10
8.3463999893
 20
9.482089916
 30
0.0
 10
8.3438496189
 20
9.4758428099
 30
0.0
  0
SPLINE
  5
553
100
AcDbEntity
  8
0
100
AcDbSpline
 62
7
  6
CONTINUOUS
 70
0
 71
3
 72
15
 73
11
 74
0
 42
0.0000001
 43
0.0000001
 44
0.0000000001
 40
0.0
 40
0.0
 40
0.0
 40
0.0
 40
0.1247548064
 40
0.2497027523
 40
0.3748070069
 40
0.4999999975
 40
0.6251929827
 40
0.7502972276
 40
0.8752451699
 40
1.0
 40
1.0
 40
1.0
 40
1.0
 10
7.9579410283
 20
9.4586917761
 30
0.0
 10
7.9589321752
 20
9.469154158
 30
0.0
 10
7.9607327675
 20
9.4901131634
 30
0.0
 10
7.962775359
 20
9.5216230306
 30
0.0
 10
7.9640546109
 20
9.553210921
 30
0.0
 10
7.9644909388
 20
9.5848428088
 30
0.0
 10
7.9640546111
 20
9.6164746959
 30
0.0
 10
7.9627753593
 20
9.6480625847
 30
0.0
 10
7.9607327685
 20
9.6795724528
 30
0.0
 10
7.9589321754
 20
9.7005314599
 30
0.0
 10
7.9579410283
 20
9.7109938437
 30
0.0
  0
SPLINE
  5
554
100
AcDbEntity
  8
0
100
AcDbSpline
 62
7
  6
CONTINUOUS
 70
0
 71
3
 72
9
 73
5
 74
0
 42
0.0000001
 43
0.0000001
 44
0.0000000001
 40
0.0
 40
0.0
 40
0.0
 40
0.0
 40
0.4872990191
 40
1.0
 40
1.0
 40
1.0
 40
1.0
 10
4.8940034524
 20
1.3688766029
 30
0.0
 10
4.8873820427
 20
1.3704071992
 30
0.0
 10
4.8741614505
 20
1.3753151418
 30
0.0
 10
4.862436665
 20
1.3830861103
 30
0.0
 10
4.8568985182
 20
1.3876088723
 30
0.0
  0
SPLINE
  5
555
100
AcDbEntity
  8
0
100
AcDbSpline
 62
7
  6
CONTINUOUS
 70
0
 71
3
 72
12
 73
8
 74
0
 42
0.0000001
 43
0.0000001
 44
0.0000000001
 40
0.0
 40
0.0
 40
0.0
 40
0.0
 40
0.2243647128
 40
0.4688818359
 40
0.5978818351
 40
0.7303074416
 40
1.0
 40
1.0
 40
1.0
 40
1.0
 10
4.8568985182
 20
1.3876088723
 30
0.0
 10
4.8482495853
 20
1.3946720772
 30
0.0
 10
4.8324223503
 20
1.4122771968
 30
0.0
 10
4.8183558657
 20
1.4387723626
 30
0.0
 10
4.8100787346
 20
1.4625932388
 30
0.0
 10
4.8039472688
 20
1.4883390748
 30
0.0
 10
4.8020977426
 20
1.5084202523
 30
0.0
 10
4.8020977426
 20
1.5218428099
 30
0.0
  0
SPLINE
  5
556
100
AcDbEntity
  8
0
100
AcDbSpline
 62
7
  6
CONTINUOUS
 70
0
 71
3
 72
9
 73
5
 74
0
 42
0.0000001
 43
0.0000001
 44
0.0000000001
 40
0.0
 40
0.0
 40
0.0
 40
0.0
 40
0.4872990191
 40
1.0
 40
1.0
 40
1.0
 40
1.0
 10
11.6115178737
 20
1.3688766029
 30
0.0
 10
11.604896464
 20
1.3704071992
 30
0.0
 10
11.5916758718
 20
1.3753151418
 30
0.0
 10
11.5799510862
 20
1.3830861103
 30
0.0
 10
11.5744129394
 20
1.3876088723
 30
0.0
  0
SPLINE
  5
557
100
AcDbEntity
  8
0
100
AcDbSpline
 62
7
  6
CONTINUOUS
 70
0
 71
3
 72
12
 73
8
 74
0
 42
0.0000001
 43
0.0000001
 44
0.0000000001
 40
0.0
 40
0.0
 40
0.0
 40
0.0
 40
0.2243647128
 40
0.4688818359
 40
0.5978818351
 40
0.7303074416
 40
1.0
 40
1.0
 40
1.0
 40
1.0
 10
11.5744129394
 20
1.3876088723
 30
0.0
 10
11.5657640066
 20
1.3946720772
 30
0.0
 10
11.5499367716
 20
1.4122771968
 30
0.0
 10
11.535870287
 20
1.4387723626
 30
0.0
 10
11.5275931559
 20
1.4625932388
 30
0.0
 10
11.52146169
 20
1.4883390748
 30
0.0
 10
11.5196121639
 20
1.5084202523
 30
0.0
 10
11.5196121639
 20
1.5218428099
 30
0.0
  0
SPLINE
  5
558
100
AcDbEntity
  8
0
100
AcDbSpline
 62
7
  6
CONTINUOUS
 70
0
 71
3
 72
9
 73
5
 74
0
 42
0.0000001
 43
0.0000001
 44
0.0000000001
 40
0.0
 40
0.0
 40
0.0
 40
0.0
 40
0.4872990191
 40
1.0
 40
1.0
 40
1.0
 40
1.0
 10
-1.9295406425
 20
1.3688766029
 30
0.0
 10
-1.9229192328
 20
1.3704071992
 30
0.0
 10
-1.9096986406
 20
1.3753151418
 30
0.0
 10
-1.897973855
 20
1.3830861103
 30
0.0
 10
-1.8924357083
 20
1.3876088723
 30
0.0
  0
SPLINE
  5
559
100
AcDbEntity
  8
0
100
AcDbSpline
 62
7
  6
CONTINUOUS
 70
0
 71
3
 72
12
 73
8
 74
0
 42
0.0000001
 43
0.0000001
 44
0.0000000001
 40
0.0
 40
0.0
 40
0.0
 40
0.0
 40
0.2243647128
 40
0.4688818359
 40
0.5978818351
 40
0.7303074416
 40
1.0
 40
1.0
 40
1.0
 40
1.0
 10
-1.8924357083
 20
1.3876088723
 30
0.0
 10
-1.8837867754
 20
1.3946720772
 30
0.0
 10
-1.8679595404
 20
1.4122771968
 30
0.0
 10
-1.8538930558
 20
1.4387723626
 30
0.0
 10
-1.8456159247
 20
1.4625932388
 30
0.0
 10
-1.8394844588
 20
1.4883390748
 30
0.0
 10
-1.8376349327
 20
1.5084202523
 30
0.0
 10
-1.8376349327
 20
1.5218428099
 30
0.0
  0
SPLINE
  5
55A
100
AcDbEntity
  8
0
100
AcDbSpline
 62
7
  6
CONTINUOUS
 70
0
 71
3
 72
15
 73
11
 74
0
 42
0.0000001
 43
0.0000001
 44
0.0000000001
 40
0.0
 40
0.0
 40
0.0
 40
0.0
 40
0.1417744878
 40
0.2818679712
 40
0.4176886492
 40
0.5476871055
 40
0.6708748172
 40
0.7868700446
 40
0.8960804113
 40
1.0
 40
1.0
 40
1.0
 40
1.0
 10
-8.555149354
 20
1.5218428099
 30
0.0
 10
-8.555149354
 20
1.5308172922
 30
0.0
 10
-8.5562617014
 20
1.5486781136
 30
0.0
 10
-8.5611340201
 20
1.5747342622
 30
0.0
 10
-8.5691517801
 20
1.5992290695
 30
0.0
 10
-8.5800317185
 20
1.6214187532
 30
0.0
 10
-8.5935045331
 20
1.6406392656
 30
0.0
 10
-8.6091629691
 20
1.6563512601
 30
0.0
 10
-8.6266118595
 20
1.6679964159
 30
0.0
 10
-8.6393359555
 20
1.6728966598
 30
0.0
 10
-8.6457187955
 20
1.6744880116
 30
0.0
  0
SPLINE
  5
55B
100
AcDbEntity
  8
0
100
AcDbSpline
 62
7
  6
CONTINUOUS
 70
0
 71
3
 72
15
 73
11
 74
0
 42
0.0000001
 43
0.0000001
 44
0.0000000001
 40
0.0
 40
0.0
 40
0.0
 40
0.0
 40
0.1417744878
 40
0.2818679712
 40
0.4176886492
 40
0.5476871055
 40
0.6708748172
 40
0.7868700446
 40
0.8960804113
 40
1.0
 40
1.0
 40
1.0
 40
1.0
 10
-1.8376349327
 20
1.5218428099
 30
0.0
 10
-1.8376349327
 20
1.5308172922
 30
0.0
 10
-1.8387472801
 20
1.5486781136
 30
0.0
 10
-1.8436195988
 20
1.5747342622
 30
0.0
 10
-1.8516373589
 20
1.5992290695
 30
0.0
 10
-1.8625172972
 20
1.6214187532
 30
0.0
 10
-1.8759901119
 20
1.6406392656
 30
0.0
 10
-1.8916485478
 20
1.6563512601
 30
0.0
 10
-1.9090974382
 20
1.6679964159
 30
0.0
 10
-1.9218215342
 20
1.6728966598
 30
0.0
 10
-1.9282043742
 20
1.6744880116
 30
0.0
  0
SPLINE
  5
55C
100
AcDbEntity
  8
0
100
AcDbSpline
 62
7
  6
CONTINUOUS
 70
0
 71
3
 72
9
 73
5
 74
0
 42
0.0000001
 43
0.0000001
 44
0.0000000001
 40
0.0
 40
0.0
 40
0.0
 40
0.0
 40
0.4872990191
 40
1.0
 40
1.0
 40
1.0
 40
1.0
 10
-8.6470550638
 20
1.3688766029
 30
0.0
 10
-8.6404336541
 20
1.3704071992
 30
0.0
 10
-8.6272130619
 20
1.3753151418
 30
0.0
 10
-8.6154882763
 20
1.3830861103
 30
0.0
 10
-8.6099501295
 20
1.3876088723
 30
0.0
  0
SPLINE
  5
55D
100
AcDbEntity
  8
0
100
AcDbSpline
 62
7
  6
CONTINUOUS
 70
0
 71
3
 72
12
 73
8
 74
0
 42
0.0000001
 43
0.0000001
 44
0.0000000001
 40
0.0
 40
0.0
 40
0.0
 40
0.0
 40
0.2243647128
 40
0.4688818359
 40
0.5978818351
 40
0.7303074416
 40
1.0
 40
1.0
 40
1.0
 40
1.0
 10
-8.6099501295
 20
1.3876088723
 30
0.0
 10
-8.6013011967
 20
1.3946720772
 30
0.0
 10
-8.5854739617
 20
1.4122771968
 30
0.0
 10
-8.5714074771
 20
1.4387723626
 30
0.0
 10
-8.563130346
 20
1.4625932388
 30
0.0
 10
-8.5569988801
 20
1.4883390748
 30
0.0
 10
-8.555149354
 20
1.5084202523
 30
0.0
 10
-8.555149354
 20
1.5218428099
 30
0.0
  0
SPLINE
  5
55E
100
AcDbEntity
  8
0
100
AcDbSpline
 62
7
  6
CONTINUOUS
 70
0
 71
3
 72
11
 73
7
 74
0
 42
0.0000001
 43
0.0000001
 44
0.0000000001
 40
0.0
 40
0.0
 40
0.0
 40
0.0
 40
0.2357032677
 40
0.4788585501
 40
0.7327993345
 40
1.0
 40
1.0
 40
1.0
 40
1.0
 10
14.9172602475
 20
2.2718428099
 30
0.0
 10
14.9209683371
 20
2.2718428099
 30
0.0
 10
14.9285248873
 20
2.2709538249
 30
0.0
 10
14.9394915967
 20
2.2671530749
 30
0.0
 10
14.9499129692
 20
2.261008926
 30
0.0
 10
14.9561111431
 20
2.2555649348
 30
0.0
 10
14.9590327941
 20
2.2525426392
 30
0.0
  0
SPLINE
  5
55F
100
AcDbEntity
  8
0
100
AcDbSpline
 62
7
  6
CONTINUOUS
 70
0
 71
3
 72
9
 73
5
 74
0
 42
0.0000001
 43
0.0000001
 44
0.0000000001
 40
0.0
 40
0.0
 40
0.0
 40
0.0
 40
0.2379143984
 40
1.0
 40
1.0
 40
1.0
 40
1.0
 10
14.9590327941
 20
2.2525426392
 30
0.0
 10
14.9610434244
 20
2.250462747
 30
0.0
 10
14.9690050496
 20
2.2412505432
 30
0.0
 10
14.9750096179
 20
2.2304276878
 30
0.0
 10
14.9784974911
 20
2.2218428099
 30
0.0
  0
SPLINE
  5
560
100
AcDbEntity
  8
0
100
AcDbSpline
 62
7
  6
CONTINUOUS
 70
0
 71
3
 72
9
 73
5
 74
0
 42
0.0000001
 43
0.0000001
 44
0.0000000001
 40
0.0
 40
0.0
 40
0.0
 40
0.0
 40
0.4928952326
 40
1.0
 40
1.0
 40
1.0
 40
1.0
 10
14.9784974911
 20
2.2218428099
 30
0.0
 10
14.9812539611
 20
2.2150581716
 30
0.0
 10
14.9855347821
 20
2.2007414639
 30
0.0
 10
14.9874500267
 20
2.1859376855
 30
0.0
 10
14.9878122416
 20
2.1784120659
 30
0.0
  0
SPLINE
  5
561
100
AcDbEntity
  8
0
100
AcDbSpline
 62
7
  6
CONTINUOUS
 70
0
 71
3
 72
11
 73
7
 74
0
 42
0.0000001
 43
0.0000001
 44
0.0000000001
 40
0.0
 40
0.0
 40
0.0
 40
0.0
 40
0.2357032677
 40
0.4788585501
 40
0.7327993345
 40
1.0
 40
1.0
 40
1.0
 40
1.0
 10
-11.9527974376
 20
2.2718428099
 30
0.0
 10
-11.9565055271
 20
2.2718428099
 30
0.0
 10
-11.9640620774
 20
2.2709538249
 30
0.0
 10
-11.9750287868
 20
2.2671530749
 30
0.0
 10
-11.9854501593
 20
2.261008926
 30
0.0
 10
-11.9916483332
 20
2.2555649348
 30
0.0
 10
-11.9945699842
 20
2.2525426392
 30
0.0
  0
SPLINE
  5
562
100
AcDbEntity
  8
0
100
AcDbSpline
 62
7
  6
CONTINUOUS
 70
0
 71
3
 72
9
 73
5
 74
0
 42
0.0000001
 43
0.0000001
 44
0.0000000001
 40
0.0
 40
0.0
 40
0.0
 40
0.0
 40
0.2379143984
 40
1.0
 40
1.0
 40
1.0
 40
1.0
 10
-11.9945699842
 20
2.2525426392
 30
0.0
 10
-11.9965806145
 20
2.250462747
 30
0.0
 10
-12.0045422397
 20
2.2412505432
 30
0.0
 10
-12.0105468079
 20
2.2304276878
 30
0.0
 10
-12.0140346812
 20
2.2218428099
 30
0.0
  0
SPLINE
  5
563
100
AcDbEntity
  8
0
100
AcDbSpline
 62
7
  6
CONTINUOUS
 70
0
 71
3
 72
9
 73
5
 74
0
 42
0.0000001
 43
0.0000001
 44
0.0000000001
 40
0.0
 40
0.0
 40
0.0
 40
0.0
 40
0.4928952326
 40
1.0
 40
1.0
 40
1.0
 40
1.0
 10
-12.0140346812
 20
2.2218428099
 30
0.0
 10
-12.0167911511
 20
2.2150581716
 30
0.0
 10
-12.0210719721
 20
2.2007414639
 30
0.0
 10
-12.0229872168
 20
2.1859376855
 30
0.0
 10
-12.0233494316
 20
2.1784120659
 30
0.0
  0
SPLINE
  5
564
100
AcDbEntity
  8
0
100
AcDbSpline
 62
7
  6
CONTINUOUS
 70
0
 71
3
 72
15
 73
11
 74
0
 42
0.0000001
 43
0.0000001
 44
0.0000000001
 40
0.0
 40
0.0
 40
0.0
 40
0.0
 40
0.1417744878
 40
0.2818679712
 40
0.4176886492
 40
0.5476871055
 40
0.6708748172
 40
0.7868700446
 40
0.8960804113
 40
1.0
 40
1.0
 40
1.0
 40
1.0
 10
11.5196121639
 20
1.5218428099
 30
0.0
 10
11.5196121639
 20
1.5308172922
 30
0.0
 10
11.5207245113
 20
1.5486781136
 30
0.0
 10
11.52559683
 20
1.5747342622
 30
0.0
 10
11.53361459
 20
1.5992290695
 30
0.0
 10
11.5444945284
 20
1.6214187532
 30
0.0
 10
11.5579673431
 20
1.6406392656
 30
0.0
 10
11.573625779
 20
1.6563512601
 30
0.0
 10
11.5910746694
 20
1.6679964159
 30
0.0
 10
11.6037987654
 20
1.6728966598
 30
0.0
 10
11.6101816054
 20
1.6744880116
 30
0.0
  0
SPLINE
  5
565
100
AcDbEntity
  8
0
100
AcDbSpline
 62
7
  6
CONTINUOUS
 70
0
 71
3
 72
15
 73
11
 74
0
 42
0.0000001
 43
0.0000001
 44
0.0000000001
 40
0.0
 40
0.0
 40
0.0
 40
0.0
 40
0.1417744878
 40
0.2818679712
 40
0.4176886492
 40
0.5476871055
 40
0.6708748172
 40
0.7868700446
 40
0.8960804113
 40
1.0
 40
1.0
 40
1.0
 40
1.0
 10
4.8020977426
 20
1.5218428099
 30
0.0
 10
4.8020977426
 20
1.5308172922
 30
0.0
 10
4.80321009
 20
1.5486781136
 30
0.0
 10
4.8080824087
 20
1.5747342622
 30
0.0
 10
4.8161001688
 20
1.5992290695
 30
0.0
 10
4.8269801071
 20
1.6214187532
 30
0.0
 10
4.8404529218
 20
1.6406392656
 30
0.0
 10
4.8561113577
 20
1.6563512601
 30
0.0
 10
4.8735602482
 20
1.6679964159
 30
0.0
 10
4.8862843441
 20
1.6728966598
 30
0.0
 10
4.8926671841
 20
1.6744880116
 30
0.0
  0
SPLINE
  5
566
100
AcDbEntity
  8
0
100
AcDbSpline
 62
7
  6
CONTINUOUS
 70
0
 71
3
 72
13
 73
9
 74
0
 42
0.0000001
 43
0.0000001
 44
0.0000000001
 40
0.0
 40
0.0
 40
0.0
 40
0.0
 40
0.1080831306
 40
0.2199294076
 40
0.3366084614
 40
0.4587925442
 40
0.7194452135
 40
1.0
 40
1.0
 40
1.0
 40
1.0
 10
-1.9662685934
 20
1.6744880116
 30
0.0
 10
-1.9710347006
 20
1.6732997391
 30
0.0
 10
-1.9805273952
 20
1.6699806376
 30
0.0
 10
-1.9939654887
 20
1.6625381228
 30
0.0
 10
-2.0065758436
 20
1.6526884645
 30
0.0
 10
-2.0223169211
 20
1.6362399045
 30
0.0
 10
-2.0386423571
 20
1.610522198
 30
0.0
 10
-2.0470545696
 20
1.5872048736
 30
0.0
 10
-2.0502282526
 20
1.5748559321
 30
0.0
  0
SPLINE
  5
567
100
AcDbEntity
  8
0
100
AcDbSpline
 62
7
  6
CONTINUOUS
 70
0
 71
3
 72
9
 73
5
 74
0
 42
0.0000001
 43
0.0000001
 44
0.0000000001
 40
0.0
 40
0.0
 40
0.0
 40
0.0
 40
0.2473235934
 40
1.0
 40
1.0
 40
1.0
 40
1.0
 10
-2.0502282526
 20
1.5748559321
 30
0.0
 10
-2.0512369372
 20
1.5709310955
 30
0.0
 10
-2.0548268494
 20
1.5549395882
 30
0.0
 10
-2.0565445453
 20
1.5385336407
 30
0.0
 10
-2.0567938887
 20
1.5262036093
 30
0.0
  0
SPLINE
  5
568
100
AcDbEntity
  8
0
100
AcDbSpline
 62
7
  6
CONTINUOUS
 70
0
 71
3
 72
11
 73
7
 74
0
 42
0.0000001
 43
0.0000001
 44
0.0000000001
 40
0.0
 40
0.0
 40
0.0
 40
0.0
 40
0.2357032677
 40
0.4788585501
 40
0.7327993345
 40
1.0
 40
1.0
 40
1.0
 40
1.0
 10
1.482231405
 20
2.2718428099
 30
0.0
 10
1.4859394945
 20
2.2718428099
 30
0.0
 10
1.4934960447
 20
2.2709538249
 30
0.0
 10
1.5044627542
 20
2.2671530749
 30
0.0
 10
1.5148841266
 20
2.261008926
 30
0.0
 10
1.5210823006
 20
2.2555649348
 30
0.0
 10
1.5240039516
 20
2.2525426392
 30
0.0
  0
SPLINE
  5
569
100
AcDbEntity
  8
0
100
AcDbSpline
 62
7
  6
CONTINUOUS
 70
0
 71
3
 72
9
 73
5
 74
0
 42
0.0000001
 43
0.0000001
 44
0.0000000001
 40
0.0
 40
0.0
 40
0.0
 40
0.0
 40
0.2379143984
 40
1.0
 40
1.0
 40
1.0
 40
1.0
 10
1.5240039516
 20
2.2525426392
 30
0.0
 10
1.5260145819
 20
2.250462747
 30
0.0
 10
1.5339762071
 20
2.2412505432
 30
0.0
 10
1.5399807753
 20
2.2304276878
 30
0.0
 10
1.5434686485
 20
2.2218428099
 30
0.0
  0
SPLINE
  5
56A
100
AcDbEntity
  8
0
100
AcDbSpline
 62
7
  6
CONTINUOUS
 70
0
 71
3
 72
9
 73
5
 74
0
 42
0.0000001
 43
0.0000001
 44
0.0000000001
 40
0.0
 40
0.0
 40
0.0
 40
0.0
 40
0.4928952326
 40
1.0
 40
1.0
 40
1.0
 40
1.0
 10
1.5434686485
 20
2.2218428099
 30
0.0
 10
1.5462251185
 20
2.2150581716
 30
0.0
 10
1.5505059395
 20
2.2007414639
 30
0.0
 10
1.5524211842
 20
2.1859376855
 30
0.0
 10
1.552783399
 20
2.1784120659
 30
0.0
  0
SPLINE
  5
56B
100
AcDbEntity
  8
0
100
AcDbSpline
 62
7
  6
CONTINUOUS
 70
0
 71
3
 72
13
 73
9
 74
0
 42
0.0000001
 43
0.0000001
 44
0.0000000001
 40
0.0
 40
0.0
 40
0.0
 40
0.0
 40
0.1080831306
 40
0.2199294076
 40
0.3366084614
 40
0.4587925442
 40
0.7194452135
 40
1.0
 40
1.0
 40
1.0
 40
1.0
 10
-8.6837830147
 20
1.6744880116
 30
0.0
 10
-8.6885491219
 20
1.6732997391
 30
0.0
 10
-8.6980418165
 20
1.6699806376
 30
0.0
 10
-8.71147991
 20
1.6625381228
 30
0.0
 10
-8.7240902649
 20
1.6526884645
 30
0.0
 10
-8.7398313424
 20
1.6362399045
 30
0.0
 10
-8.7561567784
 20
1.610522198
 30
0.0
 10
-8.7645689909
 20
1.5872048736
 30
0.0
 10
-8.7677426738
 20
1.5748559321
 30
0.0
  0
SPLINE
  5
56C
100
AcDbEntity
  8
0
100
AcDbSpline
 62
7
  6
CONTINUOUS
 70
0
 71
3
 72
9
 73
5
 74
0
 42
0.0000001
 43
0.0000001
 44
0.0000000001
 40
0.0
 40
0.0
 40
0.0
 40
0.0
 40
0.2473235934
 40
1.0
 40
1.0
 40
1.0
 40
1.0
 10
-8.7677426738
 20
1.5748559321
 30
0.0
 10
-8.7687513584
 20
1.5709310955
 30
0.0
 10
-8.7723412707
 20
1.5549395882
 30
0.0
 10
-8.7740589666
 20
1.5385336407
 30
0.0
 10
-8.77430831
 20
1.5262036093
 30
0.0
  0
SPLINE
  5
56D
100
AcDbEntity
  8
0
100
AcDbSpline
 62
7
  6
CONTINUOUS
 70
0
 71
3
 72
13
 73
9
 74
0
 42
0.0000001
 43
0.0000001
 44
0.0000000001
 40
0.0
 40
0.0
 40
0.0
 40
0.0
 40
0.1080831306
 40
0.2199294076
 40
0.3366084614
 40
0.4587925442
 40
0.7194452135
 40
1.0
 40
1.0
 40
1.0
 40
1.0
 10
4.9307314033
 20
1.6744880116
 30
0.0
 10
4.9354975106
 20
1.6732997391
 30
0.0
 10
4.9449902051
 20
1.6699806376
 30
0.0
 10
4.9584282986
 20
1.6625381228
 30
0.0
 10
4.9710386535
 20
1.6526884645
 30
0.0
 10
4.986779731
 20
1.6362399045
 30
0.0
 10
5.003105167
 20
1.610522198
 30
0.0
 10
5.0115173796
 20
1.5872048736
 30
0.0
 10
5.0146910625
 20
1.5748559321
 30
0.0
  0
SPLINE
  5
56E
100
AcDbEntity
  8
0
100
AcDbSpline
 62
7
  6
CONTINUOUS
 70
0
 71
3
 72
9
 73
5
 74
0
 42
0.0000001
 43
0.0000001
 44
0.0000000001
 40
0.0
 40
0.0
 40
0.0
 40
0.0
 40
0.2473235934
 40
1.0
 40
1.0
 40
1.0
 40
1.0
 10
5.0146910625
 20
1.5748559321
 30
0.0
 10
5.0156997471
 20
1.5709310955
 30
0.0
 10
5.0192896593
 20
1.5549395882
 30
0.0
 10
5.0210073552
 20
1.5385336407
 30
0.0
 10
5.0212566986
 20
1.5262036093
 30
0.0
  0
SPLINE
  5
56F
100
AcDbEntity
  8
0
100
AcDbSpline
 62
7
  6
CONTINUOUS
 70
0
 71
3
 72
9
 73
5
 74
0
 42
0.0000001
 43
0.0000001
 44
0.0000000001
 40
0.0
 40
0.0
 40
0.0
 40
0.0
 40
0.2520052221
 40
1.0
 40
1.0
 40
1.0
 40
1.0
 10
-8.77430831
 20
1.5174820106
 30
0.0
 10
-8.7742248286
 20
1.5133538566
 30
0.0
 10
-8.773424726
 20
1.496986663
 30
0.0
 10
-8.770793229
 20
1.4806995333
 30
0.0
 10
-8.7677426738
 20
1.4688296877
 30
0.0
  0
SPLINE
  5
570
100
AcDbEntity
  8
0
100
AcDbSpline
 62
7
  6
CONTINUOUS
 70
0
 71
3
 72
13
 73
9
 74
0
 42
0.0000001
 43
0.0000001
 44
0.0000000001
 40
0.0
 40
0.0
 40
0.0
 40
0.0
 40
0.2805547865
 40
0.5412074558
 40
0.6633915386
 40
0.7800705924
 40
0.8919168694
 40
1.0
 40
1.0
 40
1.0
 40
1.0
 10
-8.7677426738
 20
1.4688296877
 30
0.0
 10
-8.7645689909
 20
1.4564807463
 30
0.0
 10
-8.7561567784
 20
1.4331634219
 30
0.0
 10
-8.7398313424
 20
1.4074457153
 30
0.0
 10
-8.7240902649
 20
1.3909971554
 30
0.0
 10
-8.71147991
 20
1.381147497
 30
0.0
 10
-8.6980418165
 20
1.3737049823
 30
0.0
 10
-8.6885491219
 20
1.3703858808
 30
0.0
 10
-8.6837830147
 20
1.3691976082
 30
0.0
  0
SPLINE
  5
571
100
AcDbEntity
  8
0
100
AcDbSpline
 62
7
  6
CONTINUOUS
 70
0
 71
3
 72
9
 73
5
 74
0
 42
0.0000001
 43
0.0000001
 44
0.0000000001
 40
0.0
 40
0.0
 40
0.0
 40
0.0
 40
0.2520052221
 40
1.0
 40
1.0
 40
1.0
 40
1.0
 10
11.7387711199
 20
1.5174820106
 30
0.0
 10
11.7386876385
 20
1.5133538566
 30
0.0
 10
11.7378875359
 20
1.496986663
 30
0.0
 10
11.7352560389
 20
1.4806995333
 30
0.0
 10
11.7322054838
 20
1.4688296877
 30
0.0
  0
SPLINE
  5
572
100
AcDbEntity
  8
0
100
AcDbSpline
 62
7
  6
CONTINUOUS
 70
0
 71
3
 72
13
 73
9
 74
0
 42
0.0000001
 43
0.0000001
 44
0.0000000001
 40
0.0
 40
0.0
 40
0.0
 40
0.0
 40
0.2805547865
 40
0.5412074558
 40
0.6633915386
 40
0.7800705924
 40
0.8919168694
 40
1.0
 40
1.0
 40
1.0
 40
1.0
 10
11.7322054838
 20
1.4688296877
 30
0.0
 10
11.7290318008
 20
1.4564807463
 30
0.0
 10
11.7206195883
 20
1.4331634219
 30
0.0
 10
11.7042941523
 20
1.4074457153
 30
0.0
 10
11.6885530748
 20
1.3909971554
 30
0.0
 10
11.6759427199
 20
1.381147497
 30
0.0
 10
11.6625046264
 20
1.3737049823
 30
0.0
 10
11.6530119318
 20
1.3703858808
 30
0.0
 10
11.6482458246
 20
1.3691976082
 30
0.0
  0
SPLINE
  5
573
100
AcDbEntity
  8
0
100
AcDbSpline
 62
7
  6
CONTINUOUS
 70
0
 71
3
 72
9
 73
5
 74
0
 42
0.0000001
 43
0.0000001
 44
0.0000000001
 40
0.0
 40
0.0
 40
0.0
 40
0.0
 40
0.2520052221
 40
1.0
 40
1.0
 40
1.0
 40
1.0
 10
5.0212566986
 20
1.5174820106
 30
0.0
 10
5.0211732172
 20
1.5133538566
 30
0.0
 10
5.0203731146
 20
1.496986663
 30
0.0
 10
5.0177416176
 20
1.4806995333
 30
0.0
 10
5.0146910625
 20
1.4688296877
 30
0.0
  0
SPLINE
  5
574
100
AcDbEntity
  8
0
100
AcDbSpline
 62
7
  6
CONTINUOUS
 70
0
 71
3
 72
13
 73
9
 74
0
 42
0.0000001
 43
0.0000001
 44
0.0000000001
 40
0.0
 40
0.0
 40
0.0
 40
0.0
 40
0.2805547865
 40
0.5412074558
 40
0.6633915386
 40
0.7800705924
 40
0.8919168694
 40
1.0
 40
1.0
 40
1.0
 40
1.0
 10
5.0146910625
 20
1.4688296877
 30
0.0
 10
5.0115173796
 20
1.4564807463
 30
0.0
 10
5.003105167
 20
1.4331634219
 30
0.0
 10
4.986779731
 20
1.4074457153
 30
0.0
 10
4.9710386535
 20
1.3909971554
 30
0.0
 10
4.9584282986
 20
1.381147497
 30
0.0
 10
4.9449902051
 20
1.3737049823
 30
0.0
 10
4.9354975106
 20
1.3703858808
 30
0.0
 10
4.9307314033
 20
1.3691976082
 30
0.0
  0
SPLINE
  5
575
100
AcDbEntity
  8
0
100
AcDbSpline
 62
7
  6
CONTINUOUS
 70
0
 71
3
 72
9
 73
5
 74
0
 42
0.0000001
 43
0.0000001
 44
0.0000000001
 40
0.0
 40
0.0
 40
0.0
 40
0.0
 40
0.2520052221
 40
1.0
 40
1.0
 40
1.0
 40
1.0
 10
-2.0567938887
 20
1.5174820106
 30
0.0
 10
-2.0567104073
 20
1.5133538566
 30
0.0
 10
-2.0559103047
 20
1.496986663
 30
0.0
 10
-2.0532788077
 20
1.4806995333
 30
0.0
 10
-2.0502282526
 20
1.4688296877
 30
0.0
  0
SPLINE
  5
576
100
AcDbEntity
  8
0
100
AcDbSpline
 62
7
  6
CONTINUOUS
 70
0
 71
3
 72
13
 73
9
 74
0
 42
0.0000001
 43
0.0000001
 44
0.0000000001
 40
0.0
 40
0.0
 40
0.0
 40
0.0
 40
0.2805547865
 40
0.5412074558
 40
0.6633915386
 40
0.7800705924
 40
0.8919168694
 40
1.0
 40
1.0
 40
1.0
 40
1.0
 10
-2.0502282526
 20
1.4688296877
 30
0.0
 10
-2.0470545696
 20
1.4564807463
 30
0.0
 10
-2.0386423571
 20
1.4331634219
 30
0.0
 10
-2.0223169211
 20
1.4074457153
 30
0.0
 10
-2.0065758436
 20
1.3909971554
 30
0.0
 10
-1.9939654887
 20
1.381147497
 30
0.0
 10
-1.9805273952
 20
1.3737049823
 30
0.0
 10
-1.9710347006
 20
1.3703858808
 30
0.0
 10
-1.9662685934
 20
1.3691976082
 30
0.0
  0
SPLINE
  5
577
100
AcDbEntity
  8
0
100
AcDbSpline
 62
7
  6
CONTINUOUS
 70
0
 71
3
 72
13
 73
9
 74
0
 42
0.0000001
 43
0.0000001
 44
0.0000000001
 40
0.0
 40
0.0
 40
0.0
 40
0.0
 40
0.1080831306
 40
0.2199294076
 40
0.3366084614
 40
0.4587925442
 40
0.7194452135
 40
1.0
 40
1.0
 40
1.0
 40
1.0
 10
11.6482458246
 20
1.6744880116
 30
0.0
 10
11.6530119318
 20
1.6732997391
 30
0.0
 10
11.6625046264
 20
1.6699806376
 30
0.0
 10
11.6759427199
 20
1.6625381228
 30
0.0
 10
11.6885530748
 20
1.6526884645
 30
0.0
 10
11.7042941523
 20
1.6362399045
 30
0.0
 10
11.7206195883
 20
1.610522198
 30
0.0
 10
11.7290318008
 20
1.5872048736
 30
0.0
 10
11.7322054838
 20
1.5748559321
 30
0.0
  0
SPLINE
  5
578
100
AcDbEntity
  8
0
100
AcDbSpline
 62
7
  6
CONTINUOUS
 70
0
 71
3
 72
9
 73
5
 74
0
 42
0.0000001
 43
0.0000001
 44
0.0000000001
 40
0.0
 40
0.0
 40
0.0
 40
0.0
 40
0.2473235934
 40
1.0
 40
1.0
 40
1.0
 40
1.0
 10
11.7322054838
 20
1.5748559321
 30
0.0
 10
11.7332141684
 20
1.5709310955
 30
0.0
 10
11.7368040806
 20
1.5549395882
 30
0.0
 10
11.7385217765
 20
1.5385336407
 30
0.0
 10
11.7387711199
 20
1.5262036093
 30
0.0
  0
SPLINE
  5
579
100
AcDbEntity
  8
0
100
AcDbSpline
 62
7
  6
CONTINUOUS
 70
0
 71
3
 72
11
 73
7
 74
0
 42
0.0000001
 43
0.0000001
 44
0.0000000001
 40
0.0
 40
0.0
 40
0.0
 40
0.0
 40
0.2357032677
 40
0.4788585501
 40
0.7327993345
 40
1.0
 40
1.0
 40
1.0
 40
1.0
 10
1.482231405
 20
2.2718428099
 30
0.0
 10
1.4785233154
 20
2.2718428099
 30
0.0
 10
1.4709667652
 20
2.2709538249
 30
0.0
 10
1.4600000558
 20
2.2671530749
 30
0.0
 10
1.4495786833
 20
2.261008926
 30
0.0
 10
1.4433805094
 20
2.2555649348
 30
0.0
 10
1.4404588583
 20
2.2525426392
 30
0.0
  0
SPLINE
  5
57A
100
AcDbEntity
  8
0
100
AcDbSpline
 62
7
  6
CONTINUOUS
 70
0
 71
3
 72
9
 73
5
 74
0
 42
0.0000001
 43
0.0000001
 44
0.0000000001
 40
0.0
 40
0.0
 40
0.0
 40
0.0
 40
0.2379143984
 40
1.0
 40
1.0
 40
1.0
 40
1.0
 10
1.4404588583
 20
2.2525426392
 30
0.0
 10
1.438448228
 20
2.250462747
 30
0.0
 10
1.4304866029
 20
2.2412505432
 30
0.0
 10
1.4244820346
 20
2.2304276878
 30
0.0
 10
1.4209941614
 20
2.2218428099
 30
0.0
  0
SPLINE
  5
57B
100
AcDbEntity
  8
0
100
AcDbSpline
 62
7
  6
CONTINUOUS
 70
0
 71
3
 72
9
 73
5
 74
0
 42
0.0000001
 43
0.0000001
 44
0.0000000001
 40
0.0
 40
0.0
 40
0.0
 40
0.0
 40
0.4928952326
 40
1.0
 40
1.0
 40
1.0
 40
1.0
 10
1.4209941614
 20
2.2218428099
 30
0.0
 10
1.4182376914
 20
2.2150581716
 30
0.0
 10
1.4139568704
 20
2.2007414639
 30
0.0
 10
1.4120416257
 20
2.1859376855
 30
0.0
 10
1.4116794109
 20
2.1784120659
 30
0.0
  0
SPLINE
  5
57C
100
AcDbEntity
  8
0
100
AcDbSpline
 62
3
  6
CONTINUOUS
 70
0
 71
3
 72
9
 73
5
 74
0
 42
0.0000001
 43
0.0000001
 44
0.0000000001
 40
0.0
 40
0.0
 40
0.0
 40
0.0
 40
0.4872990191
 40
1.0
 40
1.0
 40
1.0
 40
1.0
 10
4.8940397959
 20
1.6748090169
 30
0.0
 10
4.9006612056
 20
1.6732784206
 30
0.0
 10
4.9138817978
 20
1.668370478
 30
0.0
 10
4.9256065834
 20
1.6605995096
 30
0.0
 10
4.9311447302
 20
1.6560767475
 30
0.0
  0
SPLINE
  5
57D
100
AcDbEntity
  8
0
100
AcDbSpline
 62
3
  6
CONTINUOUS
 70
0
 71
3
 72
9
 73
5
 74
0
 42
0.0000001
 43
0.0000001
 44
0.0000000001
 40
0.0
 40
0.0
 40
0.0
 40
0.0
 40
0.239202539
 40
1.0
 40
1.0
 40
1.0
 40
1.0
 10
4.9311447302
 20
1.6560767475
 30
0.0
 10
4.9339474388
 20
1.653787898
 30
0.0
 10
4.9451783076
 20
1.6436276463
 30
0.0
 10
4.954428815
 20
1.6313716073
 30
0.0
 10
4.9603036138
 20
1.6214748894
 30
0.0
  0
SPLINE
  5
57E
100
AcDbEntity
  8
0
100
AcDbSpline
 62
3
  6
CONTINUOUS
 70
0
 71
3
 72
9
 73
5
 74
0
 42
0.0000001
 43
0.0000001
 44
0.0000000001
 40
0.0
 40
0.0
 40
0.0
 40
0.0
 40
0.241818776
 40
1.0
 40
1.0
 40
1.0
 40
1.0
 10
4.9603036138
 20
1.6214748894
 30
0.0
 10
4.9623794295
 20
1.6179779591
 30
0.0
 10
4.9703880125
 20
1.6031787862
 30
0.0
 10
4.9761620405
 20
1.5872048736
 30
0.0
 10
4.9793357234
 20
1.5748559321
 30
0.0
  0
SPLINE
  5
57F
100
AcDbEntity
  8
0
100
AcDbSpline
 62
3
  6
CONTINUOUS
 70
0
 71
3
 72
9
 73
5
 74
0
 42
0.0000001
 43
0.0000001
 44
0.0000000001
 40
0.0
 40
0.0
 40
0.0
 40
0.0
 40
0.4970180998
 40
1.0
 40
1.0
 40
1.0
 40
1.0
 10
4.9793357234
 20
1.5748559321
 30
0.0
 10
4.9815430899
 20
1.5662669712
 30
0.0
 10
4.9848342167
 20
1.5486753608
 30
0.0
 10
4.9859455057
 20
1.5308172922
 30
0.0
 10
4.9859455057
 20
1.5218428099
 30
0.0
  0
SPLINE
  5
580
100
AcDbEntity
  8
0
100
AcDbSpline
 62
3
  6
CONTINUOUS
 70
0
 71
3
 72
9
 73
5
 74
0
 42
0.0000001
 43
0.0000001
 44
0.0000000001
 40
0.0
 40
0.0
 40
0.0
 40
0.0
 40
0.4872990191
 40
1.0
 40
1.0
 40
1.0
 40
1.0
 10
11.6115542172
 20
1.6748090169
 30
0.0
 10
11.6181756269
 20
1.6732784206
 30
0.0
 10
11.6313962191
 20
1.668370478
 30
0.0
 10
11.6431210047
 20
1.6605995096
 30
0.0
 10
11.6486591515
 20
1.6560767475
 30
0.0
  0
SPLINE
  5
581
100
AcDbEntity
  8
0
100
AcDbSpline
 62
3
  6
CONTINUOUS
 70
0
 71
3
 72
9
 73
5
 74
0
 42
0.0000001
 43
0.0000001
 44
0.0000000001
 40
0.0
 40
0.0
 40
0.0
 40
0.0
 40
0.239202539
 40
1.0
 40
1.0
 40
1.0
 40
1.0
 10
11.6486591515
 20
1.6560767475
 30
0.0
 10
11.6514618601
 20
1.653787898
 30
0.0
 10
11.6626927288
 20
1.6436276463
 30
0.0
 10
11.6719432363
 20
1.6313716073
 30
0.0
 10
11.6778180351
 20
1.6214748894
 30
0.0
  0
SPLINE
  5
582
100
AcDbEntity
  8
0
100
AcDbSpline
 62
3
  6
CONTINUOUS
 70
0
 71
3
 72
9
 73
5
 74
0
 42
0.0000001
 43
0.0000001
 44
0.0000000001
 40
0.0
 40
0.0
 40
0.0
 40
0.0
 40
0.241818776
 40
1.0
 40
1.0
 40
1.0
 40
1.0
 10
11.6778180351
 20
1.6214748894
 30
0.0
 10
11.6798938507
 20
1.6179779591
 30
0.0
 10
11.6879024338
 20
1.6031787862
 30
0.0
 10
11.6936764618
 20
1.5872048736
 30
0.0
 10
11.6968501447
 20
1.5748559321
 30
0.0
  0
SPLINE
  5
583
100
AcDbEntity
  8
0
100
AcDbSpline
 62
3
  6
CONTINUOUS
 70
0
 71
3
 72
9
 73
5
 74
0
 42
0.0000001
 43
0.0000001
 44
0.0000000001
 40
0.0
 40
0.0
 40
0.0
 40
0.0
 40
0.4970180998
 40
1.0
 40
1.0
 40
1.0
 40
1.0
 10
11.6968501447
 20
1.5748559321
 30
0.0
 10
11.6990575111
 20
1.5662669712
 30
0.0
 10
11.702348638
 20
1.5486753608
 30
0.0
 10
11.703459927
 20
1.5308172922
 30
0.0
 10
11.703459927
 20
1.5218428099
 30
0.0
  0
SPLINE
  5
584
100
AcDbEntity
  8
0
100
AcDbSpline
 62
3
  6
CONTINUOUS
 70
0
 71
3
 72
9
 73
5
 74
0
 42
0.0000001
 43
0.0000001
 44
0.0000000001
 40
0.0
 40
0.0
 40
0.0
 40
0.0
 40
0.4872990191
 40
1.0
 40
1.0
 40
1.0
 40
1.0
 10
-1.929576986
 20
1.6748090169
 30
0.0
 10
-1.9361983957
 20
1.6732784206
 30
0.0
 10
-1.9494189879
 20
1.668370478
 30
0.0
 10
-1.9611437735
 20
1.6605995096
 30
0.0
 10
-1.9666819203
 20
1.6560767475
 30
0.0
  0
SPLINE
  5
585
100
AcDbEntity
  8
0
100
AcDbSpline
 62
3
  6
CONTINUOUS
 70
0
 71
3
 72
9
 73
5
 74
0
 42
0.0000001
 43
0.0000001
 44
0.0000000001
 40
0.0
 40
0.0
 40
0.0
 40
0.0
 40
0.239202539
 40
1.0
 40
1.0
 40
1.0
 40
1.0
 10
-1.9666819203
 20
1.6560767475
 30
0.0
 10
-1.9694846289
 20
1.653787898
 30
0.0
 10
-1.9807154976
 20
1.6436276463
 30
0.0
 10
-1.9899660051
 20
1.6313716073
 30
0.0
 10
-1.9958408039
 20
1.6214748894
 30
0.0
  0
SPLINE
  5
586
100
AcDbEntity
  8
0
100
AcDbSpline
 62
3
  6
CONTINUOUS
 70
0
 71
3
 72
9
 73
5
 74
0
 42
0.0000001
 43
0.0000001
 44
0.0000000001
 40
0.0
 40
0.0
 40
0.0
 40
0.0
 40
0.241818776
 40
1.0
 40
1.0
 40
1.0
 40
1.0
 10
-1.9958408039
 20
1.6214748894
 30
0.0
 10
-1.9979166196
 20
1.6179779591
 30
0.0
 10
-2.0059252026
 20
1.6031787862
 30
0.0
 10
-2.0116992306
 20
1.5872048736
 30
0.0
 10
-2.0148729135
 20
1.5748559321
 30
0.0
  0
SPLINE
  5
587
100
AcDbEntity
  8
0
100
AcDbSpline
 62
3
  6
CONTINUOUS
 70
0
 71
3
 72
9
 73
5
 74
0
 42
0.0000001
 43
0.0000001
 44
0.0000000001
 40
0.0
 40
0.0
 40
0.0
 40
0.0
 40
0.4970180998
 40
1.0
 40
1.0
 40
1.0
 40
1.0
 10
-2.0148729135
 20
1.5748559321
 30
0.0
 10
-2.0170802799
 20
1.5662669712
 30
0.0
 10
-2.0203714068
 20
1.5486753608
 30
0.0
 10
-2.0214826958
 20
1.5308172922
 30
0.0
 10
-2.0214826958
 20
1.5218428099
 30
0.0
  0
SPLINE
  5
588
100
AcDbEntity
  8
0
100
AcDbSpline
 62
3
  6
CONTINUOUS
 70
0
 71
3
 72
9
 73
5
 74
0
 42
0.0000001
 43
0.0000001
 44
0.0000000001
 40
0.0
 40
0.0
 40
0.0
 40
0.0
 40
0.4872990191
 40
1.0
 40
1.0
 40
1.0
 40
1.0
 10
-8.6470914073
 20
1.6748090169
 30
0.0
 10
-8.653712817
 20
1.6732784206
 30
0.0
 10
-8.6669334092
 20
1.668370478
 30
0.0
 10
-8.6786581948
 20
1.6605995096
 30
0.0
 10
-8.6841963416
 20
1.6560767475
 30
0.0
  0
SPLINE
  5
589
100
AcDbEntity
  8
0
100
AcDbSpline
 62
3
  6
CONTINUOUS
 70
0
 71
3
 72
9
 73
5
 74
0
 42
0.0000001
 43
0.0000001
 44
0.0000000001
 40
0.0
 40
0.0
 40
0.0
 40
0.0
 40
0.239202539
 40
1.0
 40
1.0
 40
1.0
 40
1.0
 10
-8.6841963416
 20
1.6560767475
 30
0.0
 10
-8.6869990502
 20
1.653787898
 30
0.0
 10
-8.6982299189
 20
1.6436276463
 30
0.0
 10
-8.7074804264
 20
1.6313716073
 30
0.0
 10
-8.7133552252
 20
1.6214748894
 30
0.0
  0
SPLINE
  5
58A
100
AcDbEntity
  8
0
100
AcDbSpline
 62
3
  6
CONTINUOUS
 70
0
 71
3
 72
9
 73
5
 74
0
 42
0.0000001
 43
0.0000001
 44
0.0000000001
 40
0.0
 40
0.0
 40
0.0
 40
0.0
 40
0.241818776
 40
1.0
 40
1.0
 40
1.0
 40
1.0
 10
-8.7133552252
 20
1.6214748894
 30
0.0
 10
-8.7154310408
 20
1.6179779591
 30
0.0
 10
-8.7234396239
 20
1.6031787862
 30
0.0
 10
-8.7292136519
 20
1.5872048736
 30
0.0
 10
-8.7323873348
 20
1.5748559321
 30
0.0
  0
SPLINE
  5
58B
100
AcDbEntity
  8
0
100
AcDbSpline
 62
3
  6
CONTINUOUS
 70
0
 71
3
 72
9
 73
5
 74
0
 42
0.0000001
 43
0.0000001
 44
0.0000000001
 40
0.0
 40
0.0
 40
0.0
 40
0.0
 40
0.4970180998
 40
1.0
 40
1.0
 40
1.0
 40
1.0
 10
-8.7323873348
 20
1.5748559321
 30
0.0
 10
-8.7345947012
 20
1.5662669712
 30
0.0
 10
-8.7378858281
 20
1.5486753608
 30
0.0
 10
-8.7389971171
 20
1.5308172922
 30
0.0
 10
-8.7389971171
 20
1.5218428099
 30
0.0
  0
SPLINE
  5
58C
100
AcDbEntity
  8
0
100
AcDbSpline
 62
3
  6
CONTINUOUS
 70
0
 71
3
 72
9
 73
5
 74
0
 42
0.0000001
 43
0.0000001
 44
0.0000000001
 40
0.0
 40
0.0
 40
0.0
 40
0.0
 40
0.5029819002
 40
1.0
 40
1.0
 40
1.0
 40
1.0
 10
-8.7389971171
 20
1.5218428099
 30
0.0
 10
-8.7389971171
 20
1.5128683276
 30
0.0
 10
-8.7378858281
 20
1.4950102591
 30
0.0
 10
-8.7345947012
 20
1.4774186486
 30
0.0
 10
-8.7323873348
 20
1.4688296877
 30
0.0
  0
SPLINE
  5
58D
100
AcDbEntity
  8
0
100
AcDbSpline
 62
3
  6
CONTINUOUS
 70
0
 71
3
 72
9
 73
5
 74
0
 42
0.0000001
 43
0.0000001
 44
0.0000000001
 40
0.0
 40
0.0
 40
0.0
 40
0.0
 40
0.2582277865
 40
1.0
 40
1.0
 40
1.0
 40
1.0
 10
-8.7323873348
 20
1.4688296877
 30
0.0
 10
-8.7313064983
 20
1.4646241049
 30
0.0
 10
-8.726587639
 20
1.4484839713
 30
0.0
 10
-8.7197222395
 20
1.4329366373
 30
0.0
 10
-8.7133552252
 20
1.4222107304
 30
0.0
  0
SPLINE
  5
58E
100
AcDbEntity
  8
0
100
AcDbSpline
 62
3
  6
CONTINUOUS
 70
0
 71
3
 72
11
 73
7
 74
0
 42
0.0000001
 43
0.0000001
 44
0.0000000001
 40
0.0
 40
0.0
 40
0.0
 40
0.0
 40
0.2723506519
 40
0.5287997358
 40
0.7702484497
 40
1.0
 40
1.0
 40
1.0
 40
1.0
 10
-8.7133552252
 20
1.4222107304
 30
0.0
 10
-8.7093747755
 20
1.4155052433
 30
0.0
 10
-8.7006401216
 20
1.4030435459
 30
0.0
 10
-8.6849839483
 20
1.3873350499
 30
0.0
 10
-8.6675344938
 20
1.3756890218
 30
0.0
 10
-8.6548105156
 20
1.3707889601
 30
0.0
 10
-8.6484276756
 20
1.3691976082
 30
0.0
  0
SPLINE
  5
58F
100
AcDbEntity
  8
0
100
AcDbSpline
 62
3
  6
CONTINUOUS
 70
0
 71
3
 72
9
 73
5
 74
0
 42
0.0000001
 43
0.0000001
 44
0.0000000001
 40
0.0
 40
0.0
 40
0.0
 40
0.0
 40
0.5029819002
 40
1.0
 40
1.0
 40
1.0
 40
1.0
 10
-2.0214826958
 20
1.5218428099
 30
0.0
 10
-2.0214826958
 20
1.5128683276
 30
0.0
 10
-2.0203714068
 20
1.4950102591
 30
0.0
 10
-2.0170802799
 20
1.4774186486
 30
0.0
 10
-2.0148729135
 20
1.4688296877
 30
0.0
  0
SPLINE
  5
590
100
AcDbEntity
  8
0
100
AcDbSpline
 62
3
  6
CONTINUOUS
 70
0
 71
3
 72
9
 73
5
 74
0
 42
0.0000001
 43
0.0000001
 44
0.0000000001
 40
0.0
 40
0.0
 40
0.0
 40
0.0
 40
0.2582277865
 40
1.0
 40
1.0
 40
1.0
 40
1.0
 10
-2.0148729135
 20
1.4688296877
 30
0.0
 10
-2.013792077
 20
1.4646241049
 30
0.0
 10
-2.0090732177
 20
1.4484839713
 30
0.0
 10
-2.0022078183
 20
1.4329366373
 30
0.0
 10
-1.9958408039
 20
1.4222107304
 30
0.0
  0
SPLINE
  5
591
100
AcDbEntity
  8
0
100
AcDbSpline
 62
3
  6
CONTINUOUS
 70
0
 71
3
 72
11
 73
7
 74
0
 42
0.0000001
 43
0.0000001
 44
0.0000000001
 40
0.0
 40
0.0
 40
0.0
 40
0.0
 40
0.2723506519
 40
0.5287997358
 40
0.7702484497
 40
1.0
 40
1.0
 40
1.0
 40
1.0
 10
-1.9958408039
 20
1.4222107304
 30
0.0
 10
-1.9918603542
 20
1.4155052433
 30
0.0
 10
-1.9831257003
 20
1.4030435459
 30
0.0
 10
-1.9674695271
 20
1.3873350499
 30
0.0
 10
-1.9500200725
 20
1.3756890218
 30
0.0
 10
-1.9372960943
 20
1.3707889601
 30
0.0
 10
-1.9309132544
 20
1.3691976082
 30
0.0
  0
SPLINE
  5
592
100
AcDbEntity
  8
0
100
AcDbSpline
 62
3
  6
CONTINUOUS
 70
0
 71
3
 72
9
 73
5
 74
0
 42
0.0000001
 43
0.0000001
 44
0.0000000001
 40
0.0
 40
0.0
 40
0.0
 40
0.0
 40
0.4784894826
 40
1.0
 40
1.0
 40
1.0
 40
1.0
 10
1.482231405
 20
2.2218428099
 30
0.0
 10
1.4859762334
 20
2.2218428099
 30
0.0
 10
1.493862732
 20
2.219941325
 30
0.0
 10
1.5002808778
 20
2.2151272467
 30
0.0
 10
1.5031176783
 20
2.2121927246
 30
0.0
  0
SPLINE
  5
593
100
AcDbEntity
  8
0
100
AcDbSpline
 62
3
  6
CONTINUOUS
 70
0
 71
3
 72
10
 73
6
 74
0
 42
0.0000001
 43
0.0000001
 44
0.0000000001
 40
0.0
 40
0.0
 40
0.0
 40
0.0
 40
0.2288359056
 40
0.6035657529
 40
1.0
 40
1.0
 40
1.0
 40
1.0
 10
1.5031176783
 20
2.2121927246
 30
0.0
 10
1.5054376461
 20
2.2097928389
 30
0.0
 10
1.5107587366
 20
2.2026678526
 30
0.0
 10
1.5161844306
 20
2.1889175894
 30
0.0
 10
1.517586744
 20
2.1776254047
 30
0.0
 10
1.517586744
 20
2.1718428099
 30
0.0
  0
SPLINE
  5
594
100
AcDbEntity
  8
0
100
AcDbSpline
 62
3
  6
CONTINUOUS
 70
0
 71
3
 72
9
 73
5
 74
0
 42
0.0000001
 43
0.0000001
 44
0.0000000001
 40
0.0
 40
0.0
 40
0.0
 40
0.0
 40
0.4784894826
 40
1.0
 40
1.0
 40
1.0
 40
1.0
 10
1.482231405
 20
2.2218428099
 30
0.0
 10
1.4784865765
 20
2.2218428099
 30
0.0
 10
1.4706000779
 20
2.219941325
 30
0.0
 10
1.4641819321
 20
2.2151272467
 30
0.0
 10
1.4613451316
 20
2.2121927246
 30
0.0
  0
SPLINE
  5
595
100
AcDbEntity
  8
0
100
AcDbSpline
 62
3
  6
CONTINUOUS
 70
0
 71
3
 72
10
 73
6
 74
0
 42
0.0000001
 43
0.0000001
 44
0.0000000001
 40
0.0
 40
0.0
 40
0.0
 40
0.0
 40
0.2288359056
 40
0.6035657529
 40
1.0
 40
1.0
 40
1.0
 40
1.0
 10
1.4613451316
 20
2.2121927246
 30
0.0
 10
1.4590251639
 20
2.2097928389
 30
0.0
 10
1.4537040733
 20
2.2026678526
 30
0.0
 10
1.4482783793
 20
2.1889175894
 30
0.0
 10
1.4468760659
 20
2.1776254047
 30
0.0
 10
1.4468760659
 20
2.1718428099
 30
0.0
  0
SPLINE
  5
596
100
AcDbEntity
  8
0
100
AcDbSpline
 62
3
  6
CONTINUOUS
 70
0
 71
3
 72
9
 73
5
 74
0
 42
0.0000001
 43
0.0000001
 44
0.0000000001
 40
0.0
 40
0.0
 40
0.0
 40
0.0
 40
0.5029819002
 40
1.0
 40
1.0
 40
1.0
 40
1.0
 10
11.703459927
 20
1.5218428099
 30
0.0
 10
11.703459927
 20
1.5128683276
 30
0.0
 10
11.702348638
 20
1.4950102591
 30
0.0
 10
11.6990575111
 20
1.4774186486
 30
0.0
 10
11.6968501447
 20
1.4688296877
 30
0.0
  0
SPLINE
  5
597
100
AcDbEntity
  8
0
100
AcDbSpline
 62
3
  6
CONTINUOUS
 70
0
 71
3
 72
9
 73
5
 74
0
 42
0.0000001
 43
0.0000001
 44
0.0000000001
 40
0.0
 40
0.0
 40
0.0
 40
0.0
 40
0.2582277865
 40
1.0
 40
1.0
 40
1.0
 40
1.0
 10
11.6968501447
 20
1.4688296877
 30
0.0
 10
11.6957693082
 20
1.4646241049
 30
0.0
 10
11.6910504489
 20
1.4484839713
 30
0.0
 10
11.6841850495
 20
1.4329366373
 30
0.0
 10
11.6778180351
 20
1.4222107304
 30
0.0
  0
SPLINE
  5
598
100
AcDbEntity
  8
0
100
AcDbSpline
 62
3
  6
CONTINUOUS
 70
0
 71
3
 72
11
 73
7
 74
0
 42
0.0000001
 43
0.0000001
 44
0.0000000001
 40
0.0
 40
0.0
 40
0.0
 40
0.0
 40
0.2723506519
 40
0.5287997358
 40
0.7702484497
 40
1.0
 40
1.0
 40
1.0
 40
1.0
 10
11.6778180351
 20
1.4222107304
 30
0.0
 10
11.6738375854
 20
1.4155052433
 30
0.0
 10
11.6651029315
 20
1.4030435459
 30
0.0
 10
11.6494467583
 20
1.3873350499
 30
0.0
 10
11.6319973037
 20
1.3756890218
 30
0.0
 10
11.6192733255
 20
1.3707889601
 30
0.0
 10
11.6128904855
 20
1.3691976082
 30
0.0
  0
SPLINE
  5
599
100
AcDbEntity
  8
0
100
AcDbSpline
 62
3
  6
CONTINUOUS
 70
0
 71
3
 72
9
 73
5
 74
0
 42
0.0000001
 43
0.0000001
 44
0.0000000001
 40
0.0
 40
0.0
 40
0.0
 40
0.0
 40
0.5029819002
 40
1.0
 40
1.0
 40
1.0
 40
1.0
 10
4.9859455057
 20
1.5218428099
 30
0.0
 10
4.9859455057
 20
1.5128683276
 30
0.0
 10
4.9848342167
 20
1.4950102591
 30
0.0
 10
4.9815430899
 20
1.4774186486
 30
0.0
 10
4.9793357234
 20
1.4688296877
 30
0.0
  0
SPLINE
  5
59A
100
AcDbEntity
  8
0
100
AcDbSpline
 62
3
  6
CONTINUOUS
 70
0
 71
3
 72
9
 73
5
 74
0
 42
0.0000001
 43
0.0000001
 44
0.0000000001
 40
0.0
 40
0.0
 40
0.0
 40
0.0
 40
0.2582277865
 40
1.0
 40
1.0
 40
1.0
 40
1.0
 10
4.9793357234
 20
1.4688296877
 30
0.0
 10
4.978254887
 20
1.4646241049
 30
0.0
 10
4.9735360276
 20
1.4484839713
 30
0.0
 10
4.9666706282
 20
1.4329366373
 30
0.0
 10
4.9603036138
 20
1.4222107304
 30
0.0
  0
SPLINE
  5
59B
100
AcDbEntity
  8
0
100
AcDbSpline
 62
3
  6
CONTINUOUS
 70
0
 71
3
 72
11
 73
7
 74
0
 42
0.0000001
 43
0.0000001
 44
0.0000000001
 40
0.0
 40
0.0
 40
0.0
 40
0.0
 40
0.2723506519
 40
0.5287997358
 40
0.7702484497
 40
1.0
 40
1.0
 40
1.0
 40
1.0
 10
4.9603036138
 20
1.4222107304
 30
0.0
 10
4.9563231641
 20
1.4155052433
 30
0.0
 10
4.9475885102
 20
1.4030435459
 30
0.0
 10
4.931932337
 20
1.3873350499
 30
0.0
 10
4.9144828824
 20
1.3756890218
 30
0.0
 10
4.9017589042
 20
1.3707889601
 30
0.0
 10
4.8953760643
 20
1.3691976082
 30
0.0
  0
SPLINE
  5
59C
100
AcDbEntity
  8
0
100
AcDbSpline
 62
7
  6
CONTINUOUS
 70
0
 71
3
 72
33
 73
29
 74
0
 42
0.0000001
 43
0.0000001
 44
0.0000000001
 40
0.0
 40
0.0
 40
0.0
 40
0.0
 40
0.024861883
 40
0.0498297386
 40
0.0750059576
 40
0.1004874262
 40
0.1263620741
 40
0.1527074172
 40
0.1795895447
 40
0.2070607347
 40
0.2351617038
 40
0.263918536
 40
0.3234149803
 40
0.3855586306
 40
0.4501563578
 40
0.4832880919
 40
0.5168996754
 40
0.550933618
 40
0.5853265572
 40
0.6200120116
 40
0.6549193851
 40
0.6899759008
 40
0.7251076786
 40
0.7952783445
 40
0.8648481794
 40
0.9332612308
 40
0.966881961
 40
1.0
 40
1.0
 40
1.0
 40
1.0
 10
-22.7374292981
 20
9.8503424738
 30
0.0
 10
-22.7415264422
 20
9.8503423364
 30
0.0
 10
-22.7497432574
 20
9.8499610787
 30
0.0
 10
-22.7620013574
 20
9.848248121
 30
0.0
 10
-22.7741531894
 20
9.8454051627
 30
0.0
 10
-22.7861436229
 20
9.8414416596
 30
0.0
 10
-22.7979218757
 20
9.8363783473
 30
0.0
 10
-22.80943703
 20
9.8302369511
 30
0.0
 10
-22.820639324
 20
9.8230441261
 30
0.0
 10
-22.8314825819
 20
9.8148336235
 30
0.0
 10
-22.8419190944
 20
9.8056381859
 30
0.0
 10
-22.8553856367
 20
9.7919694707
 30
0.0
 10
-22.870933463
 20
9.7725694151
 30
0.0
 10
-22.8870781959
 20
9.7463888564
 30
0.0
 10
-22.8983105058
 20
9.7224936784
 30
0.0
 10
-22.905957079
 20
9.7022369857
 30
0.0
 10
-22.9110211618
 20
9.6864122337
 30
0.0
 10
-22.9153421781
 20
9.670154437
 30
0.0
 10
-22.9189040809
 20
9.6535326388
 30
0.0
 10
-22.9216888904
 20
9.6366174301
 30
0.0
 10
-22.923687578
 20
9.6194815612
 30
0.0
 10
-22.9248896387
 20
9.6021973839
 30
0.0
 10
-22.9254243204
 20
9.5790662728
 30
0.0
 10
-22.9240929658
 20
9.5502334046
 30
0.0
 10
-22.9193297764
 20
9.5162146283
 30
0.0
 10
-22.9127455218
 20
9.4886608055
 30
0.0
 10
-22.9059536414
 20
9.4674412744
 30
0.0
 10
-22.9020680053
 20
9.4571456835
 30
0.0
 10
-22.9000051783
 20
9.4520928099
 30
0.0
  0
SPLINE
  5
59D
100
AcDbEntity
  8
0
100
AcDbSpline
 62
7
  6
CONTINUOUS
 70
0
 71
3
 72
17
 73
13
 74
0
 42
0.0000001
 43
0.0000001
 44
0.0000000001
 40
0.0
 40
0.0
 40
0.0
 40
0.0
 40
0.1453496714
 40
0.2868025825
 40
0.4230890175
 40
0.5529370658
 40
0.6754398658
 40
0.7338432018
 40
0.790386199
 40
0.8451538698
 40
0.8982574751
 40
1.0
 40
1.0
 40
1.0
 40
1.0
 10
-22.6298016907
 20
9.8371448776
 30
0.0
 10
-22.6215189491
 20
9.8320727549
 30
0.0
 10
-22.6052747327
 20
9.8219006124
 30
0.0
 10
-22.5817115448
 20
9.806271865
 30
0.0
 10
-22.5595245185
 20
9.7904653905
 30
0.0
 10
-22.5390037079
 20
9.7745367532
 30
0.0
 10
-22.5232221189
 20
9.7610265616
 30
0.0
 10
-22.5115865897
 20
9.7502371158
 30
0.0
 10
-22.503476231
 20
9.7423088483
 30
0.0
 10
-22.4958235044
 20
9.7344244758
 30
0.0
 10
-22.486329478
 20
9.7241250836
 30
0.0
 10
-22.4795986161
 20
9.7162599491
 30
0.0
 10
-22.475298859
 20
9.7109938437
 30
0.0
  0
SPLINE
  5
59E
100
AcDbEntity
  8
0
100
AcDbSpline
 62
7
  6
CONTINUOUS
 70
0
 71
3
 72
21
 73
17
 74
0
 42
0.0000001
 43
0.0000001
 44
0.0000000001
 40
0.0
 40
0.0
 40
0.0
 40
0.0
 40
0.1239113141
 40
0.1861867064
 40
0.2486629406
 40
0.3113187116
 40
0.3741233319
 40
0.4370338648
 40
0.5
 40
0.5629661352
 40
0.6258766681
 40
0.6886812884
 40
0.7513370594
 40
0.8138132936
 40
0.8760886859
 40
1.0
 40
1.0
 40
1.0
 40
1.0
 10
-22.475298859
 20
9.7109938437
 30
0.0
 10
-22.4731986707
 20
9.7007050643
 30
0.0
 10
-22.4703201559
 20
9.6851856987
 30
0.0
 10
-22.4671573407
 20
9.6643498248
 30
0.0
 10
-22.4651496998
 20
9.6485935452
 30
0.0
 10
-22.4635444727
 20
9.6327459613
 30
0.0
 10
-22.4623727669
 20
9.6168232748
 30
0.0
 10
-22.4616593216
 20
9.6008469977
 30
0.0
 10
-22.4614191379
 20
9.5848428099
 30
0.0
 10
-22.4616593216
 20
9.5688386221
 30
0.0
 10
-22.4623727669
 20
9.552862345
 30
0.0
 10
-22.4635444727
 20
9.5369396586
 30
0.0
 10
-22.4651496998
 20
9.5210920747
 30
0.0
 10
-22.4671573407
 20
9.505335795
 30
0.0
 10
-22.4703201559
 20
9.4844999211
 30
0.0
 10
-22.4731986707
 20
9.4689805555
 30
0.0
 10
-22.475298859
 20
9.4586917761
 30
0.0
  0
SPLINE
  5
59F
100
AcDbEntity
  8
0
100
AcDbSpline
 62
7
  6
CONTINUOUS
 70
0
 71
3
 72
23
 73
19
 74
0
 42
0.0000001
 43
0.0000001
 44
0.0000000001
 40
0.0
 40
0.0
 40
0.0
 40
0.0
 40
0.0552201911
 40
0.110674922
 40
0.1665928576
 40
0.2231878102
 40
0.2806566476
 40
0.3391704941
 40
0.3988757599
 40
0.4598905855
 40
0.5223036024
 40
0.5861759161
 40
0.651533691
 40
0.7183810661
 40
0.7867062799
 40
0.856480444
 40
0.9276248886
 40
1.0
 40
1.0
 40
1.0
 40
1.0
 10
-22.7374112951
 20
9.319343146
 30
0.0
 10
-22.7415087232
 20
9.3193430086
 30
0.0
 10
-22.7497260365
 20
9.3197233596
 30
0.0
 10
-22.7619853362
 20
9.3214336926
 30
0.0
 10
-22.7741377482
 20
9.3242770357
 30
0.0
 10
-22.7861297941
 20
9.328237788
 30
0.0
 10
-22.7979086624
 20
9.3333014117
 30
0.0
 10
-22.8094250667
 20
9.3394416322
 30
0.0
 10
-22.8206287321
 20
9.3466335254
 30
0.0
 10
-22.8314724511
 20
9.3548445519
 30
0.0
 10
-22.8419109487
 20
9.3640385395
 30
0.0
 10
-22.8518982307
 20
9.3741771179
 30
0.0
 10
-22.8613945533
 20
9.3852137603
 30
0.0
 10
-22.8703577237
 20
9.3971032695
 30
0.0
 10
-22.8787520467
 20
9.4097949857
 30
0.0
 10
-22.8865411211
 20
9.423236242
 30
0.0
 10
-22.8936900429
 20
9.4373651245
 30
0.0
 10
-22.8979753764
 20
9.4471208309
 30
0.0
 10
-22.9000051783
 20
9.4520928099
 30
0.0
  0
SPLINE
  5
5A0
100
AcDbEntity
  8
0
100
AcDbSpline
 62
7
  6
CONTINUOUS
 70
0
 71
3
 72
17
 73
13
 74
0
 42
0.0000001
 43
0.0000001
 44
0.0000000001
 40
0.0
 40
0.0
 40
0.0
 40
0.0
 40
0.1017425249
 40
0.1548461302
 40
0.209613801
 40
0.2661567982
 40
0.3245601342
 40
0.4470629342
 40
0.5769109825
 40
0.7131974175
 40
0.8546503286
 40
1.0
 40
1.0
 40
1.0
 40
1.0
 10
-22.475298859
 20
9.4586917761
 30
0.0
 10
-22.4795986161
 20
9.4534256707
 30
0.0
 10
-22.486329478
 20
9.4455605363
 30
0.0
 10
-22.4958235044
 20
9.4352611441
 30
0.0
 10
-22.503476231
 20
9.4273767715
 30
0.0
 10
-22.5115865897
 20
9.4194485041
 30
0.0
 10
-22.5232221189
 20
9.4086590582
 30
0.0
 10
-22.5390037079
 20
9.3951488666
 30
0.0
 10
-22.5595245185
 20
9.3792202293
 30
0.0
 10
-22.5817115448
 20
9.3634137548
 30
0.0
 10
-22.6052747327
 20
9.3477850074
 30
0.0
 10
-22.6215189491
 20
9.3376128649
 30
0.0
 10
-22.6298016907
 20
9.3325407423
 30
0.0
  0
SPLINE
  5
5A1
100
AcDbEntity
  8
0
100
AcDbSpline
 62
7
  6
CONTINUOUS
 70
0
 71
3
 72
12
 73
8
 74
0
 42
0.0000001
 43
0.0000001
 44
0.0000000001
 40
0.0
 40
0.0
 40
0.0
 40
0.0
 40
0.2548331181
 40
0.5055593934
 40
0.7534570324
 40
0.8768193344
 40
1.0
 40
1.0
 40
1.0
 40
1.0
 10
-22.6593545527
 20
9.3318099471
 30
0.0
 10
-22.6638965127
 20
9.3297690669
 30
0.0
 10
-22.6731145208
 20
9.3261615397
 30
0.0
 10
-22.6873304252
 20
9.3222368225
 30
0.0
 10
-22.6993486681
 20
9.3202612765
 30
0.0
 10
-22.7089815529
 20
9.3194739267
 30
0.0
 10
-22.7138001537
 20
9.3193430637
 30
0.0
 10
-22.7162070932
 20
9.319343146
 30
0.0
  0
SPLINE
  5
5A2
100
AcDbEntity
  8
0
100
AcDbSpline
 62
7
  6
CONTINUOUS
 70
0
 71
3
 72
12
 73
8
 74
0
 42
0.0000001
 43
0.0000001
 44
0.0000000001
 40
0.0
 40
0.0
 40
0.0
 40
0.0
 40
0.2548611765
 40
0.5055935993
 40
0.6298518386
 40
0.7535681839
 40
1.0
 40
1.0
 40
1.0
 40
1.0
 10
-22.6591808412
 20
9.8377975443
 30
0.0
 10
-22.6637353326
 20
9.8398512816
 30
0.0
 10
-22.6729794218
 20
9.8434806403
 30
0.0
 10
-22.6849016531
 20
9.8467824294
 30
0.0
 10
-22.694506406
 20
9.848629522
 30
0.0
 10
-22.7041120793
 20
9.8499448047
 30
0.0
 10
-22.7113762151
 20
9.8503423085
 30
0.0
 10
-22.7162070932
 20
9.8503424738
 30
0.0
  0
SPLINE
  5
5A3
100
AcDbEntity
  8
0
100
AcDbSpline
 62
7
  6
CONTINUOUS
 70
0
 71
3
 72
21
 73
17
 74
0
 42
0.0000001
 43
0.0000001
 44
0.0000000001
 40
0.0
 40
0.0
 40
0.0
 40
0.0
 40
0.1239113141
 40
0.1861867064
 40
0.2486629406
 40
0.3113187116
 40
0.3741233319
 40
0.4370338648
 40
0.5
 40
0.5629661352
 40
0.6258766681
 40
0.6886812884
 40
0.7513370594
 40
0.8138132936
 40
0.8760886859
 40
1.0
 40
1.0
 40
1.0
 40
1.0
 10
-22.7843045224
 20
9.4586917761
 30
0.0
 10
-22.7822043341
 20
9.4689805555
 30
0.0
 10
-22.7793258193
 20
9.4844999211
 30
0.0
 10
-22.7761630041
 20
9.505335795
 30
0.0
 10
-22.7741553632
 20
9.5210920747
 30
0.0
 10
-22.7725501361
 20
9.5369396586
 30
0.0
 10
-22.7713784302
 20
9.552862345
 30
0.0
 10
-22.770664985
 20
9.5688386221
 30
0.0
 10
-22.7704248013
 20
9.5848428099
 30
0.0
 10
-22.770664985
 20
9.6008469977
 30
0.0
 10
-22.7713784302
 20
9.6168232748
 30
0.0
 10
-22.7725501361
 20
9.6327459613
 30
0.0
 10
-22.7741553632
 20
9.6485935452
 30
0.0
 10
-22.7761630041
 20
9.6643498248
 30
0.0
 10
-22.7793258193
 20
9.6851856987
 30
0.0
 10
-22.7822043341
 20
9.7007050643
 30
0.0
 10
-22.7843045224
 20
9.7109938437
 30
0.0
  0
SPLINE
  5
5A4
100
AcDbEntity
  8
0
100
AcDbSpline
 62
7
  6
CONTINUOUS
 70
0
 71
3
 72
15
 73
11
 74
0
 42
0.0000001
 43
0.0000001
 44
0.0000000001
 40
0.0
 40
0.0
 40
0.0
 40
0.0
 40
0.1350418497
 40
0.2678181341
 40
0.39787093
 40
0.5248074749
 40
0.6483951003
 40
0.7686251307
 40
0.8857070957
 40
1.0
 40
1.0
 40
1.0
 40
1.0
 10
-22.8682093299
 20
9.7109938437
 30
0.0
 10
-22.8608705824
 20
9.7161831219
 30
0.0
 10
-22.8463759068
 20
9.7265595325
 30
0.0
 10
-22.8250686832
 20
9.7422861456
 30
0.0
 10
-22.8044680694
 20
9.7580557564
 30
0.0
 10
-22.7846680603
 20
9.7738571764
 30
0.0
 10
-22.7657229532
 20
9.7896723695
 30
0.0
 10
-22.74763325
 20
9.8054791093
 30
0.0
 10
-22.7303470318
 20
9.8212562816
 30
0.0
 10
-22.7191779316
 20
9.8318598788
 30
0.0
 10
-22.7137064982
 20
9.8371448776
 30
0.0
  0
SPLINE
  5
5A5
100
AcDbEntity
  8
0
100
AcDbSpline
 62
7
  6
CONTINUOUS
 70
0
 71
3
 72
9
 73
5
 74
0
 42
0.0000001
 43
0.0000001
 44
0.0000000001
 40
0.0
 40
0.0
 40
0.0
 40
0.0
 40
0.5063930195
 40
1.0
 40
1.0
 40
1.0
 40
1.0
 10
-22.7843045224
 20
9.7109938437
 30
0.0
 10
-22.7763852162
 20
9.7158434086
 30
0.0
 10
-22.760837595
 20
9.7255699722
 30
0.0
 10
-22.7455344049
 20
9.7356792749
 30
0.0
 10
-22.7380620838
 20
9.7407879356
 30
0.0
  0
SPLINE
  5
5A6
100
AcDbEntity
  8
0
100
AcDbSpline
 62
7
  6
CONTINUOUS
 70
0
 71
3
 72
15
 73
11
 74
0
 42
0.0000001
 43
0.0000001
 44
0.0000000001
 40
0.0
 40
0.0
 40
0.0
 40
0.0
 40
0.1442297581
 40
0.28362984
 40
0.4175078561
 40
0.5454197819
 40
0.6672646174
 40
0.7832850188
 40
0.8939835076
 40
1.0
 40
1.0
 40
1.0
 40
1.0
 10
-22.7380620838
 20
9.7407879356
 30
0.0
 10
-22.7322894756
 20
9.7447345402
 30
0.0
 10
-22.7210323002
 20
9.7526357914
 30
0.0
 10
-22.704810308
 20
9.7647488848
 30
0.0
 10
-22.6896224747
 20
9.776907655
 30
0.0
 10
-22.6755418545
 20
9.7890676863
 30
0.0
 10
-22.6625852494
 20
9.8011835903
 30
0.0
 10
-22.6507127596
 20
9.8132166192
 30
0.0
 10
-22.6398403579
 20
9.8251397386
 30
0.0
 10
-22.6330525426
 20
9.8331634134
 30
0.0
 10
-22.6298016907
 20
9.8371448776
 30
0.0
  0
SPLINE
  5
5A7
100
AcDbEntity
  8
0
100
AcDbSpline
 62
7
  6
CONTINUOUS
 70
0
 71
3
 72
34
 73
30
 74
0
 42
0.0000001
 43
0.0000001
 44
0.0000000001
 40
0.0
 40
0.0
 40
0.0
 40
0.0
 40
0.0248126921
 40
0.0498797089
 40
0.0752825885
 40
0.1010938244
 40
0.1273775423
 40
0.1541864233
 40
0.1815627024
 40
0.2095381377
 40
0.2381322962
 40
0.267355893
 40
0.2972084004
 40
0.3276802707
 40
0.3587540644
 40
0.3904029271
 40
0.422594281
 40
0.4552881978
 40
0.5219778393
 40
0.5900724158
 40
0.6245074843
 40
0.659110649
 40
0.6938168972
 40
0.7285601554
 40
0.7978747161
 40
0.8665380974
 40
0.9340676853
 40
0.9672711789
 40
1.0
 40
1.0
 40
1.0
 40
1.0
 10
-22.7370427129
 20
9.848702255
 30
0.0
 10
-22.7409111727
 20
9.8480912046
 30
0.0
 10
-22.748638345
 20
9.846524147
 30
0.0
 10
-22.7600532436
 20
9.8431754507
 30
0.0
 10
-22.7712973185
 20
9.8388319266
 30
0.0
 10
-22.7823270663
 20
9.8335135092
 30
0.0
 10
-22.7930989474
 20
9.8272384322
 30
0.0
 10
-22.8035729892
 20
9.8200339479
 30
0.0
 10
-22.8137089459
 20
9.8119273916
 30
0.0
 10
-22.8234674749
 20
9.8029496535
 30
0.0
 10
-22.832813425
 20
9.7931372945
 30
0.0
 10
-22.8417091948
 20
9.7825261708
 30
0.0
 10
-22.8501226699
 20
9.7711585469
 30
0.0
 10
-22.8580217174
 20
9.759077706
 30
0.0
 10
-22.865375113
 20
9.746329315
 30
0.0
 10
-22.8721571619
 20
9.7329634649
 30
0.0
 10
-22.8783398742
 20
9.7190298502
 30
0.0
 10
-22.8858032283
 20
9.6996417067
 30
0.0
 10
-22.8934747517
 20
9.6742998102
 30
0.0
 10
-22.8988239393
 20
9.6480919147
 30
0.0
 10
-22.9017245474
 20
9.6266362487
 30
0.0
 10
-22.9031982598
 20
9.6103221829
 30
0.0
 10
-22.9039541094
 20
9.5939104856
 30
0.0
 10
-22.9040040554
 20
9.5720024347
 30
0.0
 10
-22.9022753948
 20
9.5447564295
 30
0.0
 10
-22.8973686147
 20
9.5126512552
 30
0.0
 10
-22.8909397082
 20
9.4866542803
 30
0.0
 10
-22.8844348021
 20
9.4666115211
 30
0.0
 10
-22.8807445015
 20
9.4568755039
 30
0.0
 10
-22.8787919749
 20
9.4520928099
 30
0.0
  0
SPLINE
  5
5A8
100
AcDbEntity
  8
0
100
AcDbSpline
 62
7
  6
CONTINUOUS
 70
0
 71
3
 72
50
 73
46
 74
0
 42
0.0000001
 43
0.0000001
 44
0.0000000001
 40
0.0
 40
0.0
 40
0.0
 40
0.0
 40
0.0335593411
 40
0.0662064547
 40
0.09784588
 40
0.1132821976
 40
0.1284582097
 40
0.1580236386
 40
0.1865900763
 40
0.2005296522
 40
0.214255553
 40
0.2277855249
 40
0.2411397528
 40
0.2543414387
 40
0.2674158975
 40
0.2803902603
 40
0.2932935579
 40
0.3061558131
 40
0.3190077183
 40
0.3318802764
 40
0.34480396
 40
0.357808549
 40
0.3709225009
 40
0.3841723031
 40
0.3975826651
 40
0.4249583038
 40
0.4532086807
 40
0.4824339765
 40
0.4974362833
 40
0.5126991777
 40
0.5439972826
 40
0.5763103855
 40
0.5928332986
 40
0.6095840112
 40
0.6437116788
 40
0.6785833346
 40
0.7140616842
 40
0.749993104
 40
0.7862127593
 40
0.8225488219
 40
0.8588271786
 40
0.8948729581
 40
0.9305179753
 40
0.9656157344
 40
1.0
 40
1.0
 40
1.0
 40
1.0
 10
-22.4823007393
 20
9.4758428099
 30
0.0
 10
-22.4847899229
 20
9.4697455802
 30
0.0
 10
-22.4901747393
 20
9.4579028661
 30
0.0
 10
-22.4995602479
 20
9.4411264436
 30
0.0
 10
-22.508390476
 20
9.4281821778
 30
0.0
 10
-22.5159809718
 20
9.4186045923
 30
0.0
 10
-22.5237619901
 20
9.4097156752
 30
0.0
 10
-22.5340436628
 20
9.3996145164
 30
0.0
 10
-22.5451727033
 20
9.3908338326
 30
0.0
 10
-22.5544068713
 20
9.384781836
 30
0.0
 10
-22.5614261416
 20
9.3807608106
 30
0.0
 10
-22.5685770183
 20
9.3772310677
 30
0.0
 10
-22.5758430722
 20
9.3742024102
 30
0.0
 10
-22.5832063234
 20
9.3716817402
 30
0.0
 10
-22.590648841
 20
9.3696746848
 30
0.0
 10
-22.5981528972
 20
9.3681875838
 30
0.0
 10
-22.6056999918
 20
9.3672235643
 30
0.0
 10
-22.6132717164
 20
9.3667843058
 30
0.0
 10
-22.6208496617
 20
9.3668722682
 30
0.0
 10
-22.628415204
 20
9.3674866992
 30
0.0
 10
-22.6359500219
 20
9.3686252166
 30
0.0
 10
-22.6434355902
 20
9.3702862518
 30
0.0
 10
-22.6508535973
 20
9.3724651758
 30
0.0
 10
-22.6581866585
 20
9.3751558608
 30
0.0
 10
-22.6678906729
 20
9.3794465229
 30
0.0
 10
-22.679738052
 20
9.3860949691
 30
0.0
 10
-22.6932191188
 20
9.3959281618
 30
0.0
 10
-22.7037334236
 20
9.4055506078
 30
0.0
 10
-22.7117157227
 20
9.4140753203
 30
0.0
 10
-22.7195255933
 20
9.4232989098
 30
0.0
 10
-22.7286516664
 20
9.4358309921
 30
0.0
 10
-22.736734871
 20
9.4493446593
 30
0.0
 10
-22.7426300803
 20
9.4607896255
 30
0.0
 10
-22.7481972576
 20
9.4727916027
 30
0.0
 10
-22.7543438516
 20
9.4884770995
 30
0.0
 10
-22.7603443755
 20
9.5081019235
 30
0.0
 10
-22.7649580689
 20
9.5284611547
 30
0.0
 10
-22.768141577
 20
9.5493591348
 30
0.0
 10
-22.7698653287
 20
9.5705963357
 30
0.0
 10
-22.7701118912
 20
9.5919698673
 30
0.0
 10
-22.7688792979
 20
9.6132751627
 30
0.0
 10
-22.7661801911
 20
9.6343082202
 30
0.0
 10
-22.7620388037
 20
9.6548701712
 30
0.0
 10
-22.756494305
 20
9.6747601065
 30
0.0
 10
-22.7518454916
 20
9.6875957038
 30
0.0
 10
-22.7492951212
 20
9.6938428099
 30
0.0
  0
SPLINE
  5
5A9
100
AcDbEntity
  8
0
100
AcDbSpline
 62
7
  6
CONTINUOUS
 70
0
 71
3
 72
21
 73
17
 74
0
 42
0.0000001
 43
0.0000001
 44
0.0000000001
 40
0.0
 40
0.0
 40
0.0
 40
0.0
 40
0.0549806743
 40
0.110482624
 40
0.1666678499
 40
0.2236839352
 40
0.2816589194
 40
0.3407043432
 40
0.4009104577
 40
0.4623469466
 40
0.5250651098
 40
0.5890902062
 40
0.7210276426
 40
0.8581362747
 40
0.9285322553
 40
1.0
 40
1.0
 40
1.0
 40
1.0
 10
-22.7369632445
 20
9.3209704739
 30
0.0
 10
-22.7406157803
 20
9.3215451459
 30
0.0
 10
-22.7479113069
 20
9.323002547
 30
0.0
 10
-22.7587013355
 20
9.3260778275
 30
0.0
 10
-22.7693442625
 20
9.3300413324
 30
0.0
 10
-22.7798020432
 20
9.3348790899
 30
0.0
 10
-22.7900401887
 20
9.3405718945
 30
0.0
 10
-22.8000223761
 20
9.3471020358
 30
0.0
 10
-22.8097154208
 20
9.3544453998
 30
0.0
 10
-22.819086869
 20
9.3625761924
 30
0.0
 10
-22.8281034775
 20
9.3714681773
 30
0.0
 10
-22.8397284541
 20
9.3844223474
 30
0.0
 10
-22.8531835382
 20
9.4023945391
 30
0.0
 10
-22.8648338029
 20
9.4220753989
 30
0.0
 10
-22.8731607377
 20
9.4388935504
 30
0.0
 10
-22.8769753914
 20
9.4476431073
 30
0.0
 10
-22.8787919749
 20
9.4520928099
 30
0.0
  0
SPLINE
  5
5AA
100
AcDbEntity
  8
0
100
AcDbSpline
 62
7
  6
CONTINUOUS
 70
0
 71
3
 72
15
 73
11
 74
0
 42
0.0000001
 43
0.0000001
 44
0.0000000001
 40
0.0
 40
0.0
 40
0.0
 40
0.0
 40
0.1142929029
 40
0.2313748769
 40
0.3516049135
 40
0.4751925433
 40
0.6021290974
 40
0.7321819093
 40
0.8649581884
 40
1.0
 40
1.0
 40
1.0
 40
1.0
 10
-22.7137064982
 20
9.3325407423
 30
0.0
 10
-22.7191779315
 20
9.337825741
 30
0.0
 10
-22.7303470321
 20
9.3484293385
 30
0.0
 10
-22.7476332509
 20
9.3642065115
 30
0.0
 10
-22.7657229551
 20
9.3800132521
 30
0.0
 10
-22.7846680633
 20
9.3958284459
 30
0.0
 10
-22.8044680741
 20
9.4116298669
 30
0.0
 10
-22.8250686891
 20
9.4273994785
 30
0.0
 10
-22.8463759115
 20
9.4431260901
 30
0.0
 10
-22.8608705845
 20
9.4535024994
 30
0.0
 10
-22.8682093299
 20
9.4586917761
 30
0.0
  0
SPLINE
  5
5AB
100
AcDbEntity
  8
0
100
AcDbSpline
 62
7
  6
CONTINUOUS
 70
0
 71
3
 72
15
 73
11
 74
0
 42
0.0000001
 43
0.0000001
 44
0.0000000001
 40
0.0
 40
0.0
 40
0.0
 40
0.0
 40
0.1053465837
 40
0.2155703502
 40
0.3313557471
 40
0.4532196958
 40
0.5813719614
 40
0.7156288081
 40
0.8554364068
 40
1.0
 40
1.0
 40
1.0
 40
1.0
 10
-22.6298016907
 20
9.3325407423
 30
0.0
 10
-22.6331953174
 20
9.3366970692
 30
0.0
 10
-22.6402952572
 20
9.3450766079
 30
0.0
 10
-22.6517013686
 20
9.3575224252
 30
0.0
 10
-22.6642043458
 20
9.3700849401
 30
0.0
 10
-22.677894418
 20
9.3827314601
 30
0.0
 10
-22.6928072544
 20
9.3954163066
 30
0.0
 10
-22.7089108568
 20
9.4080878139
 30
0.0
 10
-22.726109531
 20
9.42069773
 30
0.0
 10
-22.7380377762
 20
9.4289179297
 30
0.0
 10
-22.7441507622
 20
9.4330227564
 30
0.0
  0
LINE
  5
5AC
100
AcDbEntity
  8
0
100
AcDbLine
 62
7
  6
CONTINUOUS
 10
-22.7441507622
 20
9.4330227564
 11
-22.7450712855
 21
9.4336400722
  0
SPLINE
  5
5AD
100
AcDbEntity
  8
0
100
AcDbSpline
 62
7
  6
CONTINUOUS
 70
0
 71
3
 72
9
 73
5
 74
0
 42
0.0000001
 43
0.0000001
 44
0.0000000001
 40
0.0
 40
0.0
 40
0.0
 40
0.0
 40
0.4948890586
 40
1.0
 40
1.0
 40
1.0
 40
1.0
 10
-22.7450712855
 20
9.4336400722
 30
0.0
 10
-22.7514517902
 20
9.4379133432
 30
0.0
 10
-22.764452434
 20
9.4463877146
 30
0.0
 10
-22.7776203239
 20
9.4545985571
 30
0.0
 10
-22.7843045224
 20
9.4586917761
 30
0.0
  0
SPLINE
  5
5AE
100
AcDbEntity
  8
0
100
AcDbSpline
 62
7
  6
CONTINUOUS
 70
0
 71
3
 72
50
 73
46
 74
0
 42
0.0000001
 43
0.0000001
 44
0.0000000001
 40
0.0
 40
0.0
 40
0.0
 40
0.0
 40
0.0335593411
 40
0.0662064547
 40
0.09784588
 40
0.1132821976
 40
0.1284582097
 40
0.1580236386
 40
0.1865900763
 40
0.2005296522
 40
0.214255553
 40
0.2277855249
 40
0.2411397528
 40
0.2543414387
 40
0.2674158975
 40
0.2803902603
 40
0.2932935579
 40
0.3061558131
 40
0.3190077183
 40
0.3318802764
 40
0.34480396
 40
0.357808549
 40
0.3709225009
 40
0.3841723031
 40
0.3975826651
 40
0.4249583038
 40
0.4532086807
 40
0.4824339765
 40
0.4974362833
 40
0.5126991777
 40
0.5439972826
 40
0.5763103855
 40
0.5928332986
 40
0.6095840112
 40
0.6437116788
 40
0.6785833346
 40
0.7140616842
 40
0.749993104
 40
0.7862127593
 40
0.8225488219
 40
0.8588271786
 40
0.8948729581
 40
0.9305179753
 40
0.9656157344
 40
1.0
 40
1.0
 40
1.0
 40
1.0
 10
-22.7492951212
 20
9.6938428099
 30
0.0
 10
-22.7468059377
 20
9.6999400396
 30
0.0
 10
-22.7414211213
 20
9.7117827537
 30
0.0
 10
-22.7320356127
 20
9.7285591762
 30
0.0
 10
-22.7232053845
 20
9.741503442
 30
0.0
 10
-22.7156148887
 20
9.7510810275
 30
0.0
 10
-22.7078338705
 20
9.7599699446
 30
0.0
 10
-22.6975521977
 20
9.7700711034
 30
0.0
 10
-22.6864231572
 20
9.7788517873
 30
0.0
 10
-22.6771889892
 20
9.7849037838
 30
0.0
 10
-22.6701697189
 20
9.7889248093
 30
0.0
 10
-22.6630188422
 20
9.7924545521
 30
0.0
 10
-22.6557527884
 20
9.7954832096
 30
0.0
 10
-22.6483895371
 20
9.7980038796
 30
0.0
 10
-22.6409470196
 20
9.8000109351
 30
0.0
 10
-22.6334429633
 20
9.801498036
 30
0.0
 10
-22.6258958688
 20
9.8024620556
 30
0.0
 10
-22.6183241441
 20
9.802901314
 30
0.0
 10
-22.6107461988
 20
9.8028133516
 30
0.0
 10
-22.6031806566
 20
9.8021989207
 30
0.0
 10
-22.5956458387
 20
9.8010604032
 30
0.0
 10
-22.5881602703
 20
9.799399368
 30
0.0
 10
-22.5807422632
 20
9.797220444
 30
0.0
 10
-22.573409202
 20
9.794529759
 30
0.0
 10
-22.5637051876
 20
9.7902390969
 30
0.0
 10
-22.5518578085
 20
9.7835906507
 30
0.0
 10
-22.5383767418
 20
9.7737574581
 30
0.0
 10
-22.527862437
 20
9.7641350121
 30
0.0
 10
-22.5198801378
 20
9.7556102996
 30
0.0
 10
-22.5120702672
 20
9.74638671
 30
0.0
 10
-22.5029441941
 20
9.7338546278
 30
0.0
 10
-22.4948609896
 20
9.7203409605
 30
0.0
 10
-22.4889657802
 20
9.7088959943
 30
0.0
 10
-22.483398603
 20
9.6968940172
 30
0.0
 10
-22.4772520089
 20
9.6812085204
 30
0.0
 10
-22.471251485
 20
9.6615836963
 30
0.0
 10
-22.4666377916
 20
9.6412244651
 30
0.0
 10
-22.4634542835
 20
9.6203264851
 30
0.0
 10
-22.4617305318
 20
9.5990892841
 30
0.0
 10
-22.4614839693
 20
9.5777157525
 30
0.0
 10
-22.4627165627
 20
9.5564104571
 30
0.0
 10
-22.4654156695
 20
9.5353773997
 30
0.0
 10
-22.4695570568
 20
9.5148154486
 30
0.0
 10
-22.4751015556
 20
9.4949255133
 30
0.0
 10
-22.4797503689
 20
9.482089916
 30
0.0
 10
-22.4823007393
 20
9.4758428099
 30
0.0
  0
SPLINE
  5
5AF
100
AcDbEntity
  8
0
100
AcDbSpline
 62
7
  6
CONTINUOUS
 70
0
 71
3
 72
15
 73
11
 74
0
 42
0.0000001
 43
0.0000001
 44
0.0000000001
 40
0.0
 40
0.0
 40
0.0
 40
0.0
 40
0.1247548064
 40
0.2497027523
 40
0.3748070069
 40
0.4999999975
 40
0.6251929827
 40
0.7502972276
 40
0.8752451699
 40
1.0
 40
1.0
 40
1.0
 40
1.0
 10
-22.8682093299
 20
9.4586917761
 30
0.0
 10
-22.867218183
 20
9.469154158
 30
0.0
 10
-22.8654175907
 20
9.4901131634
 30
0.0
 10
-22.8633749992
 20
9.5216230306
 30
0.0
 10
-22.8620957474
 20
9.553210921
 30
0.0
 10
-22.8616594194
 20
9.5848428088
 30
0.0
 10
-22.8620957471
 20
9.6164746959
 30
0.0
 10
-22.8633749989
 20
9.6480625847
 30
0.0
 10
-22.8654175898
 20
9.6795724528
 30
0.0
 10
-22.8672181828
 20
9.7005314599
 30
0.0
 10
-22.8682093299
 20
9.7109938437
 30
0.0
  0
SPLINE
  5
5B0
100
AcDbEntity
  8
0
100
AcDbSpline
 62
7
  6
CONTINUOUS
 70
0
 71
3
 72
12
 73
8
 74
0
 42
0.0000001
 43
0.0000001
 44
0.0000000001
 40
0.0
 40
0.0
 40
0.0
 40
0.0
 40
0.1231806656
 40
0.2465429676
 40
0.4944406066
 40
0.7451668819
 40
1.0
 40
1.0
 40
1.0
 40
1.0
 10
-35.9716308133
 20
9.8503424738
 30
0.0
 10
-35.9740377528
 20
9.8503425561
 30
0.0
 10
-35.9788563537
 20
9.8502116932
 30
0.0
 10
-35.9884892384
 20
9.8494243433
 30
0.0
 10
-36.0005074813
 20
9.8474487974
 30
0.0
 10
-36.0147233857
 20
9.8435240802
 30
0.0
 10
-36.0239413938
 20
9.8399165529
 30
0.0
 10
-36.0284833539
 20
9.8378756728
 30
0.0
  0
SPLINE
  5
5B1
100
AcDbEntity
  8
0
100
AcDbSpline
 62
7
  6
CONTINUOUS
 70
0
 71
3
 72
17
 73
13
 74
0
 42
0.0000001
 43
0.0000001
 44
0.0000000001
 40
0.0
 40
0.0
 40
0.0
 40
0.0
 40
0.1453496714
 40
0.2868025825
 40
0.4230890175
 40
0.5529370658
 40
0.6754398658
 40
0.7338432018
 40
0.790386199
 40
0.8451538698
 40
0.8982574751
 40
1.0
 40
1.0
 40
1.0
 40
1.0
 10
-36.0580362158
 20
9.3325407423
 30
0.0
 10
-36.0663189574
 20
9.3376128649
 30
0.0
 10
-36.0825631739
 20
9.3477850074
 30
0.0
 10
-36.1061263617
 20
9.3634137548
 30
0.0
 10
-36.128313388
 20
9.3792202293
 30
0.0
 10
-36.1488341986
 20
9.3951488666
 30
0.0
 10
-36.1646157876
 20
9.4086590582
 30
0.0
 10
-36.1762513168
 20
9.4194485041
 30
0.0
 10
-36.1843616755
 20
9.4273767715
 30
0.0
 10
-36.1920144022
 20
9.4352611441
 30
0.0
 10
-36.2015084285
 20
9.4455605363
 30
0.0
 10
-36.2082392904
 20
9.4534256707
 30
0.0
 10
-36.2125390475
 20
9.4586917761
 30
0.0
  0
SPLINE
  5
5B2
100
AcDbEntity
  8
0
100
AcDbSpline
 62
7
  6
CONTINUOUS
 70
0
 71
3
 72
21
 73
17
 74
0
 42
0.0000001
 43
0.0000001
 44
0.0000000001
 40
0.0
 40
0.0
 40
0.0
 40
0.0
 40
0.1239113141
 40
0.1861867064
 40
0.2486629406
 40
0.3113187116
 40
0.3741233319
 40
0.4370338648
 40
0.5
 40
0.5629661352
 40
0.6258766681
 40
0.6886812884
 40
0.7513370594
 40
0.8138132936
 40
0.8760886859
 40
1.0
 40
1.0
 40
1.0
 40
1.0
 10
-36.2125390475
 20
9.4586917761
 30
0.0
 10
-36.2146392358
 20
9.4689805555
 30
0.0
 10
-36.2175177506
 20
9.4844999211
 30
0.0
 10
-36.2206805658
 20
9.505335795
 30
0.0
 10
-36.2226882067
 20
9.5210920747
 30
0.0
 10
-36.2242934338
 20
9.5369396586
 30
0.0
 10
-36.2254651397
 20
9.552862345
 30
0.0
 10
-36.2261785849
 20
9.5688386221
 30
0.0
 10
-36.2264187686
 20
9.5848428099
 30
0.0
 10
-36.2261785849
 20
9.6008469977
 30
0.0
 10
-36.2254651397
 20
9.6168232748
 30
0.0
 10
-36.2242934338
 20
9.6327459613
 30
0.0
 10
-36.2226882067
 20
9.6485935452
 30
0.0
 10
-36.2206805658
 20
9.6643498248
 30
0.0
 10
-36.2175177506
 20
9.6851856987
 30
0.0
 10
-36.2146392358
 20
9.7007050643
 30
0.0
 10
-36.2125390475
 20
9.7109938437
 30
0.0
  0
SPLINE
  5
5B3
100
AcDbEntity
  8
0
100
AcDbSpline
 62
7
  6
CONTINUOUS
 70
0
 71
3
 72
12
 73
8
 74
0
 42
0.0000001
 43
0.0000001
 44
0.0000000001
 40
0.0
 40
0.0
 40
0.0
 40
0.0
 40
0.2464318161
 40
0.3701481614
 40
0.4944064007
 40
0.7451388235
 40
1.0
 40
1.0
 40
1.0
 40
1.0
 10
-35.9716308133
 20
9.319343146
 30
0.0
 10
-35.9764616914
 20
9.3193433113
 30
0.0
 10
-35.9837258272
 20
9.3197408152
 30
0.0
 10
-35.9933315005
 20
9.3210560979
 30
0.0
 10
-36.0029362534
 20
9.3229031905
 30
0.0
 10
-36.0148584847
 20
9.3262049795
 30
0.0
 10
-36.0241025739
 20
9.3298343383
 30
0.0
 10
-36.0286570653
 20
9.3318880755
 30
0.0
  0
SPLINE
  5
5B4
100
AcDbEntity
  8
0
100
AcDbSpline
 62
7
  6
CONTINUOUS
 70
0
 71
3
 72
17
 73
13
 74
0
 42
0.0000001
 43
0.0000001
 44
0.0000000001
 40
0.0
 40
0.0
 40
0.0
 40
0.0
 40
0.1017425249
 40
0.1548461302
 40
0.209613801
 40
0.2661567982
 40
0.3245601342
 40
0.4470629342
 40
0.5769109825
 40
0.7131974175
 40
0.8546503286
 40
1.0
 40
1.0
 40
1.0
 40
1.0
 10
-36.2125390475
 20
9.7109938437
 30
0.0
 10
-36.2082392904
 20
9.7162599491
 30
0.0
 10
-36.2015084285
 20
9.7241250836
 30
0.0
 10
-36.1920144022
 20
9.7344244758
 30
0.0
 10
-36.1843616755
 20
9.7423088483
 30
0.0
 10
-36.1762513168
 20
9.7502371158
 30
0.0
 10
-36.1646157876
 20
9.7610265616
 30
0.0
 10
-36.1488341986
 20
9.7745367532
 30
0.0
 10
-36.128313388
 20
9.7904653905
 30
0.0
 10
-36.1061263617
 20
9.806271865
 30
0.0
 10
-36.0825631739
 20
9.8219006124
 30
0.0
 10
-36.0663189574
 20
9.8320727549
 30
0.0
 10
-36.0580362158
 20
9.8371448776
 30
0.0
  0
SPLINE
  5
5B5
100
AcDbEntity
  8
0
100
AcDbSpline
 62
7
  6
CONTINUOUS
 70
0
 71
3
 72
33
 73
29
 74
0
 42
0.0000001
 43
0.0000001
 44
0.0000000001
 40
0.0
 40
0.0
 40
0.0
 40
0.0
 40
0.033118039
 40
0.0667387692
 40
0.1351518206
 40
0.2047216555
 40
0.2748923214
 40
0.3100240992
 40
0.3450806149
 40
0.3799879884
 40
0.4146734428
 40
0.449066382
 40
0.4831003246
 40
0.5167119081
 40
0.5498436422
 40
0.6144413694
 40
0.6765850197
 40
0.736081464
 40
0.7648382962
 40
0.7929392653
 40
0.8204104553
 40
0.8472925828
 40
0.8736379259
 40
0.8995125738
 40
0.9249940424
 40
0.9501702614
 40
0.975138117
 40
1.0
 40
1.0
 40
1.0
 40
1.0
 10
-35.7878327282
 20
9.7175928099
 30
0.0
 10
-35.7857699012
 20
9.7125399363
 30
0.0
 10
-35.7818842651
 20
9.7022443454
 30
0.0
 10
-35.7750923848
 20
9.6810248143
 30
0.0
 10
-35.7685081301
 20
9.6534709915
 30
0.0
 10
-35.7637449407
 20
9.6194522152
 30
0.0
 10
-35.7624135861
 20
9.5906193471
 30
0.0
 10
-35.7629482678
 20
9.5674882359
 30
0.0
 10
-35.7641503285
 20
9.5502040586
 30
0.0
 10
-35.7661490162
 20
9.5330681897
 30
0.0
 10
-35.7689338257
 20
9.5161529811
 30
0.0
 10
-35.7724957285
 20
9.4995311828
 30
0.0
 10
-35.7768167447
 20
9.4832733861
 30
0.0
 10
-35.7818808275
 20
9.4674486341
 30
0.0
 10
-35.7895274007
 20
9.4471919414
 30
0.0
 10
-35.8007597106
 20
9.4232967635
 30
0.0
 10
-35.8169044436
 20
9.3971162047
 30
0.0
 10
-35.8324522698
 20
9.3777161491
 30
0.0
 10
-35.8459188121
 20
9.3640474339
 30
0.0
 10
-35.8563553246
 20
9.3548519963
 30
0.0
 10
-35.8671985825
 20
9.3466414938
 30
0.0
 10
-35.8784008765
 20
9.3394486687
 30
0.0
 10
-35.8899160308
 20
9.3333072725
 30
0.0
 10
-35.9016942836
 20
9.3282439602
 30
0.0
 10
-35.9136847171
 20
9.3242804571
 30
0.0
 10
-35.9258365492
 20
9.3214374988
 30
0.0
 10
-35.9380946491
 20
9.3197245411
 30
0.0
 10
-35.9463114643
 20
9.3193432835
 30
0.0
 10
-35.9504086084
 20
9.319343146
 30
0.0
  0
SPLINE
  5
5B6
100
AcDbEntity
  8
0
100
AcDbSpline
 62
7
  6
CONTINUOUS
 70
0
 71
3
 72
23
 73
19
 74
0
 42
0.0000001
 43
0.0000001
 44
0.0000000001
 40
0.0
 40
0.0
 40
0.0
 40
0.0
 40
0.0723751114
 40
0.143519556
 40
0.2132937201
 40
0.2816189339
 40
0.348466309
 40
0.4138240839
 40
0.4776963976
 40
0.5401094145
 40
0.6011242401
 40
0.6608295059
 40
0.7193433524
 40
0.7768121898
 40
0.8334071424
 40
0.889325078
 40
0.9447798089
 40
1.0
 40
1.0
 40
1.0
 40
1.0
 10
-35.7878327282
 20
9.7175928099
 30
0.0
 10
-35.7898625301
 20
9.7225647889
 30
0.0
 10
-35.7941478636
 20
9.7323204954
 30
0.0
 10
-35.8012967854
 20
9.7464493778
 30
0.0
 10
-35.8090858598
 20
9.7598906342
 30
0.0
 10
-35.8174801828
 20
9.7725823503
 30
0.0
 10
-35.8264433532
 20
9.7844718595
 30
0.0
 10
-35.8359396759
 20
9.7955085019
 30
0.0
 10
-35.8459269578
 20
9.8056470803
 30
0.0
 10
-35.8563654554
 20
9.8148410679
 30
0.0
 10
-35.8672091744
 20
9.8230520944
 30
0.0
 10
-35.8784128399
 20
9.8302439877
 30
0.0
 10
-35.8899292441
 20
9.8363842081
 30
0.0
 10
-35.9017081125
 20
9.8414478318
 30
0.0
 10
-35.9137001583
 20
9.8454085841
 30
0.0
 10
-35.9258525703
 20
9.8482519272
 30
0.0
 10
-35.93811187
 20
9.8499622603
 30
0.0
 10
-35.9463291833
 20
9.8503426112
 30
0.0
 10
-35.9504266114
 20
9.8503424738
 30
0.0
  0
SPLINE
  5
5B7
100
AcDbEntity
  8
0
100
AcDbSpline
 62
7
  6
CONTINUOUS
 70
0
 71
3
 72
15
 73
11
 74
0
 42
0.0000001
 43
0.0000001
 44
0.0000000001
 40
0.0
 40
0.0
 40
0.0
 40
0.0
 40
0.1247548064
 40
0.2497027523
 40
0.3748070069
 40
0.4999999975
 40
0.6251929827
 40
0.7502972276
 40
0.8752451699
 40
1.0
 40
1.0
 40
1.0
 40
1.0
 10
-35.8196285766
 20
9.7109938437
 30
0.0
 10
-35.8206197235
 20
9.7005314619
 30
0.0
 10
-35.8224203158
 20
9.6795724565
 30
0.0
 10
-35.8244629073
 20
9.6480625892
 30
0.0
 10
-35.8257421592
 20
9.6164746989
 30
0.0
 10
-35.8261784871
 20
9.584842811
 30
0.0
 10
-35.8257421594
 20
9.5532109239
 30
0.0
 10
-35.8244629076
 20
9.5216230351
 30
0.0
 10
-35.8224203168
 20
9.490113167
 30
0.0
 10
-35.8206197237
 20
9.4691541599
 30
0.0
 10
-35.8196285766
 20
9.4586917761
 30
0.0
  0
SPLINE
  5
5B8
100
AcDbEntity
  8
0
100
AcDbSpline
 62
7
  6
CONTINUOUS
 70
0
 71
3
 72
21
 73
17
 74
0
 42
0.0000001
 43
0.0000001
 44
0.0000000001
 40
0.0
 40
0.0
 40
0.0
 40
0.0
 40
0.1239113141
 40
0.1861867064
 40
0.2486629406
 40
0.3113187116
 40
0.3741233319
 40
0.4370338648
 40
0.5
 40
0.5629661352
 40
0.6258766681
 40
0.6886812884
 40
0.7513370594
 40
0.8138132936
 40
0.8760886859
 40
1.0
 40
1.0
 40
1.0
 40
1.0
 10
-35.9035333841
 20
9.7109938437
 30
0.0
 10
-35.9056335724
 20
9.7007050643
 30
0.0
 10
-35.9085120872
 20
9.6851856987
 30
0.0
 10
-35.9116749024
 20
9.6643498248
 30
0.0
 10
-35.9136825434
 20
9.6485935452
 30
0.0
 10
-35.9152877704
 20
9.6327459613
 30
0.0
 10
-35.9164594763
 20
9.6168232748
 30
0.0
 10
-35.9171729216
 20
9.6008469977
 30
0.0
 10
-35.9174131052
 20
9.5848428099
 30
0.0
 10
-35.9171729216
 20
9.5688386221
 30
0.0
 10
-35.9164594763
 20
9.552862345
 30
0.0
 10
-35.9152877704
 20
9.5369396586
 30
0.0
 10
-35.9136825434
 20
9.5210920747
 30
0.0
 10
-35.9116749024
 20
9.505335795
 30
0.0
 10
-35.9085120872
 20
9.4844999211
 30
0.0
 10
-35.9056335724
 20
9.4689805555
 30
0.0
 10
-35.9035333841
 20
9.4586917761
 30
0.0
  0
SPLINE
  5
5B9
100
AcDbEntity
  8
0
100
AcDbSpline
 62
7
  6
CONTINUOUS
 70
0
 71
3
 72
15
 73
11
 74
0
 42
0.0000001
 43
0.0000001
 44
0.0000000001
 40
0.0
 40
0.0
 40
0.0
 40
0.0
 40
0.1350418497
 40
0.2678181341
 40
0.39787093
 40
0.5248074749
 40
0.6483951003
 40
0.7686251307
 40
0.8857070957
 40
1.0
 40
1.0
 40
1.0
 40
1.0
 10
-35.8196285766
 20
9.4586917761
 30
0.0
 10
-35.8269673241
 20
9.453502498
 30
0.0
 10
-35.8414619997
 20
9.4431260873
 30
0.0
 10
-35.8627692233
 20
9.4273994742
 30
0.0
 10
-35.8833698372
 20
9.4116298634
 30
0.0
 10
-35.9031698462
 20
9.3958284434
 30
0.0
 10
-35.9221149533
 20
9.3800132503
 30
0.0
 10
-35.9402046565
 20
9.3642065106
 30
0.0
 10
-35.9574908747
 20
9.3484293382
 30
0.0
 10
-35.9686599749
 20
9.3378257411
 30
0.0
 10
-35.9741314083
 20
9.3325407423
 30
0.0
  0
SPLINE
  5
5BA
100
AcDbEntity
  8
0
100
AcDbSpline
 62
7
  6
CONTINUOUS
 70
0
 71
3
 72
9
 73
5
 74
0
 42
0.0000001
 43
0.0000001
 44
0.0000000001
 40
0.0
 40
0.0
 40
0.0
 40
0.0
 40
0.5051109414
 40
1.0
 40
1.0
 40
1.0
 40
1.0
 10
-35.9035333841
 20
9.4586917761
 30
0.0
 10
-35.9102175827
 20
9.4545985571
 30
0.0
 10
-35.9233854725
 20
9.4463877146
 30
0.0
 10
-35.9363861163
 20
9.4379133432
 30
0.0
 10
-35.942766621
 20
9.4336400722
 30
0.0
  0
LINE
  5
5BB
100
AcDbEntity
  8
0
100
AcDbLine
 62
7
  6
CONTINUOUS
 10
-35.942766621
 20
9.4336400722
 11
-35.9436871443
 21
9.4330227564
  0
SPLINE
  5
5BC
100
AcDbEntity
  8
0
100
AcDbSpline
 62
7
  6
CONTINUOUS
 70
0
 71
3
 72
15
 73
11
 74
0
 42
0.0000001
 43
0.0000001
 44
0.0000000001
 40
0.0
 40
0.0
 40
0.0
 40
0.0
 40
0.1445635932
 40
0.2843711919
 40
0.4186280386
 40
0.5467803042
 40
0.6686442529
 40
0.7844296498
 40
0.8946534163
 40
1.0
 40
1.0
 40
1.0
 40
1.0
 10
-35.9436871443
 20
9.4330227564
 30
0.0
 10
-35.9498001303
 20
9.4289179297
 30
0.0
 10
-35.9617283756
 20
9.42069773
 30
0.0
 10
-35.9789270497
 20
9.4080878139
 30
0.0
 10
-35.9950306522
 20
9.3954163066
 30
0.0
 10
-36.0099434885
 20
9.38273146
 30
0.0
 10
-36.0236335607
 20
9.3700849401
 30
0.0
 10
-36.0361365379
 20
9.3575224252
 30
0.0
 10
-36.0475426494
 20
9.3450766079
 30
0.0
 10
-36.0546425891
 20
9.3366970692
 30
0.0
 10
-36.0580362158
 20
9.3325407423
 30
0.0
  0
SPLINE
  5
5BD
100
AcDbEntity
  8
0
100
AcDbSpline
 62
7
  6
CONTINUOUS
 70
0
 71
3
 72
50
 73
46
 74
0
 42
0.0000001
 43
0.0000001
 44
0.0000000001
 40
0.0
 40
0.0
 40
0.0
 40
0.0
 40
0.0335593411
 40
0.0662064547
 40
0.09784588
 40
0.1132821976
 40
0.1284582097
 40
0.1580236386
 40
0.1865900763
 40
0.2005296522
 40
0.214255553
 40
0.2277855249
 40
0.2411397528
 40
0.2543414387
 40
0.2674158975
 40
0.2803902603
 40
0.2932935579
 40
0.3061558131
 40
0.3190077183
 40
0.3318802764
 40
0.34480396
 40
0.357808549
 40
0.3709225009
 40
0.3841723031
 40
0.3975826651
 40
0.4249583038
 40
0.4532086807
 40
0.4824339765
 40
0.4974362833
 40
0.5126991777
 40
0.5439972826
 40
0.5763103855
 40
0.5928332986
 40
0.6095840112
 40
0.6437116788
 40
0.6785833346
 40
0.7140616842
 40
0.749993104
 40
0.7862127593
 40
0.8225488219
 40
0.8588271786
 40
0.8948729581
 40
0.9305179753
 40
0.9656157344
 40
1.0
 40
1.0
 40
1.0
 40
1.0
 10
-35.9385427853
 20
9.4758428099
 30
0.0
 10
-35.9410319689
 20
9.4697455802
 30
0.0
 10
-35.9464167852
 20
9.4579028661
 30
0.0
 10
-35.9558022939
 20
9.4411264436
 30
0.0
 10
-35.964632522
 20
9.4281821778
 30
0.0
 10
-35.9722230178
 20
9.4186045923
 30
0.0
 10
-35.9800040361
 20
9.4097156752
 30
0.0
 10
-35.9902857088
 20
9.3996145164
 30
0.0
 10
-36.0014147493
 20
9.3908338326
 30
0.0
 10
-36.0106489173
 20
9.384781836
 30
0.0
 10
-36.0176681876
 20
9.3807608106
 30
0.0
 10
-36.0248190643
 20
9.3772310677
 30
0.0
 10
-36.0320851181
 20
9.3742024102
 30
0.0
 10
-36.0394483694
 20
9.3716817402
 30
0.0
 10
-36.0468908869
 20
9.3696746848
 30
0.0
 10
-36.0543949432
 20
9.3681875838
 30
0.0
 10
-36.0619420378
 20
9.3672235643
 30
0.0
 10
-36.0695137624
 20
9.3667843058
 30
0.0
 10
-36.0770917077
 20
9.3668722682
 30
0.0
 10
-36.0846572499
 20
9.3674866992
 30
0.0
 10
-36.0921920679
 20
9.3686252166
 30
0.0
 10
-36.0996776362
 20
9.3702862518
 30
0.0
 10
-36.1070956433
 20
9.3724651758
 30
0.0
 10
-36.1144287045
 20
9.3751558608
 30
0.0
 10
-36.1241327189
 20
9.3794465229
 30
0.0
 10
-36.135980098
 20
9.3860949691
 30
0.0
 10
-36.1494611648
 20
9.3959281618
 30
0.0
 10
-36.1599754695
 20
9.4055506078
 30
0.0
 10
-36.1679577687
 20
9.4140753203
 30
0.0
 10
-36.1757676393
 20
9.4232989098
 30
0.0
 10
-36.1848937124
 20
9.4358309921
 30
0.0
 10
-36.1929769169
 20
9.4493446593
 30
0.0
 10
-36.1988721263
 20
9.4607896255
 30
0.0
 10
-36.2044393035
 20
9.4727916027
 30
0.0
 10
-36.2105858976
 20
9.4884770995
 30
0.0
 10
-36.2165864215
 20
9.5081019235
 30
0.0
 10
-36.2212001149
 20
9.5284611547
 30
0.0
 10
-36.224383623
 20
9.5493591348
 30
0.0
 10
-36.2261073747
 20
9.5705963357
 30
0.0
 10
-36.2263539372
 20
9.5919698673
 30
0.0
 10
-36.2251213439
 20
9.6132751627
 30
0.0
 10
-36.222422237
 20
9.6343082202
 30
0.0
 10
-36.2182808497
 20
9.6548701712
 30
0.0
 10
-36.2127363509
 20
9.6747601065
 30
0.0
 10
-36.2080875376
 20
9.6875957038
 30
0.0
 10
-36.2055371672
 20
9.6938428099
 30
0.0
  0
SPLINE
  5
5BE
100
AcDbEntity
  8
0
100
AcDbSpline
 62
7
  6
CONTINUOUS
 70
0
 71
3
 72
15
 73
11
 74
0
 42
0.0000001
 43
0.0000001
 44
0.0000000001
 40
0.0
 40
0.0
 40
0.0
 40
0.0
 40
0.1142929029
 40
0.2313748769
 40
0.3516049135
 40
0.4751925433
 40
0.6021290974
 40
0.7321819093
 40
0.8649581884
 40
1.0
 40
1.0
 40
1.0
 40
1.0
 10
-35.9741314083
 20
9.8371448776
 30
0.0
 10
-35.968659975
 20
9.8318598788
 30
0.0
 10
-35.9574908744
 20
9.8212562813
 30
0.0
 10
-35.9402046556
 20
9.8054791083
 30
0.0
 10
-35.9221149514
 20
9.7896723677
 30
0.0
 10
-35.9031698432
 20
9.7738571739
 30
0.0
 10
-35.8833698324
 20
9.7580557529
 30
0.0
 10
-35.8627692174
 20
9.7422861414
 30
0.0
 10
-35.841461995
 20
9.7265595297
 30
0.0
 10
-35.826967322
 20
9.7161831204
 30
0.0
 10
-35.8196285766
 20
9.7109938437
 30
0.0
  0
SPLINE
  5
5BF
100
AcDbEntity
  8
0
100
AcDbSpline
 62
7
  6
CONTINUOUS
 70
0
 71
3
 72
15
 73
11
 74
0
 42
0.0000001
 43
0.0000001
 44
0.0000000001
 40
0.0
 40
0.0
 40
0.0
 40
0.0
 40
0.1060164924
 40
0.2167149812
 40
0.3327353826
 40
0.4545802181
 40
0.5824921439
 40
0.71637016
 40
0.8557702419
 40
1.0
 40
1.0
 40
1.0
 40
1.0
 10
-36.0580362158
 20
9.8371448776
 30
0.0
 10
-36.0547853639
 20
9.8331634134
 30
0.0
 10
-36.0479975486
 20
9.8251397386
 30
0.0
 10
-36.0371251469
 20
9.8132166192
 30
0.0
 10
-36.0252526571
 20
9.8011835903
 30
0.0
 10
-36.0122960521
 20
9.7890676863
 30
0.0
 10
-35.9982154318
 20
9.776907655
 30
0.0
 10
-35.9830275985
 20
9.7647488848
 30
0.0
 10
-35.9668056063
 20
9.7526357914
 30
0.0
 10
-35.9555484309
 20
9.7447345402
 30
0.0
 10
-35.9497758227
 20
9.7407879356
 30
0.0
  0
SPLINE
  5
5C0
100
AcDbEntity
  8
0
100
AcDbSpline
 62
7
  6
CONTINUOUS
 70
0
 71
3
 72
9
 73
5
 74
0
 42
0.0000001
 43
0.0000001
 44
0.0000000001
 40
0.0
 40
0.0
 40
0.0
 40
0.0
 40
0.4936069805
 40
1.0
 40
1.0
 40
1.0
 40
1.0
 10
-35.9497758227
 20
9.7407879356
 30
0.0
 10
-35.9423035016
 20
9.7356792749
 30
0.0
 10
-35.9270003115
 20
9.7255699722
 30
0.0
 10
-35.9114526903
 20
9.7158434086
 30
0.0
 10
-35.9035333841
 20
9.7109938437
 30
0.0
  0
SPLINE
  5
5C1
100
AcDbEntity
  8
0
100
AcDbSpline
 62
7
  6
CONTINUOUS
 70
0
 71
3
 72
34
 73
30
 74
0
 42
0.0000001
 43
0.0000001
 44
0.0000000001
 40
0.0
 40
0.0
 40
0.0
 40
0.0
 40
0.0327288211
 40
0.0659323147
 40
0.1334619026
 40
0.2021252839
 40
0.2714398446
 40
0.3061831028
 40
0.340889351
 40
0.3754925157
 40
0.4099275842
 40
0.4780221607
 40
0.5447118022
 40
0.577405719
 40
0.6095970729
 40
0.6412459356
 40
0.6723197293
 40
0.7027915996
 40
0.732644107
 40
0.7618677038
 40
0.7904618623
 40
0.8184372976
 40
0.8458135767
 40
0.8726224577
 40
0.8989061756
 40
0.9247174115
 40
0.9501202911
 40
0.9751873079
 40
1.0
 40
1.0
 40
1.0
 40
1.0
 10
-35.8090459316
 20
9.7175928099
 30
0.0
 10
-35.807093405
 20
9.7128101159
 30
0.0
 10
-35.8034031044
 20
9.7030740987
 30
0.0
 10
-35.7968981983
 20
9.6830313396
 30
0.0
 10
-35.7904692918
 20
9.6570343646
 30
0.0
 10
-35.7855625118
 20
9.6249291903
 30
0.0
 10
-35.7838338511
 20
9.5976831851
 30
0.0
 10
-35.7838837971
 20
9.5757751342
 30
0.0
 10
-35.7846396467
 20
9.559363437
 30
0.0
 10
-35.7861133591
 20
9.5430493711
 30
0.0
 10
-35.7890139672
 20
9.5215937051
 30
0.0
 10
-35.7943631549
 20
9.4953858096
 30
0.0
 10
-35.8020346782
 20
9.4700439132
 30
0.0
 10
-35.8094980323
 20
9.4506557697
 30
0.0
 10
-35.8156807446
 20
9.436722155
 30
0.0
 10
-35.8224627935
 20
9.4233563048
 30
0.0
 10
-35.8298161891
 20
9.4106079138
 30
0.0
 10
-35.8377152366
 20
9.398527073
 30
0.0
 10
-35.8461287117
 20
9.3871594491
 30
0.0
 10
-35.8550244815
 20
9.3765483254
 30
0.0
 10
-35.8643704316
 20
9.3667359663
 30
0.0
 10
-35.8741289607
 20
9.3577582282
 30
0.0
 10
-35.8842649173
 20
9.349651672
 30
0.0
 10
-35.8947389591
 20
9.3424471876
 30
0.0
 10
-35.9055108402
 20
9.3361721107
 30
0.0
 10
-35.916540588
 20
9.3308536933
 30
0.0
 10
-35.9277846629
 20
9.3265101691
 30
0.0
 10
-35.9391995615
 20
9.3231614728
 30
0.0
 10
-35.9469267338
 20
9.3215944153
 30
0.0
 10
-35.9507951936
 20
9.3209833648
 30
0.0
  0
SPLINE
  5
5C2
100
AcDbEntity
  8
0
100
AcDbSpline
 62
7
  6
CONTINUOUS
 70
0
 71
3
 72
50
 73
46
 74
0
 42
0.0000001
 43
0.0000001
 44
0.0000000001
 40
0.0
 40
0.0
 40
0.0
 40
0.0
 40
0.0335593411
 40
0.0662064547
 40
0.09784588
 40
0.1132821976
 40
0.1284582097
 40
0.1580236386
 40
0.1865900763
 40
0.2005296522
 40
0.214255553
 40
0.2277855249
 40
0.2411397528
 40
0.2543414387
 40
0.2674158975
 40
0.2803902603
 40
0.2932935579
 40
0.3061558131
 40
0.3190077183
 40
0.3318802764
 40
0.34480396
 40
0.357808549
 40
0.3709225009
 40
0.3841723031
 40
0.3975826651
 40
0.4249583038
 40
0.4532086807
 40
0.4824339765
 40
0.4974362833
 40
0.5126991777
 40
0.5439972826
 40
0.5763103855
 40
0.5928332986
 40
0.6095840112
 40
0.6437116788
 40
0.6785833346
 40
0.7140616842
 40
0.749993104
 40
0.7862127593
 40
0.8225488219
 40
0.8588271786
 40
0.8948729581
 40
0.9305179753
 40
0.9656157344
 40
1.0
 40
1.0
 40
1.0
 40
1.0
 10
-36.2055371672
 20
9.6938428099
 30
0.0
 10
-36.2030479836
 20
9.6999400396
 30
0.0
 10
-36.1976631673
 20
9.7117827537
 30
0.0
 10
-36.1882776586
 20
9.7285591762
 30
0.0
 10
-36.1794474305
 20
9.741503442
 30
0.0
 10
-36.1718569347
 20
9.7510810275
 30
0.0
 10
-36.1640759164
 20
9.7599699446
 30
0.0
 10
-36.1537942437
 20
9.7700711034
 30
0.0
 10
-36.1426652032
 20
9.7788517873
 30
0.0
 10
-36.1334310352
 20
9.7849037838
 30
0.0
 10
-36.1264117649
 20
9.7889248093
 30
0.0
 10
-36.1192608882
 20
9.7924545521
 30
0.0
 10
-36.1119948343
 20
9.7954832096
 30
0.0
 10
-36.1046315831
 20
9.7980038796
 30
0.0
 10
-36.0971890656
 20
9.8000109351
 30
0.0
 10
-36.0896850093
 20
9.801498036
 30
0.0
 10
-36.0821379147
 20
9.8024620556
 30
0.0
 10
-36.0745661901
 20
9.802901314
 30
0.0
 10
-36.0669882448
 20
9.8028133516
 30
0.0
 10
-36.0594227026
 20
9.8021989207
 30
0.0
 10
-36.0518878846
 20
9.8010604032
 30
0.0
 10
-36.0444023163
 20
9.799399368
 30
0.0
 10
-36.0369843092
 20
9.797220444
 30
0.0
 10
-36.029651248
 20
9.794529759
 30
0.0
 10
-36.0199472336
 20
9.7902390969
 30
0.0
 10
-36.0080998545
 20
9.7835906507
 30
0.0
 10
-35.9946187877
 20
9.7737574581
 30
0.0
 10
-35.9841044829
 20
9.7641350121
 30
0.0
 10
-35.9761221838
 20
9.7556102996
 30
0.0
 10
-35.9683123132
 20
9.74638671
 30
0.0
 10
-35.9591862401
 20
9.7338546278
 30
0.0
 10
-35.9511030356
 20
9.7203409605
 30
0.0
 10
-35.9452078262
 20
9.7088959943
 30
0.0
 10
-35.939640649
 20
9.6968940172
 30
0.0
 10
-35.9334940549
 20
9.6812085204
 30
0.0
 10
-35.927493531
 20
9.6615836963
 30
0.0
 10
-35.9228798376
 20
9.6412244651
 30
0.0
 10
-35.9196963295
 20
9.6203264851
 30
0.0
 10
-35.9179725778
 20
9.5990892841
 30
0.0
 10
-35.9177260153
 20
9.5777157525
 30
0.0
 10
-35.9189586086
 20
9.5564104571
 30
0.0
 10
-35.9216577155
 20
9.5353773997
 30
0.0
 10
-35.9257991028
 20
9.5148154486
 30
0.0
 10
-35.9313436015
 20
9.4949255133
 30
0.0
 10
-35.9359924149
 20
9.482089916
 30
0.0
 10
-35.9385427853
 20
9.4758428099
 30
0.0
  0
SPLINE
  5
5C3
100
AcDbEntity
  8
0
100
AcDbSpline
 62
7
  6
CONTINUOUS
 70
0
 71
3
 72
21
 73
17
 74
0
 42
0.0000001
 43
0.0000001
 44
0.0000000001
 40
0.0
 40
0.0
 40
0.0
 40
0.0
 40
0.0714677447
 40
0.1418637253
 40
0.2789723574
 40
0.4109097938
 40
0.4749348902
 40
0.5376530534
 40
0.5990895423
 40
0.6592956568
 40
0.7183410806
 40
0.7763160648
 40
0.8333321501
 40
0.889517376
 40
0.9450193257
 40
1.0
 40
1.0
 40
1.0
 40
1.0
 10
-35.8090459316
 20
9.7175928099
 30
0.0
 10
-35.8108625151
 20
9.7220425125
 30
0.0
 10
-35.8146771688
 20
9.7307920694
 30
0.0
 10
-35.8230041036
 20
9.7476102209
 30
0.0
 10
-35.8346543683
 20
9.7672910808
 30
0.0
 10
-35.8481094524
 20
9.7852632725
 30
0.0
 10
-35.859734429
 20
9.7982174426
 30
0.0
 10
-35.8687510376
 20
9.8071094275
 30
0.0
 10
-35.8781224857
 20
9.8152402201
 30
0.0
 10
-35.8878155304
 20
9.822583584
 30
0.0
 10
-35.8977977178
 20
9.8291137253
 30
0.0
 10
-35.9080358633
 20
9.8348065299
 30
0.0
 10
-35.918493644
 20
9.8396442874
 30
0.0
 10
-35.929136571
 20
9.8436077923
 30
0.0
 10
-35.9399265996
 20
9.8466830729
 30
0.0
 10
-35.9472221262
 20
9.8481404739
 30
0.0
 10
-35.9508746621
 20
9.8487151459
 30
0.0
  0
SPLINE
  5
5C4
100
AcDbEntity
  8
0
100
AcDbSpline
 62
7
  6
CONTINUOUS
 70
0
 71
3
 72
9
 73
5
 74
0
 42
0.0000001
 43
0.0000001
 44
0.0000000001
 40
0.0
 40
0.0
 40
0.0
 40
0.0
 40
0.4872990191
 40
1.0
 40
1.0
 40
1.0
 40
1.0
 10
-32.7556910007
 20
1.3688766029
 30
0.0
 10
-32.749069591
 20
1.3704071992
 30
0.0
 10
-32.7358489988
 20
1.3753151418
 30
0.0
 10
-32.7241242133
 20
1.3830861103
 30
0.0
 10
-32.7185860665
 20
1.3876088723
 30
0.0
  0
SPLINE
  5
5C5
100
AcDbEntity
  8
0
100
AcDbSpline
 62
7
  6
CONTINUOUS
 70
0
 71
3
 72
12
 73
8
 74
0
 42
0.0000001
 43
0.0000001
 44
0.0000000001
 40
0.0
 40
0.0
 40
0.0
 40
0.0
 40
0.2243647128
 40
0.4688818359
 40
0.5978818351
 40
0.7303074416
 40
1.0
 40
1.0
 40
1.0
 40
1.0
 10
-32.7185860665
 20
1.3876088723
 30
0.0
 10
-32.7099371336
 20
1.3946720772
 30
0.0
 10
-32.6941098986
 20
1.4122771968
 30
0.0
 10
-32.680043414
 20
1.4387723626
 30
0.0
 10
-32.6717662829
 20
1.4625932388
 30
0.0
 10
-32.6656348171
 20
1.4883390748
 30
0.0
 10
-32.6637852909
 20
1.5084202523
 30
0.0
 10
-32.6637852909
 20
1.5218428099
 30
0.0
  0
SPLINE
  5
5C6
100
AcDbEntity
  8
0
100
AcDbSpline
 62
7
  6
CONTINUOUS
 70
0
 71
3
 72
9
 73
5
 74
0
 42
0.0000001
 43
0.0000001
 44
0.0000000001
 40
0.0
 40
0.0
 40
0.0
 40
0.0
 40
0.4872990191
 40
1.0
 40
1.0
 40
1.0
 40
1.0
 10
-39.473205422
 20
1.3688766029
 30
0.0
 10
-39.4665840123
 20
1.3704071992
 30
0.0
 10
-39.4533634201
 20
1.3753151418
 30
0.0
 10
-39.4416386345
 20
1.3830861103
 30
0.0
 10
-39.4361004877
 20
1.3876088723
 30
0.0
  0
SPLINE
  5
5C7
100
AcDbEntity
  8
0
100
AcDbSpline
 62
7
  6
CONTINUOUS
 70
0
 71
3
 72
12
 73
8
 74
0
 42
0.0000001
 43
0.0000001
 44
0.0000000001
 40
0.0
 40
0.0
 40
0.0
 40
0.0
 40
0.2243647128
 40
0.4688818359
 40
0.5978818351
 40
0.7303074416
 40
1.0
 40
1.0
 40
1.0
 40
1.0
 10
-39.4361004877
 20
1.3876088723
 30
0.0
 10
-39.4274515549
 20
1.3946720772
 30
0.0
 10
-39.4116243199
 20
1.4122771968
 30
0.0
 10
-39.3975578353
 20
1.4387723626
 30
0.0
 10
-39.3892807042
 20
1.4625932388
 30
0.0
 10
-39.3831492383
 20
1.4883390748
 30
0.0
 10
-39.3812997122
 20
1.5084202523
 30
0.0
 10
-39.3812997122
 20
1.5218428099
 30
0.0
  0
SPLINE
  5
5C8
100
AcDbEntity
  8
0
100
AcDbSpline
 62
7
  6
CONTINUOUS
 70
0
 71
3
 72
9
 73
5
 74
0
 42
0.0000001
 43
0.0000001
 44
0.0000000001
 40
0.0
 40
0.0
 40
0.0
 40
0.0
 40
0.4872990191
 40
1.0
 40
1.0
 40
1.0
 40
1.0
 10
-19.2146324845
 20
1.6748090169
 30
0.0
 10
-19.2212538942
 20
1.6732784206
 30
0.0
 10
-19.2344744864
 20
1.668370478
 30
0.0
 10
-19.246199272
 20
1.6605995096
 30
0.0
 10
-19.2517374188
 20
1.6560767475
 30
0.0
  0
SPLINE
  5
5C9
100
AcDbEntity
  8
0
100
AcDbSpline
 62
7
  6
CONTINUOUS
 70
0
 71
3
 72
12
 73
8
 74
0
 42
0.0000001
 43
0.0000001
 44
0.0000000001
 40
0.0
 40
0.0
 40
0.0
 40
0.0
 40
0.2243647128
 40
0.4688818359
 40
0.5978818351
 40
0.7303074416
 40
1.0
 40
1.0
 40
1.0
 40
1.0
 10
-19.2517374188
 20
1.6560767475
 30
0.0
 10
-19.2603863516
 20
1.6490135426
 30
0.0
 10
-19.2762135866
 20
1.6314084231
 30
0.0
 10
-19.2902800712
 20
1.6049132572
 30
0.0
 10
-19.2985572023
 20
1.5810923811
 30
0.0
 10
-19.3046886682
 20
1.5553465451
 30
0.0
 10
-19.3065381943
 20
1.5352653675
 30
0.0
 10
-19.3065381943
 20
1.5218428099
 30
0.0
  0
SPLINE
  5
5CA
100
AcDbEntity
  8
0
100
AcDbSpline
 62
7
  6
CONTINUOUS
 70
0
 71
3
 72
9
 73
5
 74
0
 42
0.0000001
 43
0.0000001
 44
0.0000000001
 40
0.0
 40
0.0
 40
0.0
 40
0.0
 40
0.4872990191
 40
1.0
 40
1.0
 40
1.0
 40
1.0
 10
-25.9321469058
 20
1.6748090169
 30
0.0
 10
-25.9387683155
 20
1.6732784206
 30
0.0
 10
-25.9519889077
 20
1.668370478
 30
0.0
 10
-25.9637136932
 20
1.6605995096
 30
0.0
 10
-25.96925184
 20
1.6560767475
 30
0.0
  0
SPLINE
  5
5CB
100
AcDbEntity
  8
0
100
AcDbSpline
 62
7
  6
CONTINUOUS
 70
0
 71
3
 72
12
 73
8
 74
0
 42
0.0000001
 43
0.0000001
 44
0.0000000001
 40
0.0
 40
0.0
 40
0.0
 40
0.0
 40
0.2243647128
 40
0.4688818359
 40
0.5978818351
 40
0.7303074416
 40
1.0
 40
1.0
 40
1.0
 40
1.0
 10
-25.96925184
 20
1.6560767475
 30
0.0
 10
-25.9779007729
 20
1.6490135426
 30
0.0
 10
-25.9937280079
 20
1.6314084231
 30
0.0
 10
-26.0077944925
 20
1.6049132572
 30
0.0
 10
-26.0160716236
 20
1.5810923811
 30
0.0
 10
-26.0222030894
 20
1.5553465451
 30
0.0
 10
-26.0240526156
 20
1.5352653675
 30
0.0
 10
-26.0240526156
 20
1.5218428099
 30
0.0
  0
SPLINE
  5
5CC
100
AcDbEntity
  8
0
100
AcDbSpline
 62
7
  6
CONTINUOUS
 70
0
 71
3
 72
15
 73
11
 74
0
 42
0.0000001
 43
0.0000001
 44
0.0000000001
 40
0.0
 40
0.0
 40
0.0
 40
0.0
 40
0.1417744878
 40
0.2818679712
 40
0.4176886492
 40
0.5476871055
 40
0.6708748172
 40
0.7868700446
 40
0.8960804113
 40
1.0
 40
1.0
 40
1.0
 40
1.0
 10
-26.0240526156
 20
1.5218428099
 30
0.0
 10
-26.0240526156
 20
1.5128683276
 30
0.0
 10
-26.0229402682
 20
1.4950075062
 30
0.0
 10
-26.0180679495
 20
1.4689513576
 30
0.0
 10
-26.0100501894
 20
1.4444565503
 30
0.0
 10
-25.9991702511
 20
1.4222668667
 30
0.0
 10
-25.9856974364
 20
1.4030463542
 30
0.0
 10
-25.9700390005
 20
1.3873343598
 30
0.0
 10
-25.95259011
 20
1.3756892039
 30
0.0
 10
-25.9398660141
 20
1.3707889601
 30
0.0
 10
-25.9334831741
 20
1.3691976082
 30
0.0
  0
SPLINE
  5
5CD
100
AcDbEntity
  8
0
100
AcDbSpline
 62
7
  6
CONTINUOUS
 70
0
 71
3
 72
15
 73
11
 74
0
 42
0.0000001
 43
0.0000001
 44
0.0000000001
 40
0.0
 40
0.0
 40
0.0
 40
0.0
 40
0.1417744878
 40
0.2818679712
 40
0.4176886492
 40
0.5476871055
 40
0.6708748172
 40
0.7868700446
 40
0.8960804113
 40
1.0
 40
1.0
 40
1.0
 40
1.0
 10
-19.3065381943
 20
1.5218428099
 30
0.0
 10
-19.3065381943
 20
1.5128683276
 30
0.0
 10
-19.3054258469
 20
1.4950075062
 30
0.0
 10
-19.3005535282
 20
1.4689513576
 30
0.0
 10
-19.2925357682
 20
1.4444565503
 30
0.0
 10
-19.2816558298
 20
1.4222668667
 30
0.0
 10
-19.2681830152
 20
1.4030463542
 30
0.0
 10
-19.2525245792
 20
1.3873343598
 30
0.0
 10
-19.2350756888
 20
1.3756892039
 30
0.0
 10
-19.2223515928
 20
1.3707889601
 30
0.0
 10
-19.2159687528
 20
1.3691976082
 30
0.0
  0
SPLINE
  5
5CE
100
AcDbEntity
  8
0
100
AcDbSpline
 62
7
  6
CONTINUOUS
 70
0
 71
3
 72
15
 73
11
 74
0
 42
0.0000001
 43
0.0000001
 44
0.0000000001
 40
0.0
 40
0.0
 40
0.0
 40
0.0
 40
0.1417744878
 40
0.2818679712
 40
0.4176886492
 40
0.5476871055
 40
0.6708748172
 40
0.7868700446
 40
0.8960804113
 40
1.0
 40
1.0
 40
1.0
 40
1.0
 10
-39.3812997122
 20
1.5218428099
 30
0.0
 10
-39.3812997122
 20
1.5308172922
 30
0.0
 10
-39.3824120596
 20
1.5486781136
 30
0.0
 10
-39.3872843783
 20
1.5747342622
 30
0.0
 10
-39.3953021383
 20
1.5992290695
 30
0.0
 10
-39.4061820767
 20
1.6214187532
 30
0.0
 10
-39.4196548914
 20
1.6406392656
 30
0.0
 10
-39.4353133273
 20
1.6563512601
 30
0.0
 10
-39.4527622177
 20
1.6679964159
 30
0.0
 10
-39.4654863137
 20
1.6728966598
 30
0.0
 10
-39.4718691537
 20
1.6744880116
 30
0.0
  0
SPLINE
  5
5CF
100
AcDbEntity
  8
0
100
AcDbSpline
 62
7
  6
CONTINUOUS
 70
0
 71
3
 72
15
 73
11
 74
0
 42
0.0000001
 43
0.0000001
 44
0.0000000001
 40
0.0
 40
0.0
 40
0.0
 40
0.0
 40
0.1417744878
 40
0.2818679712
 40
0.4176886492
 40
0.5476871055
 40
0.6708748172
 40
0.7868700446
 40
0.8960804113
 40
1.0
 40
1.0
 40
1.0
 40
1.0
 10
-32.6637852909
 20
1.5218428099
 30
0.0
 10
-32.6637852909
 20
1.5308172922
 30
0.0
 10
-32.6648976383
 20
1.5486781136
 30
0.0
 10
-32.669769957
 20
1.5747342622
 30
0.0
 10
-32.6777877171
 20
1.5992290695
 30
0.0
 10
-32.6886676554
 20
1.6214187532
 30
0.0
 10
-32.7021404701
 20
1.6406392656
 30
0.0
 10
-32.717798906
 20
1.6563512601
 30
0.0
 10
-32.7352477965
 20
1.6679964159
 30
0.0
 10
-32.7479718924
 20
1.6728966598
 30
0.0
 10
-32.7543547324
 20
1.6744880116
 30
0.0
  0
SPLINE
  5
5D0
100
AcDbEntity
  8
0
100
AcDbSpline
 62
7
  6
CONTINUOUS
 70
0
 71
3
 72
11
 73
7
 74
0
 42
0.0000001
 43
0.0000001
 44
0.0000000001
 40
0.0
 40
0.0
 40
0.0
 40
0.0
 40
0.2357032677
 40
0.4788585501
 40
0.7327993345
 40
1.0
 40
1.0
 40
1.0
 40
1.0
 10
-42.7789477958
 20
2.2718428099
 30
0.0
 10
-42.7826558854
 20
2.2718428099
 30
0.0
 10
-42.7902124356
 20
2.2709538249
 30
0.0
 10
-42.801179145
 20
2.2671530749
 30
0.0
 10
-42.8116005175
 20
2.261008926
 30
0.0
 10
-42.8177986914
 20
2.2555649348
 30
0.0
 10
-42.8207203424
 20
2.2525426392
 30
0.0
  0
SPLINE
  5
5D1
100
AcDbEntity
  8
0
100
AcDbSpline
 62
7
  6
CONTINUOUS
 70
0
 71
3
 72
9
 73
5
 74
0
 42
0.0000001
 43
0.0000001
 44
0.0000000001
 40
0.0
 40
0.0
 40
0.0
 40
0.0
 40
0.2379143984
 40
1.0
 40
1.0
 40
1.0
 40
1.0
 10
-42.8207203424
 20
2.2525426392
 30
0.0
 10
-42.8227309727
 20
2.250462747
 30
0.0
 10
-42.8306925979
 20
2.2412505432
 30
0.0
 10
-42.8366971662
 20
2.2304276878
 30
0.0
 10
-42.8401850394
 20
2.2218428099
 30
0.0
  0
SPLINE
  5
5D2
100
AcDbEntity
  8
0
100
AcDbSpline
 62
7
  6
CONTINUOUS
 70
0
 71
3
 72
9
 73
5
 74
0
 42
0.0000001
 43
0.0000001
 44
0.0000000001
 40
0.0
 40
0.0
 40
0.0
 40
0.0
 40
0.4928952326
 40
1.0
 40
1.0
 40
1.0
 40
1.0
 10
-42.8401850394
 20
2.2218428099
 30
0.0
 10
-42.8429415094
 20
2.2150581716
 30
0.0
 10
-42.8472223304
 20
2.2007414639
 30
0.0
 10
-42.849137575
 20
2.1859376855
 30
0.0
 10
-42.8494997899
 20
2.1784120659
 30
0.0
  0
SPLINE
  5
5D3
100
AcDbEntity
  8
0
100
AcDbSpline
 62
7
  6
CONTINUOUS
 70
0
 71
3
 72
11
 73
7
 74
0
 42
0.0000001
 43
0.0000001
 44
0.0000000001
 40
0.0
 40
0.0
 40
0.0
 40
0.0
 40
0.2357032677
 40
0.4788585501
 40
0.7327993345
 40
1.0
 40
1.0
 40
1.0
 40
1.0
 10
-15.9088901107
 20
2.2718428099
 30
0.0
 10
-15.9051820212
 20
2.2718428099
 30
0.0
 10
-15.8976254709
 20
2.2709538249
 30
0.0
 10
-15.8866587615
 20
2.2671530749
 30
0.0
 10
-15.876237389
 20
2.261008926
 30
0.0
 10
-15.8700392151
 20
2.2555649348
 30
0.0
 10
-15.8671175641
 20
2.2525426392
 30
0.0
  0
SPLINE
  5
5D4
100
AcDbEntity
  8
0
100
AcDbSpline
 62
7
  6
CONTINUOUS
 70
0
 71
3
 72
9
 73
5
 74
0
 42
0.0000001
 43
0.0000001
 44
0.0000000001
 40
0.0
 40
0.0
 40
0.0
 40
0.0
 40
0.2379143984
 40
1.0
 40
1.0
 40
1.0
 40
1.0
 10
-15.8671175641
 20
2.2525426392
 30
0.0
 10
-15.8651069338
 20
2.250462747
 30
0.0
 10
-15.8571453086
 20
2.2412505432
 30
0.0
 10
-15.8511407404
 20
2.2304276878
 30
0.0
 10
-15.8476528671
 20
2.2218428099
 30
0.0
  0
SPLINE
  5
5D5
100
AcDbEntity
  8
0
100
AcDbSpline
 62
7
  6
CONTINUOUS
 70
0
 71
3
 72
9
 73
5
 74
0
 42
0.0000001
 43
0.0000001
 44
0.0000000001
 40
0.0
 40
0.0
 40
0.0
 40
0.0
 40
0.4928952326
 40
1.0
 40
1.0
 40
1.0
 40
1.0
 10
-15.8476528671
 20
2.2218428099
 30
0.0
 10
-15.8448963972
 20
2.2150581716
 30
0.0
 10
-15.8406155761
 20
2.2007414639
 30
0.0
 10
-15.8387003315
 20
2.1859376855
 30
0.0
 10
-15.8383381167
 20
2.1784120659
 30
0.0
  0
SPLINE
  5
5D6
100
AcDbEntity
  8
0
100
AcDbSpline
 62
7
  6
CONTINUOUS
 70
0
 71
3
 72
11
 73
7
 74
0
 42
0.0000001
 43
0.0000001
 44
0.0000000001
 40
0.0
 40
0.0
 40
0.0
 40
0.0
 40
0.2357032677
 40
0.4788585501
 40
0.7327993345
 40
1.0
 40
1.0
 40
1.0
 40
1.0
 10
-29.3439189533
 20
2.2718428099
 30
0.0
 10
-29.3402108637
 20
2.2718428099
 30
0.0
 10
-29.3326543135
 20
2.2709538249
 30
0.0
 10
-29.3216876041
 20
2.2671530749
 30
0.0
 10
-29.3112662316
 20
2.261008926
 30
0.0
 10
-29.3050680577
 20
2.2555649348
 30
0.0
 10
-29.3021464066
 20
2.2525426392
 30
0.0
  0
SPLINE
  5
5D7
100
AcDbEntity
  8
0
100
AcDbSpline
 62
7
  6
CONTINUOUS
 70
0
 71
3
 72
9
 73
5
 74
0
 42
0.0000001
 43
0.0000001
 44
0.0000000001
 40
0.0
 40
0.0
 40
0.0
 40
0.0
 40
0.2379143984
 40
1.0
 40
1.0
 40
1.0
 40
1.0
 10
-29.3021464066
 20
2.2525426392
 30
0.0
 10
-29.3001357763
 20
2.250462747
 30
0.0
 10
-29.2921741512
 20
2.2412505432
 30
0.0
 10
-29.2861695829
 20
2.2304276878
 30
0.0
 10
-29.2826817097
 20
2.2218428099
 30
0.0
  0
SPLINE
  5
5D8
100
AcDbEntity
  8
0
100
AcDbSpline
 62
7
  6
CONTINUOUS
 70
0
 71
3
 72
9
 73
5
 74
0
 42
0.0000001
 43
0.0000001
 44
0.0000000001
 40
0.0
 40
0.0
 40
0.0
 40
0.0
 40
0.4928952326
 40
1.0
 40
1.0
 40
1.0
 40
1.0
 10
-29.2826817097
 20
2.2218428099
 30
0.0
 10
-29.2799252397
 20
2.2150581716
 30
0.0
 10
-29.2756444187
 20
2.2007414639
 30
0.0
 10
-29.273729174
 20
2.1859376855
 30
0.0
 10
-29.2733669592
 20
2.1784120659
 30
0.0
  0
SPLINE
  5
5D9
100
AcDbEntity
  8
0
100
AcDbSpline
 62
7
  6
CONTINUOUS
 70
0
 71
3
 72
13
 73
9
 74
0
 42
0.0000001
 43
0.0000001
 44
0.0000000001
 40
0.0
 40
0.0
 40
0.0
 40
0.0
 40
0.1080831306
 40
0.2199294076
 40
0.3366084614
 40
0.4587925442
 40
0.7194452135
 40
1.0
 40
1.0
 40
1.0
 40
1.0
 10
-19.1779045336
 20
1.3691976082
 30
0.0
 10
-19.1731384264
 20
1.3703858808
 30
0.0
 10
-19.1636457318
 20
1.3737049823
 30
0.0
 10
-19.1502076383
 20
1.381147497
 30
0.0
 10
-19.1375972834
 20
1.3909971554
 30
0.0
 10
-19.1218562059
 20
1.4074457153
 30
0.0
 10
-19.1055307699
 20
1.4331634219
 30
0.0
 10
-19.0971185574
 20
1.4564807463
 30
0.0
 10
-19.0939448744
 20
1.4688296877
 30
0.0
  0
SPLINE
  5
5DA
100
AcDbEntity
  8
0
100
AcDbSpline
 62
7
  6
CONTINUOUS
 70
0
 71
3
 72
9
 73
5
 74
0
 42
0.0000001
 43
0.0000001
 44
0.0000000001
 40
0.0
 40
0.0
 40
0.0
 40
0.0
 40
0.2473235934
 40
1.0
 40
1.0
 40
1.0
 40
1.0
 10
-19.0939448744
 20
1.4688296877
 30
0.0
 10
-19.0929361898
 20
1.4727545243
 30
0.0
 10
-19.0893462776
 20
1.4887460317
 30
0.0
 10
-19.0876285817
 20
1.5051519792
 30
0.0
 10
-19.0873792383
 20
1.5174820106
 30
0.0
  0
SPLINE
  5
5DB
100
AcDbEntity
  8
0
100
AcDbSpline
 62
7
  6
CONTINUOUS
 70
0
 71
3
 72
13
 73
9
 74
0
 42
0.0000001
 43
0.0000001
 44
0.0000000001
 40
0.0
 40
0.0
 40
0.0
 40
0.0
 40
0.1080831306
 40
0.2199294076
 40
0.3366084614
 40
0.4587925442
 40
0.7194452135
 40
1.0
 40
1.0
 40
1.0
 40
1.0
 10
-32.7924189516
 20
1.6744880116
 30
0.0
 10
-32.7971850589
 20
1.6732997391
 30
0.0
 10
-32.8066777534
 20
1.6699806376
 30
0.0
 10
-32.8201158469
 20
1.6625381228
 30
0.0
 10
-32.8327262018
 20
1.6526884645
 30
0.0
 10
-32.8484672793
 20
1.6362399045
 30
0.0
 10
-32.8647927153
 20
1.610522198
 30
0.0
 10
-32.8732049279
 20
1.5872048736
 30
0.0
 10
-32.8763786108
 20
1.5748559321
 30
0.0
  0
SPLINE
  5
5DC
100
AcDbEntity
  8
0
100
AcDbSpline
 62
7
  6
CONTINUOUS
 70
0
 71
3
 72
9
 73
5
 74
0
 42
0.0000001
 43
0.0000001
 44
0.0000000001
 40
0.0
 40
0.0
 40
0.0
 40
0.0
 40
0.2473235934
 40
1.0
 40
1.0
 40
1.0
 40
1.0
 10
-32.8763786108
 20
1.5748559321
 30
0.0
 10
-32.8773872954
 20
1.5709310955
 30
0.0
 10
-32.8809772076
 20
1.5549395882
 30
0.0
 10
-32.8826949035
 20
1.5385336407
 30
0.0
 10
-32.8829442469
 20
1.5262036093
 30
0.0
  0
SPLINE
  5
5DD
100
AcDbEntity
  8
0
100
AcDbSpline
 62
7
  6
CONTINUOUS
 70
0
 71
3
 72
9
 73
5
 74
0
 42
0.0000001
 43
0.0000001
 44
0.0000000001
 40
0.0
 40
0.0
 40
0.0
 40
0.0
 40
0.2520052221
 40
1.0
 40
1.0
 40
1.0
 40
1.0
 10
-39.6004586682
 20
1.5174820106
 30
0.0
 10
-39.6003751868
 20
1.5133538566
 30
0.0
 10
-39.5995750842
 20
1.496986663
 30
0.0
 10
-39.5969435872
 20
1.4806995333
 30
0.0
 10
-39.5938930321
 20
1.4688296877
 30
0.0
  0
SPLINE
  5
5DE
100
AcDbEntity
  8
0
100
AcDbSpline
 62
7
  6
CONTINUOUS
 70
0
 71
3
 72
13
 73
9
 74
0
 42
0.0000001
 43
0.0000001
 44
0.0000000001
 40
0.0
 40
0.0
 40
0.0
 40
0.0
 40
0.2805547865
 40
0.5412074558
 40
0.6633915386
 40
0.7800705924
 40
0.8919168694
 40
1.0
 40
1.0
 40
1.0
 40
1.0
 10
-39.5938930321
 20
1.4688296877
 30
0.0
 10
-39.5907193491
 20
1.4564807463
 30
0.0
 10
-39.5823071366
 20
1.4331634219
 30
0.0
 10
-39.5659817006
 20
1.4074457153
 30
0.0
 10
-39.5502406231
 20
1.3909971554
 30
0.0
 10
-39.5376302682
 20
1.381147497
 30
0.0
 10
-39.5241921747
 20
1.3737049823
 30
0.0
 10
-39.5146994801
 20
1.3703858808
 30
0.0
 10
-39.5099333729
 20
1.3691976082
 30
0.0
  0
SPLINE
  5
5DF
100
AcDbEntity
  8
0
100
AcDbSpline
 62
7
  6
CONTINUOUS
 70
0
 71
3
 72
13
 73
9
 74
0
 42
0.0000001
 43
0.0000001
 44
0.0000000001
 40
0.0
 40
0.0
 40
0.0
 40
0.0
 40
0.1080831306
 40
0.2199294076
 40
0.3366084614
 40
0.4587925442
 40
0.7194452135
 40
1.0
 40
1.0
 40
1.0
 40
1.0
 10
-39.5099333729
 20
1.6744880116
 30
0.0
 10
-39.5146994801
 20
1.6732997391
 30
0.0
 10
-39.5241921747
 20
1.6699806376
 30
0.0
 10
-39.5376302682
 20
1.6625381228
 30
0.0
 10
-39.5502406231
 20
1.6526884645
 30
0.0
 10
-39.5659817006
 20
1.6362399045
 30
0.0
 10
-39.5823071366
 20
1.610522198
 30
0.0
 10
-39.5907193491
 20
1.5872048736
 30
0.0
 10
-39.5938930321
 20
1.5748559321
 30
0.0
  0
SPLINE
  5
5E0
100
AcDbEntity
  8
0
100
AcDbSpline
 62
7
  6
CONTINUOUS
 70
0
 71
3
 72
9
 73
5
 74
0
 42
0.0000001
 43
0.0000001
 44
0.0000000001
 40
0.0
 40
0.0
 40
0.0
 40
0.0
 40
0.2473235934
 40
1.0
 40
1.0
 40
1.0
 40
1.0
 10
-39.5938930321
 20
1.5748559321
 30
0.0
 10
-39.5949017167
 20
1.5709310955
 30
0.0
 10
-39.5984916289
 20
1.5549395882
 30
0.0
 10
-39.6002093248
 20
1.5385336407
 30
0.0
 10
-39.6004586682
 20
1.5262036093
 30
0.0
  0
SPLINE
  5
5E1
100
AcDbEntity
  8
0
100
AcDbSpline
 62
7
  6
CONTINUOUS
 70
0
 71
3
 72
9
 73
5
 74
0
 42
0.0000001
 43
0.0000001
 44
0.0000000001
 40
0.0
 40
0.0
 40
0.0
 40
0.0
 40
0.2520052221
 40
1.0
 40
1.0
 40
1.0
 40
1.0
 10
-32.8829442469
 20
1.5174820106
 30
0.0
 10
-32.8828607655
 20
1.5133538566
 30
0.0
 10
-32.8820606629
 20
1.496986663
 30
0.0
 10
-32.8794291659
 20
1.4806995333
 30
0.0
 10
-32.8763786108
 20
1.4688296877
 30
0.0
  0
SPLINE
  5
5E2
100
AcDbEntity
  8
0
100
AcDbSpline
 62
7
  6
CONTINUOUS
 70
0
 71
3
 72
13
 73
9
 74
0
 42
0.0000001
 43
0.0000001
 44
0.0000000001
 40
0.0
 40
0.0
 40
0.0
 40
0.0
 40
0.2805547865
 40
0.5412074558
 40
0.6633915386
 40
0.7800705924
 40
0.8919168694
 40
1.0
 40
1.0
 40
1.0
 40
1.0
 10
-32.8763786108
 20
1.4688296877
 30
0.0
 10
-32.8732049279
 20
1.4564807463
 30
0.0
 10
-32.8647927153
 20
1.4331634219
 30
0.0
 10
-32.8484672793
 20
1.4074457153
 30
0.0
 10
-32.8327262018
 20
1.3909971554
 30
0.0
 10
-32.8201158469
 20
1.381147497
 30
0.0
 10
-32.8066777534
 20
1.3737049823
 30
0.0
 10
-32.7971850589
 20
1.3703858808
 30
0.0
 10
-32.7924189516
 20
1.3691976082
 30
0.0
  0
SPLINE
  5
5E3
100
AcDbEntity
  8
0
100
AcDbSpline
 62
7
  6
CONTINUOUS
 70
0
 71
3
 72
9
 73
5
 74
0
 42
0.0000001
 43
0.0000001
 44
0.0000000001
 40
0.0
 40
0.0
 40
0.0
 40
0.0
 40
0.2520052221
 40
1.0
 40
1.0
 40
1.0
 40
1.0
 10
-25.8048936596
 20
1.5262036093
 30
0.0
 10
-25.804977141
 20
1.5303317632
 30
0.0
 10
-25.8057772436
 20
1.5466989569
 30
0.0
 10
-25.8084087406
 20
1.5629860865
 30
0.0
 10
-25.8114592957
 20
1.5748559321
 30
0.0
  0
SPLINE
  5
5E4
100
AcDbEntity
  8
0
100
AcDbSpline
 62
7
  6
CONTINUOUS
 70
0
 71
3
 72
13
 73
9
 74
0
 42
0.0000001
 43
0.0000001
 44
0.0000000001
 40
0.0
 40
0.0
 40
0.0
 40
0.0
 40
0.2805547865
 40
0.5412074558
 40
0.6633915386
 40
0.7800705924
 40
0.8919168694
 40
1.0
 40
1.0
 40
1.0
 40
1.0
 10
-25.8114592957
 20
1.5748559321
 30
0.0
 10
-25.8146329787
 20
1.5872048736
 30
0.0
 10
-25.8230451912
 20
1.610522198
 30
0.0
 10
-25.8393706272
 20
1.6362399045
 30
0.0
 10
-25.8551117047
 20
1.6526884645
 30
0.0
 10
-25.8677220596
 20
1.6625381228
 30
0.0
 10
-25.8811601531
 20
1.6699806376
 30
0.0
 10
-25.8906528477
 20
1.6732997391
 30
0.0
 10
-25.8954189549
 20
1.6744880116
 30
0.0
  0
SPLINE
  5
5E5
100
AcDbEntity
  8
0
100
AcDbSpline
 62
7
  6
CONTINUOUS
 70
0
 71
3
 72
9
 73
5
 74
0
 42
0.0000001
 43
0.0000001
 44
0.0000000001
 40
0.0
 40
0.0
 40
0.0
 40
0.0
 40
0.2520052221
 40
1.0
 40
1.0
 40
1.0
 40
1.0
 10
-19.0873792383
 20
1.5262036093
 30
0.0
 10
-19.0874627197
 20
1.5303317632
 30
0.0
 10
-19.0882628223
 20
1.5466989569
 30
0.0
 10
-19.0908943193
 20
1.5629860865
 30
0.0
 10
-19.0939448744
 20
1.5748559321
 30
0.0
  0
SPLINE
  5
5E6
100
AcDbEntity
  8
0
100
AcDbSpline
 62
7
  6
CONTINUOUS
 70
0
 71
3
 72
13
 73
9
 74
0
 42
0.0000001
 43
0.0000001
 44
0.0000000001
 40
0.0
 40
0.0
 40
0.0
 40
0.0
 40
0.2805547865
 40
0.5412074558
 40
0.6633915386
 40
0.7800705924
 40
0.8919168694
 40
1.0
 40
1.0
 40
1.0
 40
1.0
 10
-19.0939448744
 20
1.5748559321
 30
0.0
 10
-19.0971185574
 20
1.5872048736
 30
0.0
 10
-19.1055307699
 20
1.610522198
 30
0.0
 10
-19.1218562059
 20
1.6362399045
 30
0.0
 10
-19.1375972834
 20
1.6526884645
 30
0.0
 10
-19.1502076383
 20
1.6625381228
 30
0.0
 10
-19.1636457318
 20
1.6699806376
 30
0.0
 10
-19.1731384264
 20
1.6732997391
 30
0.0
 10
-19.1779045336
 20
1.6744880116
 30
0.0
  0
SPLINE
  5
5E7
100
AcDbEntity
  8
0
100
AcDbSpline
 62
7
  6
CONTINUOUS
 70
0
 71
3
 72
13
 73
9
 74
0
 42
0.0000001
 43
0.0000001
 44
0.0000000001
 40
0.0
 40
0.0
 40
0.0
 40
0.0
 40
0.1080831306
 40
0.2199294076
 40
0.3366084614
 40
0.4587925442
 40
0.7194452135
 40
1.0
 40
1.0
 40
1.0
 40
1.0
 10
-25.8954189549
 20
1.3691976082
 30
0.0
 10
-25.8906528477
 20
1.3703858808
 30
0.0
 10
-25.8811601531
 20
1.3737049823
 30
0.0
 10
-25.8677220596
 20
1.381147497
 30
0.0
 10
-25.8551117047
 20
1.3909971554
 30
0.0
 10
-25.8393706272
 20
1.4074457153
 30
0.0
 10
-25.8230451912
 20
1.4331634219
 30
0.0
 10
-25.8146329787
 20
1.4564807463
 30
0.0
 10
-25.8114592957
 20
1.4688296877
 30
0.0
  0
SPLINE
  5
5E8
100
AcDbEntity
  8
0
100
AcDbSpline
 62
7
  6
CONTINUOUS
 70
0
 71
3
 72
9
 73
5
 74
0
 42
0.0000001
 43
0.0000001
 44
0.0000000001
 40
0.0
 40
0.0
 40
0.0
 40
0.0
 40
0.2473235934
 40
1.0
 40
1.0
 40
1.0
 40
1.0
 10
-25.8114592957
 20
1.4688296877
 30
0.0
 10
-25.8104506111
 20
1.4727545243
 30
0.0
 10
-25.8068606989
 20
1.4887460317
 30
0.0
 10
-25.805143003
 20
1.5051519792
 30
0.0
 10
-25.8048936596
 20
1.5174820106
 30
0.0
  0
SPLINE
  5
5E9
100
AcDbEntity
  8
0
100
AcDbSpline
 62
7
  6
CONTINUOUS
 70
0
 71
3
 72
11
 73
7
 74
0
 42
0.0000001
 43
0.0000001
 44
0.0000000001
 40
0.0
 40
0.0
 40
0.0
 40
0.0
 40
0.2357032677
 40
0.4788585501
 40
0.7327993345
 40
1.0
 40
1.0
 40
1.0
 40
1.0
 10
-29.3439189533
 20
2.2718428099
 30
0.0
 10
-29.3476270428
 20
2.2718428099
 30
0.0
 10
-29.355183593
 20
2.2709538249
 30
0.0
 10
-29.3661503025
 20
2.2671530749
 30
0.0
 10
-29.3765716749
 20
2.261008926
 30
0.0
 10
-29.3827698489
 20
2.2555649348
 30
0.0
 10
-29.3856914999
 20
2.2525426392
 30
0.0
  0
SPLINE
  5
5EA
100
AcDbEntity
  8
0
100
AcDbSpline
 62
7
  6
CONTINUOUS
 70
0
 71
3
 72
9
 73
5
 74
0
 42
0.0000001
 43
0.0000001
 44
0.0000000001
 40
0.0
 40
0.0
 40
0.0
 40
0.0
 40
0.2379143984
 40
1.0
 40
1.0
 40
1.0
 40
1.0
 10
-29.3856914999
 20
2.2525426392
 30
0.0
 10
-29.3877021302
 20
2.250462747
 30
0.0
 10
-29.3956637554
 20
2.2412505432
 30
0.0
 10
-29.4016683236
 20
2.2304276878
 30
0.0
 10
-29.4051561968
 20
2.2218428099
 30
0.0
  0
SPLINE
  5
5EB
100
AcDbEntity
  8
0
100
AcDbSpline
 62
7
  6
CONTINUOUS
 70
0
 71
3
 72
9
 73
5
 74
0
 42
0.0000001
 43
0.0000001
 44
0.0000000001
 40
0.0
 40
0.0
 40
0.0
 40
0.0
 40
0.4928952326
 40
1.0
 40
1.0
 40
1.0
 40
1.0
 10
-29.4051561968
 20
2.2218428099
 30
0.0
 10
-29.4079126668
 20
2.2150581716
 30
0.0
 10
-29.4121934878
 20
2.2007414639
 30
0.0
 10
-29.4141087325
 20
2.1859376855
 30
0.0
 10
-29.4144709473
 20
2.1784120659
 30
0.0
  0
SPLINE
  5
5EC
100
AcDbEntity
  8
0
100
AcDbSpline
 62
3
  6
CONTINUOUS
 70
0
 71
3
 72
9
 73
5
 74
0
 42
0.0000001
 43
0.0000001
 44
0.0000000001
 40
0.0
 40
0.0
 40
0.0
 40
0.0
 40
0.4872990191
 40
1.0
 40
1.0
 40
1.0
 40
1.0
 10
-32.7557273442
 20
1.6748090169
 30
0.0
 10
-32.7623487539
 20
1.6732784206
 30
0.0
 10
-32.7755693461
 20
1.668370478
 30
0.0
 10
-32.7872941317
 20
1.6605995096
 30
0.0
 10
-32.7928322785
 20
1.6560767475
 30
0.0
  0
SPLINE
  5
5ED
100
AcDbEntity
  8
0
100
AcDbSpline
 62
3
  6
CONTINUOUS
 70
0
 71
3
 72
9
 73
5
 74
0
 42
0.0000001
 43
0.0000001
 44
0.0000000001
 40
0.0
 40
0.0
 40
0.0
 40
0.0
 40
0.239202539
 40
1.0
 40
1.0
 40
1.0
 40
1.0
 10
-32.7928322785
 20
1.6560767475
 30
0.0
 10
-32.7956349871
 20
1.653787898
 30
0.0
 10
-32.8068658559
 20
1.6436276463
 30
0.0
 10
-32.8161163633
 20
1.6313716073
 30
0.0
 10
-32.8219911621
 20
1.6214748894
 30
0.0
  0
SPLINE
  5
5EE
100
AcDbEntity
  8
0
100
AcDbSpline
 62
3
  6
CONTINUOUS
 70
0
 71
3
 72
9
 73
5
 74
0
 42
0.0000001
 43
0.0000001
 44
0.0000000001
 40
0.0
 40
0.0
 40
0.0
 40
0.0
 40
0.241818776
 40
1.0
 40
1.0
 40
1.0
 40
1.0
 10
-32.8219911621
 20
1.6214748894
 30
0.0
 10
-32.8240669778
 20
1.6179779591
 30
0.0
 10
-32.8320755608
 20
1.6031787862
 30
0.0
 10
-32.8378495888
 20
1.5872048736
 30
0.0
 10
-32.8410232717
 20
1.5748559321
 30
0.0
  0
SPLINE
  5
5EF
100
AcDbEntity
  8
0
100
AcDbSpline
 62
3
  6
CONTINUOUS
 70
0
 71
3
 72
9
 73
5
 74
0
 42
0.0000001
 43
0.0000001
 44
0.0000000001
 40
0.0
 40
0.0
 40
0.0
 40
0.0
 40
0.4970180998
 40
1.0
 40
1.0
 40
1.0
 40
1.0
 10
-32.8410232717
 20
1.5748559321
 30
0.0
 10
-32.8432306382
 20
1.5662669712
 30
0.0
 10
-32.846521765
 20
1.5486753608
 30
0.0
 10
-32.847633054
 20
1.5308172922
 30
0.0
 10
-32.847633054
 20
1.5218428099
 30
0.0
  0
SPLINE
  5
5F0
100
AcDbEntity
  8
0
100
AcDbSpline
 62
3
  6
CONTINUOUS
 70
0
 71
3
 72
9
 73
5
 74
0
 42
0.0000001
 43
0.0000001
 44
0.0000000001
 40
0.0
 40
0.0
 40
0.0
 40
0.0
 40
0.4872990191
 40
1.0
 40
1.0
 40
1.0
 40
1.0
 10
-39.4732417655
 20
1.6748090169
 30
0.0
 10
-39.4798631752
 20
1.6732784206
 30
0.0
 10
-39.4930837674
 20
1.668370478
 30
0.0
 10
-39.504808553
 20
1.6605995096
 30
0.0
 10
-39.5103466998
 20
1.6560767475
 30
0.0
  0
SPLINE
  5
5F1
100
AcDbEntity
  8
0
100
AcDbSpline
 62
3
  6
CONTINUOUS
 70
0
 71
3
 72
9
 73
5
 74
0
 42
0.0000001
 43
0.0000001
 44
0.0000000001
 40
0.0
 40
0.0
 40
0.0
 40
0.0
 40
0.239202539
 40
1.0
 40
1.0
 40
1.0
 40
1.0
 10
-39.5103466998
 20
1.6560767475
 30
0.0
 10
-39.5131494084
 20
1.653787898
 30
0.0
 10
-39.5243802771
 20
1.6436276463
 30
0.0
 10
-39.5336307846
 20
1.6313716073
 30
0.0
 10
-39.5395055834
 20
1.6214748894
 30
0.0
  0
SPLINE
  5
5F2
100
AcDbEntity
  8
0
100
AcDbSpline
 62
3
  6
CONTINUOUS
 70
0
 71
3
 72
9
 73
5
 74
0
 42
0.0000001
 43
0.0000001
 44
0.0000000001
 40
0.0
 40
0.0
 40
0.0
 40
0.0
 40
0.241818776
 40
1.0
 40
1.0
 40
1.0
 40
1.0
 10
-39.5395055834
 20
1.6214748894
 30
0.0
 10
-39.541581399
 20
1.6179779591
 30
0.0
 10
-39.5495899821
 20
1.6031787862
 30
0.0
 10
-39.5553640101
 20
1.5872048736
 30
0.0
 10
-39.558537693
 20
1.5748559321
 30
0.0
  0
SPLINE
  5
5F3
100
AcDbEntity
  8
0
100
AcDbSpline
 62
3
  6
CONTINUOUS
 70
0
 71
3
 72
9
 73
5
 74
0
 42
0.0000001
 43
0.0000001
 44
0.0000000001
 40
0.0
 40
0.0
 40
0.0
 40
0.0
 40
0.4970180998
 40
1.0
 40
1.0
 40
1.0
 40
1.0
 10
-39.558537693
 20
1.5748559321
 30
0.0
 10
-39.5607450594
 20
1.5662669712
 30
0.0
 10
-39.5640361863
 20
1.5486753608
 30
0.0
 10
-39.5651474753
 20
1.5308172922
 30
0.0
 10
-39.5651474753
 20
1.5218428099
 30
0.0
  0
SPLINE
  5
5F4
100
AcDbEntity
  8
0
100
AcDbSpline
 62
3
  6
CONTINUOUS
 70
0
 71
3
 72
9
 73
5
 74
0
 42
0.0000001
 43
0.0000001
 44
0.0000000001
 40
0.0
 40
0.0
 40
0.0
 40
0.0
 40
0.4872990191
 40
1.0
 40
1.0
 40
1.0
 40
1.0
 10
-19.214596141
 20
1.3688766029
 30
0.0
 10
-19.2079747313
 20
1.3704071992
 30
0.0
 10
-19.1947541391
 20
1.3753151418
 30
0.0
 10
-19.1830293535
 20
1.3830861103
 30
0.0
 10
-19.1774912067
 20
1.3876088723
 30
0.0
  0
SPLINE
  5
5F5
100
AcDbEntity
  8
0
100
AcDbSpline
 62
3
  6
CONTINUOUS
 70
0
 71
3
 72
9
 73
5
 74
0
 42
0.0000001
 43
0.0000001
 44
0.0000000001
 40
0.0
 40
0.0
 40
0.0
 40
0.0
 40
0.239202539
 40
1.0
 40
1.0
 40
1.0
 40
1.0
 10
-19.1774912067
 20
1.3876088723
 30
0.0
 10
-19.1746884981
 20
1.3898977218
 30
0.0
 10
-19.1634576294
 20
1.4000579735
 30
0.0
 10
-19.1542071219
 20
1.4123140125
 30
0.0
 10
-19.1483323231
 20
1.4222107304
 30
0.0
  0
SPLINE
  5
5F6
100
AcDbEntity
  8
0
100
AcDbSpline
 62
3
  6
CONTINUOUS
 70
0
 71
3
 72
9
 73
5
 74
0
 42
0.0000001
 43
0.0000001
 44
0.0000000001
 40
0.0
 40
0.0
 40
0.0
 40
0.0
 40
0.241818776
 40
1.0
 40
1.0
 40
1.0
 40
1.0
 10
-19.1483323231
 20
1.4222107304
 30
0.0
 10
-19.1462565075
 20
1.4257076607
 30
0.0
 10
-19.1382479244
 20
1.4405068337
 30
0.0
 10
-19.1324738964
 20
1.4564807463
 30
0.0
 10
-19.1293002135
 20
1.4688296877
 30
0.0
  0
SPLINE
  5
5F7
100
AcDbEntity
  8
0
100
AcDbSpline
 62
3
  6
CONTINUOUS
 70
0
 71
3
 72
9
 73
5
 74
0
 42
0.0000001
 43
0.0000001
 44
0.0000000001
 40
0.0
 40
0.0
 40
0.0
 40
0.0
 40
0.4970180998
 40
1.0
 40
1.0
 40
1.0
 40
1.0
 10
-19.1293002135
 20
1.4688296877
 30
0.0
 10
-19.1270928471
 20
1.4774186486
 30
0.0
 10
-19.1238017202
 20
1.4950102591
 30
0.0
 10
-19.1226904312
 20
1.5128683276
 30
0.0
 10
-19.1226904312
 20
1.5218428099
 30
0.0
  0
SPLINE
  5
5F8
100
AcDbEntity
  8
0
100
AcDbSpline
 62
3
  6
CONTINUOUS
 70
0
 71
3
 72
9
 73
5
 74
0
 42
0.0000001
 43
0.0000001
 44
0.0000000001
 40
0.0
 40
0.0
 40
0.0
 40
0.0
 40
0.4872990191
 40
1.0
 40
1.0
 40
1.0
 40
1.0
 10
-25.9321105623
 20
1.3688766029
 30
0.0
 10
-25.9254891526
 20
1.3704071992
 30
0.0
 10
-25.9122685604
 20
1.3753151418
 30
0.0
 10
-25.9005437748
 20
1.3830861103
 30
0.0
 10
-25.895005628
 20
1.3876088723
 30
0.0
  0
SPLINE
  5
5F9
100
AcDbEntity
  8
0
100
AcDbSpline
 62
3
  6
CONTINUOUS
 70
0
 71
3
 72
9
 73
5
 74
0
 42
0.0000001
 43
0.0000001
 44
0.0000000001
 40
0.0
 40
0.0
 40
0.0
 40
0.0
 40
0.239202539
 40
1.0
 40
1.0
 40
1.0
 40
1.0
 10
-25.895005628
 20
1.3876088723
 30
0.0
 10
-25.8922029194
 20
1.3898977218
 30
0.0
 10
-25.8809720507
 20
1.4000579735
 30
0.0
 10
-25.8717215432
 20
1.4123140125
 30
0.0
 10
-25.8658467444
 20
1.4222107304
 30
0.0
  0
SPLINE
  5
5FA
100
AcDbEntity
  8
0
100
AcDbSpline
 62
3
  6
CONTINUOUS
 70
0
 71
3
 72
9
 73
5
 74
0
 42
0.0000001
 43
0.0000001
 44
0.0000000001
 40
0.0
 40
0.0
 40
0.0
 40
0.0
 40
0.241818776
 40
1.0
 40
1.0
 40
1.0
 40
1.0
 10
-25.8658467444
 20
1.4222107304
 30
0.0
 10
-25.8637709287
 20
1.4257076607
 30
0.0
 10
-25.8557623457
 20
1.4405068337
 30
0.0
 10
-25.8499883177
 20
1.4564807463
 30
0.0
 10
-25.8468146348
 20
1.4688296877
 30
0.0
  0
SPLINE
  5
5FB
100
AcDbEntity
  8
0
100
AcDbSpline
 62
3
  6
CONTINUOUS
 70
0
 71
3
 72
9
 73
5
 74
0
 42
0.0000001
 43
0.0000001
 44
0.0000000001
 40
0.0
 40
0.0
 40
0.0
 40
0.0
 40
0.4970180998
 40
1.0
 40
1.0
 40
1.0
 40
1.0
 10
-25.8468146348
 20
1.4688296877
 30
0.0
 10
-25.8446072684
 20
1.4774186486
 30
0.0
 10
-25.8413161415
 20
1.4950102591
 30
0.0
 10
-25.8402048525
 20
1.5128683276
 30
0.0
 10
-25.8402048525
 20
1.5218428099
 30
0.0
  0
SPLINE
  5
5FC
100
AcDbEntity
  8
0
100
AcDbSpline
 62
3
  6
CONTINUOUS
 70
0
 71
3
 72
9
 73
5
 74
0
 42
0.0000001
 43
0.0000001
 44
0.0000000001
 40
0.0
 40
0.0
 40
0.0
 40
0.0
 40
0.5029819002
 40
1.0
 40
1.0
 40
1.0
 40
1.0
 10
-25.8402048525
 20
1.5218428099
 30
0.0
 10
-25.8402048525
 20
1.5308172922
 30
0.0
 10
-25.8413161415
 20
1.5486753608
 30
0.0
 10
-25.8446072684
 20
1.5662669712
 30
0.0
 10
-25.8468146348
 20
1.5748559321
 30
0.0
  0
SPLINE
  5
5FD
100
AcDbEntity
  8
0
100
AcDbSpline
 62
3
  6
CONTINUOUS
 70
0
 71
3
 72
9
 73
5
 74
0
 42
0.0000001
 43
0.0000001
 44
0.0000000001
 40
0.0
 40
0.0
 40
0.0
 40
0.0
 40
0.2582277865
 40
1.0
 40
1.0
 40
1.0
 40
1.0
 10
-25.8468146348
 20
1.5748559321
 30
0.0
 10
-25.8478954712
 20
1.5790615149
 30
0.0
 10
-25.8526143306
 20
1.5952016485
 30
0.0
 10
-25.85947973
 20
1.6107489825
 30
0.0
 10
-25.8658467444
 20
1.6214748894
 30
0.0
  0
SPLINE
  5
5FE
100
AcDbEntity
  8
0
100
AcDbSpline
 62
3
  6
CONTINUOUS
 70
0
 71
3
 72
11
 73
7
 74
0
 42
0.0000001
 43
0.0000001
 44
0.0000000001
 40
0.0
 40
0.0
 40
0.0
 40
0.0
 40
0.2723506519
 40
0.5287997358
 40
0.7702484497
 40
1.0
 40
1.0
 40
1.0
 40
1.0
 10
-25.8658467444
 20
1.6214748894
 30
0.0
 10
-25.8698271941
 20
1.6281803765
 30
0.0
 10
-25.878561848
 20
1.6406420739
 30
0.0
 10
-25.8942180212
 20
1.6563505699
 30
0.0
 10
-25.9116674758
 20
1.667996598
 30
0.0
 10
-25.924391454
 20
1.6728966598
 30
0.0
 10
-25.9307742939
 20
1.6744880116
 30
0.0
  0
SPLINE
  5
5FF
100
AcDbEntity
  8
0
100
AcDbSpline
 62
3
  6
CONTINUOUS
 70
0
 71
3
 72
9
 73
5
 74
0
 42
0.0000001
 43
0.0000001
 44
0.0000000001
 40
0.0
 40
0.0
 40
0.0
 40
0.0
 40
0.5029819002
 40
1.0
 40
1.0
 40
1.0
 40
1.0
 10
-19.1226904312
 20
1.5218428099
 30
0.0
 10
-19.1226904312
 20
1.5308172922
 30
0.0
 10
-19.1238017202
 20
1.5486753608
 30
0.0
 10
-19.1270928471
 20
1.5662669712
 30
0.0
 10
-19.1293002135
 20
1.5748559321
 30
0.0
  0
SPLINE
  5
600
100
AcDbEntity
  8
0
100
AcDbSpline
 62
3
  6
CONTINUOUS
 70
0
 71
3
 72
9
 73
5
 74
0
 42
0.0000001
 43
0.0000001
 44
0.0000000001
 40
0.0
 40
0.0
 40
0.0
 40
0.0
 40
0.2582277865
 40
1.0
 40
1.0
 40
1.0
 40
1.0
 10
-19.1293002135
 20
1.5748559321
 30
0.0
 10
-19.13038105
 20
1.5790615149
 30
0.0
 10
-19.1350999093
 20
1.5952016485
 30
0.0
 10
-19.1419653088
 20
1.6107489825
 30
0.0
 10
-19.1483323231
 20
1.6214748894
 30
0.0
  0
SPLINE
  5
601
100
AcDbEntity
  8
0
100
AcDbSpline
 62
3
  6
CONTINUOUS
 70
0
 71
3
 72
11
 73
7
 74
0
 42
0.0000001
 43
0.0000001
 44
0.0000000001
 40
0.0
 40
0.0
 40
0.0
 40
0.0
 40
0.2723506519
 40
0.5287997358
 40
0.7702484497
 40
1.0
 40
1.0
 40
1.0
 40
1.0
 10
-19.1483323231
 20
1.6214748894
 30
0.0
 10
-19.1523127728
 20
1.6281803765
 30
0.0
 10
-19.1610474267
 20
1.6406420739
 30
0.0
 10
-19.1767036
 20
1.6563505699
 30
0.0
 10
-19.1941530545
 20
1.667996598
 30
0.0
 10
-19.2068770327
 20
1.6728966598
 30
0.0
 10
-19.2132598727
 20
1.6744880116
 30
0.0
  0
SPLINE
  5
602
100
AcDbEntity
  8
0
100
AcDbSpline
 62
3
  6
CONTINUOUS
 70
0
 71
3
 72
9
 73
5
 74
0
 42
0.0000001
 43
0.0000001
 44
0.0000000001
 40
0.0
 40
0.0
 40
0.0
 40
0.0
 40
0.4784894826
 40
1.0
 40
1.0
 40
1.0
 40
1.0
 10
-29.3439189533
 20
2.2218428099
 30
0.0
 10
-29.3476637817
 20
2.2218428099
 30
0.0
 10
-29.3555502803
 20
2.219941325
 30
0.0
 10
-29.3619684261
 20
2.2151272467
 30
0.0
 10
-29.3648052266
 20
2.2121927246
 30
0.0
  0
SPLINE
  5
603
100
AcDbEntity
  8
0
100
AcDbSpline
 62
3
  6
CONTINUOUS
 70
0
 71
3
 72
10
 73
6
 74
0
 42
0.0000001
 43
0.0000001
 44
0.0000000001
 40
0.0
 40
0.0
 40
0.0
 40
0.0
 40
0.2288359056
 40
0.6035657529
 40
1.0
 40
1.0
 40
1.0
 40
1.0
 10
-29.3648052266
 20
2.2121927246
 30
0.0
 10
-29.3671251943
 20
2.2097928389
 30
0.0
 10
-29.3724462849
 20
2.2026678526
 30
0.0
 10
-29.3778719789
 20
2.1889175894
 30
0.0
 10
-29.3792742923
 20
2.1776254047
 30
0.0
 10
-29.3792742923
 20
2.1718428099
 30
0.0
  0
SPLINE
  5
604
100
AcDbEntity
  8
0
100
AcDbSpline
 62
3
  6
CONTINUOUS
 70
0
 71
3
 72
9
 73
5
 74
0
 42
0.0000001
 43
0.0000001
 44
0.0000000001
 40
0.0
 40
0.0
 40
0.0
 40
0.0
 40
0.5029819002
 40
1.0
 40
1.0
 40
1.0
 40
1.0
 10
-39.5651474753
 20
1.5218428099
 30
0.0
 10
-39.5651474753
 20
1.5128683276
 30
0.0
 10
-39.5640361863
 20
1.4950102591
 30
0.0
 10
-39.5607450594
 20
1.4774186486
 30
0.0
 10
-39.558537693
 20
1.4688296877
 30
0.0
  0
SPLINE
  5
605
100
AcDbEntity
  8
0
100
AcDbSpline
 62
3
  6
CONTINUOUS
 70
0
 71
3
 72
9
 73
5
 74
0
 42
0.0000001
 43
0.0000001
 44
0.0000000001
 40
0.0
 40
0.0
 40
0.0
 40
0.0
 40
0.2582277865
 40
1.0
 40
1.0
 40
1.0
 40
1.0
 10
-39.558537693
 20
1.4688296877
 30
0.0
 10
-39.5574568565
 20
1.4646241049
 30
0.0
 10
-39.5527379972
 20
1.4484839713
 30
0.0
 10
-39.5458725978
 20
1.4329366373
 30
0.0
 10
-39.5395055834
 20
1.4222107304
 30
0.0
  0
SPLINE
  5
606
100
AcDbEntity
  8
0
100
AcDbSpline
 62
3
  6
CONTINUOUS
 70
0
 71
3
 72
11
 73
7
 74
0
 42
0.0000001
 43
0.0000001
 44
0.0000000001
 40
0.0
 40
0.0
 40
0.0
 40
0.0
 40
0.2723506519
 40
0.5287997358
 40
0.7702484497
 40
1.0
 40
1.0
 40
1.0
 40
1.0
 10
-39.5395055834
 20
1.4222107304
 30
0.0
 10
-39.5355251337
 20
1.4155052433
 30
0.0
 10
-39.5267904798
 20
1.4030435459
 30
0.0
 10
-39.5111343066
 20
1.3873350499
 30
0.0
 10
-39.493684852
 20
1.3756890218
 30
0.0
 10
-39.4809608738
 20
1.3707889601
 30
0.0
 10
-39.4745780338
 20
1.3691976082
 30
0.0
  0
SPLINE
  5
607
100
AcDbEntity
  8
0
100
AcDbSpline
 62
3
  6
CONTINUOUS
 70
0
 71
3
 72
9
 73
5
 74
0
 42
0.0000001
 43
0.0000001
 44
0.0000000001
 40
0.0
 40
0.0
 40
0.0
 40
0.0
 40
0.5029819002
 40
1.0
 40
1.0
 40
1.0
 40
1.0
 10
-32.847633054
 20
1.5218428099
 30
0.0
 10
-32.847633054
 20
1.5128683276
 30
0.0
 10
-32.846521765
 20
1.4950102591
 30
0.0
 10
-32.8432306382
 20
1.4774186486
 30
0.0
 10
-32.8410232717
 20
1.4688296877
 30
0.0
  0
SPLINE
  5
608
100
AcDbEntity
  8
0
100
AcDbSpline
 62
3
  6
CONTINUOUS
 70
0
 71
3
 72
9
 73
5
 74
0
 42
0.0000001
 43
0.0000001
 44
0.0000000001
 40
0.0
 40
0.0
 40
0.0
 40
0.0
 40
0.2582277865
 40
1.0
 40
1.0
 40
1.0
 40
1.0
 10
-32.8410232717
 20
1.4688296877
 30
0.0
 10
-32.8399424353
 20
1.4646241049
 30
0.0
 10
-32.8352235759
 20
1.4484839713
 30
0.0
 10
-32.8283581765
 20
1.4329366373
 30
0.0
 10
-32.8219911621
 20
1.4222107304
 30
0.0
  0
SPLINE
  5
609
100
AcDbEntity
  8
0
100
AcDbSpline
 62
3
  6
CONTINUOUS
 70
0
 71
3
 72
11
 73
7
 74
0
 42
0.0000001
 43
0.0000001
 44
0.0000000001
 40
0.0
 40
0.0
 40
0.0
 40
0.0
 40
0.2723506519
 40
0.5287997358
 40
0.7702484497
 40
1.0
 40
1.0
 40
1.0
 40
1.0
 10
-32.8219911621
 20
1.4222107304
 30
0.0
 10
-32.8180107124
 20
1.4155052433
 30
0.0
 10
-32.8092760585
 20
1.4030435459
 30
0.0
 10
-32.7936198853
 20
1.3873350499
 30
0.0
 10
-32.7761704307
 20
1.3756890218
 30
0.0
 10
-32.7634464525
 20
1.3707889601
 30
0.0
 10
-32.7570636126
 20
1.3691976082
 30
0.0
  0
SPLINE
  5
60A
100
AcDbEntity
  8
0
100
AcDbSpline
 62
3
  6
CONTINUOUS
 70
0
 71
3
 72
9
 73
5
 74
0
 42
0.0000001
 43
0.0000001
 44
0.0000000001
 40
0.0
 40
0.0
 40
0.0
 40
0.0
 40
0.4784894826
 40
1.0
 40
1.0
 40
1.0
 40
1.0
 10
-29.3439189533
 20
2.2218428099
 30
0.0
 10
-29.3401741248
 20
2.2218428099
 30
0.0
 10
-29.3322876262
 20
2.219941325
 30
0.0
 10
-29.3258694804
 20
2.2151272467
 30
0.0
 10
-29.3230326799
 20
2.2121927246
 30
0.0
  0
SPLINE
  5
60B
100
AcDbEntity
  8
0
100
AcDbSpline
 62
3
  6
CONTINUOUS
 70
0
 71
3
 72
10
 73
6
 74
0
 42
0.0000001
 43
0.0000001
 44
0.0000000001
 40
0.0
 40
0.0
 40
0.0
 40
0.0
 40
0.2288359056
 40
0.6035657529
 40
1.0
 40
1.0
 40
1.0
 40
1.0
 10
-29.3230326799
 20
2.2121927246
 30
0.0
 10
-29.3207127122
 20
2.2097928389
 30
0.0
 10
-29.3153916216
 20
2.2026678526
 30
0.0
 10
-29.3099659276
 20
2.1889175894
 30
0.0
 10
-29.3085636142
 20
2.1776254047
 30
0.0
 10
-29.3085636142
 20
2.1718428099
 30
0.0
  0
SPLINE
  5
60C
100
AcDbEntity
  8
PARTDTMS
100
AcDbSpline
 62
7
  6
CONTINUOUS
 70
0
 71
3
 72
23
 73
19
 74
0
 42
0.0000001
 43
0.0000001
 44
0.0000000001
 40
0.0
 40
0.0
 40
0.0
 40
0.0
 40
0.1254610895
 40
0.1880578062
 40
0.2505679376
 40
0.3130008448
 40
0.375370815
 40
0.40653889
 40
0.4376984978
 40
0.500000008
 40
0.5623015175
 40
0.5934611257
 40
0.6246292005
 40
0.686999169
 40
0.7494320744
 40
0.8119422038
 40
0.874538915
 40
1.0
 40
1.0
 40
1.0
 40
1.0
 10
7.6602181545
 20
38.5621753609
 30
0.0
 10
7.6556404049
 20
38.5701260534
 30
0.0
 10
7.6485012992
 20
38.5818890906
 30
0.0
 10
7.6383340288
 20
38.5971348551
 30
0.0
 10
7.6303716806
 20
38.6083036399
 30
0.0
 10
7.6220475918
 20
38.6191847986
 30
0.0
 10
7.6147940463
 20
38.6279901809
 30
0.0
 10
7.6087993434
 20
38.634861899
 30
0.0
 10
7.6026767839
 20
38.6416131938
 30
0.0
 10
7.5947808738
 20
38.6498267007
 30
0.0
 10
7.5865673665
 20
38.6577226106
 30
0.0
 10
7.5798160716
 20
38.6638451698
 30
0.0
 10
7.5729443546
 20
38.6698398738
 30
0.0
 10
7.564138971
 20
38.6770934175
 30
0.0
 10
7.5532578135
 20
38.685417507
 30
0.0
 10
7.5420890289
 20
38.6933798544
 30
0.0
 10
7.5268432652
 20
38.7035471244
 30
0.0
 10
7.5150802286
 20
38.7106862296
 30
0.0
 10
7.5071295364
 20
38.715263979
 30
0.0
  0
SPLINE
  5
60D
100
AcDbEntity
  8
PARTDTMS
100
AcDbSpline
 62
7
  6
CONTINUOUS
 70
0
 71
3
 72
23
 73
19
 74
0
 42
0.0000001
 43
0.0000001
 44
0.0000000001
 40
0.0
 40
0.0
 40
0.0
 40
0.0
 40
0.1254610895
 40
0.1880578062
 40
0.2505679376
 40
0.3130008448
 40
0.375370815
 40
0.40653889
 40
0.4376984978
 40
0.500000008
 40
0.5623015175
 40
0.5934611257
 40
0.6246292005
 40
0.686999169
 40
0.7494320744
 40
0.8119422038
 40
0.874538915
 40
1.0
 40
1.0
 40
1.0
 40
1.0
 10
7.8133067726
 20
38.4090867428
 30
0.0
 10
7.808729023
 20
38.4170374353
 30
0.0
 10
7.8015899174
 20
38.4288004724
 30
0.0
 10
7.7914226469
 20
38.444046237
 30
0.0
 10
7.7834602987
 20
38.4552150218
 30
0.0
 10
7.77513621
 20
38.4660961804
 30
0.0
 10
7.7678826644
 20
38.4749015627
 30
0.0
 10
7.7618879615
 20
38.4817732809
 30
0.0
 10
7.755765402
 20
38.4885245757
 30
0.0
 10
7.7478694919
 20
38.4967380826
 30
0.0
 10
7.7396559847
 20
38.5046339924
 30
0.0
 10
7.7329046897
 20
38.5107565517
 30
0.0
 10
7.7260329727
 20
38.5167512557
 30
0.0
 10
7.7172275892
 20
38.5240047993
 30
0.0
 10
7.7063464316
 20
38.5323288889
 30
0.0
 10
7.6951776471
 20
38.5402912363
 30
0.0
 10
7.6799318833
 20
38.5504585062
 30
0.0
 10
7.6681688467
 20
38.5575976115
 30
0.0
 10
7.6602181545
 20
38.5621753609
 30
0.0
  0
SPLINE
  5
60E
100
AcDbEntity
  8
PARTDTMS
100
AcDbSpline
 62
7
  6
CONTINUOUS
 70
0
 71
3
 72
23
 73
19
 74
0
 42
0.0000001
 43
0.0000001
 44
0.0000000001
 40
0.0
 40
0.0
 40
0.0
 40
0.0
 40
0.1254610895
 40
0.1880578062
 40
0.2505679376
 40
0.3130008448
 40
0.375370815
 40
0.40653889
 40
0.4376984978
 40
0.500000008
 40
0.5623015175
 40
0.5934611257
 40
0.6246292005
 40
0.686999169
 40
0.7494320744
 40
0.8119422038
 40
0.874538915
 40
1.0
 40
1.0
 40
1.0
 40
1.0
 10
7.6602181545
 20
26.2062018618
 30
0.0
 10
7.668168847
 20
26.2107796114
 30
0.0
 10
7.6799318842
 20
26.2179187171
 30
0.0
 10
7.6951776487
 20
26.2280859875
 30
0.0
 10
7.7063464335
 20
26.2360483357
 30
0.0
 10
7.7172275922
 20
26.2443724245
 30
0.0
 10
7.7260329745
 20
26.2516259701
 30
0.0
 10
7.7329046926
 20
26.2576206729
 30
0.0
 10
7.7396559874
 20
26.2637432324
 30
0.0
 10
7.7478694943
 20
26.2716391425
 30
0.0
 10
7.7557654042
 20
26.2798526498
 30
0.0
 10
7.7618879634
 20
26.2866039447
 30
0.0
 10
7.7678826674
 20
26.2934756617
 30
0.0
 10
7.7751362111
 20
26.3022810453
 30
0.0
 10
7.7834603006
 20
26.3131622028
 30
0.0
 10
7.791422648
 20
26.3243309874
 30
0.0
 10
7.801589918
 20
26.3395767512
 30
0.0
 10
7.8087290232
 20
26.3513397877
 30
0.0
 10
7.8133067726
 20
26.3592904799
 30
0.0
  0
SPLINE
  5
60F
100
AcDbEntity
  8
PARTDTMS
100
AcDbSpline
 62
7
  6
CONTINUOUS
 70
0
 71
3
 72
23
 73
19
 74
0
 42
0.0000001
 43
0.0000001
 44
0.0000000001
 40
0.0
 40
0.0
 40
0.0
 40
0.0
 40
0.1254610895
 40
0.1880578062
 40
0.2505679376
 40
0.3130008448
 40
0.375370815
 40
0.40653889
 40
0.4376984978
 40
0.500000008
 40
0.5623015175
 40
0.5934611257
 40
0.6246292005
 40
0.686999169
 40
0.7494320744
 40
0.8119422038
 40
0.874538915
 40
1.0
 40
1.0
 40
1.0
 40
1.0
 10
7.5071295364
 20
26.0531132437
 30
0.0
 10
7.5150802289
 20
26.0576909933
 30
0.0
 10
7.526843266
 20
26.064830099
 30
0.0
 10
7.5420890306
 20
26.0749973694
 30
0.0
 10
7.5532578154
 20
26.0829597176
 30
0.0
 10
7.564138974
 20
26.0912838064
 30
0.0
 10
7.5729443563
 20
26.0985373519
 30
0.0
 10
7.5798160745
 20
26.1045320548
 30
0.0
 10
7.5865673693
 20
26.1106546143
 30
0.0
 10
7.5947808762
 20
26.1185505244
 30
0.0
 10
7.602676786
 20
26.1267640316
 30
0.0
 10
7.6087993453
 20
26.1335153266
 30
0.0
 10
7.6147940493
 20
26.1403870436
 30
0.0
 10
7.6220475929
 20
26.1491924271
 30
0.0
 10
7.6303716825
 20
26.1600735847
 30
0.0
 10
7.6383340299
 20
26.1712423693
 30
0.0
 10
7.6485012998
 20
26.186488133
 30
0.0
 10
7.6556404051
 20
26.1982511696
 30
0.0
 10
7.6602181545
 20
26.2062018618
 30
0.0
  0
SPLINE
  5
610
100
AcDbEntity
  8
PARTDTMS
100
AcDbSpline
 62
7
  6
CONTINUOUS
 70
0
 71
3
 72
23
 73
19
 74
0
 42
0.0000001
 43
0.0000001
 44
0.0000000001
 40
0.0
 40
0.0
 40
0.0
 40
0.0
 40
0.1254610895
 40
0.1880578062
 40
0.2505679376
 40
0.3130008448
 40
0.375370815
 40
0.40653889
 40
0.4376984978
 40
0.500000008
 40
0.5623015175
 40
0.5934611257
 40
0.6246292005
 40
0.686999169
 40
0.7494320744
 40
0.8119422038
 40
0.874538915
 40
1.0
 40
1.0
 40
1.0
 40
1.0
 10
-4.6957553446
 20
38.5621753609
 30
0.0
 10
-4.7037060371
 20
38.5575976113
 30
0.0
 10
-4.7154690742
 20
38.5504585056
 30
0.0
 10
-4.7307148388
 20
38.5402912352
 30
0.0
 10
-4.7418836236
 20
38.532328887
 30
0.0
 10
-4.7527647822
 20
38.5240047982
 30
0.0
 10
-4.7615701646
 20
38.5167512527
 30
0.0
 10
-4.7684418827
 20
38.5107565498
 30
0.0
 10
-4.7751931775
 20
38.5046339903
 30
0.0
 10
-4.7834066844
 20
38.4967380802
 30
0.0
 10
-4.7913025942
 20
38.488524573
 30
0.0
 10
-4.7974251535
 20
38.481773278
 30
0.0
 10
-4.8034198575
 20
38.474901561
 30
0.0
 10
-4.8106734011
 20
38.4660961774
 30
0.0
 10
-4.8189974907
 20
38.4552150199
 30
0.0
 10
-4.8269598381
 20
38.4440462353
 30
0.0
 10
-4.8371271081
 20
38.4288004716
 30
0.0
 10
-4.8442662133
 20
38.417037435
 30
0.0
 10
-4.8488439627
 20
38.4090867428
 30
0.0
  0
SPLINE
  5
611
100
AcDbEntity
  8
PARTDTMS
100
AcDbSpline
 62
7
  6
CONTINUOUS
 70
0
 71
3
 72
23
 73
19
 74
0
 42
0.0000001
 43
0.0000001
 44
0.0000000001
 40
0.0
 40
0.0
 40
0.0
 40
0.0
 40
0.1254610895
 40
0.1880578062
 40
0.2505679376
 40
0.3130008448
 40
0.375370815
 40
0.40653889
 40
0.4376984978
 40
0.500000008
 40
0.5623015175
 40
0.5934611257
 40
0.6246292005
 40
0.686999169
 40
0.7494320744
 40
0.8119422038
 40
0.874538915
 40
1.0
 40
1.0
 40
1.0
 40
1.0
 10
-4.5426667265
 20
38.715263979
 30
0.0
 10
-4.550617419
 20
38.7106862295
 30
0.0
 10
-4.5623804561
 20
38.7035471238
 30
0.0
 10
-4.5776262206
 20
38.6933798533
 30
0.0
 10
-4.5887950054
 20
38.6854175051
 30
0.0
 10
-4.5996761641
 20
38.6770934164
 30
0.0
 10
-4.6084815464
 20
38.6698398708
 30
0.0
 10
-4.6153532646
 20
38.6638451679
 30
0.0
 10
-4.6221045593
 20
38.6577226084
 30
0.0
 10
-4.6303180663
 20
38.6498266983
 30
0.0
 10
-4.6382139761
 20
38.6416131911
 30
0.0
 10
-4.6443365353
 20
38.6348618961
 30
0.0
 10
-4.6503312394
 20
38.6279901791
 30
0.0
 10
-4.657584783
 20
38.6191847956
 30
0.0
 10
-4.6659088726
 20
38.6083036381
 30
0.0
 10
-4.6738712199
 20
38.5971348535
 30
0.0
 10
-4.6840384899
 20
38.5818890897
 30
0.0
 10
-4.6911775952
 20
38.5701260531
 30
0.0
 10
-4.6957553446
 20
38.5621753609
 30
0.0
  0
SPLINE
  5
612
100
AcDbEntity
  8
PARTDTMS
100
AcDbSpline
 62
7
  6
CONTINUOUS
 70
0
 71
3
 72
23
 73
19
 74
0
 42
0.0000001
 43
0.0000001
 44
0.0000000001
 40
0.0
 40
0.0
 40
0.0
 40
0.0
 40
0.1254610895
 40
0.1880578062
 40
0.2505679376
 40
0.3130008448
 40
0.375370815
 40
0.40653889
 40
0.4376984978
 40
0.500000008
 40
0.5623015175
 40
0.5934611257
 40
0.6246292005
 40
0.686999169
 40
0.7494320744
 40
0.8119422038
 40
0.874538915
 40
1.0
 40
1.0
 40
1.0
 40
1.0
 10
-4.6957553446
 20
26.2062018618
 30
0.0
 10
-4.691177595
 20
26.1982511693
 30
0.0
 10
-4.6840384893
 20
26.1864881322
 30
0.0
 10
-4.6738712189
 20
26.1712423676
 30
0.0
 10
-4.6659088707
 20
26.1600735828
 30
0.0
 10
-4.6575847819
 20
26.1491924242
 30
0.0
 10
-4.6503312364
 20
26.1403870419
 30
0.0
 10
-4.6443365335
 20
26.1335153237
 30
0.0
 10
-4.638213974
 20
26.1267640289
 30
0.0
 10
-4.6303180639
 20
26.118550522
 30
0.0
 10
-4.6221045566
 20
26.1106546122
 30
0.0
 10
-4.6153532617
 20
26.1045320529
 30
0.0
 10
-4.6084815447
 20
26.0985373489
 30
0.0
 10
-4.5996761611
 20
26.0912838053
 30
0.0
 10
-4.5887950036
 20
26.0829597157
 30
0.0
 10
-4.577626219
 20
26.0749973683
 30
0.0
 10
-4.5623804553
 20
26.0648300983
 30
0.0
 10
-4.5506174187
 20
26.0576909931
 30
0.0
 10
-4.5426667265
 20
26.0531132437
 30
0.0
  0
SPLINE
  5
613
100
AcDbEntity
  8
PARTDTMS
100
AcDbSpline
 62
7
  6
CONTINUOUS
 70
0
 71
3
 72
23
 73
19
 74
0
 42
0.0000001
 43
0.0000001
 44
0.0000000001
 40
0.0
 40
0.0
 40
0.0
 40
0.0
 40
0.1254610895
 40
0.1880578062
 40
0.2505679376
 40
0.3130008448
 40
0.375370815
 40
0.40653889
 40
0.4376984978
 40
0.500000008
 40
0.5623015175
 40
0.5934611257
 40
0.6246292005
 40
0.686999169
 40
0.7494320744
 40
0.8119422038
 40
0.874538915
 40
1.0
 40
1.0
 40
1.0
 40
1.0
 10
-4.8488439627
 20
26.3592904799
 30
0.0
 10
-4.8442662131
 20
26.3513397874
 30
0.0
 10
-4.8371271074
 20
26.3395767503
 30
0.0
 10
-4.826959837
 20
26.3243309858
 30
0.0
 10
-4.8189974888
 20
26.313162201
 30
0.0
 10
-4.8106734
 20
26.3022810423
 30
0.0
 10
-4.8034198545
 20
26.29347566
 30
0.0
 10
-4.7974251516
 20
26.2866039418
 30
0.0
 10
-4.7913025921
 20
26.2798526471
 30
0.0
 10
-4.783406682
 20
26.2716391401
 30
0.0
 10
-4.7751931748
 20
26.2637432303
 30
0.0
 10
-4.7684418798
 20
26.2576206711
 30
0.0
 10
-4.7615701628
 20
26.251625967
 30
0.0
 10
-4.7527647793
 20
26.2443724234
 30
0.0
 10
-4.7418836217
 20
26.2360483338
 30
0.0
 10
-4.7307148371
 20
26.2280859865
 30
0.0
 10
-4.7154690734
 20
26.2179187165
 30
0.0
 10
-4.7037060368
 20
26.2107796112
 30
0.0
 10
-4.6957553446
 20
26.2062018618
 30
0.0
  0
SPLINE
  5
614
100
AcDbEntity
  8
0
100
AcDbSpline
 62
7
  6
CONTINUOUS
 70
0
 71
3
 72
51
 73
47
 74
0
 42
0.0000001
 43
0.0000001
 44
0.0000000001
 40
0.0
 40
0.0
 40
0.0
 40
0.0
 40
0.0130310494
 40
0.0261009788
 40
0.0392318798
 40
0.0524453615
 40
0.0657651505
 40
0.0792165324
 40
0.0928231078
 40
0.1066063788
 40
0.1347575992
 40
0.1491640344
 40
0.1638010343
 40
0.1937817937
 40
0.224738508
 40
0.2566587757
 40
0.2894974443
 40
0.3231774944
 40
0.3403058062
 40
0.3576043753
 40
0.3926415843
 40
0.4281561769
 40
0.4639957907
 40
0.5
 40
0.5360042093
 40
0.5718438231
 40
0.6073584157
 40
0.6423956247
 40
0.6596941938
 40
0.6768225056
 40
0.7105025557
 40
0.7433412243
 40
0.775261492
 40
0.8062182063
 40
0.8361989657
 40
0.8508359656
 40
0.8652424008
 40
0.8933936212
 40
0.9071768922
 40
0.9207834676
 40
0.9342348495
 40
0.9475546385
 40
0.9607681202
 40
0.9738990212
 40
0.9869689506
 40
1.0
 40
1.0
 40
1.0
 40
1.0
 10
3.6812306601
 20
38.6269111243
 30
0.0
 10
3.6820134497
 20
38.6293938155
 30
0.0
 10
3.6834122722
 20
38.6344217152
 30
0.0
 10
3.6849987296
 20
38.6421024557
 30
0.0
 10
3.6860715261
 20
38.6499087177
 30
0.0
 10
3.6866255609
 20
38.657818713
 30
0.0
 10
3.6866587243
 20
38.6658119277
 30
0.0
 10
3.6861729225
 20
38.6738688165
 30
0.0
 10
3.6851693102
 20
38.6819711768
 30
0.0
 10
3.6831290784
 20
38.6928828319
 30
0.0
 10
3.6800625115
 20
38.7037435989
 30
0.0
 10
3.6760443448
 20
38.7144438676
 30
0.0
 10
3.671299005
 20
38.7252437754
 30
0.0
 10
3.6641282716
 20
38.7385624281
 30
0.0
 10
3.6537423421
 20
38.7539656124
 30
0.0
 10
3.6416106201
 20
38.768778956
 30
0.0
 10
3.6278477492
 20
38.7828576601
 30
0.0
 10
3.615201276
 20
38.7938098067
 30
0.0
 10
3.6044046218
 20
38.80209357
 30
0.0
 10
3.5930732939
 20
38.810109009
 30
0.0
 10
3.5781717672
 20
38.8194130853
 30
0.0
 10
3.5593465798
 20
38.8293178381
 30
0.0
 10
3.5396781589
 20
38.8379147038
 30
0.0
 10
3.5193566482
 20
38.8451244446
 30
0.0
 10
3.4985749037
 20
38.8508745104
 30
0.0
 10
3.4775325169
 20
38.855113713
 30
0.0
 10
3.4564306934
 20
38.8577978984
 30
0.0
 10
3.4388874784
 20
38.8587236099
 30
0.0
 10
3.425007931
 20
38.8586571294
 30
0.0
 10
3.4114124583
 20
38.8580641741
 30
0.0
 10
3.3947711807
 20
38.8563464199
 30
0.0
 10
3.3754220839
 20
38.8527078791
 30
0.0
 10
3.3569877742
 20
38.8475319683
 30
0.0
 10
3.3396452153
 20
38.8408715428
 30
0.0
 10
3.326132029
 20
38.8340745049
 30
0.0
 10
3.3160503015
 20
38.8279495535
 30
0.0
 10
3.3066213901
 20
38.8214891322
 30
0.0
 10
3.2978799255
 20
38.8143514233
 30
0.0
 10
3.2899499972
 20
38.8065833475
 30
0.0
 10
3.2844805632
 20
38.8005219308
 30
0.0
 10
3.2794613761
 20
38.7942007584
 30
0.0
 10
3.2749038224
 20
38.7876340785
 30
0.0
 10
3.2708206742
 20
38.7808368084
 30
0.0
 10
3.2672219697
 20
38.7738269621
 30
0.0
 10
3.2641160278
 20
38.7666253133
 30
0.0
 10
3.2623779913
 20
38.7617043673
 30
0.0
 10
3.2615952018
 20
38.759221676
 30
0.0
  0
SPLINE
  5
615
100
AcDbEntity
  8
0
100
AcDbSpline
 62
7
  6
CONTINUOUS
 70
0
 71
3
 72
16
 73
12
 74
0
 42
0.0000001
 43
0.0000001
 44
0.0000000001
 40
0.0
 40
0.0
 40
0.0
 40
0.0
 40
0.0351200651
 40
0.074514078
 40
0.11806731
 40
0.1656632627
 40
0.2724865158
 40
0.393951073
 40
0.5288292877
 40
0.6757857463
 40
1.0
 40
1.0
 40
1.0
 40
1.0
 10
3.3092966324
 20
38.9105112853
 30
0.0
 10
3.3090887263
 20
38.9098518914
 30
0.0
 10
3.3086550393
 20
38.9084505195
 30
0.0
 10
3.3079793406
 20
38.9062265603
 30
0.0
 10
3.3072368546
 20
38.903766204
 30
0.0
 10
3.3061084342
 20
38.9000357376
 30
0.0
 10
3.3045219402
 20
38.8948413831
 30
0.0
 10
3.3023899034
 20
38.8880171336
 30
0.0
 10
3.2999801818
 20
38.8804520341
 30
0.0
 10
3.2963144523
 20
38.8690981192
 30
0.0
 10
3.2934566978
 20
38.8602734311
 30
0.0
 10
3.2915373926
 20
38.8541861727
 30
0.0
  0
SPLINE
  5
616
100
AcDbEntity
  8
0
100
AcDbSpline
 62
7
  6
CONTINUOUS
 70
0
 71
3
 72
16
 73
12
 74
0
 42
0.0000001
 43
0.0000001
 44
0.0000000001
 40
0.0
 40
0.0
 40
0.0
 40
0.0
 40
0.3242140572
 40
0.4711707436
 40
0.6060489639
 40
0.7275134306
 40
0.8343367763
 40
0.8819327648
 40
0.9254859815
 40
0.9648799565
 40
1.0
 40
1.0
 40
1.0
 40
1.0
 10
3.7111728509
 20
38.7218756209
 30
0.0
 10
3.7130921549
 20
38.7279628756
 30
0.0
 10
3.7158128543
 20
38.7368307777
 30
0.0
 10
3.7193224022
 20
38.7482339372
 30
0.0
 10
3.7216876346
 20
38.7558130671
 30
0.0
 10
3.7238554035
 20
38.7626260504
 30
0.0
 10
3.7255351842
 20
38.7677909925
 30
0.0
 10
3.7267505429
 20
38.7714940497
 30
0.0
 10
3.727553536
 20
38.7739353279
 30
0.0
 10
3.7282756465
 20
38.776144652
 30
0.0
 10
3.7287241847
 20
38.77754134
 30
0.0
 10
3.7289320907
 20
38.7782007336
 30
0.0
  0
SPLINE
  5
617
100
AcDbEntity
  8
0
100
AcDbSpline
 62
7
  6
CONTINUOUS
 70
0
 71
3
 72
11
 73
7
 74
0
 42
0.0000001
 43
0.0000001
 44
0.0000000001
 40
0.0
 40
0.0
 40
0.0
 40
0.0
 40
0.2483308269
 40
0.4974652844
 40
0.7478688566
 40
1.0
 40
1.0
 40
1.0
 40
1.0
 10
3.2512168208
 20
38.7263056568
 30
0.0
 10
3.2520409323
 20
38.7289194045
 30
0.0
 10
3.2538804409
 20
38.73409796
 30
0.0
 10
3.2571921528
 20
38.7416651882
 30
0.0
 10
3.2610488185
 20
38.7490171007
 30
0.0
 10
3.2639655058
 20
38.7537403841
 30
0.0
 10
3.2655079057
 20
38.7560563032
 30
0.0
  0
SPLINE
  5
618
100
AcDbEntity
  8
0
100
AcDbSpline
 62
7
  6
CONTINUOUS
 70
0
 71
3
 72
38
 73
34
 74
0
 42
0.0000001
 43
0.0000001
 44
0.0000000001
 40
0.0
 40
0.0
 40
0.0
 40
0.0
 40
0.0265030405
 40
0.0535853283
 40
0.0813803079
 40
0.0955804581
 40
0.1099916682
 40
0.1394627263
 40
0.169833034
 40
0.1853597966
 40
0.2011079645
 40
0.2332426317
 40
0.2998174852
 40
0.3341301486
 40
0.3689655818
 40
0.4396553046
 40
0.4752763446
 40
0.51087936
 40
0.5814263949
 40
0.6161404901
 40
0.6503022194
 40
0.6838024409
 40
0.7165486244
 40
0.7484674767
 40
0.7795094403
 40
0.8096502849
 40
0.8388968262
 40
0.8672865981
 40
0.8948905912
 40
0.921811491
 40
0.9481931829
 40
0.9742038568
 40
1.0
 40
1.0
 40
1.0
 40
1.0
 10
3.2655079057
 20
38.7560563032
 30
0.0
 10
3.2682800409
 20
38.7602186745
 30
0.0
 10
3.274410202
 20
38.7682962591
 30
0.0
 10
3.2850884251
 20
38.7793755717
 30
0.0
 10
3.295148344
 20
38.787708335
 30
0.0
 10
3.3038579048
 20
38.7938330777
 30
0.0
 10
3.3131400732
 20
38.7996688999
 30
0.0
 10
3.3255506155
 20
38.8062228923
 30
0.0
 10
3.3387139742
 20
38.8116606201
 30
0.0
 10
3.3497370433
 20
38.815384667
 30
0.0
 10
3.3612303905
 20
38.8187245751
 30
0.0
 10
3.382330992
 20
38.8234319503
 30
0.0
 10
3.407421798
 20
38.8259333988
 30
0.0
 10
3.4330467183
 20
38.8257207011
 30
0.0
 10
3.459370318
 20
38.8236461612
 30
0.0
 10
3.4856599532
 20
38.8188202011
 30
0.0
 10
3.5114054739
 20
38.8113976186
 30
0.0
 10
3.536577099
 20
38.8022949046
 30
0.0
 10
3.5606413566
 20
38.7907804775
 30
0.0
 10
3.5830860491
 20
38.7770234947
 30
0.0
 10
3.5988142559
 20
38.7657768772
 30
0.0
 10
3.6133898875
 20
38.7536448146
 30
0.0
 10
3.6266915076
 20
38.7407262917
 30
0.0
 10
3.638607528
 20
38.7271287189
 30
0.0
 10
3.6490379954
 20
38.7129646456
 30
0.0
 10
3.6578937518
 20
38.6983504387
 30
0.0
 10
3.6651005001
 20
38.6834075792
 30
0.0
 10
3.6705924312
 20
38.6682586171
 30
0.0
 10
3.6743239988
 20
38.6530316078
 30
0.0
 10
3.6762568853
 20
38.637853157
 30
0.0
 10
3.6763729506
 20
38.6228501916
 30
0.0
 10
3.6746629735
 20
38.608159043
 30
0.0
 10
3.6723160002
 20
38.5986374352
 30
0.0
 10
3.6708522791
 20
38.5939951051
 30
0.0
  0
SPLINE
  5
619
100
AcDbEntity
  8
0
100
AcDbSpline
 62
7
  6
CONTINUOUS
 70
0
 71
3
 72
51
 73
47
 74
0
 42
0.0000001
 43
0.0000001
 44
0.0000000001
 40
0.0
 40
0.0
 40
0.0
 40
0.0
 40
0.0130310494
 40
0.0261009788
 40
0.0392318798
 40
0.0524453615
 40
0.0657651505
 40
0.0792165324
 40
0.0928231078
 40
0.1066063788
 40
0.1347575992
 40
0.1491640344
 40
0.1638010343
 40
0.1937817937
 40
0.224738508
 40
0.2566587757
 40
0.2894974443
 40
0.3231774944
 40
0.3403058062
 40
0.3576043753
 40
0.3926415843
 40
0.4281561769
 40
0.4639957907
 40
0.5
 40
0.5360042093
 40
0.5718438231
 40
0.6073584157
 40
0.6423956247
 40
0.6596941938
 40
0.6768225056
 40
0.7105025557
 40
0.7433412243
 40
0.775261492
 40
0.8062182063
 40
0.8361989657
 40
0.8508359656
 40
0.8652424008
 40
0.8933936212
 40
0.9071768922
 40
0.9207834676
 40
0.9342348495
 40
0.9475546385
 40
0.9607681202
 40
0.9738990212
 40
0.9869689506
 40
1.0
 40
1.0
 40
1.0
 40
1.0
 10
7.7249539179
 20
30.1851893562
 30
0.0
 10
7.7274366091
 20
30.1844065667
 30
0.0
 10
7.7324645088
 20
30.1830077441
 30
0.0
 10
7.7401452493
 20
30.1814212867
 30
0.0
 10
7.7479515113
 20
30.1803484902
 30
0.0
 10
7.7558615066
 20
30.1797944554
 30
0.0
 10
7.7638547213
 20
30.179761292
 30
0.0
 10
7.7719116101
 20
30.1802470938
 30
0.0
 10
7.7800139704
 20
30.1812507061
 30
0.0
 10
7.7909256255
 20
30.1832909379
 30
0.0
 10
7.8017863925
 20
30.1863575049
 30
0.0
 10
7.8124866612
 20
30.1903756715
 30
0.0
 10
7.823286569
 20
30.1951210113
 30
0.0
 10
7.8366052217
 20
30.2022917447
 30
0.0
 10
7.852008406
 20
30.2126776742
 30
0.0
 10
7.8668217495
 20
30.2248093962
 30
0.0
 10
7.8809004537
 20
30.2385722671
 30
0.0
 10
7.8918526003
 20
30.2512187404
 30
0.0
 10
7.9001363636
 20
30.2620153945
 30
0.0
 10
7.9081518026
 20
30.2733467224
 30
0.0
 10
7.9174558789
 20
30.2882482491
 30
0.0
 10
7.9273606317
 20
30.3070734365
 30
0.0
 10
7.9359574974
 20
30.3267418574
 30
0.0
 10
7.9431672382
 20
30.3470633681
 30
0.0
 10
7.948917304
 20
30.3678451126
 30
0.0
 10
7.9531565066
 20
30.3888874994
 30
0.0
 10
7.955840692
 20
30.4099893229
 30
0.0
 10
7.9567664035
 20
30.4275325379
 30
0.0
 10
7.956699923
 20
30.4414120853
 30
0.0
 10
7.9561069677
 20
30.455007558
 30
0.0
 10
7.9543892135
 20
30.4716488357
 30
0.0
 10
7.9507506726
 20
30.4909979325
 30
0.0
 10
7.9455747619
 20
30.5094322421
 30
0.0
 10
7.9389143364
 20
30.526774801
 30
0.0
 10
7.9321172985
 20
30.5402879874
 30
0.0
 10
7.9259923471
 20
30.5503697148
 30
0.0
 10
7.9195319258
 20
30.5597986262
 30
0.0
 10
7.9123942169
 20
30.5685400908
 30
0.0
 10
7.9046261411
 20
30.5764700191
 30
0.0
 10
7.8985647244
 20
30.5819394531
 30
0.0
 10
7.892243552
 20
30.5869586402
 30
0.0
 10
7.8856768721
 20
30.5915161939
 30
0.0
 10
7.878879602
 20
30.5955993421
 30
0.0
 10
7.8718697557
 20
30.5991980466
 30
0.0
 10
7.8646681069
 20
30.6023039885
 30
0.0
 10
7.8597471609
 20
30.604042025
 30
0.0
 10
7.8572644696
 20
30.6048248145
 30
0.0
  0
SPLINE
  5
61A
100
AcDbEntity
  8
0
100
AcDbSpline
 62
7
  6
CONTINUOUS
 70
0
 71
3
 72
16
 73
12
 74
0
 42
0.0000001
 43
0.0000001
 44
0.0000000001
 40
0.0
 40
0.0
 40
0.0
 40
0.0
 40
0.0351200651
 40
0.074514078
 40
0.11806731
 40
0.1656632627
 40
0.2724865158
 40
0.393951073
 40
0.5288292877
 40
0.6757857463
 40
1.0
 40
1.0
 40
1.0
 40
1.0
 10
8.0085540789
 20
30.557123384
 30
0.0
 10
8.007894685
 20
30.5573312901
 30
0.0
 10
8.0064933131
 20
30.5577649771
 30
0.0
 10
8.0042693539
 20
30.5584406758
 30
0.0
 10
8.0018089976
 20
30.5591831617
 30
0.0
 10
7.9980785312
 20
30.5603115821
 30
0.0
 10
7.9928841767
 20
30.5618980761
 30
0.0
 10
7.9860599272
 20
30.5640301129
 30
0.0
 10
7.9784948277
 20
30.5664398346
 30
0.0
 10
7.9671409128
 20
30.570105564
 30
0.0
 10
7.9583162247
 20
30.5729633186
 30
0.0
 10
7.9522289663
 20
30.5748826238
 30
0.0
  0
SPLINE
  5
61B
100
AcDbEntity
  8
0
100
AcDbSpline
 62
7
  6
CONTINUOUS
 70
0
 71
3
 72
16
 73
12
 74
0
 42
0.0000001
 43
0.0000001
 44
0.0000000001
 40
0.0
 40
0.0
 40
0.0
 40
0.0
 40
0.3242140572
 40
0.4711707436
 40
0.6060489639
 40
0.7275134306
 40
0.8343367763
 40
0.8819327648
 40
0.9254859815
 40
0.9648799565
 40
1.0
 40
1.0
 40
1.0
 40
1.0
 10
7.8199184145
 20
30.1552471654
 30
0.0
 10
7.8260056692
 20
30.1533278614
 30
0.0
 10
7.8348735713
 20
30.150607162
 30
0.0
 10
7.8462767308
 20
30.1470976141
 30
0.0
 10
7.8538558607
 20
30.1447323817
 30
0.0
 10
7.860668844
 20
30.1425646129
 30
0.0
 10
7.8658337861
 20
30.1408848321
 30
0.0
 10
7.8695368433
 20
30.1396694734
 30
0.0
 10
7.8719781215
 20
30.1388664804
 30
0.0
 10
7.8741874456
 20
30.1381443698
 30
0.0
 10
7.8755841336
 20
30.1376958316
 30
0.0
 10
7.8762435272
 20
30.1374879256
 30
0.0
  0
SPLINE
  5
61C
100
AcDbEntity
  8
0
100
AcDbSpline
 62
7
  6
CONTINUOUS
 70
0
 71
3
 72
11
 73
7
 74
0
 42
0.0000001
 43
0.0000001
 44
0.0000000001
 40
0.0
 40
0.0
 40
0.0
 40
0.0
 40
0.2483308269
 40
0.4974652844
 40
0.7478688566
 40
1.0
 40
1.0
 40
1.0
 40
1.0
 10
7.8243484504
 20
30.6152031955
 30
0.0
 10
7.8269621981
 20
30.6143790841
 30
0.0
 10
7.8321407536
 20
30.6125395754
 30
0.0
 10
7.8397079818
 20
30.6092278635
 30
0.0
 10
7.8470598943
 20
30.6053711978
 30
0.0
 10
7.8517831777
 20
30.6024545105
 30
0.0
 10
7.8540990968
 20
30.6009121107
 30
0.0
  0
SPLINE
  5
61D
100
AcDbEntity
  8
0
100
AcDbSpline
 62
7
  6
CONTINUOUS
 70
0
 71
3
 72
38
 73
34
 74
0
 42
0.0000001
 43
0.0000001
 44
0.0000000001
 40
0.0
 40
0.0
 40
0.0
 40
0.0
 40
0.0265030405
 40
0.0535853283
 40
0.0813803079
 40
0.0955804581
 40
0.1099916682
 40
0.1394627263
 40
0.169833034
 40
0.1853597966
 40
0.2011079645
 40
0.2332426317
 40
0.2998174852
 40
0.3341301486
 40
0.3689655818
 40
0.4396553046
 40
0.4752763446
 40
0.51087936
 40
0.5814263949
 40
0.6161404901
 40
0.6503022194
 40
0.6838024409
 40
0.7165486244
 40
0.7484674767
 40
0.7795094403
 40
0.8096502849
 40
0.8388968262
 40
0.8672865981
 40
0.8948905912
 40
0.921811491
 40
0.9481931829
 40
0.9742038568
 40
1.0
 40
1.0
 40
1.0
 40
1.0
 10
7.8540990968
 20
30.6009121107
 30
0.0
 10
7.8582614681
 20
30.5981399754
 30
0.0
 10
7.8663390527
 20
30.5920098144
 30
0.0
 10
7.8774183653
 20
30.5813315912
 30
0.0
 10
7.8857511286
 20
30.5712716724
 30
0.0
 10
7.8918758713
 20
30.5625621115
 30
0.0
 10
7.8977116935
 20
30.5532799431
 30
0.0
 10
7.9042656859
 20
30.5408694008
 30
0.0
 10
7.9097034137
 20
30.5277060422
 30
0.0
 10
7.9134274606
 20
30.516682973
 30
0.0
 10
7.9167673687
 20
30.5051896258
 30
0.0
 10
7.9214747439
 20
30.4840890243
 30
0.0
 10
7.9239761924
 20
30.4589982183
 30
0.0
 10
7.9237634947
 20
30.4333732981
 30
0.0
 10
7.9216889548
 20
30.4070496984
 30
0.0
 10
7.9168629947
 20
30.3807600632
 30
0.0
 10
7.9094404122
 20
30.3550145424
 30
0.0
 10
7.9003376982
 20
30.3298429173
 30
0.0
 10
7.8888232711
 20
30.3057786597
 30
0.0
 10
7.8750662883
 20
30.2833339672
 30
0.0
 10
7.8638196708
 20
30.2676057605
 30
0.0
 10
7.8516876082
 20
30.2530301288
 30
0.0
 10
7.8387690853
 20
30.2397285087
 30
0.0
 10
7.8251715125
 20
30.2278124883
 30
0.0
 10
7.8110074392
 20
30.2173820209
 30
0.0
 10
7.7963932323
 20
30.2085262645
 30
0.0
 10
7.7814503728
 20
30.2013195162
 30
0.0
 10
7.7663014107
 20
30.1958275852
 30
0.0
 10
7.7510744014
 20
30.1920960175
 30
0.0
 10
7.7358959506
 20
30.1901631311
 30
0.0
 10
7.7208929852
 20
30.1900470657
 30
0.0
 10
7.7062018366
 20
30.1917570428
 30
0.0
 10
7.6966802288
 20
30.1941040161
 30
0.0
 10
7.6920378986
 20
30.1955677372
 30
0.0
  0
SPLINE
  5
61E
100
AcDbEntity
  8
0
100
AcDbSpline
 62
7
  6
CONTINUOUS
 70
0
 71
3
 72
51
 73
47
 74
0
 42
0.0000001
 43
0.0000001
 44
0.0000000001
 40
0.0
 40
0.0
 40
0.0
 40
0.0
 40
0.0130310494
 40
0.0261009788
 40
0.0392318798
 40
0.0524453615
 40
0.0657651505
 40
0.0792165324
 40
0.0928231078
 40
0.1066063788
 40
0.1347575992
 40
0.1491640344
 40
0.1638010343
 40
0.1937817937
 40
0.224738508
 40
0.2566587757
 40
0.2894974443
 40
0.3231774944
 40
0.3403058062
 40
0.3576043753
 40
0.3926415843
 40
0.4281561769
 40
0.4639957907
 40
0.5
 40
0.5360042093
 40
0.5718438231
 40
0.6073584157
 40
0.6423956247
 40
0.6596941938
 40
0.6768225056
 40
0.7105025557
 40
0.7433412243
 40
0.775261492
 40
0.8062182063
 40
0.8361989657
 40
0.8508359656
 40
0.8652424008
 40
0.8933936212
 40
0.9071768922
 40
0.9207834676
 40
0.9342348495
 40
0.9475546385
 40
0.9607681202
 40
0.9738990212
 40
0.9869689506
 40
1.0
 40
1.0
 40
1.0
 40
1.0
 10
-0.7167678502
 20
26.1414660985
 30
0.0
 10
-0.7175506398
 20
26.1389834072
 30
0.0
 10
-0.7189494623
 20
26.1339555075
 30
0.0
 10
-0.7205359197
 20
26.1262747671
 30
0.0
 10
-0.7216087162
 20
26.118468505
 30
0.0
 10
-0.722162751
 20
26.1105585097
 30
0.0
 10
-0.7221959144
 20
26.1025652951
 30
0.0
 10
-0.7217101126
 20
26.0945084063
 30
0.0
 10
-0.7207065003
 20
26.086406046
 30
0.0
 10
-0.7186662685
 20
26.0754943908
 30
0.0
 10
-0.7155997016
 20
26.0646336238
 30
0.0
 10
-0.7115815349
 20
26.0539333551
 30
0.0
 10
-0.7068361951
 20
26.0431334474
 30
0.0
 10
-0.6996654617
 20
26.0298147946
 30
0.0
 10
-0.6892795322
 20
26.0144116103
 30
0.0
 10
-0.6771478102
 20
25.9995982668
 30
0.0
 10
-0.6633849393
 20
25.9855195626
 30
0.0
 10
-0.650738466
 20
25.974567416
 30
0.0
 10
-0.6399418119
 20
25.9662836527
 30
0.0
 10
-0.628610484
 20
25.9582682137
 30
0.0
 10
-0.6137089573
 20
25.9489641374
 30
0.0
 10
-0.5948837699
 20
25.9390593847
 30
0.0
 10
-0.575215349
 20
25.9304625189
 30
0.0
 10
-0.5548938383
 20
25.9232527781
 30
0.0
 10
-0.5341120938
 20
25.9175027124
 30
0.0
 10
-0.513069707
 20
25.9132635097
 30
0.0
 10
-0.4919678835
 20
25.9105793243
 30
0.0
 10
-0.4744246685
 20
25.9096536128
 30
0.0
 10
-0.4605451211
 20
25.9097200933
 30
0.0
 10
-0.4469496484
 20
25.9103130486
 30
0.0
 10
-0.4303083708
 20
25.9120308029
 30
0.0
 10
-0.4109592739
 20
25.9156693437
 30
0.0
 10
-0.3925249643
 20
25.9208452544
 30
0.0
 10
-0.3751824054
 20
25.9275056799
 30
0.0
 10
-0.361669219
 20
25.9343027178
 30
0.0
 10
-0.3515874916
 20
25.9404276693
 30
0.0
 10
-0.3421585802
 20
25.9468880906
 30
0.0
 10
-0.3334171156
 20
25.9540257994
 30
0.0
 10
-0.3254871873
 20
25.9617938753
 30
0.0
 10
-0.3200177533
 20
25.9678552919
 30
0.0
 10
-0.3149985662
 20
25.9741764643
 30
0.0
 10
-0.3104410125
 20
25.9807431442
 30
0.0
 10
-0.3063578643
 20
25.9875404143
 30
0.0
 10
-0.3027591598
 20
25.9945502607
 30
0.0
 10
-0.2996532179
 20
26.0017519094
 30
0.0
 10
-0.2979151814
 20
26.0066728554
 30
0.0
 10
-0.2971323919
 20
26.0091555467
 30
0.0
  0
SPLINE
  5
61F
100
AcDbEntity
  8
0
100
AcDbSpline
 62
7
  6
CONTINUOUS
 70
0
 71
3
 72
16
 73
12
 74
0
 42
0.0000001
 43
0.0000001
 44
0.0000000001
 40
0.0
 40
0.0
 40
0.0
 40
0.0
 40
0.0351200651
 40
0.074514078
 40
0.11806731
 40
0.1656632627
 40
0.2724865158
 40
0.393951073
 40
0.5288292877
 40
0.6757857463
 40
1.0
 40
1.0
 40
1.0
 40
1.0
 10
-0.3448338225
 20
25.8578659374
 30
0.0
 10
-0.3446259163
 20
25.8585253313
 30
0.0
 10
-0.3441922294
 20
25.8599267032
 30
0.0
 10
-0.3435165306
 20
25.8621506624
 30
0.0
 10
-0.3427740447
 20
25.8646110188
 30
0.0
 10
-0.3416456243
 20
25.8683414851
 30
0.0
 10
-0.3400591303
 20
25.8735358396
 30
0.0
 10
-0.3379270935
 20
25.8803600891
 30
0.0
 10
-0.3355173718
 20
25.8879251886
 30
0.0
 10
-0.3318516424
 20
25.8992791035
 30
0.0
 10
-0.3289938879
 20
25.9081037916
 30
0.0
 10
-0.3270745826
 20
25.9141910501
 30
0.0
  0
SPLINE
  5
620
100
AcDbEntity
  8
0
100
AcDbSpline
 62
7
  6
CONTINUOUS
 70
0
 71
3
 72
16
 73
12
 74
0
 42
0.0000001
 43
0.0000001
 44
0.0000000001
 40
0.0
 40
0.0
 40
0.0
 40
0.0
 40
0.3242140572
 40
0.4711707436
 40
0.6060489639
 40
0.7275134306
 40
0.8343367763
 40
0.8819327648
 40
0.9254859815
 40
0.9648799565
 40
1.0
 40
1.0
 40
1.0
 40
1.0
 10
-0.746710041
 20
26.0465016018
 30
0.0
 10
-0.748629345
 20
26.0404143471
 30
0.0
 10
-0.7513500444
 20
26.031546445
 30
0.0
 10
-0.7548595923
 20
26.0201432855
 30
0.0
 10
-0.7572248247
 20
26.0125641557
 30
0.0
 10
-0.7593925935
 20
26.0057511723
 30
0.0
 10
-0.7610723743
 20
26.0005862302
 30
0.0
 10
-0.762287733
 20
25.996883173
 30
0.0
 10
-0.763090726
 20
25.9944418949
 30
0.0
 10
-0.7638128366
 20
25.9922325708
 30
0.0
 10
-0.7642613748
 20
25.9908358827
 30
0.0
 10
-0.7644692808
 20
25.9901764892
 30
0.0
  0
SPLINE
  5
621
100
AcDbEntity
  8
0
100
AcDbSpline
 62
7
  6
CONTINUOUS
 70
0
 71
3
 72
11
 73
7
 74
0
 42
0.0000001
 43
0.0000001
 44
0.0000000001
 40
0.0
 40
0.0
 40
0.0
 40
0.0
 40
0.2483308269
 40
0.4974652844
 40
0.7478688566
 40
1.0
 40
1.0
 40
1.0
 40
1.0
 10
-0.2867540109
 20
26.0420715659
 30
0.0
 10
-0.2875781223
 20
26.0394578183
 30
0.0
 10
-0.289417631
 20
26.0342792627
 30
0.0
 10
-0.2927293429
 20
26.0267120345
 30
0.0
 10
-0.2965860086
 20
26.019360122
 30
0.0
 10
-0.2995026959
 20
26.0146368387
 30
0.0
 10
-0.3010450958
 20
26.0123209196
 30
0.0
  0
SPLINE
  5
622
100
AcDbEntity
  8
0
100
AcDbSpline
 62
7
  6
CONTINUOUS
 70
0
 71
3
 72
38
 73
34
 74
0
 42
0.0000001
 43
0.0000001
 44
0.0000000001
 40
0.0
 40
0.0
 40
0.0
 40
0.0
 40
0.0265030405
 40
0.0535853283
 40
0.0813803079
 40
0.0955804581
 40
0.1099916682
 40
0.1394627263
 40
0.169833034
 40
0.1853597966
 40
0.2011079645
 40
0.2332426317
 40
0.2998174852
 40
0.3341301486
 40
0.3689655818
 40
0.4396553046
 40
0.4752763446
 40
0.51087936
 40
0.5814263949
 40
0.6161404901
 40
0.6503022194
 40
0.6838024409
 40
0.7165486244
 40
0.7484674767
 40
0.7795094403
 40
0.8096502849
 40
0.8388968262
 40
0.8672865981
 40
0.8948905912
 40
0.921811491
 40
0.9481931829
 40
0.9742038568
 40
1.0
 40
1.0
 40
1.0
 40
1.0
 10
-0.3010450958
 20
26.0123209196
 30
0.0
 10
-0.303817231
 20
26.0081585482
 30
0.0
 10
-0.309947392
 20
26.0000809637
 30
0.0
 10
-0.3206256152
 20
25.9890016511
 30
0.0
 10
-0.330685534
 20
25.9806688877
 30
0.0
 10
-0.3393950949
 20
25.974544145
 30
0.0
 10
-0.3486772633
 20
25.9687083229
 30
0.0
 10
-0.3610878056
 20
25.9621543304
 30
0.0
 10
-0.3742511642
 20
25.9567166026
 30
0.0
 10
-0.3852742334
 20
25.9529925557
 30
0.0
 10
-0.3967675806
 20
25.9496526476
 30
0.0
 10
-0.4178681821
 20
25.9449452724
 30
0.0
 10
-0.4429589881
 20
25.9424438239
 30
0.0
 10
-0.4685839083
 20
25.9426565216
 30
0.0
 10
-0.4949075081
 20
25.9447310616
 30
0.0
 10
-0.5211971432
 20
25.9495570216
 30
0.0
 10
-0.546942664
 20
25.9569796041
 30
0.0
 10
-0.5721142891
 20
25.9660823181
 30
0.0
 10
-0.5961785467
 20
25.9775967452
 30
0.0
 10
-0.6186232392
 20
25.9913537281
 30
0.0
 10
-0.634351446
 20
26.0026003455
 30
0.0
 10
-0.6489270776
 20
26.0147324081
 30
0.0
 10
-0.6622286977
 20
26.027650931
 30
0.0
 10
-0.6741447181
 20
26.0412485038
 30
0.0
 10
-0.6845751855
 20
26.0554125772
 30
0.0
 10
-0.6934309419
 20
26.070026784
 30
0.0
 10
-0.7006376902
 20
26.0849696435
 30
0.0
 10
-0.7061296212
 20
26.1001186056
 30
0.0
 10
-0.7098611889
 20
26.1153456149
 30
0.0
 10
-0.7117940753
 20
26.1305240657
 30
0.0
 10
-0.7119101407
 20
26.1455270311
 30
0.0
 10
-0.7102001636
 20
26.1602181797
 30
0.0
 10
-0.7078531903
 20
26.1697397875
 30
0.0
 10
-0.7063894692
 20
26.1743821177
 30
0.0
  0
SPLINE
  5
623
100
AcDbEntity
  8
0
100
AcDbSpline
 62
7
  6
CONTINUOUS
 70
0
 71
3
 72
51
 73
47
 74
0
 42
0.0000001
 43
0.0000001
 44
0.0000000001
 40
0.0
 40
0.0
 40
0.0
 40
0.0
 40
0.0130310494
 40
0.0261009788
 40
0.0392318798
 40
0.0524453615
 40
0.0657651505
 40
0.0792165324
 40
0.0928231078
 40
0.1066063788
 40
0.1347575992
 40
0.1491640344
 40
0.1638010343
 40
0.1937817937
 40
0.224738508
 40
0.2566587757
 40
0.2894974443
 40
0.3231774944
 40
0.3403058062
 40
0.3576043753
 40
0.3926415843
 40
0.4281561769
 40
0.4639957907
 40
0.5
 40
0.5360042093
 40
0.5718438231
 40
0.6073584157
 40
0.6423956247
 40
0.6596941938
 40
0.6768225056
 40
0.7105025557
 40
0.7433412243
 40
0.775261492
 40
0.8062182063
 40
0.8361989657
 40
0.8508359656
 40
0.8652424008
 40
0.8933936212
 40
0.9071768922
 40
0.9207834676
 40
0.9342348495
 40
0.9475546385
 40
0.9607681202
 40
0.9738990212
 40
0.9869689506
 40
1.0
 40
1.0
 40
1.0
 40
1.0
 10
-4.7604911079
 20
34.5831878665
 30
0.0
 10
-4.7629737992
 20
34.5839706561
 30
0.0
 10
-4.7680016989
 20
34.5853694786
 30
0.0
 10
-4.7756824393
 20
34.586955936
 30
0.0
 10
-4.7834887014
 20
34.5880287325
 30
0.0
 10
-4.7913986967
 20
34.5885827673
 30
0.0
 10
-4.7993919114
 20
34.5886159307
 30
0.0
 10
-4.8074488001
 20
34.5881301289
 30
0.0
 10
-4.8155511604
 20
34.5871265166
 30
0.0
 10
-4.8264628156
 20
34.5850862849
 30
0.0
 10
-4.8373235826
 20
34.5820197179
 30
0.0
 10
-4.8480238513
 20
34.5780015513
 30
0.0
 10
-4.858823759
 20
34.5732562114
 30
0.0
 10
-4.8721424118
 20
34.566085478
 30
0.0
 10
-4.8875455961
 20
34.5556995485
 30
0.0
 10
-4.9023589396
 20
34.5435678265
 30
0.0
 10
-4.9164376438
 20
34.5298049556
 30
0.0
 10
-4.9273897904
 20
34.5171584824
 30
0.0
 10
-4.9356735537
 20
34.5063618283
 30
0.0
 10
-4.9436889927
 20
34.4950305003
 30
0.0
 10
-4.952993069
 20
34.4801289736
 30
0.0
 10
-4.9628978217
 20
34.4613037862
 30
0.0
 10
-4.9714946875
 20
34.4416353653
 30
0.0
 10
-4.9787044283
 20
34.4213138546
 30
0.0
 10
-4.9844544941
 20
34.4005321101
 30
0.0
 10
-4.9886936967
 20
34.3794897234
 30
0.0
 10
-4.9913778821
 20
34.3583878998
 30
0.0
 10
-4.9923035936
 20
34.3408446848
 30
0.0
 10
-4.9922371131
 20
34.3269651374
 30
0.0
 10
-4.9916441578
 20
34.3133696647
 30
0.0
 10
-4.9899264035
 20
34.2967283871
 30
0.0
 10
-4.9862878627
 20
34.2773792903
 30
0.0
 10
-4.981111952
 20
34.2589449806
 30
0.0
 10
-4.9744515265
 20
34.2416024217
 30
0.0
 10
-4.9676544886
 20
34.2280892354
 30
0.0
 10
-4.9615295371
 20
34.2180075079
 30
0.0
 10
-4.9550691158
 20
34.2085785965
 30
0.0
 10
-4.947931407
 20
34.1998371319
 30
0.0
 10
-4.9401633312
 20
34.1919072036
 30
0.0
 10
-4.9341019145
 20
34.1864377696
 30
0.0
 10
-4.9277807421
 20
34.1814185825
 30
0.0
 10
-4.9212140622
 20
34.1768610288
 30
0.0
 10
-4.9144167921
 20
34.1727778806
 30
0.0
 10
-4.9074069457
 20
34.1691791761
 30
0.0
 10
-4.900205297
 20
34.1660732342
 30
0.0
 10
-4.895284351
 20
34.1643351977
 30
0.0
 10
-4.8928016597
 20
34.1635524082
 30
0.0
  0
SPLINE
  5
624
100
AcDbEntity
  8
0
100
AcDbSpline
 62
7
  6
CONTINUOUS
 70
0
 71
3
 72
16
 73
12
 74
0
 42
0.0000001
 43
0.0000001
 44
0.0000000001
 40
0.0
 40
0.0
 40
0.0
 40
0.0
 40
0.0351200651
 40
0.074514078
 40
0.11806731
 40
0.1656632627
 40
0.2724865158
 40
0.393951073
 40
0.5288292877
 40
0.6757857463
 40
1.0
 40
1.0
 40
1.0
 40
1.0
 10
-5.044091269
 20
34.2112538388
 30
0.0
 10
-5.0434318751
 20
34.2110459327
 30
0.0
 10
-5.0420305032
 20
34.2106122457
 30
0.0
 10
-5.039806544
 20
34.209936547
 30
0.0
 10
-5.0373461876
 20
34.209194061
 30
0.0
 10
-5.0336157213
 20
34.2080656406
 30
0.0
 10
-5.0284213668
 20
34.2064791466
 30
0.0
 10
-5.0215971173
 20
34.2043471098
 30
0.0
 10
-5.0140320178
 20
34.2019373882
 30
0.0
 10
-5.0026781029
 20
34.1982716587
 30
0.0
 10
-4.9938534148
 20
34.1954139042
 30
0.0
 10
-4.9877661563
 20
34.193494599
 30
0.0
  0
SPLINE
  5
625
100
AcDbEntity
  8
0
100
AcDbSpline
 62
7
  6
CONTINUOUS
 70
0
 71
3
 72
16
 73
12
 74
0
 42
0.0000001
 43
0.0000001
 44
0.0000000001
 40
0.0
 40
0.0
 40
0.0
 40
0.0
 40
0.3242140572
 40
0.4711707436
 40
0.6060489639
 40
0.7275134306
 40
0.8343367763
 40
0.8819327648
 40
0.9254859815
 40
0.9648799565
 40
1.0
 40
1.0
 40
1.0
 40
1.0
 10
-4.8554556046
 20
34.6131300573
 30
0.0
 10
-4.8615428593
 20
34.6150493613
 30
0.0
 10
-4.8704107614
 20
34.6177700607
 30
0.0
 10
-4.8818139209
 20
34.6212796086
 30
0.0
 10
-4.8893930507
 20
34.623644841
 30
0.0
 10
-4.8962060341
 20
34.6258126099
 30
0.0
 10
-4.9013709762
 20
34.6274923906
 30
0.0
 10
-4.9050740334
 20
34.6287077493
 30
0.0
 10
-4.9075153115
 20
34.6295107424
 30
0.0
 10
-4.9097246356
 20
34.6302328529
 30
0.0
 10
-4.9111213237
 20
34.6306813911
 30
0.0
 10
-4.9117807172
 20
34.6308892971
 30
0.0
  0
SPLINE
  5
626
100
AcDbEntity
  8
0
100
AcDbSpline
 62
7
  6
CONTINUOUS
 70
0
 71
3
 72
11
 73
7
 74
0
 42
0.0000001
 43
0.0000001
 44
0.0000000001
 40
0.0
 40
0.0
 40
0.0
 40
0.0
 40
0.2483308269
 40
0.4974652844
 40
0.7478688566
 40
1.0
 40
1.0
 40
1.0
 40
1.0
 10
-4.8598856405
 20
34.1531740272
 30
0.0
 10
-4.8624993881
 20
34.1539981387
 30
0.0
 10
-4.8676779437
 20
34.1558376473
 30
0.0
 10
-4.8752451719
 20
34.1591493592
 30
0.0
 10
-4.8825970844
 20
34.1630060249
 30
0.0
 10
-4.8873203677
 20
34.1659227122
 30
0.0
 10
-4.8896362868
 20
34.1674651121
 30
0.0
  0
SPLINE
  5
627
100
AcDbEntity
  8
0
100
AcDbSpline
 62
7
  6
CONTINUOUS
 70
0
 71
3
 72
38
 73
34
 74
0
 42
0.0000001
 43
0.0000001
 44
0.0000000001
 40
0.0
 40
0.0
 40
0.0
 40
0.0
 40
0.0265030405
 40
0.0535853283
 40
0.0813803079
 40
0.0955804581
 40
0.1099916682
 40
0.1394627263
 40
0.169833034
 40
0.1853597966
 40
0.2011079645
 40
0.2332426317
 40
0.2998174852
 40
0.3341301486
 40
0.3689655818
 40
0.4396553046
 40
0.4752763446
 40
0.51087936
 40
0.5814263949
 40
0.6161404901
 40
0.6503022194
 40
0.6838024409
 40
0.7165486244
 40
0.7484674767
 40
0.7795094403
 40
0.8096502849
 40
0.8388968262
 40
0.8672865981
 40
0.8948905912
 40
0.921811491
 40
0.9481931829
 40
0.9742038568
 40
1.0
 40
1.0
 40
1.0
 40
1.0
 10
-4.8896362868
 20
34.1674651121
 30
0.0
 10
-4.8937986582
 20
34.1702372473
 30
0.0
 10
-4.9018762427
 20
34.1763674084
 30
0.0
 10
-4.9129555553
 20
34.1870456315
 30
0.0
 10
-4.9212883187
 20
34.1971055504
 30
0.0
 10
-4.9274130614
 20
34.2058151112
 30
0.0
 10
-4.9332488836
 20
34.2150972796
 30
0.0
 10
-4.939802876
 20
34.2275078219
 30
0.0
 10
-4.9452406038
 20
34.2406711806
 30
0.0
 10
-4.9489646507
 20
34.2516942497
 30
0.0
 10
-4.9523045588
 20
34.2631875969
 30
0.0
 10
-4.957011934
 20
34.2842881984
 30
0.0
 10
-4.9595133825
 20
34.3093790044
 30
0.0
 10
-4.9593006848
 20
34.3350039247
 30
0.0
 10
-4.9572261448
 20
34.3613275244
 30
0.0
 10
-4.9524001848
 20
34.3876171596
 30
0.0
 10
-4.9449776023
 20
34.4133626803
 30
0.0
 10
-4.9358748883
 20
34.4385343054
 30
0.0
 10
-4.9243604612
 20
34.462598563
 30
0.0
 10
-4.9106034783
 20
34.4850432555
 30
0.0
 10
-4.8993568609
 20
34.5007714623
 30
0.0
 10
-4.8872247983
 20
34.5153470939
 30
0.0
 10
-4.8743062754
 20
34.528648714
 30
0.0
 10
-4.8607087026
 20
34.5405647344
 30
0.0
 10
-4.8465446293
 20
34.5509952019
 30
0.0
 10
-4.8319304224
 20
34.5598509582
 30
0.0
 10
-4.8169875629
 20
34.5670577065
 30
0.0
 10
-4.8018386008
 20
34.5725496376
 30
0.0
 10
-4.7866115915
 20
34.5762812052
 30
0.0
 10
-4.7714331407
 20
34.5782140917
 30
0.0
 10
-4.7564301753
 20
34.578330157
 30
0.0
 10
-4.7417390267
 20
34.5766201799
 30
0.0
 10
-4.7322174189
 20
34.5742732066
 30
0.0
 10
-4.7275750887
 20
34.5728094855
 30
0.0
  0
SPLINE
  5
628
100
AcDbEntity
  8
0
100
AcDbSpline
 62
7
  6
CONTINUOUS
 70
0
 71
3
 72
21
 73
17
 74
0
 42
0.0000001
 43
0.0000001
 44
0.0000000001
 40
0.0
 40
0.0
 40
0.0
 40
0.0
 40
0.0256927443
 40
0.035793192
 40
0.0476041202
 40
0.0611864235
 40
0.0765793356
 40
0.1128841331
 40
0.1566294019
 40
0.2078518587
 40
0.2665574608
 40
0.3327281564
 40
0.4063180521
 40
0.575528787
 40
0.7736597383
 40
1.0
 40
1.0
 40
1.0
 40
1.0
 10
7.9309443852
 20
39.0521046938
 30
0.0
 10
7.9310589396
 20
39.0522192482
 30
0.0
 10
7.9313399457
 20
39.0521983825
 30
0.0
 10
7.9316201299
 20
39.0521184229
 30
0.0
 10
7.9318320698
 20
39.0520400913
 30
0.0
 10
7.932066661
 20
39.0519359653
 30
0.0
 10
7.932435036
 20
39.0517514614
 30
0.0
 10
7.9329567916
 20
39.0514509767
 30
0.0
 10
7.9336537421
 20
39.0510040013
 30
0.0
 10
7.9344508125
 20
39.0504527581
 30
0.0
 10
7.9353474339
 20
39.0497976004
 30
0.0
 10
7.9363427599
 20
39.0490389536
 30
0.0
 10
7.9378729112
 20
39.0478329704
 30
0.0
 10
7.9400212159
 20
39.0460676998
 30
0.0
 10
7.942870154
 20
39.0436391716
 30
0.0
 10
7.9448833004
 20
39.0418753037
 30
0.0
 10
7.9459520704
 20
39.0409294878
 30
0.0
  0
SPLINE
  5
629
100
AcDbEntity
  8
0
100
AcDbSpline
 62
7
  6
CONTINUOUS
 70
0
 71
3
 72
13
 73
9
 74
0
 42
0.0000001
 43
0.0000001
 44
0.0000000001
 40
0.0
 40
0.0
 40
0.0
 40
0.0
 40
0.0930294393
 40
0.1980941324
 40
0.3138957194
 40
0.4389978924
 40
0.7107920837
 40
1.0
 40
1.0
 40
1.0
 40
1.0
 10
7.9543673238
 20
39.0333241933
 30
0.0
 10
7.9570594572
 20
39.0308503802
 30
0.0
 10
7.962759103
 20
39.0255468927
 30
0.0
 10
7.9717191487
 20
39.0170671609
 30
0.0
 10
7.9815340481
 20
39.007657357
 30
0.0
 10
7.9960073035
 20
38.9936384927
 30
0.0
 10
8.0152572682
 20
38.9747563359
 30
0.0
 10
8.0309054277
 20
38.9592241658
 30
0.0
 10
8.0389515117
 20
38.9511961414
 30
0.0
  0
SPLINE
  5
62A
100
AcDbEntity
  8
0
100
AcDbSpline
 62
7
  6
CONTINUOUS
 70
0
 71
3
 72
13
 73
9
 74
0
 42
0.0000001
 43
0.0000001
 44
0.0000000001
 40
0.0
 40
0.0
 40
0.0
 40
0.0
 40
0.2892080325
 40
0.5610022932
 40
0.6861044452
 40
0.8019060267
 40
0.9069706338
 40
1.0
 40
1.0
 40
1.0
 40
1.0
 10
8.0492389496
 20
38.9409087035
 30
0.0
 10
8.0572669838
 20
38.9328626095
 30
0.0
 10
8.0727991717
 20
38.917214432
 30
0.0
 10
8.0916813481
 20
38.8979644466
 30
0.0
 10
8.1057002247
 20
38.8834911777
 30
0.0
 10
8.1151100327
 20
38.873676273
 30
0.0
 10
8.1235897665
 20
38.8647162241
 30
0.0
 10
8.1288932534
 20
38.8590165776
 30
0.0
 10
8.1313670663
 20
38.8563244438
 30
0.0
  0
SPLINE
  5
62B
100
AcDbEntity
  8
0
100
AcDbSpline
 62
7
  6
CONTINUOUS
 70
0
 71
3
 72
21
 73
17
 74
0
 42
0.0000001
 43
0.0000001
 44
0.0000000001
 40
0.0
 40
0.0
 40
0.0
 40
0.0
 40
0.2263402612
 40
0.4244712782
 40
0.5936819811
 40
0.6672718281
 40
0.7334424774
 40
0.7921480545
 40
0.8433705105
 40
0.8871157928
 40
0.9234206078
 40
0.9388135267
 40
0.9523958337
 40
0.9642067642
 40
0.9743072141
 40
1.0
 40
1.0
 40
1.0
 40
1.0
 10
8.1389723713
 20
38.8479091753
 30
0.0
 10
8.13991818
 20
38.8468404126
 30
0.0
 10
8.1416820348
 20
38.8448272796
 30
0.0
 10
8.1441105448
 20
38.8419783609
 30
0.0
 10
8.1458758018
 20
38.8398300709
 30
0.0
 10
8.147081775
 20
38.8382999305
 30
0.0
 10
8.1478404153
 20
38.8373046118
 30
0.0
 10
8.1484955674
 20
38.8364079966
 30
0.0
 10
8.149046806
 20
38.8356109316
 30
0.0
 10
8.1494937777
 20
38.8349139856
 30
0.0
 10
8.1497942599
 20
38.8343922333
 30
0.0
 10
8.1499787622
 20
38.8340238605
 30
0.0
 10
8.1500828872
 20
38.8337892708
 30
0.0
 10
8.1501612179
 20
38.8335773323
 30
0.0
 10
8.1502411766
 20
38.8332971495
 30
0.0
 10
8.1502620412
 20
38.8330161454
 30
0.0
 10
8.1501474874
 20
38.8329015916
 30
0.0
  0
SPLINE
  5
62C
100
AcDbEntity
  8
0
100
AcDbSpline
 62
7
  6
CONTINUOUS
 70
0
 71
3
 72
21
 73
17
 74
0
 42
0.0000001
 43
0.0000001
 44
0.0000000001
 40
0.0
 40
0.0
 40
0.0
 40
0.0
 40
0.0256927443
 40
0.035793192
 40
0.0476041202
 40
0.0611864235
 40
0.0765793356
 40
0.1128841331
 40
0.1566294019
 40
0.2078518587
 40
0.2665574608
 40
0.3327281564
 40
0.4063180521
 40
0.575528787
 40
0.7736597383
 40
1.0
 40
1.0
 40
1.0
 40
1.0
 10
8.1501474874
 20
25.9354756311
 30
0.0
 10
8.1502620418
 20
25.9353610767
 30
0.0
 10
8.1502411761
 20
25.9350800707
 30
0.0
 10
8.1501612165
 20
25.9347998864
 30
0.0
 10
8.1500828849
 20
25.9345879465
 30
0.0
 10
8.1499787589
 20
25.9343533553
 30
0.0
 10
8.149794255
 20
25.9339849803
 30
0.0
 10
8.1494937703
 20
25.9334632247
 30
0.0
 10
8.1490467949
 20
25.9327662742
 30
0.0
 10
8.1484955517
 20
25.9319692039
 30
0.0
 10
8.147840394
 20
25.9310725824
 30
0.0
 10
8.1470817472
 20
25.9300772564
 30
0.0
 10
8.145875764
 20
25.9285471051
 30
0.0
 10
8.1441104934
 20
25.9263988004
 30
0.0
 10
8.1416819652
 20
25.9235498623
 30
0.0
 10
8.1399180972
 20
25.9215367159
 30
0.0
 10
8.1389722814
 20
25.9204679459
 30
0.0
  0
SPLINE
  5
62D
100
AcDbEntity
  8
0
100
AcDbSpline
 62
7
  6
CONTINUOUS
 70
0
 71
3
 72
13
 73
9
 74
0
 42
0.0000001
 43
0.0000001
 44
0.0000000001
 40
0.0
 40
0.0
 40
0.0
 40
0.0
 40
0.0930294393
 40
0.1980941324
 40
0.3138957194
 40
0.4389978924
 40
0.7107920837
 40
1.0
 40
1.0
 40
1.0
 40
1.0
 10
8.1313669869
 20
25.9120526926
 30
0.0
 10
8.1288931738
 20
25.9093605591
 30
0.0
 10
8.1235896863
 20
25.9036609133
 30
0.0
 10
8.1151099545
 20
25.8947008676
 30
0.0
 10
8.1057001506
 20
25.8848859682
 30
0.0
 10
8.0916812863
 20
25.8704127128
 30
0.0
 10
8.0727991295
 20
25.8511627481
 30
0.0
 10
8.0572669594
 20
25.8355145887
 30
0.0
 10
8.049238935
 20
25.8274685046
 30
0.0
  0
SPLINE
  5
62E
100
AcDbEntity
  8
0
100
AcDbSpline
 62
7
  6
CONTINUOUS
 70
0
 71
3
 72
13
 73
9
 74
0
 42
0.0000001
 43
0.0000001
 44
0.0000000001
 40
0.0
 40
0.0
 40
0.0
 40
0.0
 40
0.2892080325
 40
0.5610022932
 40
0.6861044452
 40
0.8019060267
 40
0.9069706338
 40
1.0
 40
1.0
 40
1.0
 40
1.0
 10
8.0389514971
 20
25.8171810667
 30
0.0
 10
8.0309054031
 20
25.8091530325
 30
0.0
 10
8.0152572256
 20
25.7936208447
 30
0.0
 10
7.9960072402
 20
25.7747386682
 30
0.0
 10
7.9815339713
 20
25.7607197916
 30
0.0
 10
7.9717190666
 20
25.7513099836
 30
0.0
 10
7.9627590177
 20
25.7428302498
 30
0.0
 10
7.9570593712
 20
25.7375267629
 30
0.0
 10
7.9543672374
 20
25.73505295
 30
0.0
  0
SPLINE
  5
62F
100
AcDbEntity
  8
0
100
AcDbSpline
 62
7
  6
CONTINUOUS
 70
0
 71
3
 72
21
 73
17
 74
0
 42
0.0000001
 43
0.0000001
 44
0.0000000001
 40
0.0
 40
0.0
 40
0.0
 40
0.0
 40
0.2263402612
 40
0.4244712782
 40
0.5936819811
 40
0.6672718281
 40
0.7334424774
 40
0.7921480545
 40
0.8433705105
 40
0.8871157928
 40
0.9234206078
 40
0.9388135267
 40
0.9523958337
 40
0.9642067642
 40
0.9743072141
 40
1.0
 40
1.0
 40
1.0
 40
1.0
 10
7.9459519689
 20
25.727447645
 30
0.0
 10
7.9448832062
 20
25.7265018363
 30
0.0
 10
7.9428700732
 20
25.7247379815
 30
0.0
 10
7.9400211545
 20
25.7223094716
 30
0.0
 10
7.9378728645
 20
25.7205442145
 30
0.0
 10
7.9363427241
 20
25.7193382413
 30
0.0
 10
7.9353474053
 20
25.718579601
 30
0.0
 10
7.9344507902
 20
25.7179244489
 30
0.0
 10
7.9336537252
 20
25.7173732103
 30
0.0
 10
7.9329567792
 20
25.7169262386
 30
0.0
 10
7.9324350268
 20
25.7166257564
 30
0.0
 10
7.9320666541
 20
25.7164412542
 30
0.0
 10
7.9318320644
 20
25.7163371291
 30
0.0
 10
7.9316201259
 20
25.7162587984
 30
0.0
 10
7.9313399431
 20
25.7161788397
 30
0.0
 10
7.931058939
 20
25.7161579752
 30
0.0
 10
7.9309443852
 20
25.7162725289
 30
0.0
  0
SPLINE
  5
630
100
AcDbEntity
  8
0
100
AcDbSpline
 62
7
  6
CONTINUOUS
 70
0
 71
3
 72
21
 73
17
 74
0
 42
0.0000001
 43
0.0000001
 44
0.0000000001
 40
0.0
 40
0.0
 40
0.0
 40
0.0
 40
0.0256927443
 40
0.035793192
 40
0.0476041202
 40
0.0611864235
 40
0.0765793356
 40
0.1128841331
 40
0.1566294019
 40
0.2078518587
 40
0.2665574608
 40
0.3327281564
 40
0.4063180521
 40
0.575528787
 40
0.7736597383
 40
1.0
 40
1.0
 40
1.0
 40
1.0
 10
-4.9664815753
 20
25.7162725289
 30
0.0
 10
-4.9665961297
 20
25.7161579745
 30
0.0
 10
-4.9668771357
 20
25.7161788402
 30
0.0
 10
-4.96715732
 20
25.7162587998
 30
0.0
 10
-4.9673692599
 20
25.7163371314
 30
0.0
 10
-4.9676038511
 20
25.7164412575
 30
0.0
 10
-4.9679722261
 20
25.7166257613
 30
0.0
 10
-4.9684939817
 20
25.716926246
 30
0.0
 10
-4.9691909322
 20
25.7173732214
 30
0.0
 10
-4.9699880025
 20
25.7179244646
 30
0.0
 10
-4.970884624
 20
25.7185796223
 30
0.0
 10
-4.97187995
 20
25.7193382691
 30
0.0
 10
-4.9734101013
 20
25.7205442523
 30
0.0
 10
-4.975558406
 20
25.7223095229
 30
0.0
 10
-4.9784073441
 20
25.7247380512
 30
0.0
 10
-4.9804204905
 20
25.7265019191
 30
0.0
 10
-4.9814892605
 20
25.7274477349
 30
0.0
  0
SPLINE
  5
631
100
AcDbEntity
  8
0
100
AcDbSpline
 62
7
  6
CONTINUOUS
 70
0
 71
3
 72
13
 73
9
 74
0
 42
0.0000001
 43
0.0000001
 44
0.0000000001
 40
0.0
 40
0.0
 40
0.0
 40
0.0
 40
0.0930294393
 40
0.1980941324
 40
0.3138957194
 40
0.4389978924
 40
0.7107920837
 40
1.0
 40
1.0
 40
1.0
 40
1.0
 10
-4.9899045138
 20
25.7350530294
 30
0.0
 10
-4.9925966473
 20
25.7375268425
 30
0.0
 10
-4.9982962931
 20
25.74283033
 30
0.0
 10
-5.0072563388
 20
25.7513100619
 30
0.0
 10
-5.0170712382
 20
25.7607198657
 30
0.0
 10
-5.0315444936
 20
25.77473873
 30
0.0
 10
-5.0507944583
 20
25.7936208868
 30
0.0
 10
-5.0664426177
 20
25.8091530569
 30
0.0
 10
-5.0744887018
 20
25.8171810814
 30
0.0
  0
SPLINE
  5
632
100
AcDbEntity
  8
0
100
AcDbSpline
 62
7
  6
CONTINUOUS
 70
0
 71
3
 72
13
 73
9
 74
0
 42
0.0000001
 43
0.0000001
 44
0.0000000001
 40
0.0
 40
0.0
 40
0.0
 40
0.0
 40
0.2892080325
 40
0.5610022932
 40
0.6861044452
 40
0.8019060267
 40
0.9069706338
 40
1.0
 40
1.0
 40
1.0
 40
1.0
 10
-5.0847761397
 20
25.8274685193
 30
0.0
 10
-5.0928041739
 20
25.8355146132
 30
0.0
 10
-5.1083363617
 20
25.8511627907
 30
0.0
 10
-5.1272185382
 20
25.8704127761
 30
0.0
 10
-5.1412374148
 20
25.884886045
 30
0.0
 10
-5.1506472228
 20
25.8947009497
 30
0.0
 10
-5.1591269566
 20
25.9036609986
 30
0.0
 10
-5.1644304435
 20
25.9093606451
 30
0.0
 10
-5.1669042564
 20
25.912052779
 30
0.0
  0
SPLINE
  5
633
100
AcDbEntity
  8
0
100
AcDbSpline
 62
7
  6
CONTINUOUS
 70
0
 71
3
 72
21
 73
17
 74
0
 42
0.0000001
 43
0.0000001
 44
0.0000000001
 40
0.0
 40
0.0
 40
0.0
 40
0.0
 40
0.2263402612
 40
0.4244712782
 40
0.5936819811
 40
0.6672718281
 40
0.7334424774
 40
0.7921480545
 40
0.8433705105
 40
0.8871157928
 40
0.9234206078
 40
0.9388135267
 40
0.9523958337
 40
0.9642067642
 40
0.9743072141
 40
1.0
 40
1.0
 40
1.0
 40
1.0
 10
-5.1745095614
 20
25.9204680474
 30
0.0
 10
-5.1754553701
 20
25.9215368101
 30
0.0
 10
-5.1772192249
 20
25.9235499431
 30
0.0
 10
-5.1796477348
 20
25.9263988619
 30
0.0
 10
-5.1814129919
 20
25.9285471518
 30
0.0
 10
-5.1826189651
 20
25.9300772922
 30
0.0
 10
-5.1833776054
 20
25.931072611
 30
0.0
 10
-5.1840327575
 20
25.9319692261
 30
0.0
 10
-5.1845839961
 20
25.9327662911
 30
0.0
 10
-5.1850309678
 20
25.9334632371
 30
0.0
 10
-5.18533145
 20
25.9339849895
 30
0.0
 10
-5.1855159523
 20
25.9343533622
 30
0.0
 10
-5.1856200773
 20
25.9345879519
 30
0.0
 10
-5.185698408
 20
25.9347998904
 30
0.0
 10
-5.1857783667
 20
25.9350800732
 30
0.0
 10
-5.1857992312
 20
25.9353610773
 30
0.0
 10
-5.1856846775
 20
25.9354756311
 30
0.0
  0
SPLINE
  5
634
100
AcDbEntity
  8
0
100
AcDbSpline
 62
7
  6
CONTINUOUS
 70
0
 71
3
 72
21
 73
17
 74
0
 42
0.0000001
 43
0.0000001
 44
0.0000000001
 40
0.0
 40
0.0
 40
0.0
 40
0.0
 40
0.0256927443
 40
0.035793192
 40
0.0476041202
 40
0.0611864235
 40
0.0765793356
 40
0.1128841331
 40
0.1566294019
 40
0.2078518587
 40
0.2665574608
 40
0.3327281564
 40
0.4063180521
 40
0.575528787
 40
0.7736597383
 40
1.0
 40
1.0
 40
1.0
 40
1.0
 10
-5.1856846775
 20
38.8329015916
 30
0.0
 10
-5.1857992319
 20
38.833016146
 30
0.0
 10
-5.1857783662
 20
38.8332971521
 30
0.0
 10
-5.1856984066
 20
38.8335773363
 30
0.0
 10
-5.185620075
 20
38.8337892762
 30
0.0
 10
-5.1855159489
 20
38.8340238674
 30
0.0
 10
-5.1853314451
 20
38.8343922424
 30
0.0
 10
-5.1850309604
 20
38.834913998
 30
0.0
 10
-5.184583985
 20
38.8356109485
 30
0.0
 10
-5.1840327418
 20
38.8364080189
 30
0.0
 10
-5.1833775841
 20
38.8373046403
 30
0.0
 10
-5.1826189373
 20
38.8382999663
 30
0.0
 10
-5.1814129541
 20
38.8398301176
 30
0.0
 10
-5.1796476835
 20
38.8419784223
 30
0.0
 10
-5.1772191552
 20
38.8448273604
 30
0.0
 10
-5.1754552873
 20
38.8468405068
 30
0.0
 10
-5.1745094715
 20
38.8479092768
 30
0.0
  0
SPLINE
  5
635
100
AcDbEntity
  8
0
100
AcDbSpline
 62
7
  6
CONTINUOUS
 70
0
 71
3
 72
13
 73
9
 74
0
 42
0.0000001
 43
0.0000001
 44
0.0000000001
 40
0.0
 40
0.0
 40
0.0
 40
0.0
 40
0.0930294393
 40
0.1980941324
 40
0.3138957194
 40
0.4389978924
 40
0.7107920837
 40
1.0
 40
1.0
 40
1.0
 40
1.0
 10
-5.166904177
 20
38.8563245302
 30
0.0
 10
-5.1644303639
 20
38.8590166636
 30
0.0
 10
-5.1591268764
 20
38.8647163094
 30
0.0
 10
-5.1506471445
 20
38.8736763551
 30
0.0
 10
-5.1412373407
 20
38.8834912545
 30
0.0
 10
-5.1272184764
 20
38.8979645099
 30
0.0
 10
-5.1083363196
 20
38.9172144746
 30
0.0
 10
-5.0928041495
 20
38.9328626341
 30
0.0
 10
-5.084776125
 20
38.9409087181
 30
0.0
  0
SPLINE
  5
636
100
AcDbEntity
  8
0
100
AcDbSpline
 62
7
  6
CONTINUOUS
 70
0
 71
3
 72
13
 73
9
 74
0
 42
0.0000001
 43
0.0000001
 44
0.0000000001
 40
0.0
 40
0.0
 40
0.0
 40
0.0
 40
0.2892080325
 40
0.5610022932
 40
0.6861044452
 40
0.8019060267
 40
0.9069706338
 40
1.0
 40
1.0
 40
1.0
 40
1.0
 10
-5.0744886871
 20
38.951196156
 30
0.0
 10
-5.0664425932
 20
38.9592241902
 30
0.0
 10
-5.0507944157
 20
38.9747563781
 30
0.0
 10
-5.0315444303
 20
38.9936385546
 30
0.0
 10
-5.0170711614
 20
39.0076574311
 30
0.0
 10
-5.0072562567
 20
39.0170672391
 30
0.0
 10
-4.9982962078
 20
39.0255469729
 30
0.0
 10
-4.9925965613
 20
39.0308504598
 30
0.0
 10
-4.9899044274
 20
39.0333242727
 30
0.0
  0
SPLINE
  5
637
100
AcDbEntity
  8
0
100
AcDbSpline
 62
7
  6
CONTINUOUS
 70
0
 71
3
 72
21
 73
17
 74
0
 42
0.0000001
 43
0.0000001
 44
0.0000000001
 40
0.0
 40
0.0
 40
0.0
 40
0.0
 40
0.2263402612
 40
0.4244712782
 40
0.5936819811
 40
0.6672718281
 40
0.7334424774
 40
0.7921480545
 40
0.8433705105
 40
0.8871157928
 40
0.9234206078
 40
0.9388135267
 40
0.9523958337
 40
0.9642067642
 40
0.9743072141
 40
1.0
 40
1.0
 40
1.0
 40
1.0
 10
-4.981489159
 20
39.0409295777
 30
0.0
 10
-4.9804203963
 20
39.0418753864
 30
0.0
 10
-4.9784072633
 20
39.0436392412
 30
0.0
 10
-4.9755583445
 20
39.0460677512
 30
0.0
 10
-4.9734100546
 20
39.0478330082
 30
0.0
 10
-4.9718799142
 20
39.0490389814
 30
0.0
 10
-4.9708845954
 20
39.0497976217
 30
0.0
 10
-4.9699879803
 20
39.0504527738
 30
0.0
 10
-4.9691909153
 20
39.0510040124
 30
0.0
 10
-4.9684939693
 20
39.0514509841
 30
0.0
 10
-4.9679722169
 20
39.0517514663
 30
0.0
 10
-4.9676038442
 20
39.0519359686
 30
0.0
 10
-4.9673692545
 20
39.0520400936
 30
0.0
 10
-4.967157316
 20
39.0521184243
 30
0.0
 10
-4.9668771332
 20
39.052198383
 30
0.0
 10
-4.9665961291
 20
39.0522192476
 30
0.0
 10
-4.9664815753
 20
39.0521046938
 30
0.0
  0
SPLINE
  5
638
100
AcDbEntity
  8
0
100
AcDbSpline
 62
7
  6
CONTINUOUS
 70
0
 71
3
 72
24
 73
20
 74
0
 42
0.0000001
 43
0.0000001
 44
0.0000000001
 40
0.0
 40
0.0
 40
0.0
 40
0.0
 40
0.004249097
 40
0.0093678093
 40
0.01586205
 40
0.0239828498
 40
0.033856485
 40
0.0455513497
 40
0.0591067537
 40
0.0745437792
 40
0.1110988883
 40
0.1552549446
 40
0.2070007624
 40
0.2662822017
 40
0.3330257816
 40
0.4071488658
 40
0.5770850435
 40
0.7751008354
 40
1.0
 40
1.0
 40
1.0
 40
1.0
 10
-5.1856846775
 20
25.9354756311
 30
0.0
 10
-5.1856542408
 20
25.9355060678
 30
0.0
 10
-5.1855686687
 20
25.9355553159
 30
0.0
 10
-5.1854069323
 20
25.9355757015
 30
0.0
 10
-5.1852071323
 20
25.9355547989
 30
0.0
 10
-5.1849662596
 20
25.9354930786
 30
0.0
 10
-5.1846831859
 20
25.9353905792
 30
0.0
 10
-5.1843574702
 20
25.9352468698
 30
0.0
 10
-5.1839890456
 20
25.9350618002
 30
0.0
 10
-5.1834074445
 20
25.9347411633
 30
0.0
 10
-5.1825768121
 20
25.9342316539
 30
0.0
 10
-5.1814604838
 20
25.933486846
 30
0.0
 10
-5.1801774104
 20
25.9325782631
 30
0.0
 10
-5.178729657
 20
25.9315070994
 30
0.0
 10
-5.1771196097
 20
25.9302746501
 30
0.0
 10
-5.1746450472
 20
25.9283278787
 30
0.0
 10
-5.1711723062
 20
25.9254998379
 30
0.0
 10
-5.1665744977
 20
25.9216358919
 30
0.0
 10
-5.1633282903
 20
25.918839939
 30
0.0
 10
-5.1616089953
 20
25.9173451122
 30
0.0
  0
SPLINE
  5
639
100
AcDbEntity
  8
0
100
AcDbSpline
 62
7
  6
CONTINUOUS
 70
0
 71
3
 72
24
 73
20
 74
0
 42
0.0000001
 43
0.0000001
 44
0.0000000001
 40
0.0
 40
0.0
 40
0.0
 40
0.0
 40
0.2248991809
 40
0.422914908
 40
0.5928511374
 40
0.6669742465
 40
0.7337178163
 40
0.7929992247
 40
0.844745015
 40
0.8889010665
 40
0.9254561873
 40
0.940893221
 40
0.9544486325
 40
0.9661435013
 40
0.9760171378
 40
0.9841379376
 40
0.9906321793
 40
0.9957508955
 40
1.0
 40
1.0
 40
1.0
 40
1.0
 10
-4.9846120088
 20
25.7403481128
 30
0.0
 10
-4.9831171886
 20
25.7386288248
 30
0.0
 10
-4.9803212485
 20
25.7353826312
 30
0.0
 10
-4.9764573201
 20
25.7307848416
 30
0.0
 10
-4.9736292921
 20
25.7273121147
 30
0.0
 10
-4.9716825292
 20
25.7248375618
 30
0.0
 10
-4.9704500857
 20
25.7232275212
 30
0.0
 10
-4.9693789274
 20
25.7217797742
 30
0.0
 10
-4.9684703493
 20
25.7204967064
 30
0.0
 10
-4.9677255452
 20
25.7193803827
 30
0.0
 10
-4.9672160383
 20
25.7185497536
 30
0.0
 10
-4.966895403
 20
25.7179681545
 30
0.0
 10
-4.9667103343
 20
25.7175997312
 30
0.0
 10
-4.9665666256
 20
25.7172740167
 30
0.0
 10
-4.9664641269
 20
25.7169909441
 30
0.0
 10
-4.9664024071
 20
25.7167500723
 30
0.0
 10
-4.9663815048
 20
25.716550273
 30
0.0
 10
-4.9664018906
 20
25.7163885373
 30
0.0
 10
-4.9664511387
 20
25.7163029656
 30
0.0
 10
-4.9664815753
 20
25.7162725289
 30
0.0
  0
SPLINE
  5
63A
100
AcDbEntity
  8
0
100
AcDbSpline
 62
7
  6
CONTINUOUS
 70
0
 71
3
 72
24
 73
20
 74
0
 42
0.0000001
 43
0.0000001
 44
0.0000000001
 40
0.0
 40
0.0
 40
0.0
 40
0.0
 40
0.004249097
 40
0.0093678093
 40
0.01586205
 40
0.0239828498
 40
0.033856485
 40
0.0455513497
 40
0.0591067537
 40
0.0745437792
 40
0.1110988883
 40
0.1552549446
 40
0.2070007624
 40
0.2662822017
 40
0.3330257816
 40
0.4071488658
 40
0.5770850435
 40
0.7751008354
 40
1.0
 40
1.0
 40
1.0
 40
1.0
 10
7.9309443852
 20
25.7162725289
 30
0.0
 10
7.9309139485
 20
25.7163029657
 30
0.0
 10
7.9308647004
 20
25.7163885377
 30
0.0
 10
7.9308443148
 20
25.7165502741
 30
0.0
 10
7.9308652175
 20
25.7167500741
 30
0.0
 10
7.9309269377
 20
25.7169909468
 30
0.0
 10
7.9310294371
 20
25.7172740205
 30
0.0
 10
7.9311731466
 20
25.7175997362
 30
0.0
 10
7.9313582161
 20
25.7179681608
 30
0.0
 10
7.9316788531
 20
25.7185497619
 30
0.0
 10
7.9321883624
 20
25.7193803943
 30
0.0
 10
7.9329331704
 20
25.7204967226
 30
0.0
 10
7.9338417532
 20
25.721779796
 30
0.0
 10
7.9349129169
 20
25.7232275494
 30
0.0
 10
7.9361453662
 20
25.7248375967
 30
0.0
 10
7.9380921377
 20
25.7273121592
 30
0.0
 10
7.9409201785
 20
25.7307849002
 30
0.0
 10
7.9447841244
 20
25.7353827087
 30
0.0
 10
7.9475800773
 20
25.7386289161
 30
0.0
 10
7.9490749041
 20
25.7403482111
 30
0.0
  0
SPLINE
  5
63B
100
AcDbEntity
  8
0
100
AcDbSpline
 62
7
  6
CONTINUOUS
 70
0
 71
3
 72
24
 73
20
 74
0
 42
0.0000001
 43
0.0000001
 44
0.0000000001
 40
0.0
 40
0.0
 40
0.0
 40
0.0
 40
0.2248991809
 40
0.422914908
 40
0.5928511374
 40
0.6669742465
 40
0.7337178163
 40
0.7929992247
 40
0.844745015
 40
0.8889010665
 40
0.9254561873
 40
0.940893221
 40
0.9544486325
 40
0.9661435013
 40
0.9760171378
 40
0.9841379376
 40
0.9906321793
 40
0.9957508955
 40
1.0
 40
1.0
 40
1.0
 40
1.0
 10
8.1260719035
 20
25.9173451976
 30
0.0
 10
8.1277911915
 20
25.9188400178
 30
0.0
 10
8.1310373851
 20
25.9216359579
 30
0.0
 10
8.1356351748
 20
25.9254998863
 30
0.0
 10
8.1391079017
 20
25.9283279143
 30
0.0
 10
8.1415824545
 20
25.9302746772
 30
0.0
 10
8.1431924951
 20
25.9315071207
 30
0.0
 10
8.1446402421
 20
25.932578279
 30
0.0
 10
8.1459233099
 20
25.9334868571
 30
0.0
 10
8.1470396336
 20
25.9342316612
 30
0.0
 10
8.1478702628
 20
25.9347411681
 30
0.0
 10
8.1484518618
 20
25.9350618034
 30
0.0
 10
8.1488202851
 20
25.9352468721
 30
0.0
 10
8.1491459996
 20
25.9353905808
 30
0.0
 10
8.1494290723
 20
25.9354930795
 30
0.0
 10
8.149669944
 20
25.9355547993
 30
0.0
 10
8.1498697433
 20
25.9355757016
 30
0.0
 10
8.150031479
 20
25.9355553158
 30
0.0
 10
8.1501170507
 20
25.9355060677
 30
0.0
 10
8.1501474874
 20
25.9354756311
 30
0.0
  0
SPLINE
  5
63C
100
AcDbEntity
  8
0
100
AcDbSpline
 62
7
  6
CONTINUOUS
 70
0
 71
3
 72
24
 73
20
 74
0
 42
0.0000001
 43
0.0000001
 44
0.0000000001
 40
0.0
 40
0.0
 40
0.0
 40
0.0
 40
0.004249097
 40
0.0093678093
 40
0.01586205
 40
0.0239828498
 40
0.033856485
 40
0.0455513497
 40
0.0591067537
 40
0.0745437792
 40
0.1110988883
 40
0.1552549446
 40
0.2070007624
 40
0.2662822017
 40
0.3330257816
 40
0.4071488658
 40
0.5770850435
 40
0.7751008354
 40
1.0
 40
1.0
 40
1.0
 40
1.0
 10
-4.9664815753
 20
39.0521046938
 30
0.0
 10
-4.9664511386
 20
39.0520742571
 30
0.0
 10
-4.9664018905
 20
39.051988685
 30
0.0
 10
-4.9663815049
 20
39.0518269487
 30
0.0
 10
-4.9664024075
 20
39.0516271486
 30
0.0
 10
-4.9664641278
 20
39.0513862759
 30
0.0
 10
-4.9665666272
 20
39.0511032022
 30
0.0
 10
-4.9667103366
 20
39.0507774865
 30
0.0
 10
-4.9668954062
 20
39.0504090619
 30
0.0
 10
-4.9672160431
 20
39.0498274608
 30
0.0
 10
-4.9677255525
 20
39.0489968285
 30
0.0
 10
-4.9684703604
 20
39.0478805002
 30
0.0
 10
-4.9693789433
 20
39.0465974267
 30
0.0
 10
-4.970450107
 20
39.0451496733
 30
0.0
 10
-4.9716825563
 20
39.043539626
 30
0.0
 10
-4.9736293277
 20
39.0410650635
 30
0.0
 10
-4.9764573685
 20
39.0375923225
 30
0.0
 10
-4.9803213145
 20
39.0329945141
 30
0.0
 10
-4.9831172674
 20
39.0297483067
 30
0.0
 10
-4.9846120942
 20
39.0280290116
 30
0.0
  0
SPLINE
  5
63D
100
AcDbEntity
  8
0
100
AcDbSpline
 62
7
  6
CONTINUOUS
 70
0
 71
3
 72
24
 73
20
 74
0
 42
0.0000001
 43
0.0000001
 44
0.0000000001
 40
0.0
 40
0.0
 40
0.0
 40
0.0
 40
0.2248991809
 40
0.422914908
 40
0.5928511374
 40
0.6669742465
 40
0.7337178163
 40
0.7929992247
 40
0.844745015
 40
0.8889010665
 40
0.9254561873
 40
0.940893221
 40
0.9544486325
 40
0.9661435013
 40
0.9760171378
 40
0.9841379376
 40
0.9906321793
 40
0.9957508955
 40
1.0
 40
1.0
 40
1.0
 40
1.0
 10
-5.1616090936
 20
38.8510320251
 30
0.0
 10
-5.1633283816
 20
38.8495372049
 30
0.0
 10
-5.1665745752
 20
38.8467412649
 30
0.0
 10
-5.1711723648
 20
38.8428773364
 30
0.0
 10
-5.1746450918
 20
38.8400493085
 30
0.0
 10
-5.1771196446
 20
38.8381025455
 30
0.0
 10
-5.1787296852
 20
38.836870102
 30
0.0
 10
-5.1801774322
 20
38.8357989438
 30
0.0
 10
-5.1814605
 20
38.8348903657
 30
0.0
 10
-5.1825768237
 20
38.8341455615
 30
0.0
 10
-5.1834074528
 20
38.8336360547
 30
0.0
 10
-5.1839890519
 20
38.8333154193
 30
0.0
 10
-5.1843574752
 20
38.8331303506
 30
0.0
 10
-5.1846831897
 20
38.8329866419
 30
0.0
 10
-5.1849662623
 20
38.8328841432
 30
0.0
 10
-5.1852071341
 20
38.8328224234
 30
0.0
 10
-5.1854069334
 20
38.8328015212
 30
0.0
 10
-5.1855686691
 20
38.832821907
 30
0.0
 10
-5.1856542408
 20
38.832871155
 30
0.0
 10
-5.1856846775
 20
38.8329015916
 30
0.0
  0
SPLINE
  5
63E
100
AcDbEntity
  8
0
100
AcDbSpline
 62
7
  6
CONTINUOUS
 70
0
 71
3
 72
24
 73
20
 74
0
 42
0.0000001
 43
0.0000001
 44
0.0000000001
 40
0.0
 40
0.0
 40
0.0
 40
0.0
 40
0.004249097
 40
0.0093678093
 40
0.01586205
 40
0.0239828498
 40
0.033856485
 40
0.0455513497
 40
0.0591067537
 40
0.0745437792
 40
0.1110988883
 40
0.1552549446
 40
0.2070007624
 40
0.2662822017
 40
0.3330257816
 40
0.4071488658
 40
0.5770850435
 40
0.7751008354
 40
1.0
 40
1.0
 40
1.0
 40
1.0
 10
8.1501474874
 20
38.8329015916
 30
0.0
 10
8.1501170507
 20
38.8328711549
 30
0.0
 10
8.1500314786
 20
38.8328219068
 30
0.0
 10
8.1498697423
 20
38.8328015212
 30
0.0
 10
8.1496699422
 20
38.8328224239
 30
0.0
 10
8.1494290695
 20
38.8328841441
 30
0.0
 10
8.1491459958
 20
38.8329866435
 30
0.0
 10
8.1488202801
 20
38.833130353
 30
0.0
 10
8.1484518555
 20
38.8333154226
 30
0.0
 10
8.1478702544
 20
38.8336360595
 30
0.0
 10
8.1470396221
 20
38.8341455688
 30
0.0
 10
8.1459232938
 20
38.8348903768
 30
0.0
 10
8.1446402203
 20
38.8357989596
 30
0.0
 10
8.1431924669
 20
38.8368701233
 30
0.0
 10
8.1415824196
 20
38.8381025726
 30
0.0
 10
8.1391078571
 20
38.8400493441
 30
0.0
 10
8.1356351161
 20
38.8428773849
 30
0.0
 10
8.1310373077
 20
38.8467413308
 30
0.0
 10
8.1277911003
 20
38.8495372837
 30
0.0
 10
8.1260718052
 20
38.8510321105
 30
0.0
  0
SPLINE
  5
63F
100
AcDbEntity
  8
0
100
AcDbSpline
 62
7
  6
CONTINUOUS
 70
0
 71
3
 72
24
 73
20
 74
0
 42
0.0000001
 43
0.0000001
 44
0.0000000001
 40
0.0
 40
0.0
 40
0.0
 40
0.0
 40
0.2248991809
 40
0.422914908
 40
0.5928511374
 40
0.6669742465
 40
0.7337178163
 40
0.7929992247
 40
0.844745015
 40
0.8889010665
 40
0.9254561873
 40
0.940893221
 40
0.9544486325
 40
0.9661435013
 40
0.9760171378
 40
0.9841379376
 40
0.9906321793
 40
0.9957508955
 40
1.0
 40
1.0
 40
1.0
 40
1.0
 10
7.9490748187
 20
39.0280291099
 30
0.0
 10
7.9475799985
 20
39.0297483979
 30
0.0
 10
7.9447840584
 20
39.0329945915
 30
0.0
 10
7.94092013
 20
39.0375923812
 30
0.0
 10
7.938092102
 20
39.0410651081
 30
0.0
 10
7.9361453391
 20
39.0435396609
 30
0.0
 10
7.9349128956
 20
39.0451497015
 30
0.0
 10
7.9338417374
 20
39.0465974485
 30
0.0
 10
7.9329331593
 20
39.0478805163
 30
0.0
 10
7.9321883551
 20
39.04899684
 30
0.0
 10
7.9316788483
 20
39.0498274692
 30
0.0
 10
7.9313582129
 20
39.0504090682
 30
0.0
 10
7.9311731442
 20
39.0507774915
 30
0.0
 10
7.9310294355
 20
39.051103206
 30
0.0
 10
7.9309269368
 20
39.0513862787
 30
0.0
 10
7.930865217
 20
39.0516271504
 30
0.0
 10
7.9308443148
 20
39.0518269497
 30
0.0
 10
7.9308647005
 20
39.0519886854
 30
0.0
 10
7.9309139486
 20
39.0520742571
 30
0.0
 10
7.9309443852
 20
39.0521046938
 30
0.0
  0
ENDSEC
  0
SECTION
  2
OBJECTS
  0
DICTIONARY
  5
C
100
AcDbDictionary
280
0
281
1
  3
ACAD_GROUP
350
D
  3
ACAD_MLINESTYLE
350
17
  3
ACAD_LAYOUT
350
1A
  3
ACAD_PLOTSETTINGS
350
19
  3
ACAD_PLOTSTYLENAME
350
E
  0
DICTIONARY
  5
D
102
{ACAD_REACTORS
330
C
102
}
100
AcDbDictionary
280
0
281
1
  0
ACDBDICTIONARYWDFLT
  5
E
102
{ACAD_REACTORS
330
C
102
}
100
AcDbDictionary
281
1
  3
Normal
350
F
100
AcDbDictionaryWithDefault
340
F
  0
DICTIONARY
  5
17
102
{ACAD_REACTORS
330
C
102
}
100
AcDbDictionary
280
0
281
1
  3
Standard
350
18
  0
DICTIONARY
  5
19
102
{ACAD_REACTORS
330
C
102
}
100
AcDbDictionary
281
1
  0
DICTIONARY
  5
1A
102
{ACAD_REACTORS
330
C
102
}
100
AcDbDictionary
281
1
  3
Model
350
640
  3
Layout1
350
641
  0
ACDBPLACEHOLDER
  5
F
102
{ACAD_REACTORS
330
E
102
}
  0
MLINESTYLE
  5
18
102
{ACAD_REACTORS
330
17
102
}
100
AcDbMlineStyle
  2
STANDARD
 70
0
  3

 62
256
 51
90.0
 52
90.0
 71
2
 49
0.5
 62
256
  6
BYLAYER
 49
-0.5
 62
256
  6
BYLAYER
  0
LAYOUT
  5
640
102
{ACAD_REACTORS
330
1A
102
}
100
AcDbPlotSettings
  1

  2
none_device
  4

  6

 40
0.0
 41
0.0
 42
0.0
 43
0.0
 44
431.8
 45
279.4
 46
0.0
 47
0.0
 48
0.0
 49
0.0
140
0.0
141
0.0
142
1.0
143
1.0
 70
1024
 72
0
 73
0
 74
0
  7

 75
0
147
1.0
148
0.0
149
0.0
100
AcDbLayout
  1
Model
 70
0
 71
0
 10
0.0
 20
0.0
 11
17.0
 21
11.0
 12
0.0
 22
0.0
 32
0.0
 14
0.0
 24
0.0
 34
0.0
 15
0.0
 25
0.0
 35
0.0
146
0.0
 13
0.0
 23
0.0
 33
0.0
 16
1.0
 26
0.0
 36
0.0
 17
0.0
 27
1.0
 37
0.0
 76
0
330
22F
345
0
346
0
  0
LAYOUT
  5
641
102
{ACAD_REACTORS
330
1A
102
}
100
AcDbPlotSettings
  1

  2
none_device
  4

  6

 40
0.0
 41
0.0
 42
0.0
 43
0.0
 44
431.8
 45
279.4
 46
0.0
 47
0.0
 48
0.0
 49
0.0
140
0.0
141
0.0
142
1.0
143
1.0
 70
0
 72
0
 73
0
 74
0
  7

 75
0
147
1.0
148
0.0
149
0.0
100
AcDbLayout
  1
Layout1
 70
0
 71
1
 10
0.0
 20
0.0
 11
17.0
 21
11.0
 12
0.0
 22
0.0
 32
0.0
 14
0.0
 24
0.0
 34
0.0
 15
0.0
 25
0.0
 35
0.0
146
0.0
 13
0.0
 23
0.0
 33
0.0
 16
1.0
 26
0.0
 36
0.0
 17
0.0
 27
1.0
 37
0.0
 76
0
330
230
345
0
346
0
  0
ENDSEC
  0
EOF
