999
DXF file: N:\Master\master\M3_ProE_files\Lenexa\MADAM DXF\46909.dxf
999
Pro/ENGINEER 2010280 by Parametric Technology Corporation
  0
SECTION
  2
HEADER
  9
$ACADVER
  1
AC1021
  9
$DWGCODEPAGE
  3
ANSI_1252
  9
$EXTMAX
 10
17.0
 20
11.0
 30
0.0
  9
$EXTMIN
 10
0.0
 20
-0.0
 30
0.0
  9
$LIMMIN
 10
0.0
 20
-0.0
  9
$LIMMAX
 10
17.0
 20
11.0
  9
$VIEWCTR
 10
8.5
 20
5.5
  9
$VIEWSIZE
 40
11.0
  9
$CLAYER
  8
0
  9
$LTSCALE
 40
0.935
  9
$CELTYPE
  6
BYLAYER
  9
$DIMSCALE
 40
1.0
  9
$DIMASZ
 40
0.125
  9
$DIMEXO
 40
0.10625
  9
$DIMDLI
 40
0.646
  9
$DIMEXE
 40
0.306
  9
$DIMCEN
 40
0.153
  9
$DIMLFAC
 40
1.0
  9
$DIMBLK
  1
_FILLED
  9
$DIMTXT
 40
0.125
  9
$DIMTOL
 70
1
  9
$DIMLIM
 70
0
  9
$DIMTFAC
 40
1.0
  9
$DIMTP
 40
0.01
  9
$DIMTM
 40
0.01
  9
$PDMODE
 70
3
  9
$PDSIZE
 40
0.3125
  9
$HANDSEED
  5
556
  9
$TILEMODE
 70
1
  9
$MEASUREMENT
 70
0
  9
$INSUNITS
 70
1
  0
ENDSEC
  0
SECTION
  2
CLASSES
  0
CLASS
  1
ACDBDICTIONARYWDFLT
  2
AcDbDictionaryWithDefault
  3
AutoCAD 2000
 90
0
 91
1
280
0
281
0
  0
CLASS
  1
ACDBPLACEHOLDER
  2
AcDbPlaceHolder
  3
AutoCAD 2000
 90
0
 91
1
280
0
281
0
  0
CLASS
  1
LAYOUT
  2
AcDbLayout
  3
AutoCAD 2000
 90
0
 91
0
280
0
281
0
  0
ENDSEC
  0
SECTION
  2
TABLES
  0
TABLE
  2
VPORT
  5
8
100
AcDbSymbolTable
 70
2
  0
VPORT
  5
1F4
100
AcDbSymbolTableRecord
100
AcDbViewportTableRecord
  2
*ACTIVE
 70
0
 10
0.0
 20
0.0
 11
1.0
 21
1.0
 12
8.5
 22
5.5
 13
0.0
 23
0.0
 14
1.0
 24
1.0
 15
0.0
 25
0.0
 16
0.0
 26
0.0
 36
1.0
 17
0.0
 27
0.0
 37
0.0
 40
11.0
 41
1.5454545455
 42
50.0
 43
0.0
 44
0.0
 50
0.0
 51
0.0
 71
0
 72
100
 73
1
 74
1
 75
0
 76
0
 77
0
 78
0
  0
ENDTAB
  0
TABLE
  2
LTYPE
  5
5
100
AcDbSymbolTable
 70
6
  0
LTYPE
  5
14
100
AcDbSymbolTableRecord
100
AcDbLinetypeTableRecord
  2
BYBLOCK
 70
0
  3

 72
65
 73
0
 40
0.0
  0
LTYPE
  5
15
100
AcDbSymbolTableRecord
100
AcDbLinetypeTableRecord
  2
BYLAYER
 70
0
  3

 72
65
 73
0
 40
0.0
  0
LTYPE
  5
16
100
AcDbSymbolTableRecord
100
AcDbLinetypeTableRecord
  2
CONTINUOUS
 70
64
  3
Solid line
 72
65
 73
0
 40
0.0
  0
LTYPE
  5
1F5
100
AcDbSymbolTableRecord
100
AcDbLinetypeTableRecord
  2
CENTER
 70
64
  3
____ _ ____ _ ____ _ ____ _ ____ _ ____ _ ____
 72
65
 73
4
 40
0.6
 49
0.375
 74
0
 49
-0.075
 74
0
 49
0.075
 74
0
 49
-0.075
 74
0
  0
LTYPE
  5
1F6
100
AcDbSymbolTableRecord
100
AcDbLinetypeTableRecord
  2
HIDDEN
 70
64
  3
- - - - - - - - - - - - - - - - - - - -
 72
65
 73
2
 40
0.2
 49
0.1
 74
0
 49
-0.1
 74
0
  0
LTYPE
  5
1F7
100
AcDbSymbolTableRecord
100
AcDbLinetypeTableRecord
  2
PHANTOM
 70
64
  3
_____ _ _ _____ _ _ _____ _ _ _____
 72
65
 73
6
 40
0.8
 49
0.45
 74
0
 49
-0.05
 74
0
 49
0.1
 74
0
 49
-0.05
 74
0
 49
0.1
 74
0
 49
-0.05
 74
0
  0
LTYPE
  5
1F8
100
AcDbSymbolTableRecord
100
AcDbLinetypeTableRecord
  2
DOT
 70
64
  3
. . . . . . . . . . . . . . . . . . . .
 72
65
 73
2
 40
0.2
 49
0.1
 74
0
 49
-0.1
 74
0
  0
LTYPE
  5
1F9
100
AcDbSymbolTableRecord
100
AcDbLinetypeTableRecord
  2
DASHED
 70
64
  3
- - - - - - - - - - - - - - - - - - - -
 72
65
 73
2
 40
0.2
 49
0.1
 74
0
 49
-0.1
 74
0
  0
ENDTAB
  0
TABLE
  2
LAYER
  5
2
100
AcDbSymbolTable
 70
36
  0
LAYER
  5
10
100
AcDbSymbolTableRecord
100
AcDbLayerTableRecord
  2
0
 70
0
 62
7
  6
CONTINUOUS
370
-3
390
F
  0
LAYER
  5
1FA
100
AcDbSymbolTableRecord
100
AcDbLayerTableRecord
  2
DEFAULT_1
 70
0
 62
7
  6
CENTER
370
-3
390
F
  0
LAYER
  5
1FB
100
AcDbSymbolTableRecord
100
AcDbLayerTableRecord
  2
DEFAULT_2
 70
0
 62
8
  6
HIDDEN
370
-3
390
F
  0
LAYER
  5
1FC
100
AcDbSymbolTableRecord
100
AcDbLayerTableRecord
  2
DEFAULT_3
 70
0
 62
7
  6
PHANTOM
370
-3
390
F
  0
LAYER
  5
1FD
100
AcDbSymbolTableRecord
100
AcDbLayerTableRecord
  2
01_ALL_DTM_PLN
 70
0
 62
7
  6
CONTINUOUS
370
-3
390
F
  0
LAYER
  5
1FE
100
AcDbSymbolTableRecord
100
AcDbLayerTableRecord
  2
01__ASM_ALL_DTM_PLN
 70
0
 62
7
  6
CONTINUOUS
370
-3
390
F
  0
LAYER
  5
1FF
100
AcDbSymbolTableRecord
100
AcDbLayerTableRecord
  2
01__ASM_DEF_DTM_PLN
 70
0
 62
7
  6
CONTINUOUS
370
-3
390
F
  0
LAYER
  5
200
100
AcDbSymbolTableRecord
100
AcDbLayerTableRecord
  2
01___PRT_ALL_DTM_PLN
 70
0
 62
7
  6
CONTINUOUS
370
-3
390
F
  0
LAYER
  5
201
100
AcDbSymbolTableRecord
100
AcDbLayerTableRecord
  2
01___PRT_DEF_DTM_PLN
 70
0
 62
7
  6
CONTINUOUS
370
-3
390
F
  0
LAYER
  5
202
100
AcDbSymbolTableRecord
100
AcDbLayerTableRecord
  2
02_ALL_AXES
 70
0
 62
7
  6
CONTINUOUS
370
-3
390
F
  0
LAYER
  5
203
100
AcDbSymbolTableRecord
100
AcDbLayerTableRecord
  2
02__ASM_ALL_AXES
 70
0
 62
7
  6
CONTINUOUS
370
-3
390
F
  0
LAYER
  5
204
100
AcDbSymbolTableRecord
100
AcDbLayerTableRecord
  2
02___PRT_ALL_AXES
 70
0
 62
7
  6
CONTINUOUS
370
-3
390
F
  0
LAYER
  5
205
100
AcDbSymbolTableRecord
100
AcDbLayerTableRecord
  2
03_ALL_CURVES
 70
0
 62
7
  6
CONTINUOUS
370
-3
390
F
  0
LAYER
  5
206
100
AcDbSymbolTableRecord
100
AcDbLayerTableRecord
  2
03__ASM_ALL_CURVES
 70
0
 62
7
  6
CONTINUOUS
370
-3
390
F
  0
LAYER
  5
207
100
AcDbSymbolTableRecord
100
AcDbLayerTableRecord
  2
03___PRT_ALL_CURVES
 70
0
 62
7
  6
CONTINUOUS
370
-3
390
F
  0
LAYER
  5
208
100
AcDbSymbolTableRecord
100
AcDbLayerTableRecord
  2
04_ALL_DTM_PNT
 70
0
 62
7
  6
CONTINUOUS
370
-3
390
F
  0
LAYER
  5
209
100
AcDbSymbolTableRecord
100
AcDbLayerTableRecord
  2
04__ASM_ALL_DTM_PNT
 70
0
 62
7
  6
CONTINUOUS
370
-3
390
F
  0
LAYER
  5
20A
100
AcDbSymbolTableRecord
100
AcDbLayerTableRecord
  2
04___PRT_ALL_DTM_PNT
 70
0
 62
7
  6
CONTINUOUS
370
-3
390
F
  0
LAYER
  5
20B
100
AcDbSymbolTableRecord
100
AcDbLayerTableRecord
  2
05_ALL_DTM_CSYS
 70
0
 62
7
  6
CONTINUOUS
370
-3
390
F
  0
LAYER
  5
20C
100
AcDbSymbolTableRecord
100
AcDbLayerTableRecord
  2
05__ASM_ALL_DTM_CSYS
 70
0
 62
7
  6
CONTINUOUS
370
-3
390
F
  0
LAYER
  5
20D
100
AcDbSymbolTableRecord
100
AcDbLayerTableRecord
  2
05__ASM_DEF_DTM_CSYS
 70
0
 62
7
  6
CONTINUOUS
370
-3
390
F
  0
LAYER
  5
20E
100
AcDbSymbolTableRecord
100
AcDbLayerTableRecord
  2
05___PRT_ALL_DTM_CSYS
 70
0
 62
7
  6
CONTINUOUS
370
-3
390
F
  0
LAYER
  5
20F
100
AcDbSymbolTableRecord
100
AcDbLayerTableRecord
  2
05___PRT_DEF_DTM_CSYS
 70
0
 62
7
  6
CONTINUOUS
370
-3
390
F
  0
LAYER
  5
210
100
AcDbSymbolTableRecord
100
AcDbLayerTableRecord
  2
06_ALL_SURFS
 70
0
 62
7
  6
CONTINUOUS
370
-3
390
F
  0
LAYER
  5
211
100
AcDbSymbolTableRecord
100
AcDbLayerTableRecord
  2
06__ASM_ALL_SURFS
 70
0
 62
7
  6
CONTINUOUS
370
-3
390
F
  0
LAYER
  5
212
100
AcDbSymbolTableRecord
100
AcDbLayerTableRecord
  2
06___PRT_ALL_SURFS
 70
0
 62
7
  6
CONTINUOUS
370
-3
390
F
  0
LAYER
  5
213
100
AcDbSymbolTableRecord
100
AcDbLayerTableRecord
  2
07__ASM_ALL_SKELETONS
 70
0
 62
7
  6
CONTINUOUS
370
-3
390
F
  0
LAYER
  5
214
100
AcDbSymbolTableRecord
100
AcDbLayerTableRecord
  2
904PLANES
 70
0
 62
7
  6
CONTINUOUS
370
-3
390
F
  0
LAYER
  5
215
100
AcDbSymbolTableRecord
100
AcDbLayerTableRecord
  2
90517DTMS
 70
0
 62
7
  6
CONTINUOUS
370
-3
390
F
  0
LAYER
  5
216
100
AcDbSymbolTableRecord
100
AcDbLayerTableRecord
  2
AXIS
 70
0
 62
7
  6
CONTINUOUS
370
-3
390
F
  0
LAYER
  5
217
100
AcDbSymbolTableRecord
100
AcDbLayerTableRecord
  2
BAFFLE_DTMS
 70
0
 62
7
  6
CONTINUOUS
370
-3
390
F
  0
LAYER
  5
218
100
AcDbSymbolTableRecord
100
AcDbLayerTableRecord
  2
BD_ANGLE
 70
0
 62
7
  6
CONTINUOUS
370
-3
390
F
  0
LAYER
  5
219
100
AcDbSymbolTableRecord
100
AcDbLayerTableRecord
  2
CONDUIT_DTMS
 70
0
 62
7
  6
CONTINUOUS
370
-3
390
F
  0
LAYER
  5
21A
100
AcDbSymbolTableRecord
100
AcDbLayerTableRecord
  2
CS
 70
0
 62
7
  6
CONTINUOUS
370
-3
390
F
  0
LAYER
  5
21B
100
AcDbSymbolTableRecord
100
AcDbLayerTableRecord
  2
CSYS
 70
0
 62
7
  6
CONTINUOUS
370
-3
390
F
  0
LAYER
  5
21C
100
AcDbSymbolTableRecord
100
AcDbLayerTableRecord
  2
CURVE
 70
0
 62
7
  6
CONTINUOUS
370
-3
390
F
  0
LAYER
  5
21D
100
AcDbSymbolTableRecord
100
AcDbLayerTableRecord
  2
CURVES
 70
0
 62
7
  6
CONTINUOUS
370
-3
390
F
  0
LAYER
  5
21E
100
AcDbSymbolTableRecord
100
AcDbLayerTableRecord
  2
DATUMS
 70
0
 62
7
  6
CONTINUOUS
370
-3
390
F
  0
LAYER
  5
21F
100
AcDbSymbolTableRecord
100
AcDbLayerTableRecord
  2
DEFAULT_DTM
 70
0
 62
7
  6
CONTINUOUS
370
-3
390
F
  0
LAYER
  5
220
100
AcDbSymbolTableRecord
100
AcDbLayerTableRecord
  2
DEF_DTMS
 70
0
 62
7
  6
CONTINUOUS
370
-3
390
F
  0
LAYER
  5
221
100
AcDbSymbolTableRecord
100
AcDbLayerTableRecord
  2
G90581DTMS
 70
0
 62
7
  6
CONTINUOUS
370
-3
390
F
  0
LAYER
  5
222
100
AcDbSymbolTableRecord
100
AcDbLayerTableRecord
  2
GENPLANES
 70
0
 62
7
  6
CONTINUOUS
370
-3
390
F
  0
LAYER
  5
223
100
AcDbSymbolTableRecord
100
AcDbLayerTableRecord
  2
HEAD
 70
0
 62
7
  6
CONTINUOUS
370
-3
390
F
  0
LAYER
  5
224
100
AcDbSymbolTableRecord
100
AcDbLayerTableRecord
  2
HOOD_LOC_DTM
 70
0
 62
7
  6
CONTINUOUS
370
-3
390
F
  0
LAYER
  5
225
100
AcDbSymbolTableRecord
100
AcDbLayerTableRecord
  2
HUB_DTMS
 70
0
 62
7
  6
CONTINUOUS
370
-3
390
F
  0
LAYER
  5
226
100
AcDbSymbolTableRecord
100
AcDbLayerTableRecord
  2
IGES_ITEMS
 70
0
 62
7
  6
CONTINUOUS
370
-3
390
F
  0
LAYER
  5
227
100
AcDbSymbolTableRecord
100
AcDbLayerTableRecord
  2
IGS_ITEMS
 70
0
 62
7
  6
CONTINUOUS
370
-3
390
F
  0
LAYER
  5
228
100
AcDbSymbolTableRecord
100
AcDbLayerTableRecord
  2
INTFCLR_47
 70
0
 62
7
  6
CONTINUOUS
370
-3
390
F
  0
LAYER
  5
229
100
AcDbSymbolTableRecord
100
AcDbLayerTableRecord
  2
INTF_1
 70
0
 62
7
  6
CONTINUOUS
370
-3
390
F
  0
LAYER
  5
22A
100
AcDbSymbolTableRecord
100
AcDbLayerTableRecord
  2
J_BOX_ANGLE
 70
0
 62
7
  6
CONTINUOUS
370
-3
390
F
  0
LAYER
  5
22B
100
AcDbSymbolTableRecord
100
AcDbLayerTableRecord
  2
LAY0001
 70
0
 62
7
  6
CONTINUOUS
370
-3
390
F
  0
LAYER
  5
22C
100
AcDbSymbolTableRecord
100
AcDbLayerTableRecord
  2
LAY0002
 70
0
 62
7
  6
CONTINUOUS
370
-3
390
F
  0
LAYER
  5
22D
100
AcDbSymbolTableRecord
100
AcDbLayerTableRecord
  2
MTR_HOLE_ANG_DTM
 70
0
 62
7
  6
CONTINUOUS
370
-3
390
F
  0
LAYER
  5
22E
100
AcDbSymbolTableRecord
100
AcDbLayerTableRecord
  2
PARTDTMS
 70
0
 62
7
  6
CONTINUOUS
370
-3
390
F
  0
LAYER
  5
22F
100
AcDbSymbolTableRecord
100
AcDbLayerTableRecord
  2
PLANE
 70
0
 62
7
  6
CONTINUOUS
370
-3
390
F
  0
LAYER
  5
230
100
AcDbSymbolTableRecord
100
AcDbLayerTableRecord
  2
PLANES
 70
0
 62
7
  6
CONTINUOUS
370
-3
390
F
  0
LAYER
  5
231
100
AcDbSymbolTableRecord
100
AcDbLayerTableRecord
  2
POINT
 70
0
 62
7
  6
CONTINUOUS
370
-3
390
F
  0
LAYER
  5
232
100
AcDbSymbolTableRecord
100
AcDbLayerTableRecord
  2
P_ROUNDS
 70
0
 62
7
  6
CONTINUOUS
370
-3
390
F
  0
LAYER
  5
233
100
AcDbSymbolTableRecord
100
AcDbLayerTableRecord
  2
P_SURFACES
 70
0
 62
7
  6
CONTINUOUS
370
-3
390
F
  0
LAYER
  5
234
100
AcDbSymbolTableRecord
100
AcDbLayerTableRecord
  2
ROUND
 70
0
 62
7
  6
CONTINUOUS
370
-3
390
F
  0
LAYER
  5
235
100
AcDbSymbolTableRecord
100
AcDbLayerTableRecord
  2
STANDOFF_DTMS
 70
0
 62
7
  6
CONTINUOUS
370
-3
390
F
  0
LAYER
  5
236
100
AcDbSymbolTableRecord
100
AcDbLayerTableRecord
  2
STIFF_ANGLE
 70
0
 62
7
  6
CONTINUOUS
370
-3
390
F
  0
LAYER
  5
237
100
AcDbSymbolTableRecord
100
AcDbLayerTableRecord
  2
SURFACE
 70
0
 62
7
  6
CONTINUOUS
370
-3
390
F
  0
LAYER
  5
238
100
AcDbSymbolTableRecord
100
AcDbLayerTableRecord
  2
TOP_SURFACE
 70
0
 62
7
  6
CONTINUOUS
370
-3
390
F
  0
LAYER
  5
239
100
AcDbSymbolTableRecord
100
AcDbLayerTableRecord
  2
WITNESS
 70
0
 62
7
  6
CONTINUOUS
370
-3
390
F
  0
LAYER
  5
23A
100
AcDbSymbolTableRecord
100
AcDbLayerTableRecord
  2
XSEC_DATUMS
 70
0
 62
7
  6
CONTINUOUS
370
-3
390
F
  0
ENDTAB
  0
TABLE
  2
STYLE
  5
3
100
AcDbSymbolTable
 70
1
  0
STYLE
  5
11
100
AcDbSymbolTableRecord
100
AcDbTextStyleTableRecord
  2
STANDARD
 70
0
 40
0.0
 41
0.8
 50
0.0
 71
0
 42
0.2
  3
txt
  4

  0
STYLE
  5
23B
100
AcDbSymbolTableRecord
100
AcDbTextStyleTableRecord
  2
TEXTSTYLE_1
 70
0
 40
0.0
 41
0.8
 50
0.0
 71
0
 42
0.2
  3
gdt
  4

  0
ENDTAB
  0
TABLE
  2
VIEW
  5
6
100
AcDbSymbolTable
 70
0
  0
ENDTAB
  0
TABLE
  2
UCS
  5
7
100
AcDbSymbolTable
 70
0
  0
ENDTAB
  0
TABLE
  2
APPID
  5
9
100
AcDbSymbolTable
 70
1
  0
APPID
  5
23C
100
AcDbSymbolTableRecord
100
AcDbRegAppTableRecord
  2
ACAD
 70
0
  0
ENDTAB
  0
TABLE
  2
BLOCK_RECORD
  5
1
100
AcDbSymbolTable
 70
0
  0
BLOCK_RECORD
  5
23D
100
AcDbSymbolTableRecord
100
AcDbBlockTableRecord
  2
*Model_Space
  0
BLOCK_RECORD
  5
23E
100
AcDbSymbolTableRecord
100
AcDbBlockTableRecord
  2
*Paper_Space
  0
ENDTAB
  0
TABLE
  2
DIMSTYLE
  5
A
100
AcDbSymbolTable
 70
1
100
AcDbDimStyleTable
 71
0
  0
DIMSTYLE
105
23F
100
AcDbSymbolTableRecord
100
AcDbDimStyleTableRecord
  2
STANDARD
 70
0
  3

  4

 40
1.0
 41
0.125
 42
0.0625
 43
0.38
 44
0.18
 45
0.0
 46
0.0
 47
0.01
 48
0.01
140
0.125
141
0.09
142
0.0
143
25.4
144
1.0
145
0.0
146
1.0
147
0.09
 71
1.0
 72
0.0
 73
1
 74
1
 75
0
 76
0
 77
0
 78
4
170
0
171
2
172
0
173
0
174
0
175
0
176
0
177
0
178
0
270
2
271
2
272
2
273
2
274
2
275
0
280
0
281
0
282
0
283
1
284
4
285
0
286
0
287
3
288
0
340
11
  0
ENDTAB
  0
ENDSEC
  0
SECTION
  2
BLOCKS
  0
BLOCK
  5
20
100
AcDbEntity
  8
0
100
AcDbBlockBegin
  2
*Model_Space
 70
0
 10
0.0
 20
0.0
 30
0.0
  3
*Model_Space
  1

  0
ENDBLK
  5
21
100
AcDbEntity
  8
0
100
AcDbBlockEnd
  0
BLOCK
  5
1C
100
AcDbEntity
  8
0
100
AcDbBlockBegin
  2
*Paper_Space
 70
0
 10
0.0
 20
0.0
 30
0.0
  3
*Paper_Space
  1

  0
ENDBLK
  5
1D
100
AcDbEntity
  8
0
100
AcDbBlockEnd
  0
ENDSEC
  0
SECTION
  2
ENTITIES
  0
MTEXT
  5
240
100
AcDbEntity
  8
0
100
AcDbMText
 62
2
  6
CONTINUOUS
  7
STANDARD
 71
1
 72
1
 10
35.7122411483
 20
-33.7628581951
 30
0.0
 11
1.0
 21
0.0
 31
0.0
 44
0.9
  1
46909
 40
6.0
 41
24.0
  0
LINE
  5
241
100
AcDbEntity
  8
0
100
AcDbLine
 62
3
  6
CONTINUOUS
 10
-13.4210460019
 20
-0.3724519929
 11
-13.5325871774
 21
-3.5665733471
  0
LINE
  5
242
100
AcDbEntity
  8
0
100
AcDbLine
 62
3
  6
CONTINUOUS
 10
-11.3013173698
 20
-7.9165733471
 11
-11.3013173698
 21
-9.2565733471
  0
LINE
  5
243
100
AcDbEntity
  8
0
100
AcDbLine
 62
7
  6
CONTINUOUS
 10
-11.2213173698
 20
-7.9165733471
 11
-11.2213173698
 21
-9.2565733471
  0
LINE
  5
244
100
AcDbEntity
  8
0
100
AcDbLine
 62
3
  6
CONTINUOUS
 10
-11.1413173698
 20
-7.7565733471
 11
-11.1413173698
 21
-9.2565733471
  0
LINE
  5
245
100
AcDbEntity
  8
0
100
AcDbLine
 62
7
  6
CONTINUOUS
 10
15.0186826302
 20
-9.2565733471
 11
14.9386826302
 21
-9.2565733471
  0
LINE
  5
246
100
AcDbEntity
  8
0
100
AcDbLine
 62
7
  6
CONTINUOUS
 10
-11.3013173698
 20
-9.2565733471
 11
-11.2213173698
 21
-9.2565733471
  0
LINE
  5
247
100
AcDbEntity
  8
0
100
AcDbLine
 62
3
  6
CONTINUOUS
 10
14.8586826302
 20
-9.2565733471
 11
-11.1413173698
 21
-9.2565733471
  0
LINE
  5
248
100
AcDbEntity
  8
0
100
AcDbLine
 62
7
  6
CONTINUOUS
 10
-9.1819709919
 20
3.0429266529
 11
-9.1819709919
 21
2.9729266529
  0
LINE
  5
249
100
AcDbEntity
  8
0
100
AcDbLine
 62
7
  6
CONTINUOUS
 10
-8.8280474774
 20
3.6429266529
 11
-8.8090331184
 21
4.1874266529
  0
LINE
  5
24A
100
AcDbEntity
  8
0
100
AcDbLine
 62
7
  6
CONTINUOUS
 10
-8.7870139194
 20
4.8179740125
 11
-8.3674495471
 21
16.8327256463
  0
LINE
  5
24B
100
AcDbEntity
  8
0
100
AcDbLine
 62
3
  6
CONTINUOUS
 10
-11.1413173698
 20
-7.7565733471
 11
14.8586826302
 21
-7.7565733471
  0
LINE
  5
24C
100
AcDbEntity
  8
0
100
AcDbLine
 62
7
  6
CONTINUOUS
 10
12.0186826302
 20
-7.7065733471
 11
14.7686826302
 21
-7.7065733471
  0
LINE
  5
24D
100
AcDbEntity
  8
0
100
AcDbLine
 62
7
  6
CONTINUOUS
 10
9.1065271374
 20
-7.2365733471
 11
9.0711717983
 21
-7.2365733471
  0
LINE
  5
24E
100
AcDbEntity
  8
0
100
AcDbLine
 62
7
  6
CONTINUOUS
 10
-5.389161877
 20
-7.2365733471
 11
-5.3538065379
 21
-7.2365733471
  0
LINE
  5
24F
100
AcDbEntity
  8
0
100
AcDbLine
 62
7
  6
CONTINUOUS
 10
9.2288315084
 20
-7.1930796981
 11
9.1220127759
 21
-7.1930796981
  0
LINE
  5
250
100
AcDbEntity
  8
0
100
AcDbLine
 62
7
  6
CONTINUOUS
 10
-5.5114662481
 20
-7.1930796981
 11
-5.4046475155
 21
-7.1930796981
  0
LINE
  5
251
100
AcDbEntity
  8
0
100
AcDbLine
 62
7
  6
CONTINUOUS
 10
9.096248987
 20
-7.0848265226
 11
8.9894302544
 21
-7.0848265226
  0
LINE
  5
252
100
AcDbEntity
  8
0
100
AcDbLine
 62
7
  6
CONTINUOUS
 10
-5.3788837266
 20
-7.0848265226
 11
-5.272064994
 21
-7.0848265226
  0
LINE
  5
253
100
AcDbEntity
  8
0
100
AcDbLine
 62
7
  6
CONTINUOUS
 10
9.096248987
 20
-6.8683201716
 11
8.9894302544
 21
-6.8683201716
  0
LINE
  5
254
100
AcDbEntity
  8
0
100
AcDbLine
 62
7
  6
CONTINUOUS
 10
-5.3788837266
 20
-6.8683201716
 11
-5.272064994
 21
-6.8683201716
  0
LINE
  5
255
100
AcDbEntity
  8
0
100
AcDbLine
 62
7
  6
CONTINUOUS
 10
-5.1874924314
 20
-6.8670733471
 11
-5.1818589272
 21
-6.8670733471
  0
LINE
  5
256
100
AcDbEntity
  8
0
100
AcDbLine
 62
7
  6
CONTINUOUS
 10
-8.2763475329
 20
3.1884266529
 11
-8.2763475329
 21
3.1129266529
  0
LINE
  5
257
100
AcDbEntity
  8
0
100
AcDbLine
 62
3
  6
CONTINUOUS
 10
-8.2530330986
 20
-4.0665733471
 11
-8.2530330986
 21
-7.7565733471
  0
LINE
  5
258
100
AcDbEntity
  8
0
100
AcDbLine
 62
7
  6
CONTINUOUS
 10
-8.1891917901
 20
3.2629266529
 11
-8.1891917901
 21
3.1129266529
  0
LINE
  5
259
100
AcDbEntity
  8
0
100
AcDbLine
 62
3
  6
CONTINUOUS
 10
-8.1194581612
 20
3.2629266529
 11
-8.1194581612
 21
3.1129266529
  0
LINE
  5
25A
100
AcDbEntity
  8
0
100
AcDbLine
 62
7
  6
CONTINUOUS
 10
-8.9598823611
 20
4.6684091718
 11
-8.9504165108
 21
4.6850594112
  0
LINE
  5
25B
100
AcDbEntity
  8
0
100
AcDbLine
 62
7
  6
CONTINUOUS
 10
9.2288315084
 20
-6.7600669962
 11
9.1220127759
 21
-6.7600669962
  0
LINE
  5
25C
100
AcDbEntity
  8
0
100
AcDbLine
 62
7
  6
CONTINUOUS
 10
-5.5114662481
 20
-6.7600669962
 11
-5.4046475155
 21
-6.7600669962
  0
LINE
  5
25D
100
AcDbEntity
  8
0
100
AcDbLine
 62
7
  6
CONTINUOUS
 10
9.1065271374
 20
-6.7165733471
 11
9.0711717983
 21
-6.7165733471
  0
LINE
  5
25E
100
AcDbEntity
  8
0
100
AcDbLine
 62
7
  6
CONTINUOUS
 10
-5.389161877
 20
-6.7165733471
 11
-5.3538065379
 21
-6.7165733471
  0
LINE
  5
25F
100
AcDbEntity
  8
0
100
AcDbLine
 62
7
  6
CONTINUOUS
 10
-8.9598823611
 20
4.237444134
 11
-8.9504165108
 21
4.2207938946
  0
LINE
  5
260
100
AcDbEntity
  8
0
100
AcDbLine
 62
3
  6
CONTINUOUS
 10
-13.7284313546
 20
-4.0665733471
 11
17.445796615
 21
-4.0665733471
  0
LINE
  5
261
100
AcDbEntity
  8
0
100
AcDbLine
 62
3
  6
CONTINUOUS
 10
-13.7284313546
 20
-3.5665733471
 11
17.445796615
 21
-3.5665733471
  0
LINE
  5
262
100
AcDbEntity
  8
0
100
AcDbLine
 62
3
  6
CONTINUOUS
 10
13.8704032467
 20
2.7834266529
 11
-10.1530379863
 21
2.7834266529
  0
LINE
  5
263
100
AcDbEntity
  8
0
100
AcDbLine
 62
3
  6
CONTINUOUS
 10
2.2495738572
 20
2.9729266529
 11
3.2998821583
 21
2.9729266529
  0
LINE
  5
264
100
AcDbEntity
  8
0
100
AcDbLine
 62
3
  6
CONTINUOUS
 10
-8.258925419
 20
2.9729266529
 11
-9.1819682663
 21
2.9729266529
  0
LINE
  5
265
100
AcDbEntity
  8
0
100
AcDbLine
 62
3
  6
CONTINUOUS
 10
11.9762906794
 20
2.9729266529
 11
12.8993335267
 21
2.9729266529
  0
LINE
  5
266
100
AcDbEntity
  8
0
100
AcDbLine
 62
7
  6
CONTINUOUS
 10
2.2495738572
 20
3.0429266529
 11
3.2998821583
 21
3.0429266529
  0
LINE
  5
267
100
AcDbEntity
  8
0
100
AcDbLine
 62
7
  6
CONTINUOUS
 10
-8.258925419
 20
3.0429266529
 11
-9.1819682663
 21
3.0429266529
  0
LINE
  5
268
100
AcDbEntity
  8
0
100
AcDbLine
 62
7
  6
CONTINUOUS
 10
12.0634464221
 20
3.0429266529
 11
12.8993335267
 21
3.0429266529
  0
LINE
  5
269
100
AcDbEntity
  8
0
100
AcDbLine
 62
7
  6
CONTINUOUS
 10
-8.2327696615
 20
3.1884266529
 11
-8.2975223169
 21
3.1884266529
  0
LINE
  5
26A
100
AcDbEntity
  8
0
100
AcDbLine
 62
7
  6
CONTINUOUS
 10
11.9937127932
 20
3.1884266529
 11
12.0148875772
 21
3.1884266529
  0
LINE
  5
26B
100
AcDbEntity
  8
0
100
AcDbLine
 62
7
  6
CONTINUOUS
 10
-10.0813173698
 20
3.2629266529
 11
13.7986826302
 21
3.2629266529
  0
LINE
  5
26C
100
AcDbEntity
  8
0
100
AcDbLine
 62
3
  6
CONTINUOUS
 10
2.2373720532
 20
3.2629266529
 11
2.2373720532
 21
3.1129266529
  0
LINE
  5
26D
100
AcDbEntity
  8
0
100
AcDbLine
 62
7
  6
CONTINUOUS
 10
2.2434729552
 20
3.2629266529
 11
2.2434729552
 21
3.1129266529
  0
LINE
  5
26E
100
AcDbEntity
  8
0
100
AcDbLine
 62
7
  6
CONTINUOUS
 10
-10.0813173698
 20
3.6429266529
 11
13.7986826302
 21
3.6429266529
  0
LINE
  5
26F
100
AcDbEntity
  8
0
100
AcDbLine
 62
7
  6
CONTINUOUS
 10
12.5329088202
 20
4.1874266529
 11
12.5263983788
 21
4.1874266529
  0
LINE
  5
270
100
AcDbEntity
  8
0
100
AcDbLine
 62
7
  6
CONTINUOUS
 10
-8.8155435599
 20
4.1874266529
 11
-8.7856577189
 21
4.1874266529
  0
LINE
  5
271
100
AcDbEntity
  8
0
100
AcDbLine
 62
7
  6
CONTINUOUS
 10
12.6546395208
 20
4.2006245853
 11
12.540079153
 21
4.2006245853
  0
LINE
  5
272
100
AcDbEntity
  8
0
100
AcDbLine
 62
7
  6
CONTINUOUS
 10
-8.9372742604
 20
4.2006245853
 11
-8.8190664782
 21
4.2006245853
  0
LINE
  5
273
100
AcDbEntity
  8
0
100
AcDbLine
 62
7
  6
CONTINUOUS
 10
2.80320647
 20
4.2006245853
 11
2.7928646291
 21
4.2006245853
  0
LINE
  5
274
100
AcDbEntity
  8
0
100
AcDbLine
 62
7
  6
CONTINUOUS
 10
12.6736830505
 20
4.3267756191
 11
12.5554752684
 21
4.3267756191
  0
LINE
  5
275
100
AcDbEntity
  8
0
100
AcDbLine
 62
7
  6
CONTINUOUS
 10
-8.9182307306
 20
4.3267756191
 11
-8.8000229484
 21
4.3267756191
  0
LINE
  5
276
100
AcDbEntity
  8
0
100
AcDbLine
 62
7
  6
CONTINUOUS
 10
2.5855379285
 20
4.3267756191
 11
2.5751960876
 21
4.3267756191
  0
LINE
  5
277
100
AcDbEntity
  8
0
100
AcDbLine
 62
7
  6
CONTINUOUS
 10
12.6736830505
 20
4.5790776867
 11
12.5554752684
 21
4.5790776867
  0
LINE
  5
278
100
AcDbEntity
  8
0
100
AcDbLine
 62
7
  6
CONTINUOUS
 10
-8.9182307306
 20
4.5790776867
 11
-8.8000229484
 21
4.5790776867
  0
LINE
  5
279
100
AcDbEntity
  8
0
100
AcDbLine
 62
7
  6
CONTINUOUS
 10
2.5855379285
 20
4.5790776867
 11
2.5751960876
 21
4.5790776867
  0
LINE
  5
27A
100
AcDbEntity
  8
0
100
AcDbLine
 62
7
  6
CONTINUOUS
 10
12.6546395208
 20
4.7052287205
 11
12.5400397714
 21
4.7052287205
  0
LINE
  5
27B
100
AcDbEntity
  8
0
100
AcDbLine
 62
7
  6
CONTINUOUS
 10
-8.9372742604
 20
4.7052287205
 11
-8.8190664782
 21
4.7052287205
  0
LINE
  5
27C
100
AcDbEntity
  8
0
100
AcDbLine
 62
7
  6
CONTINUOUS
 10
2.80320647
 20
4.7052287205
 11
2.7928646291
 21
4.7052287205
  0
LINE
  5
27D
100
AcDbEntity
  8
0
100
AcDbLine
 62
7
  6
CONTINUOUS
 10
12.5329088202
 20
4.7184266529
 11
12.5247572476
 21
4.7184266529
  0
LINE
  5
27E
100
AcDbEntity
  8
0
100
AcDbLine
 62
7
  6
CONTINUOUS
 10
-8.8155435599
 20
4.7184266529
 11
-8.7856577189
 21
4.7184266529
  0
LINE
  5
27F
100
AcDbEntity
  8
0
100
AcDbLine
 62
7
  6
CONTINUOUS
 10
3.2396676533
 20
3.2629266529
 11
3.2396676533
 21
3.1129266529
  0
LINE
  5
280
100
AcDbEntity
  8
0
100
AcDbLine
 62
7
  6
CONTINUOUS
 10
3.2998848838
 20
3.0429266529
 11
3.2998848838
 21
2.9729266529
  0
LINE
  5
281
100
AcDbEntity
  8
0
100
AcDbLine
 62
3
  6
CONTINUOUS
 10
9.3927787142
 20
-7.7565733471
 11
9.3927787142
 21
-4.0665733471
  0
LINE
  5
282
100
AcDbEntity
  8
0
100
AcDbLine
 62
7
  6
CONTINUOUS
 10
12.6772476215
 20
4.237444134
 11
12.6677817712
 21
4.2207938946
  0
LINE
  5
283
100
AcDbEntity
  8
0
100
AcDbLine
 62
7
  6
CONTINUOUS
 10
12.6772476215
 20
4.6684091718
 11
12.6677817712
 21
4.6850594112
  0
LINE
  5
284
100
AcDbEntity
  8
0
100
AcDbLine
 62
7
  6
CONTINUOUS
 10
12.5454127378
 20
3.6429266529
 11
12.0848148075
 21
16.8327256463
  0
LINE
  5
285
100
AcDbEntity
  8
0
100
AcDbLine
 62
3
  6
CONTINUOUS
 10
11.9186826302
 20
3.2629266529
 11
11.9186826302
 21
3.0334266529
  0
LINE
  5
286
100
AcDbEntity
  8
0
100
AcDbLine
 62
3
  6
CONTINUOUS
 10
11.9239791644
 20
3.2629266529
 11
11.9239791644
 21
3.1129266529
  0
LINE
  5
287
100
AcDbEntity
  8
0
100
AcDbLine
 62
3
  6
CONTINUOUS
 10
11.9703983589
 20
-4.0665733471
 11
11.9703983589
 21
-7.7565733471
  0
LINE
  5
288
100
AcDbEntity
  8
0
100
AcDbLine
 62
7
  6
CONTINUOUS
 10
11.9937127932
 20
3.2629266529
 11
11.9937127932
 21
3.1129266529
  0
LINE
  5
289
100
AcDbEntity
  8
0
100
AcDbLine
 62
7
  6
CONTINUOUS
 10
12.0186826302
 20
-7.7515733471
 11
12.0186826302
 21
-7.7065733471
  0
LINE
  5
28A
100
AcDbEntity
  8
0
100
AcDbLine
 62
7
  6
CONTINUOUS
 10
12.8993362522
 20
3.0429266529
 11
12.8993362522
 21
2.9729266529
  0
LINE
  5
28B
100
AcDbEntity
  8
0
100
AcDbLine
 62
7
  6
CONTINUOUS
 10
12.550583725
 20
4.2420867661
 11
12.540464262
 21
4.201977909
  0
LINE
  5
28C
100
AcDbEntity
  8
0
100
AcDbLine
 62
7
  6
CONTINUOUS
 10
12.5505841627
 20
4.6637648048
 11
12.540464262
 21
4.7038753968
  0
LINE
  5
28D
100
AcDbEntity
  8
0
100
AcDbLine
 62
7
  6
CONTINUOUS
 10
14.7686826302
 20
-7.7515733471
 11
14.7686826302
 21
-7.7065733471
  0
LINE
  5
28E
100
AcDbEntity
  8
0
100
AcDbLine
 62
3
  6
CONTINUOUS
 10
14.8586826302
 20
-7.7565733471
 11
14.8586826302
 21
-9.2565733471
  0
LINE
  5
28F
100
AcDbEntity
  8
0
100
AcDbLine
 62
7
  6
CONTINUOUS
 10
14.9386826302
 20
-7.9165733471
 11
14.9386826302
 21
-9.2565733471
  0
LINE
  5
290
100
AcDbEntity
  8
0
100
AcDbLine
 62
3
  6
CONTINUOUS
 10
15.0186826302
 20
-7.9165733471
 11
15.0186826302
 21
-9.2565733471
  0
LINE
  5
291
100
AcDbEntity
  8
0
100
AcDbLine
 62
3
  6
CONTINUOUS
 10
17.1384112623
 20
-0.3724519929
 11
17.2499524378
 21
-3.5665733471
  0
LINE
  5
292
100
AcDbEntity
  8
0
100
AcDbLine
 62
7
  6
CONTINUOUS
 10
-6.3686678931
 20
18.7629266529
 11
10.0860331535
 21
18.7629266529
  0
LINE
  5
293
100
AcDbEntity
  8
0
100
AcDbLine
 62
7
  6
CONTINUOUS
 10
60.5408184911
 20
-9.2565733471
 11
60.4608184911
 21
-9.2565733471
  0
LINE
  5
294
100
AcDbEntity
  8
0
100
AcDbLine
 62
3
  6
CONTINUOUS
 10
60.3808184911
 20
-9.2565733471
 11
34.3808184911
 21
-9.2565733471
  0
LINE
  5
295
100
AcDbEntity
  8
0
100
AcDbLine
 62
7
  6
CONTINUOUS
 10
34.2208184911
 20
-9.2565733471
 11
34.3008184911
 21
-9.2565733471
  0
LINE
  5
296
100
AcDbEntity
  8
0
100
AcDbLine
 62
3
  6
CONTINUOUS
 10
32.101089859
 20
-0.3724519929
 11
31.9895486834
 21
-3.5665733471
  0
LINE
  5
297
100
AcDbEntity
  8
0
100
AcDbLine
 62
3
  6
CONTINUOUS
 10
60.3808184911
 20
-7.7565733471
 11
34.3808184911
 21
-7.7565733471
  0
LINE
  5
298
100
AcDbEntity
  8
0
100
AcDbLine
 62
7
  6
CONTINUOUS
 10
58.6708184911
 20
-7.7065733471
 11
60.2908184911
 21
-7.7065733471
  0
LINE
  5
299
100
AcDbEntity
  8
0
100
AcDbLine
 62
7
  6
CONTINUOUS
 10
54.6286629982
 20
-7.2365733471
 11
54.5933076592
 21
-7.2365733471
  0
LINE
  5
29A
100
AcDbEntity
  8
0
100
AcDbLine
 62
7
  6
CONTINUOUS
 10
40.1329739839
 20
-7.2365733471
 11
40.168329323
 21
-7.2365733471
  0
LINE
  5
29B
100
AcDbEntity
  8
0
100
AcDbLine
 62
7
  6
CONTINUOUS
 10
54.7509673693
 20
-7.1930796981
 11
54.6441486367
 21
-7.1930796981
  0
LINE
  5
29C
100
AcDbEntity
  8
0
100
AcDbLine
 62
7
  6
CONTINUOUS
 10
40.0106696128
 20
-7.1930796981
 11
40.1174883454
 21
-7.1930796981
  0
LINE
  5
29D
100
AcDbEntity
  8
0
100
AcDbLine
 62
7
  6
CONTINUOUS
 10
54.6183848478
 20
-7.0848265226
 11
54.5115661153
 21
-7.0848265226
  0
LINE
  5
29E
100
AcDbEntity
  8
0
100
AcDbLine
 62
7
  6
CONTINUOUS
 10
40.1432521343
 20
-7.0848265226
 11
40.2500708669
 21
-7.0848265226
  0
LINE
  5
29F
100
AcDbEntity
  8
0
100
AcDbLine
 62
7
  6
CONTINUOUS
 10
54.6183848478
 20
-6.8683201716
 11
54.5115661153
 21
-6.8683201716
  0
LINE
  5
2A0
100
AcDbEntity
  8
0
100
AcDbLine
 62
7
  6
CONTINUOUS
 10
40.1432521343
 20
-6.8683201716
 11
40.2500708669
 21
-6.8683201716
  0
LINE
  5
2A1
100
AcDbEntity
  8
0
100
AcDbLine
 62
7
  6
CONTINUOUS
 10
54.7509673693
 20
-6.7600669962
 11
54.6441486367
 21
-6.7600669962
  0
LINE
  5
2A2
100
AcDbEntity
  8
0
100
AcDbLine
 62
7
  6
CONTINUOUS
 10
40.0106696128
 20
-6.7600669962
 11
40.1174883454
 21
-6.7600669962
  0
LINE
  5
2A3
100
AcDbEntity
  8
0
100
AcDbLine
 62
7
  6
CONTINUOUS
 10
54.6286629982
 20
-6.7165733471
 11
54.5933076592
 21
-6.7165733471
  0
LINE
  5
2A4
100
AcDbEntity
  8
0
100
AcDbLine
 62
7
  6
CONTINUOUS
 10
40.1329739839
 20
-6.7165733471
 11
40.168329323
 21
-6.7165733471
  0
LINE
  5
2A5
100
AcDbEntity
  8
0
100
AcDbLine
 62
3
  6
CONTINUOUS
 10
34.2208184911
 20
-7.9165733471
 11
34.2208184911
 21
-9.2565733471
  0
LINE
  5
2A6
100
AcDbEntity
  8
0
100
AcDbLine
 62
7
  6
CONTINUOUS
 10
34.3008184911
 20
-7.9165733471
 11
34.3008184911
 21
-9.2565733471
  0
LINE
  5
2A7
100
AcDbEntity
  8
0
100
AcDbLine
 62
3
  6
CONTINUOUS
 10
34.3808184911
 20
-7.7565733471
 11
34.3808184911
 21
-9.2565733471
  0
LINE
  5
2A8
100
AcDbEntity
  8
0
100
AcDbLine
 62
7
  6
CONTINUOUS
 10
36.340164869
 20
3.0429266529
 11
36.340164869
 21
2.9729266529
  0
LINE
  5
2A9
100
AcDbEntity
  8
0
100
AcDbLine
 62
7
  6
CONTINUOUS
 10
36.6940883835
 20
3.6429266529
 11
36.7131027425
 21
4.1874266529
  0
LINE
  5
2AA
100
AcDbEntity
  8
0
100
AcDbLine
 62
7
  6
CONTINUOUS
 10
36.7351219415
 20
4.8179740125
 11
37.1546863138
 21
16.8327256463
  0
LINE
  5
2AB
100
AcDbEntity
  8
0
100
AcDbLine
 62
3
  6
CONTINUOUS
 10
31.79371628
 20
-4.0665733471
 11
62.9679207021
 21
-4.0665733471
  0
LINE
  5
2AC
100
AcDbEntity
  8
0
100
AcDbLine
 62
3
  6
CONTINUOUS
 10
31.79371628
 20
-3.5665733471
 11
62.9679207021
 21
-3.5665733471
  0
LINE
  5
2AD
100
AcDbEntity
  8
0
100
AcDbLine
 62
3
  6
CONTINUOUS
 10
37.2125342198
 20
-4.0665733471
 11
37.2125342198
 21
-7.7565733471
  0
LINE
  5
2AE
100
AcDbEntity
  8
0
100
AcDbLine
 62
7
  6
CONTINUOUS
 10
37.245788328
 20
3.1884266529
 11
37.245788328
 21
3.1129266529
  0
LINE
  5
2AF
100
AcDbEntity
  8
0
100
AcDbLine
 62
7
  6
CONTINUOUS
 10
37.3329440708
 20
3.2629266529
 11
37.3329440708
 21
3.1129266529
  0
LINE
  5
2B0
100
AcDbEntity
  8
0
100
AcDbLine
 62
3
  6
CONTINUOUS
 10
37.4026776996
 20
3.2629266529
 11
37.4026776996
 21
3.1129266529
  0
LINE
  5
2B1
100
AcDbEntity
  8
0
100
AcDbLine
 62
7
  6
CONTINUOUS
 10
36.5622534998
 20
4.6684091718
 11
36.57171935
 21
4.6850594112
  0
LINE
  5
2B2
100
AcDbEntity
  8
0
100
AcDbLine
 62
7
  6
CONTINUOUS
 10
36.5622534998
 20
4.237444134
 11
36.57171935
 21
4.2207938946
  0
LINE
  5
2B3
100
AcDbEntity
  8
0
100
AcDbLine
 62
3
  6
CONTINUOUS
 10
40.5347347924
 20
-7.7565733471
 11
40.5347347924
 21
-4.0665733471
  0
LINE
  5
2B4
100
AcDbEntity
  8
0
100
AcDbLine
 62
7
  6
CONTINUOUS
 10
40.5683531328
 20
-7.7565733471
 11
40.5683531328
 21
-4.0665733471
  0
LINE
  5
2B5
100
AcDbEntity
  8
0
100
AcDbLine
 62
3
  6
CONTINUOUS
 10
59.3925381592
 20
2.7834266529
 11
35.3690988229
 21
2.7834266529
  0
LINE
  5
2B6
100
AcDbEntity
  8
0
100
AcDbLine
 62
3
  6
CONTINUOUS
 10
37.2632104419
 20
2.9729266529
 11
36.3401675945
 21
2.9729266529
  0
LINE
  5
2B7
100
AcDbEntity
  8
0
100
AcDbLine
 62
3
  6
CONTINUOUS
 10
47.771709718
 20
2.9729266529
 11
48.8220180192
 21
2.9729266529
  0
LINE
  5
2B8
100
AcDbEntity
  8
0
100
AcDbLine
 62
3
  6
CONTINUOUS
 10
57.4984265402
 20
2.9729266529
 11
58.4214693876
 21
2.9729266529
  0
LINE
  5
2B9
100
AcDbEntity
  8
0
100
AcDbLine
 62
7
  6
CONTINUOUS
 10
37.2632104419
 20
3.0429266529
 11
36.3401675945
 21
3.0429266529
  0
LINE
  5
2BA
100
AcDbEntity
  8
0
100
AcDbLine
 62
7
  6
CONTINUOUS
 10
47.771709718
 20
3.0429266529
 11
48.8220180192
 21
3.0429266529
  0
LINE
  5
2BB
100
AcDbEntity
  8
0
100
AcDbLine
 62
7
  6
CONTINUOUS
 10
57.585582283
 20
3.0429266529
 11
58.4214693876
 21
3.0429266529
  0
LINE
  5
2BC
100
AcDbEntity
  8
0
100
AcDbLine
 62
7
  6
CONTINUOUS
 10
37.2893661994
 20
3.1884266529
 11
37.224613544
 21
3.1884266529
  0
LINE
  5
2BD
100
AcDbEntity
  8
0
100
AcDbLine
 62
7
  6
CONTINUOUS
 10
57.5158486541
 20
3.1884266529
 11
57.5370234381
 21
3.1884266529
  0
LINE
  5
2BE
100
AcDbEntity
  8
0
100
AcDbLine
 62
7
  6
CONTINUOUS
 10
35.4408195636
 20
3.2629266529
 11
59.3208174185
 21
3.2629266529
  0
LINE
  5
2BF
100
AcDbEntity
  8
0
100
AcDbLine
 62
7
  6
CONTINUOUS
 10
35.4408184911
 20
3.6429266529
 11
59.3208184911
 21
3.6429266529
  0
LINE
  5
2C0
100
AcDbEntity
  8
0
100
AcDbLine
 62
7
  6
CONTINUOUS
 10
58.0550446811
 20
4.1874266529
 11
58.0485342397
 21
4.1874266529
  0
LINE
  5
2C1
100
AcDbEntity
  8
0
100
AcDbLine
 62
7
  6
CONTINUOUS
 10
36.706592301
 20
4.1874266529
 11
36.736478142
 21
4.1874266529
  0
LINE
  5
2C2
100
AcDbEntity
  8
0
100
AcDbLine
 62
7
  6
CONTINUOUS
 10
58.1767753816
 20
4.2006245853
 11
58.0622150138
 21
4.2006245853
  0
LINE
  5
2C3
100
AcDbEntity
  8
0
100
AcDbLine
 62
7
  6
CONTINUOUS
 10
48.3253423309
 20
4.2006245853
 11
48.31500049
 21
4.2006245853
  0
LINE
  5
2C4
100
AcDbEntity
  8
0
100
AcDbLine
 62
7
  6
CONTINUOUS
 10
36.5848616005
 20
4.2006245853
 11
36.7030693827
 21
4.2006245853
  0
LINE
  5
2C5
100
AcDbEntity
  8
0
100
AcDbLine
 62
7
  6
CONTINUOUS
 10
58.1958189114
 20
4.3267756191
 11
58.0776111292
 21
4.3267756191
  0
LINE
  5
2C6
100
AcDbEntity
  8
0
100
AcDbLine
 62
7
  6
CONTINUOUS
 10
48.1076737894
 20
4.3267756191
 11
48.0973319485
 21
4.3267756191
  0
LINE
  5
2C7
100
AcDbEntity
  8
0
100
AcDbLine
 62
7
  6
CONTINUOUS
 10
36.6039051303
 20
4.3267756191
 11
36.7221129125
 21
4.3267756191
  0
LINE
  5
2C8
100
AcDbEntity
  8
0
100
AcDbLine
 62
7
  6
CONTINUOUS
 10
58.1958189114
 20
4.5790776867
 11
58.0776111292
 21
4.5790776867
  0
LINE
  5
2C9
100
AcDbEntity
  8
0
100
AcDbLine
 62
7
  6
CONTINUOUS
 10
48.1076737894
 20
4.5790776867
 11
48.0973319485
 21
4.5790776867
  0
LINE
  5
2CA
100
AcDbEntity
  8
0
100
AcDbLine
 62
7
  6
CONTINUOUS
 10
36.6039051303
 20
4.5790776867
 11
36.7221129125
 21
4.5790776867
  0
LINE
  5
2CB
100
AcDbEntity
  8
0
100
AcDbLine
 62
7
  6
CONTINUOUS
 10
58.1767753816
 20
4.7052287205
 11
58.0621756323
 21
4.7052287205
  0
LINE
  5
2CC
100
AcDbEntity
  8
0
100
AcDbLine
 62
7
  6
CONTINUOUS
 10
48.3253423309
 20
4.7052287205
 11
48.31500049
 21
4.7052287205
  0
LINE
  5
2CD
100
AcDbEntity
  8
0
100
AcDbLine
 62
7
  6
CONTINUOUS
 10
36.5848616005
 20
4.7052287205
 11
36.7030693827
 21
4.7052287205
  0
LINE
  5
2CE
100
AcDbEntity
  8
0
100
AcDbLine
 62
7
  6
CONTINUOUS
 10
58.0550446811
 20
4.7184266529
 11
58.0468931085
 21
4.7184266529
  0
LINE
  5
2CF
100
AcDbEntity
  8
0
100
AcDbLine
 62
7
  6
CONTINUOUS
 10
36.706592301
 20
4.7184266529
 11
36.736478142
 21
4.7184266529
  0
LINE
  5
2D0
100
AcDbEntity
  8
0
100
AcDbLine
 62
3
  6
CONTINUOUS
 10
47.7595079141
 20
3.2629266529
 11
47.7595079141
 21
3.1129266529
  0
LINE
  5
2D1
100
AcDbEntity
  8
0
100
AcDbLine
 62
7
  6
CONTINUOUS
 10
47.765608816
 20
3.2629266529
 11
47.765608816
 21
3.1129266529
  0
LINE
  5
2D2
100
AcDbEntity
  8
0
100
AcDbLine
 62
7
  6
CONTINUOUS
 10
48.7618035141
 20
3.2629266529
 11
48.7618035141
 21
3.1129266529
  0
LINE
  5
2D3
100
AcDbEntity
  8
0
100
AcDbLine
 62
7
  6
CONTINUOUS
 10
48.8220207447
 20
3.0429266529
 11
48.8220207447
 21
2.9729266529
  0
LINE
  5
2D4
100
AcDbEntity
  8
0
100
AcDbLine
 62
3
  6
CONTINUOUS
 10
57.4408184911
 20
3.2629266529
 11
57.4408184911
 21
3.0334266529
  0
LINE
  5
2D5
100
AcDbEntity
  8
0
100
AcDbLine
 62
3
  6
CONTINUOUS
 10
57.4461150252
 20
3.2629266529
 11
57.4461150252
 21
3.1129266529
  0
LINE
  5
2D6
100
AcDbEntity
  8
0
100
AcDbLine
 62
7
  6
CONTINUOUS
 10
57.5158486541
 20
3.2629266529
 11
57.5158486541
 21
3.1129266529
  0
LINE
  5
2D7
100
AcDbEntity
  8
0
100
AcDbLine
 62
3
  6
CONTINUOUS
 10
57.5491027623
 20
-4.0665733471
 11
57.5491027623
 21
-7.7565733471
  0
LINE
  5
2D8
100
AcDbEntity
  8
0
100
AcDbLine
 62
7
  6
CONTINUOUS
 10
58.0727195859
 20
4.2420867661
 11
58.0626001229
 21
4.201977909
  0
LINE
  5
2D9
100
AcDbEntity
  8
0
100
AcDbLine
 62
7
  6
CONTINUOUS
 10
58.1993834824
 20
4.237444134
 11
58.1899176321
 21
4.2207938946
  0
LINE
  5
2DA
100
AcDbEntity
  8
0
100
AcDbLine
 62
7
  6
CONTINUOUS
 10
58.1993834824
 20
4.6684091718
 11
58.1899176321
 21
4.6850594112
  0
LINE
  5
2DB
100
AcDbEntity
  8
0
100
AcDbLine
 62
7
  6
CONTINUOUS
 10
58.0727200236
 20
4.6637648048
 11
58.0626001229
 21
4.7038753968
  0
LINE
  5
2DC
100
AcDbEntity
  8
0
100
AcDbLine
 62
7
  6
CONTINUOUS
 10
58.0675485987
 20
3.6429266529
 11
57.6069506684
 21
16.8327256463
  0
LINE
  5
2DD
100
AcDbEntity
  8
0
100
AcDbLine
 62
7
  6
CONTINUOUS
 10
58.4214721131
 20
3.0429266529
 11
58.4214721131
 21
2.9729266529
  0
LINE
  5
2DE
100
AcDbEntity
  8
0
100
AcDbLine
 62
7
  6
CONTINUOUS
 10
58.6708184911
 20
-7.7565733471
 11
58.6708184911
 21
-7.7065733471
  0
LINE
  5
2DF
100
AcDbEntity
  8
0
100
AcDbLine
 62
7
  6
CONTINUOUS
 10
39.1534679678
 20
18.7629266529
 11
55.6081690143
 21
18.7629266529
  0
LINE
  5
2E0
100
AcDbEntity
  8
0
100
AcDbLine
 62
7
  6
CONTINUOUS
 10
60.2908184911
 20
-7.7565733471
 11
60.2908184911
 21
-7.7065733471
  0
LINE
  5
2E1
100
AcDbEntity
  8
0
100
AcDbLine
 62
3
  6
CONTINUOUS
 10
60.3808184911
 20
-7.7565733471
 11
60.3808184911
 21
-9.2565733471
  0
LINE
  5
2E2
100
AcDbEntity
  8
0
100
AcDbLine
 62
7
  6
CONTINUOUS
 10
60.4608184911
 20
-7.9165733471
 11
60.4608184911
 21
-9.2565733471
  0
LINE
  5
2E3
100
AcDbEntity
  8
0
100
AcDbLine
 62
3
  6
CONTINUOUS
 10
60.5408184911
 20
-7.9165733471
 11
60.5408184911
 21
-9.2565733471
  0
LINE
  5
2E4
100
AcDbEntity
  8
0
100
AcDbLine
 62
3
  6
CONTINUOUS
 10
62.6605471231
 20
-0.3724519929
 11
62.7720882987
 21
-3.5665733471
  0
LINE
  5
2E5
100
AcDbEntity
  8
0
100
AcDbLine
 62
3
  6
CONTINUOUS
 10
-11.1413173698
 20
-52.0815095642
 11
14.8586826302
 21
-52.0815095642
  0
LINE
  5
2E6
100
AcDbEntity
  8
0
100
AcDbLine
 62
7
  6
CONTINUOUS
 10
-11.1413173698
 20
-52.0015095642
 11
14.8586826302
 21
-52.0015095642
  0
LINE
  5
2E7
100
AcDbEntity
  8
0
100
AcDbLine
 62
7
  6
CONTINUOUS
 10
-11.1413173698
 20
-51.9215095642
 11
-11.3013173698
 21
-51.9215095642
  0
LINE
  5
2E8
100
AcDbEntity
  8
0
100
AcDbLine
 62
7
  6
CONTINUOUS
 10
14.8586826302
 20
-51.9215095642
 11
15.0186826302
 21
-51.9215095642
  0
LINE
  5
2E9
100
AcDbEntity
  8
0
100
AcDbLine
 62
3
  6
CONTINUOUS
 10
-11.3013173698
 20
-25.9215095642
 11
-11.3013173698
 21
-51.9215095642
  0
LINE
  5
2EA
100
AcDbEntity
  8
0
100
AcDbLine
 62
7
  6
CONTINUOUS
 10
-11.2213173698
 20
-25.9215095642
 11
-11.2213173698
 21
-51.9215095642
  0
LINE
  5
2EB
100
AcDbEntity
  8
0
100
AcDbLine
 62
7
  6
CONTINUOUS
 10
-11.1413173698
 20
-25.7615095642
 11
-11.1413173698
 21
-25.9215095642
  0
LINE
  5
2EC
100
AcDbEntity
  8
0
100
AcDbLine
 62
7
  6
CONTINUOUS
 10
-11.1413173698
 20
-51.9215095642
 11
-11.1413173698
 21
-52.0815095642
  0
LINE
  5
2ED
100
AcDbEntity
  8
0
100
AcDbLine
 62
7
  6
CONTINUOUS
 10
-4.5052784005
 20
-45.5019769458
 11
-4.6927784005
 21
-45.3937237703
  0
LINE
  5
2EE
100
AcDbEntity
  8
0
100
AcDbLine
 62
7
  6
CONTINUOUS
 10
-4.5052784005
 20
-45.0689642439
 11
-4.3177784005
 21
-45.1772174194
  0
LINE
  5
2EF
100
AcDbEntity
  8
0
100
AcDbLine
 62
7
  6
CONTINUOUS
 10
-3.4446182287
 20
-44.441316774
 11
-3.6321182287
 21
-44.3330635986
  0
LINE
  5
2F0
100
AcDbEntity
  8
0
100
AcDbLine
 62
7
  6
CONTINUOUS
 10
-3.4446182287
 20
-44.0083040721
 11
-3.2571182287
 21
-44.1165572476
  0
LINE
  5
2F1
100
AcDbEntity
  8
0
100
AcDbLine
 62
7
  6
CONTINUOUS
 10
-4.6927784005
 20
-45.3937237703
 11
-4.6927784005
 21
-45.1772174194
  0
LINE
  5
2F2
100
AcDbEntity
  8
0
100
AcDbLine
 62
7
  6
CONTINUOUS
 10
-4.6927784005
 20
-32.665801709
 11
-4.6927784005
 21
-32.449295358
  0
LINE
  5
2F3
100
AcDbEntity
  8
0
100
AcDbLine
 62
7
  6
CONTINUOUS
 10
-4.3177784005
 20
-32.449295358
 11
-4.3177784005
 21
-32.665801709
  0
LINE
  5
2F4
100
AcDbEntity
  8
0
100
AcDbLine
 62
7
  6
CONTINUOUS
 10
-4.3177784005
 20
-45.1772174194
 11
-4.3177784005
 21
-45.3937237703
  0
LINE
  5
2F5
100
AcDbEntity
  8
0
100
AcDbLine
 62
7
  6
CONTINUOUS
 10
-4.6927784005
 20
-32.449295358
 11
-4.5052784005
 21
-32.3410421826
  0
LINE
  5
2F6
100
AcDbEntity
  8
0
100
AcDbLine
 62
7
  6
CONTINUOUS
 10
-4.3177784005
 20
-32.665801709
 11
-4.5052784005
 21
-32.7740548845
  0
LINE
  5
2F7
100
AcDbEntity
  8
0
100
AcDbLine
 62
7
  6
CONTINUOUS
 10
-3.6321182287
 20
-44.3330635986
 11
-3.6321182287
 21
-44.1165572476
  0
LINE
  5
2F8
100
AcDbEntity
  8
0
100
AcDbLine
 62
7
  6
CONTINUOUS
 10
-3.6321182287
 20
-33.7264618808
 11
-3.6321182287
 21
-33.5099555298
  0
LINE
  5
2F9
100
AcDbEntity
  8
0
100
AcDbLine
 62
7
  6
CONTINUOUS
 10
-3.2571182287
 20
-33.5099555298
 11
-3.2571182287
 21
-33.7264618808
  0
LINE
  5
2FA
100
AcDbEntity
  8
0
100
AcDbLine
 62
7
  6
CONTINUOUS
 10
-3.2571182287
 20
-44.1165572476
 11
-3.2571182287
 21
-44.3330635986
  0
LINE
  5
2FB
100
AcDbEntity
  8
0
100
AcDbLine
 62
7
  6
CONTINUOUS
 10
-3.6321182287
 20
-33.5099555298
 11
-3.4446182287
 21
-33.4017023543
  0
LINE
  5
2FC
100
AcDbEntity
  8
0
100
AcDbLine
 62
7
  6
CONTINUOUS
 10
-3.2571182287
 20
-33.7264618808
 11
-3.4446182287
 21
-33.8347150562
  0
LINE
  5
2FD
100
AcDbEntity
  8
0
100
AcDbLine
 62
7
  6
CONTINUOUS
 10
8.2226436609
 20
-45.5019769458
 11
8.0351436609
 21
-45.3937237703
  0
LINE
  5
2FE
100
AcDbEntity
  8
0
100
AcDbLine
 62
7
  6
CONTINUOUS
 10
2.0778857324
 20
-40.1015095642
 11
1.639479528
 21
-40.1015095642
  0
LINE
  5
2FF
100
AcDbEntity
  8
0
100
AcDbLine
 62
7
  6
CONTINUOUS
 10
2.1210053656
 20
-39.9238322996
 11
2.0136826302
 21
-39.9238322996
  0
LINE
  5
300
100
AcDbEntity
  8
0
100
AcDbLine
 62
7
  6
CONTINUOUS
 10
1.7036826302
 20
-39.9238322996
 11
1.5963598948
 21
-39.9238322996
  0
LINE
  5
301
100
AcDbEntity
  8
0
100
AcDbLine
 62
7
  6
CONTINUOUS
 10
1.6618696189
 20
-39.8583225755
 11
2.0554956415
 21
-39.8583225755
  0
LINE
  5
302
100
AcDbEntity
  8
0
100
AcDbLine
 62
7
  6
CONTINUOUS
 10
1.9147185972
 20
-41.1306386401
 11
1.7055895213
 21
-41.0746026731
  0
LINE
  5
303
100
AcDbEntity
  8
0
100
AcDbLine
 62
7
  6
CONTINUOUS
 10
1.8026466632
 20
-40.7123804883
 11
2.0117757391
 21
-40.7684164553
  0
LINE
  5
304
100
AcDbEntity
  8
0
100
AcDbLine
 62
7
  6
CONTINUOUS
 10
-0.0852814028
 20
-39.1306386401
 11
-0.2944104787
 21
-39.0746026731
  0
LINE
  5
305
100
AcDbEntity
  8
0
100
AcDbLine
 62
7
  6
CONTINUOUS
 10
8.2226436609
 20
-45.0689642439
 11
8.4101436609
 21
-45.1772174194
  0
LINE
  5
306
100
AcDbEntity
  8
0
100
AcDbLine
 62
7
  6
CONTINUOUS
 10
7.1619834891
 20
-44.441316774
 11
6.9744834891
 21
-44.3330635986
  0
LINE
  5
307
100
AcDbEntity
  8
0
100
AcDbLine
 62
7
  6
CONTINUOUS
 10
7.1619834891
 20
-44.0083040721
 11
7.3494834891
 21
-44.1165572476
  0
LINE
  5
308
100
AcDbEntity
  8
0
100
AcDbLine
 62
7
  6
CONTINUOUS
 10
-0.2944104787
 20
-39.0746026731
 11
-0.3504464457
 21
-38.8654735972
  0
LINE
  5
309
100
AcDbEntity
  8
0
100
AcDbLine
 62
7
  6
CONTINUOUS
 10
0.0117757391
 20
-38.7684164553
 11
0.0678117061
 21
-38.9775455312
  0
LINE
  5
30A
100
AcDbEntity
  8
0
100
AcDbLine
 62
7
  6
CONTINUOUS
 10
2.8610053656
 20
-39.1813322996
 11
2.6388792896
 21
-39.1813322996
  0
LINE
  5
30B
100
AcDbEntity
  8
0
100
AcDbLine
 62
7
  6
CONTINUOUS
 10
3.0386826302
 20
-39.1407126664
 11
3.2472479246
 21
-39.1407126664
  0
LINE
  5
30C
100
AcDbEntity
  8
0
100
AcDbLine
 62
7
  6
CONTINUOUS
 10
2.7954956415
 20
-39.1158225755
 11
2.5901253058
 21
-39.1158225755
  0
LINE
  5
30D
100
AcDbEntity
  8
0
100
AcDbLine
 62
7
  6
CONTINUOUS
 10
3.0386826302
 20
-39.0765095642
 11
2.8201272978
 21
-39.0765095642
  0
LINE
  5
30E
100
AcDbEntity
  8
0
100
AcDbLine
 62
7
  6
CONTINUOUS
 10
2.1921826302
 20
-39.0155095642
 11
2.3851826302
 21
-39.0155095642
  0
LINE
  5
30F
100
AcDbEntity
  8
WITNESS
100
AcDbLine
 62
4
  6
CONTINUOUS
 10
4.8586826302
 20
-38.9220095642
 11
5.1086826302
 21
-38.9220095642
  0
LINE
  5
310
100
AcDbEntity
  8
0
100
AcDbLine
 62
7
  6
CONTINUOUS
 10
3.0386826302
 20
-38.9215095642
 11
3.2472479246
 21
-38.9215095642
  0
LINE
  5
311
100
AcDbEntity
  8
WITNESS
100
AcDbLine
 62
4
  6
CONTINUOUS
 10
4.8586826302
 20
-38.9210095642
 11
5.1086826302
 21
-38.9210095642
  0
LINE
  5
312
100
AcDbEntity
  8
0
100
AcDbLine
 62
7
  6
CONTINUOUS
 10
2.1921826302
 20
-38.8275095642
 11
2.3851826302
 21
-38.8275095642
  0
LINE
  5
313
100
AcDbEntity
  8
0
100
AcDbLine
 62
7
  6
CONTINUOUS
 10
3.0386826302
 20
-38.7665095642
 11
2.8201272978
 21
-38.7665095642
  0
LINE
  5
314
100
AcDbEntity
  8
0
100
AcDbLine
 62
7
  6
CONTINUOUS
 10
2.7954956415
 20
-38.7271965529
 11
2.5901253058
 21
-38.7271965529
  0
LINE
  5
315
100
AcDbEntity
  8
0
100
AcDbLine
 62
7
  6
CONTINUOUS
 10
3.0386826302
 20
-38.702306462
 11
3.2472479246
 21
-38.702306462
  0
LINE
  5
316
100
AcDbEntity
  8
0
100
AcDbLine
 62
7
  6
CONTINUOUS
 10
2.8610053656
 20
-38.6616868288
 11
2.6388792896
 21
-38.6616868288
  0
LINE
  5
317
100
AcDbEntity
  8
0
100
AcDbLine
 62
7
  6
CONTINUOUS
 10
-0.1973533368
 20
-38.7123804883
 11
0.0117757391
 21
-38.7684164553
  0
LINE
  5
318
100
AcDbEntity
  8
0
100
AcDbLine
 62
7
  6
CONTINUOUS
 10
3.9147185972
 20
-39.1306386401
 11
3.7055895213
 21
-39.0746026731
  0
LINE
  5
319
100
AcDbEntity
  8
0
100
AcDbLine
 62
7
  6
CONTINUOUS
 10
3.8026466632
 20
-38.7123804883
 11
4.0117757391
 21
-38.7684164553
  0
LINE
  5
31A
100
AcDbEntity
  8
0
100
AcDbLine
 62
7
  6
CONTINUOUS
 10
2.0554956415
 20
-39.8583225755
 11
2.1210053656
 21
-39.9238322996
  0
LINE
  5
31B
100
AcDbEntity
  8
0
100
AcDbLine
 62
7
  6
CONTINUOUS
 10
3.2926070829
 20
-40.4897843054
 11
2.3690841827
 21
-39.5662614051
  0
LINE
  5
31C
100
AcDbEntity
  8
0
100
AcDbLine
 62
7
  6
CONTINUOUS
 10
0.290407889
 20
-37.4875851114
 11
1.2139307893
 21
-38.4111080117
  0
LINE
  5
31D
100
AcDbEntity
  8
0
100
AcDbLine
 62
7
  6
CONTINUOUS
 10
3.5472929889
 20
-40.7382970331
 11
3.2958286194
 21
-40.4868326636
  0
LINE
  5
31E
100
AcDbEntity
  8
0
100
AcDbLine
 62
7
  6
CONTINUOUS
 10
0.0418951612
 20
-37.2328992054
 11
0.2933595308
 21
-37.4843635749
  0
LINE
  5
31F
100
AcDbEntity
  8
0
100
AcDbLine
 62
7
  6
CONTINUOUS
 10
3.6754700991
 20
-40.6101199229
 11
3.4240057296
 21
-40.3586555534
  0
LINE
  5
320
100
AcDbEntity
  8
0
100
AcDbLine
 62
7
  6
CONTINUOUS
 10
0.1700722714
 20
-37.1047220952
 11
0.421536641
 21
-37.3561864648
  0
LINE
  5
321
100
AcDbEntity
  8
0
100
AcDbLine
 62
7
  6
CONTINUOUS
 10
3.4269573714
 20
-40.3554340169
 11
2.5034344711
 21
-39.4319111167
  0
LINE
  5
322
100
AcDbEntity
  8
0
100
AcDbLine
 62
7
  6
CONTINUOUS
 10
0.4247581774
 20
-37.353234823
 11
1.3482810777
 21
-38.2767577233
  0
LINE
  5
323
100
AcDbEntity
  8
0
100
AcDbLine
 62
7
  6
CONTINUOUS
 10
2.8610053656
 20
-39.1813322996
 11
2.7954956415
 21
-39.1158225755
  0
LINE
  5
324
100
AcDbEntity
  8
0
100
AcDbLine
 62
7
  6
CONTINUOUS
 10
1.7055895213
 20
-41.0746026731
 11
1.6495535543
 21
-40.8654735972
  0
LINE
  5
325
100
AcDbEntity
  8
0
100
AcDbLine
 62
7
  6
CONTINUOUS
 10
2.0117757391
 20
-40.7684164553
 11
2.0678117061
 21
-40.9775455312
  0
LINE
  5
326
100
AcDbEntity
  8
0
100
AcDbLine
 62
7
  6
CONTINUOUS
 10
1.5963598948
 20
-39.9238322996
 11
1.5963598948
 21
-39.7008692139
  0
LINE
  5
327
100
AcDbEntity
  8
0
100
AcDbLine
 62
7
  6
CONTINUOUS
 10
1.639479528
 20
-40.1015095642
 11
1.639479528
 21
-40.3100748586
  0
LINE
  5
328
100
AcDbEntity
  8
0
100
AcDbLine
 62
7
  6
CONTINUOUS
 10
1.6618696189
 20
-39.8583225755
 11
1.6618696189
 21
-39.6522835187
  0
LINE
  5
329
100
AcDbEntity
  8
0
100
AcDbLine
 62
7
  6
CONTINUOUS
 10
1.7036826302
 20
-40.1015095642
 11
1.7036826302
 21
-39.8825557819
  0
LINE
  5
32A
100
AcDbEntity
  8
0
100
AcDbLine
 62
7
  6
CONTINUOUS
 10
1.8586826302
 20
-40.1015095642
 11
1.8586826302
 21
-40.3100748586
  0
LINE
  5
32B
100
AcDbEntity
  8
0
100
AcDbLine
 62
7
  6
CONTINUOUS
 10
2.0136826302
 20
-40.1015095642
 11
2.0136826302
 21
-39.8825557819
  0
LINE
  5
32C
100
AcDbEntity
  8
0
100
AcDbLine
 62
7
  6
CONTINUOUS
 10
2.0554956415
 20
-39.8583225755
 11
2.0554956415
 21
-39.6522835187
  0
LINE
  5
32D
100
AcDbEntity
  8
0
100
AcDbLine
 62
7
  6
CONTINUOUS
 10
2.0778857324
 20
-40.1015095642
 11
2.0778857324
 21
-40.3100748586
  0
LINE
  5
32E
100
AcDbEntity
  8
0
100
AcDbLine
 62
7
  6
CONTINUOUS
 10
2.1210053656
 20
-39.9238322996
 11
2.1210053656
 21
-39.7008692139
  0
LINE
  5
32F
100
AcDbEntity
  8
0
100
AcDbLine
 62
7
  6
CONTINUOUS
 10
2.1921826302
 20
-39.0155095642
 11
2.1921826302
 21
-38.8275095642
  0
LINE
  5
330
100
AcDbEntity
  8
0
100
AcDbLine
 62
7
  6
CONTINUOUS
 10
2.3801826302
 20
-38.8275095642
 11
2.3801826302
 21
-39.0155095642
  0
LINE
  5
331
100
AcDbEntity
  8
0
100
AcDbLine
 62
7
  6
CONTINUOUS
 10
2.3851826302
 20
-39.0155095642
 11
2.3851826302
 21
-38.8275095642
  0
LINE
  5
332
100
AcDbEntity
  8
0
100
AcDbLine
 62
7
  6
CONTINUOUS
 10
2.7954956415
 20
-39.1158225755
 11
2.7954956415
 21
-38.7271965529
  0
LINE
  5
333
100
AcDbEntity
  8
0
100
AcDbLine
 62
7
  6
CONTINUOUS
 10
2.8610053656
 20
-38.6616868288
 11
2.8610053656
 21
-38.7665095642
  0
LINE
  5
334
100
AcDbEntity
  8
0
100
AcDbLine
 62
7
  6
CONTINUOUS
 10
2.8610053656
 20
-39.0765095642
 11
2.8610053656
 21
-39.1813322996
  0
LINE
  5
335
100
AcDbEntity
  8
0
100
AcDbLine
 62
7
  6
CONTINUOUS
 10
3.0386826302
 20
-38.702306462
 11
3.0386826302
 21
-39.1407126664
  0
LINE
  5
336
100
AcDbEntity
  8
0
100
AcDbLine
 62
7
  6
CONTINUOUS
 10
-0.3504464457
 20
-38.8654735972
 11
-0.1973533368
 21
-38.7123804883
  0
LINE
  5
337
100
AcDbEntity
  8
0
100
AcDbLine
 62
7
  6
CONTINUOUS
 10
1.6495535543
 20
-36.8654735972
 11
1.8026466632
 21
-36.7123804883
  0
LINE
  5
338
100
AcDbEntity
  8
0
100
AcDbLine
 62
7
  6
CONTINUOUS
 10
2.0678117061
 20
-36.9775455312
 11
1.9147185972
 21
-37.1306386401
  0
LINE
  5
339
100
AcDbEntity
  8
0
100
AcDbLine
 62
7
  6
CONTINUOUS
 10
0.0678117061
 20
-38.9775455312
 11
-0.0852814028
 21
-39.1306386401
  0
LINE
  5
33A
100
AcDbEntity
  8
0
100
AcDbLine
 62
7
  6
CONTINUOUS
 10
8.0351436609
 20
-32.449295358
 11
8.2226436609
 21
-32.3410421826
  0
LINE
  5
33B
100
AcDbEntity
  8
0
100
AcDbLine
 62
7
  6
CONTINUOUS
 10
8.4101436609
 20
-32.665801709
 11
8.2226436609
 21
-32.7740548845
  0
LINE
  5
33C
100
AcDbEntity
  8
0
100
AcDbLine
 62
7
  6
CONTINUOUS
 10
6.9744834891
 20
-33.5099555298
 11
7.1619834891
 21
-33.4017023543
  0
LINE
  5
33D
100
AcDbEntity
  8
0
100
AcDbLine
 62
7
  6
CONTINUOUS
 10
7.3494834891
 20
-33.7264618808
 11
7.1619834891
 21
-33.8347150562
  0
LINE
  5
33E
100
AcDbEntity
  8
0
100
AcDbLine
 62
7
  6
CONTINUOUS
 10
1.9147185972
 20
-37.1306386401
 11
1.7055895213
 21
-37.0746026731
  0
LINE
  5
33F
100
AcDbEntity
  8
0
100
AcDbLine
 62
7
  6
CONTINUOUS
 10
1.8026466632
 20
-36.7123804883
 11
2.0117757391
 21
-36.7684164553
  0
LINE
  5
340
100
AcDbEntity
  8
0
100
AcDbLine
 62
7
  6
CONTINUOUS
 10
-3.4446182287
 20
-33.8347150562
 11
-3.6321182287
 21
-33.7264618808
  0
LINE
  5
341
100
AcDbEntity
  8
0
100
AcDbLine
 62
7
  6
CONTINUOUS
 10
-3.4446182287
 20
-33.4017023543
 11
-3.2571182287
 21
-33.5099555298
  0
LINE
  5
342
100
AcDbEntity
  8
0
100
AcDbLine
 62
7
  6
CONTINUOUS
 10
-4.5052784005
 20
-32.7740548845
 11
-4.6927784005
 21
-32.665801709
  0
LINE
  5
343
100
AcDbEntity
  8
0
100
AcDbLine
 62
7
  6
CONTINUOUS
 10
-4.5052784005
 20
-32.3410421826
 11
-4.3177784005
 21
-32.449295358
  0
LINE
  5
344
100
AcDbEntity
  8
0
100
AcDbLine
 62
7
  6
CONTINUOUS
 10
1.7055895213
 20
-37.0746026731
 11
1.6495535543
 21
-36.8654735972
  0
LINE
  5
345
100
AcDbEntity
  8
0
100
AcDbLine
 62
7
  6
CONTINUOUS
 10
2.0117757391
 20
-36.7684164553
 11
2.0678117061
 21
-36.9775455312
  0
LINE
  5
346
100
AcDbEntity
  8
0
100
AcDbLine
 62
7
  6
CONTINUOUS
 10
3.7055895213
 20
-39.0746026731
 11
3.6495535543
 21
-38.8654735972
  0
LINE
  5
347
100
AcDbEntity
  8
WITNESS
100
AcDbLine
 62
4
  6
CONTINUOUS
 10
4.8586826302
 20
-38.9220095642
 11
4.8586826302
 21
-38.9210095642
  0
LINE
  5
348
100
AcDbEntity
  8
0
100
AcDbLine
 62
7
  6
CONTINUOUS
 10
0.290407889
 20
-40.3554340169
 11
1.2139307893
 21
-39.4319111167
  0
LINE
  5
349
100
AcDbEntity
  8
0
100
AcDbLine
 62
7
  6
CONTINUOUS
 10
3.2926070829
 20
-37.353234823
 11
2.3690841827
 21
-38.2767577233
  0
LINE
  5
34A
100
AcDbEntity
  8
0
100
AcDbLine
 62
7
  6
CONTINUOUS
 10
0.0418951612
 20
-40.6101199229
 11
0.2933595308
 21
-40.3586555534
  0
LINE
  5
34B
100
AcDbEntity
  8
0
100
AcDbLine
 62
7
  6
CONTINUOUS
 10
3.5472929889
 20
-37.1047220952
 11
3.2958286194
 21
-37.3561864648
  0
LINE
  5
34C
100
AcDbEntity
  8
0
100
AcDbLine
 62
7
  6
CONTINUOUS
 10
0.1700722714
 20
-40.7382970331
 11
0.421536641
 21
-40.4868326636
  0
LINE
  5
34D
100
AcDbEntity
  8
0
100
AcDbLine
 62
7
  6
CONTINUOUS
 10
3.6754700991
 20
-37.2328992054
 11
3.4240057296
 21
-37.4843635749
  0
LINE
  5
34E
100
AcDbEntity
  8
0
100
AcDbLine
 62
7
  6
CONTINUOUS
 10
0.4247581774
 20
-40.4897843054
 11
1.3482810777
 21
-39.5662614051
  0
LINE
  5
34F
100
AcDbEntity
  8
0
100
AcDbLine
 62
7
  6
CONTINUOUS
 10
3.4269573714
 20
-37.4875851114
 11
2.5034344711
 21
-38.4111080117
  0
LINE
  5
350
100
AcDbEntity
  8
0
100
AcDbLine
 62
7
  6
CONTINUOUS
 10
1.5963598948
 20
-39.9238322996
 11
1.6618696189
 21
-39.8583225755
  0
LINE
  5
351
100
AcDbEntity
  8
0
100
AcDbLine
 62
7
  6
CONTINUOUS
 10
2.7954956415
 20
-38.7271965529
 11
2.8610053656
 21
-38.6616868288
  0
LINE
  5
352
100
AcDbEntity
  8
0
100
AcDbLine
 62
7
  6
CONTINUOUS
 10
4.0117757391
 20
-38.7684164553
 11
4.0678117061
 21
-38.9775455312
  0
LINE
  5
353
100
AcDbEntity
  8
WITNESS
100
AcDbLine
 62
4
  6
CONTINUOUS
 10
5.1086826302
 20
-38.9210095642
 11
5.1086826302
 21
-38.9220095642
  0
LINE
  5
354
100
AcDbEntity
  8
0
100
AcDbLine
 62
7
  6
CONTINUOUS
 10
1.6495535543
 20
-40.8654735972
 11
1.8026466632
 21
-40.7123804883
  0
LINE
  5
355
100
AcDbEntity
  8
0
100
AcDbLine
 62
7
  6
CONTINUOUS
 10
3.6495535543
 20
-38.8654735972
 11
3.8026466632
 21
-38.7123804883
  0
LINE
  5
356
100
AcDbEntity
  8
0
100
AcDbLine
 62
7
  6
CONTINUOUS
 10
4.0678117061
 20
-38.9775455312
 11
3.9147185972
 21
-39.1306386401
  0
LINE
  5
357
100
AcDbEntity
  8
0
100
AcDbLine
 62
7
  6
CONTINUOUS
 10
2.0678117061
 20
-40.9775455312
 11
1.9147185972
 21
-41.1306386401
  0
LINE
  5
358
100
AcDbEntity
  8
0
100
AcDbLine
 62
7
  6
CONTINUOUS
 10
-3.6321182287
 20
-44.1165572476
 11
-3.4446182287
 21
-44.0083040721
  0
LINE
  5
359
100
AcDbEntity
  8
0
100
AcDbLine
 62
7
  6
CONTINUOUS
 10
6.9744834891
 20
-44.3330635986
 11
6.9744834891
 21
-44.1165572476
  0
LINE
  5
35A
100
AcDbEntity
  8
0
100
AcDbLine
 62
7
  6
CONTINUOUS
 10
6.9744834891
 20
-33.7264618808
 11
6.9744834891
 21
-33.5099555298
  0
LINE
  5
35B
100
AcDbEntity
  8
0
100
AcDbLine
 62
7
  6
CONTINUOUS
 10
7.3494834891
 20
-33.5099555298
 11
7.3494834891
 21
-33.7264618808
  0
LINE
  5
35C
100
AcDbEntity
  8
0
100
AcDbLine
 62
7
  6
CONTINUOUS
 10
7.3494834891
 20
-44.1165572476
 11
7.3494834891
 21
-44.3330635986
  0
LINE
  5
35D
100
AcDbEntity
  8
0
100
AcDbLine
 62
7
  6
CONTINUOUS
 10
8.0351436609
 20
-45.3937237703
 11
8.0351436609
 21
-45.1772174194
  0
LINE
  5
35E
100
AcDbEntity
  8
0
100
AcDbLine
 62
7
  6
CONTINUOUS
 10
8.0351436609
 20
-32.665801709
 11
8.0351436609
 21
-32.449295358
  0
LINE
  5
35F
100
AcDbEntity
  8
0
100
AcDbLine
 62
7
  6
CONTINUOUS
 10
-3.2571182287
 20
-44.3330635986
 11
-3.4446182287
 21
-44.441316774
  0
LINE
  5
360
100
AcDbEntity
  8
0
100
AcDbLine
 62
7
  6
CONTINUOUS
 10
-4.6927784005
 20
-45.1772174194
 11
-4.5052784005
 21
-45.0689642439
  0
LINE
  5
361
100
AcDbEntity
  8
0
100
AcDbLine
 62
7
  6
CONTINUOUS
 10
-4.3177784005
 20
-45.3937237703
 11
-4.5052784005
 21
-45.5019769458
  0
LINE
  5
362
100
AcDbEntity
  8
0
100
AcDbLine
 62
7
  6
CONTINUOUS
 10
7.1619834891
 20
-33.8347150562
 11
6.9744834891
 21
-33.7264618808
  0
LINE
  5
363
100
AcDbEntity
  8
0
100
AcDbLine
 62
7
  6
CONTINUOUS
 10
7.1619834891
 20
-33.4017023543
 11
7.3494834891
 21
-33.5099555298
  0
LINE
  5
364
100
AcDbEntity
  8
0
100
AcDbLine
 62
7
  6
CONTINUOUS
 10
8.4101436609
 20
-32.449295358
 11
8.4101436609
 21
-32.665801709
  0
LINE
  5
365
100
AcDbEntity
  8
0
100
AcDbLine
 62
7
  6
CONTINUOUS
 10
8.4101436609
 20
-45.1772174194
 11
8.4101436609
 21
-45.3937237703
  0
LINE
  5
366
100
AcDbEntity
  8
0
100
AcDbLine
 62
7
  6
CONTINUOUS
 10
8.2226436609
 20
-32.7740548845
 11
8.0351436609
 21
-32.665801709
  0
LINE
  5
367
100
AcDbEntity
  8
0
100
AcDbLine
 62
7
  6
CONTINUOUS
 10
8.2226436609
 20
-32.3410421826
 11
8.4101436609
 21
-32.449295358
  0
LINE
  5
368
100
AcDbEntity
  8
0
100
AcDbLine
 62
7
  6
CONTINUOUS
 10
6.9744834891
 20
-44.1165572476
 11
7.1619834891
 21
-44.0083040721
  0
LINE
  5
369
100
AcDbEntity
  8
0
100
AcDbLine
 62
7
  6
CONTINUOUS
 10
7.3494834891
 20
-44.3330635986
 11
7.1619834891
 21
-44.441316774
  0
LINE
  5
36A
100
AcDbEntity
  8
0
100
AcDbLine
 62
7
  6
CONTINUOUS
 10
8.0351436609
 20
-45.1772174194
 11
8.2226436609
 21
-45.0689642439
  0
LINE
  5
36B
100
AcDbEntity
  8
0
100
AcDbLine
 62
7
  6
CONTINUOUS
 10
8.4101436609
 20
-45.3937237703
 11
8.2226436609
 21
-45.5019769458
  0
LINE
  5
36C
100
AcDbEntity
  8
0
100
AcDbLine
 62
7
  6
CONTINUOUS
 10
-11.1413173698
 20
-25.9215095642
 11
-11.3013173698
 21
-25.9215095642
  0
LINE
  5
36D
100
AcDbEntity
  8
0
100
AcDbLine
 62
7
  6
CONTINUOUS
 10
14.8586826302
 20
-25.9215095642
 11
15.0186826302
 21
-25.9215095642
  0
LINE
  5
36E
100
AcDbEntity
  8
0
100
AcDbLine
 62
7
  6
CONTINUOUS
 10
14.8586826302
 20
-25.8415095642
 11
-11.1413173698
 21
-25.8415095642
  0
LINE
  5
36F
100
AcDbEntity
  8
0
100
AcDbLine
 62
3
  6
CONTINUOUS
 10
14.8586826302
 20
-25.7615095642
 11
-11.1413173698
 21
-25.7615095642
  0
LINE
  5
370
100
AcDbEntity
  8
0
100
AcDbLine
 62
7
  6
CONTINUOUS
 10
14.8586826302
 20
-25.7615095642
 11
14.8586826302
 21
-25.9215095642
  0
LINE
  5
371
100
AcDbEntity
  8
0
100
AcDbLine
 62
7
  6
CONTINUOUS
 10
14.8586826302
 20
-51.9215095642
 11
14.8586826302
 21
-52.0815095642
  0
LINE
  5
372
100
AcDbEntity
  8
0
100
AcDbLine
 62
7
  6
CONTINUOUS
 10
14.9386826302
 20
-51.9215095642
 11
14.9386826302
 21
-25.9215095642
  0
LINE
  5
373
100
AcDbEntity
  8
0
100
AcDbLine
 62
3
  6
CONTINUOUS
 10
15.0186826302
 20
-51.9215095642
 11
15.0186826302
 21
-25.9215095642
  0
ARC
  5
374
100
AcDbEntity
  8
0
100
AcDbCircle
 62
7
  6
CONTINUOUS
 10
-7.3380485283
 20
-13.0291935448
 40
19.9875453884
100
AcDbArc
 50
59.545015217
 51
60.2661993323
  0
ARC
  5
375
100
AcDbEntity
  8
0
100
AcDbCircle
 62
3
  6
CONTINUOUS
 10
-10.1530379975
 20
-0.4865733471
 40
3.27
100
AcDbArc
 50
90.0
 51
178.0
  0
ARC
  5
376
100
AcDbEntity
  8
0
100
AcDbCircle
 62
7
  6
CONTINUOUS
 10
-5.4768603072
 20
-6.9617903551
 40
0.3048797336
100
AcDbArc
 50
20.0809937561
 51
22.204264492
  0
ARC
  5
377
100
AcDbEntity
  8
0
100
AcDbCircle
 62
7
  6
CONTINUOUS
 10
-5.4999406892
 20
-6.9567243208
 40
0.2916005583
100
AcDbArc
 50
22.1941406045
 51
26.857004192
  0
ARC
  5
378
100
AcDbEntity
  8
0
100
AcDbCircle
 62
7
  6
CONTINUOUS
 10
-5.4844361511
 20
-6.9491007989
 40
0.2743244215
100
AcDbArc
 50
26.8994425022
 51
28.7571092294
  0
ARC
  5
379
100
AcDbEntity
  8
0
100
AcDbCircle
 62
7
  6
CONTINUOUS
 10
-5.483154237
 20
-7.0046974705
 40
0.2728865638
100
AcDbArc
 50
330.4633562193
 51
333.0918030319
  0
ARC
  5
37A
100
AcDbEntity
  8
0
100
AcDbCircle
 62
7
  6
CONTINUOUS
 10
-5.4775891491
 20
-6.9453839223
 40
0.2665337025
100
AcDbArc
 50
28.7647647391
 51
29.8240318454
  0
ARC
  5
37B
100
AcDbEntity
  8
0
100
AcDbCircle
 62
3
  6
CONTINUOUS
 10
-13.7284313546
 20
-3.8165733471
 40
0.25
100
AcDbArc
 50
90.0
 51
270.0
  0
ARC
  5
37C
100
AcDbEntity
  8
0
100
AcDbCircle
 62
3
  6
CONTINUOUS
 10
-8.4513173698
 20
3.0334266529
 40
0.25
100
AcDbArc
 50
270.0
 51
348.3937995549
  0
ARC
  5
37D
100
AcDbEntity
  8
0
100
AcDbCircle
 62
7
  6
CONTINUOUS
 10
-10.0813173698
 20
3.4529266529
 40
0.19
100
AcDbArc
 50
90.0
 51
270.0
  0
ARC
  5
37E
100
AcDbEntity
  8
0
100
AcDbCircle
 62
3
  6
CONTINUOUS
 10
-11.1413173698
 20
-7.9165733471
 40
0.16
100
AcDbArc
 50
90.0
 51
180.0
  0
CIRCLE
  5
37F
100
AcDbEntity
  8
0
100
AcDbCircle
 62
3
  6
CONTINUOUS
 10
-4.6413173698
 20
-8.5065733471
 40
0.155
  0
ARC
  5
380
100
AcDbEntity
  8
0
100
AcDbCircle
 62
7
  6
CONTINUOUS
 10
-8.7312569324
 20
4.2249373164
 40
0.0946667534
100
AcDbArc
 50
194.9549823139
 51
195.5809413869
  0
ARC
  5
381
100
AcDbEntity
  8
0
100
AcDbCircle
 62
7
  6
CONTINUOUS
 10
-11.1413173698
 20
-7.9165733471
 40
0.08
100
AcDbArc
 50
90.0
 51
180.0
  0
ARC
  5
382
100
AcDbEntity
  8
0
100
AcDbCircle
 62
7
  6
CONTINUOUS
 10
-7.3380485166
 20
21.9350468284
 40
19.9875453633
100
AcDbArc
 50
299.73380067
 51
300.4549847863
  0
ARC
  5
383
100
AcDbEntity
  8
0
100
AcDbCircle
 62
7
  6
CONTINUOUS
 10
-7.5043988396
 20
4.4529266529
 40
10.080380142
100
AcDbArc
 50
359.2829528846
 51
0.7170471154
  0
ARC
  5
384
100
AcDbEntity
  8
0
100
AcDbCircle
 62
7
  6
CONTINUOUS
 10
-6.3686678931
 20
16.7629266529
 40
2.0
100
AcDbArc
 50
90.0
 51
178.0
  0
ARC
  5
385
100
AcDbEntity
  8
0
100
AcDbCircle
 62
7
  6
CONTINUOUS
 10
-8.7335288142
 20
4.68153539
 40
0.0923119537
100
AcDbArc
 50
164.2194481329
 51
164.9670884251
  0
ARC
  5
386
100
AcDbEntity
  8
0
100
AcDbCircle
 62
3
  6
CONTINUOUS
 10
13.8704032579
 20
-0.4865733471
 40
3.27
100
AcDbArc
 50
2.0
 51
90.0
  0
ARC
  5
387
100
AcDbEntity
  8
0
100
AcDbCircle
 62
7
  6
CONTINUOUS
 10
2.7416500889
 20
3.5511283443
 40
0.362705607
100
AcDbArc
 50
232.8081664401
 51
269.9873964575
  0
ARC
  5
388
100
AcDbEntity
  8
0
100
AcDbCircle
 62
7
  6
CONTINUOUS
 10
2.7471556435
 20
3.5511283474
 40
0.362705607
100
AcDbArc
 50
270.0126034292
 51
307.191833175
  0
ARC
  5
389
100
AcDbEntity
  8
0
100
AcDbCircle
 62
7
  6
CONTINUOUS
 10
2.7473152122
 20
3.5511283443
 40
0.362705607
100
AcDbArc
 50
232.8081664408
 51
269.9873964583
  0
ARC
  5
38A
100
AcDbEntity
  8
0
100
AcDbCircle
 62
7
  6
CONTINUOUS
 10
9.1959862934
 20
-6.990675426
 40
0.3067672141
100
AcDbArc
 50
200.0875265377
 51
202.1977317104
  0
ARC
  5
38B
100
AcDbEntity
  8
0
100
AcDbCircle
 62
7
  6
CONTINUOUS
 10
9.2116560256
 20
-6.9989584916
 40
0.285411313
100
AcDbArc
 50
202.1511848446
 51
208.700684686
  0
ARC
  5
38C
100
AcDbEntity
  8
0
100
AcDbCircle
 62
7
  6
CONTINUOUS
 10
2.7906618603
 20
4.4529264569
 40
0.2663860781
100
AcDbArc
 50
331.2814097921
 51
28.6785068331
  0
ARC
  5
38D
100
AcDbEntity
  8
0
100
AcDbCircle
 62
7
  6
CONTINUOUS
 10
9.1942560542
 20
-7.0081545809
 40
0.2657329782
100
AcDbArc
 50
208.7631687664
 51
209.8256278181
  0
ARC
  5
38E
100
AcDbEntity
  8
0
100
AcDbCircle
 62
3
  6
CONTINUOUS
 10
17.445796615
 20
-3.8165733471
 40
0.25
100
AcDbArc
 50
270.0
 51
90.0
  0
ARC
  5
38F
100
AcDbEntity
  8
0
100
AcDbCircle
 62
3
  6
CONTINUOUS
 10
12.1686826302
 20
3.0334266529
 40
0.25
100
AcDbArc
 50
180.0
 51
270.0
  0
ARC
  5
390
100
AcDbEntity
  8
0
100
AcDbCircle
 62
7
  6
CONTINUOUS
 10
13.7986826302
 20
3.4529266529
 40
0.19
100
AcDbArc
 50
270.0
 51
90.0
  0
ARC
  5
391
100
AcDbEntity
  8
0
100
AcDbCircle
 62
3
  6
CONTINUOUS
 10
14.8586826302
 20
-7.9165733471
 40
0.16
100
AcDbArc
 50
0.0
 51
90.0
  0
CIRCLE
  5
392
100
AcDbEntity
  8
0
100
AcDbCircle
 62
3
  6
CONTINUOUS
 10
8.3586826302
 20
-8.5065733471
 40
0.155
  0
ARC
  5
393
100
AcDbEntity
  8
0
100
AcDbCircle
 62
3
  6
CONTINUOUS
 10
11.9762962616
 20
3.1119342268
 40
0.1390072079
100
AcDbArc
 50
247.9619100511
 51
269.9976991422
  0
ARC
  5
394
100
AcDbEntity
  8
0
100
AcDbCircle
 62
7
  6
CONTINUOUS
 10
12.4366101201
 20
4.228152217
 40
0.1071016013
100
AcDbArc
 50
345.0417155818
 51
345.8545794515
  0
ARC
  5
395
100
AcDbEntity
  8
0
100
AcDbCircle
 62
7
  6
CONTINUOUS
 10
12.4486221928
 20
4.2249373163
 40
0.0946667534
100
AcDbArc
 50
344.4190586131
 51
345.0450176862
  0
ARC
  5
396
100
AcDbEntity
  8
0
100
AcDbCircle
 62
7
  6
CONTINUOUS
 10
14.8586826302
 20
-7.9165733471
 40
0.08
100
AcDbArc
 50
0.0
 51
90.0
  0
ARC
  5
397
100
AcDbEntity
  8
0
100
AcDbCircle
 62
7
  6
CONTINUOUS
 10
10.0860331535
 20
16.7629266529
 40
2.0
100
AcDbArc
 50
2.0
 51
90.0
  0
ARC
  5
398
100
AcDbEntity
  8
0
100
AcDbCircle
 62
7
  6
CONTINUOUS
 10
2.7918885534
 20
4.4535517496
 40
0.2650084666
100
AcDbArc
 50
28.6871760438
 51
29.9053452165
  0
ARC
  5
399
100
AcDbEntity
  8
0
100
AcDbCircle
 62
7
  6
CONTINUOUS
 10
12.4375132406
 20
4.6779309653
 40
0.1061697494
100
AcDbArc
 50
14.1443532701
 51
15.0385413773
  0
ARC
  5
39A
100
AcDbEntity
  8
0
100
AcDbCircle
 62
7
  6
CONTINUOUS
 10
12.4508940746
 20
4.68153539
 40
0.0923119536
100
AcDbArc
 50
15.0329115747
 51
15.7805518672
  0
ARC
  5
39B
100
AcDbEntity
  8
0
100
AcDbCircle
 62
7
  6
CONTINUOUS
 10
38.1840873325
 20
-13.0291935449
 40
19.9875453885
100
AcDbArc
 50
59.5450152169
 51
60.2661993322
  0
ARC
  5
39C
100
AcDbEntity
  8
0
100
AcDbCircle
 62
3
  6
CONTINUOUS
 10
35.3690978633
 20
-0.4865733471
 40
3.27
100
AcDbArc
 50
90.0
 51
178.0
  0
ARC
  5
39D
100
AcDbEntity
  8
0
100
AcDbCircle
 62
7
  6
CONTINUOUS
 10
40.0452755537
 20
-6.9617903551
 40
0.3048797336
100
AcDbArc
 50
20.0809937561
 51
22.204264492
  0
ARC
  5
39E
100
AcDbEntity
  8
0
100
AcDbCircle
 62
7
  6
CONTINUOUS
 10
40.0278450957
 20
-6.9541882026
 40
0.285411313
100
AcDbArc
 50
22.1511848446
 51
28.7006846859
  0
ARC
  5
39F
100
AcDbEntity
  8
0
100
AcDbCircle
 62
7
  6
CONTINUOUS
 10
40.0445467117
 20
-6.9453839223
 40
0.2665337026
100
AcDbArc
 50
28.7647647392
 51
29.8240318453
  0
ARC
  5
3A0
100
AcDbEntity
  8
0
100
AcDbCircle
 62
3
  6
CONTINUOUS
 10
31.7937045063
 20
-3.8165733471
 40
0.25
100
AcDbArc
 50
90.0
 51
270.0
  0
ARC
  5
3A1
100
AcDbEntity
  8
0
100
AcDbCircle
 62
3
  6
CONTINUOUS
 10
37.0708184911
 20
3.0334266529
 40
0.25
100
AcDbArc
 50
270.0
 51
348.3937995549
  0
ARC
  5
3A2
100
AcDbEntity
  8
0
100
AcDbCircle
 62
7
  6
CONTINUOUS
 10
35.4408184911
 20
3.4529266529
 40
0.19
100
AcDbArc
 50
90.0
 51
270.0
  0
ARC
  5
3A3
100
AcDbEntity
  8
0
100
AcDbCircle
 62
3
  6
CONTINUOUS
 10
34.3808184911
 20
-7.9165733471
 40
0.16
100
AcDbArc
 50
90.0
 51
180.0
  0
CIRCLE
  5
3A4
100
AcDbEntity
  8
0
100
AcDbCircle
 62
3
  6
CONTINUOUS
 10
40.8808184911
 20
-8.5065733471
 40
0.155
  0
ARC
  5
3A5
100
AcDbEntity
  8
0
100
AcDbCircle
 62
7
  6
CONTINUOUS
 10
36.7908789287
 20
4.2249373164
 40
0.0946667536
100
AcDbArc
 50
194.9549823148
 51
195.5809413863
  0
ARC
  5
3A6
100
AcDbEntity
  8
0
100
AcDbCircle
 62
7
  6
CONTINUOUS
 10
34.3808184911
 20
-7.9165733471
 40
0.08
100
AcDbArc
 50
90.0
 51
180.0
  0
ARC
  5
3A7
100
AcDbEntity
  8
0
100
AcDbCircle
 62
7
  6
CONTINUOUS
 10
38.1840873442
 20
21.9350468285
 40
19.9875453635
100
AcDbArc
 50
299.73380067
 51
300.4549847862
  0
ARC
  5
3A8
100
AcDbEntity
  8
0
100
AcDbCircle
 62
7
  6
CONTINUOUS
 10
38.0177370212
 20
4.4529266529
 40
10.0803801421
100
AcDbArc
 50
359.2829528846
 51
0.7170471154
  0
ARC
  5
3A9
100
AcDbEntity
  8
0
100
AcDbCircle
 62
7
  6
CONTINUOUS
 10
39.1534679678
 20
16.7629266529
 40
2.0
100
AcDbArc
 50
90.0
 51
178.0
  0
ARC
  5
3AA
100
AcDbEntity
  8
0
100
AcDbCircle
 62
7
  6
CONTINUOUS
 10
36.7886070468
 20
4.68153539
 40
0.0923119538
100
AcDbArc
 50
164.2194481331
 51
164.9670884241
  0
ARC
  5
3AB
100
AcDbEntity
  8
0
100
AcDbCircle
 62
3
  6
CONTINUOUS
 10
59.3925391188
 20
-0.4865733471
 40
3.27
100
AcDbArc
 50
2.0
 51
90.0
  0
ARC
  5
3AC
100
AcDbEntity
  8
0
100
AcDbCircle
 62
7
  6
CONTINUOUS
 10
48.2637859498
 20
3.5511283443
 40
0.362705607
100
AcDbArc
 50
232.8081664395
 51
269.987396457
  0
ARC
  5
3AD
100
AcDbEntity
  8
0
100
AcDbCircle
 62
7
  6
CONTINUOUS
 10
48.2692915044
 20
3.5511283474
 40
0.362705607
100
AcDbArc
 50
270.0126034292
 51
307.191833175
  0
ARC
  5
3AE
100
AcDbEntity
  8
0
100
AcDbCircle
 62
7
  6
CONTINUOUS
 10
48.2694510731
 20
3.5511283443
 40
0.362705607
100
AcDbArc
 50
232.8081664375
 51
269.9873964549
  0
ARC
  5
3AF
100
AcDbEntity
  8
0
100
AcDbCircle
 62
7
  6
CONTINUOUS
 10
48.3127977212
 20
4.4529264569
 40
0.2663860781
100
AcDbArc
 50
331.2814097921
 51
28.6785068331
  0
ARC
  5
3B0
100
AcDbEntity
  8
0
100
AcDbCircle
 62
3
  6
CONTINUOUS
 10
62.9679324758
 20
-3.8165733471
 40
0.25
100
AcDbArc
 50
270.0
 51
90.0
  0
ARC
  5
3B1
100
AcDbEntity
  8
0
100
AcDbCircle
 62
3
  6
CONTINUOUS
 10
57.6908184911
 20
3.0334266529
 40
0.25
100
AcDbArc
 50
180.0
 51
270.0
  0
ARC
  5
3B2
100
AcDbEntity
  8
0
100
AcDbCircle
 62
7
  6
CONTINUOUS
 10
59.3208184911
 20
3.4529266529
 40
0.19
100
AcDbArc
 50
270.0
 51
90.0
  0
ARC
  5
3B3
100
AcDbEntity
  8
0
100
AcDbCircle
 62
3
  6
CONTINUOUS
 10
60.3808184911
 20
-7.9165733471
 40
0.16
100
AcDbArc
 50
0.0
 51
90.0
  0
CIRCLE
  5
3B4
100
AcDbEntity
  8
0
100
AcDbCircle
 62
3
  6
CONTINUOUS
 10
53.8808184911
 20
-8.5065733471
 40
0.155
  0
ARC
  5
3B5
100
AcDbEntity
  8
0
100
AcDbCircle
 62
3
  6
CONTINUOUS
 10
57.4984321224
 20
3.1119342268
 40
0.1390072079
100
AcDbArc
 50
247.9619100511
 51
269.9976991422
  0
ARC
  5
3B6
100
AcDbEntity
  8
0
100
AcDbCircle
 62
7
  6
CONTINUOUS
 10
57.958745981
 20
4.228152217
 40
0.1071016012
100
AcDbArc
 50
345.0417155818
 51
345.854579452
  0
ARC
  5
3B7
100
AcDbEntity
  8
0
100
AcDbCircle
 62
7
  6
CONTINUOUS
 10
57.9707580533
 20
4.2249373165
 40
0.0946667538
100
AcDbArc
 50
344.4190586138
 51
345.0450176843
  0
ARC
  5
3B8
100
AcDbEntity
  8
0
100
AcDbCircle
 62
7
  6
CONTINUOUS
 10
60.3808184911
 20
-7.9165733471
 40
0.08
100
AcDbArc
 50
0.0
 51
90.0
  0
ARC
  5
3B9
100
AcDbEntity
  8
0
100
AcDbCircle
 62
7
  6
CONTINUOUS
 10
55.6081690143
 20
16.7629266529
 40
2.0
100
AcDbArc
 50
2.0
 51
90.0
  0
ARC
  5
3BA
100
AcDbEntity
  8
0
100
AcDbCircle
 62
7
  6
CONTINUOUS
 10
48.3140244143
 20
4.4535517496
 40
0.2650084665
100
AcDbArc
 50
28.6871760438
 51
29.9053452165
  0
ARC
  5
3BB
100
AcDbEntity
  8
0
100
AcDbCircle
 62
7
  6
CONTINUOUS
 10
57.9596491016
 20
4.6779309654
 40
0.1061697492
100
AcDbArc
 50
14.1443532694
 51
15.0385413783
  0
ARC
  5
3BC
100
AcDbEntity
  8
0
100
AcDbCircle
 62
7
  6
CONTINUOUS
 10
57.9730299354
 20
4.68153539
 40
0.0923119537
100
AcDbArc
 50
15.032911575
 51
15.7805518671
  0
ARC
  5
3BD
100
AcDbEntity
  8
0
100
AcDbCircle
 62
7
  6
CONTINUOUS
 10
-3.0754582287
 20
-40.4628030404
 40
5.5178645301
100
AcDbArc
 50
9.3508632523
 51
10.1741660841
  0
ARC
  5
3BE
100
AcDbEntity
  8
0
100
AcDbCircle
 62
7
  6
CONTINUOUS
 10
0.3458999072
 20
-43.6899444756
 40
5.3497282197
100
AcDbArc
 50
79.8128959132
 51
80.6620747504
  0
ARC
  5
3BF
100
AcDbEntity
  8
0
100
AcDbCircle
 62
7
  6
CONTINUOUS
 10
0.4718269461
 20
-40.7432103071
 40
2.6712504131
100
AcDbArc
 50
35.7817434522
 51
37.5333566248
  0
CIRCLE
  5
3C0
100
AcDbEntity
  8
0
100
AcDbCircle
 62
7
  6
CONTINUOUS
 10
-3.4446182287
 20
-44.2248104231
 40
0.625
  0
CIRCLE
  5
3C1
100
AcDbEntity
  8
0
100
AcDbCircle
 62
7
  6
CONTINUOUS
 10
-4.5052784005
 20
-45.2854705949
 40
0.625
  0
CIRCLE
  5
3C2
100
AcDbEntity
  8
0
100
AcDbCircle
 62
7
  6
CONTINUOUS
 10
-5.6107864775
 20
-43.2340095642
 40
0.55
  0
CIRCLE
  5
3C3
100
AcDbEntity
  8
0
100
AcDbCircle
 62
7
  6
CONTINUOUS
 10
-5.6107864775
 20
-43.2340095642
 40
0.5
  0
CIRCLE
  5
3C4
100
AcDbEntity
  8
AXIS
100
AcDbCircle
 62
7
  6
CONTINUOUS
 10
-5.6107864775
 20
-43.2340095642
 40
0.47
  0
CIRCLE
  5
3C5
100
AcDbEntity
  8
0
100
AcDbCircle
 62
7
  6
CONTINUOUS
 10
-5.6107864775
 20
-43.2340095642
 40
0.46
  0
CIRCLE
  5
3C6
100
AcDbEntity
  8
0
100
AcDbCircle
 62
7
  6
CONTINUOUS
 10
-5.6107864775
 20
-43.2340095642
 40
0.41
  0
CIRCLE
  5
3C7
100
AcDbEntity
  8
0
100
AcDbCircle
 62
7
  6
CONTINUOUS
 10
-3.4446182287
 20
-44.2248104231
 40
0.26
  0
CIRCLE
  5
3C8
100
AcDbEntity
  8
0
100
AcDbCircle
 62
7
  6
CONTINUOUS
 10
-4.5052784005
 20
-45.2854705949
 40
0.26
  0
CIRCLE
  5
3C9
100
AcDbEntity
  8
0
100
AcDbCircle
 62
7
  6
CONTINUOUS
 10
-3.4446182287
 20
-44.2248104231
 40
0.187
  0
CIRCLE
  5
3CA
100
AcDbEntity
  8
0
100
AcDbCircle
 62
7
  6
CONTINUOUS
 10
-4.5052784005
 20
-45.2854705949
 40
0.187
  0
ARC
  5
3CB
100
AcDbEntity
  8
0
100
AcDbCircle
 62
7
  6
CONTINUOUS
 10
1.2413591681
 20
-40.8238533142
 40
0.125
100
AcDbArc
 50
252.0214013097
 51
351.0107006548
  0
ARC
  5
3CC
100
AcDbEntity
  8
0
100
AcDbCircle
 62
7
  6
CONTINUOUS
 10
-0.0436611198
 20
-39.5388330263
 40
0.125
100
AcDbArc
 50
98.9892993452
 51
197.9785986903
  0
ARC
  5
3CD
100
AcDbEntity
  8
0
100
AcDbCircle
 62
7
  6
CONTINUOUS
 10
0.317389154
 20
-33.9873687053
 40
5.5178645301
100
AcDbArc
 50
279.3508632523
 51
280.1741660841
  0
ARC
  5
3CE
100
AcDbEntity
  8
0
100
AcDbCircle
 62
7
  6
CONTINUOUS
 10
-2.909752281
 20
-37.4087268413
 40
5.3497282195
100
AcDbArc
 50
349.8128959132
 51
350.6620747504
  0
ARC
  5
3CF
100
AcDbEntity
  8
0
100
AcDbCircle
 62
7
  6
CONTINUOUS
 10
0.0344796698
 20
-37.5264763381
 40
2.6772101553
100
AcDbArc
 50
305.6899274564
 51
307.4354929354
  0
ARC
  5
3D0
100
AcDbEntity
  8
0
100
AcDbCircle
 62
7
  6
CONTINUOUS
 10
0.5158323212
 20
-37.1325587278
 40
2.6164023351
100
AcDbArc
 50
322.4482822205
 51
324.2366177025
  0
CIRCLE
  5
3D1
100
AcDbEntity
  8
0
100
AcDbCircle
 62
7
  6
CONTINUOUS
 10
-4.5052784005
 20
-32.5575485335
 40
0.625
  0
CIRCLE
  5
3D2
100
AcDbEntity
  8
0
100
AcDbCircle
 62
7
  6
CONTINUOUS
 10
-3.4446182287
 20
-33.6182087053
 40
0.625
  0
ARC
  5
3D3
100
AcDbEntity
  8
0
100
AcDbCircle
 62
7
  6
CONTINUOUS
 10
-0.1413173698
 20
-38.9215095642
 40
0.5
100
AcDbArc
 50
278.9892993452
 51
81.0107006548
  0
CIRCLE
  5
3D4
100
AcDbEntity
  8
0
100
AcDbCircle
 62
7
  6
CONTINUOUS
 10
-0.1413173698
 20
-38.9215095642
 40
0.2655
  0
CIRCLE
  5
3D5
100
AcDbEntity
  8
0
100
AcDbCircle
 62
7
  6
CONTINUOUS
 10
-3.4446182287
 20
-33.6182087053
 40
0.26
  0
CIRCLE
  5
3D6
100
AcDbEntity
  8
0
100
AcDbCircle
 62
7
  6
CONTINUOUS
 10
-4.5052784005
 20
-32.5575485335
 40
0.26
  0
CIRCLE
  5
3D7
100
AcDbEntity
  8
0
100
AcDbCircle
 62
7
  6
CONTINUOUS
 10
-0.1413173698
 20
-38.9215095642
 40
0.187
  0
CIRCLE
  5
3D8
100
AcDbEntity
  8
0
100
AcDbCircle
 62
7
  6
CONTINUOUS
 10
-3.4446182287
 20
-33.6182087053
 40
0.187
  0
CIRCLE
  5
3D9
100
AcDbEntity
  8
0
100
AcDbCircle
 62
7
  6
CONTINUOUS
 10
-4.5052784005
 20
-32.5575485335
 40
0.187
  0
ARC
  5
3DA
100
AcDbEntity
  8
0
100
AcDbCircle
 62
7
  6
CONTINUOUS
 10
-0.0436611198
 20
-38.3041861021
 40
0.125
100
AcDbArc
 50
162.0214013097
 51
261.0107006548
  0
ARC
  5
3DB
100
AcDbEntity
  8
0
100
AcDbCircle
 62
7
  6
CONTINUOUS
 10
1.2413591681
 20
-37.0191658142
 40
0.125
100
AcDbArc
 50
8.9892993452
 51
107.9785986903
  0
ARC
  5
3DC
100
AcDbEntity
  8
0
100
AcDbCircle
 62
7
  6
CONTINUOUS
 10
3.3999761064
 20
-43.855650423
 40
5.5178645301
100
AcDbArc
 50
99.3508632523
 51
100.1741660841
  0
ARC
  5
3DD
100
AcDbEntity
  8
0
100
AcDbCircle
 62
7
  6
CONTINUOUS
 10
6.6271175413
 20
-40.4342922871
 40
5.3497282195
100
AcDbArc
 50
169.8128959132
 51
170.6620747504
  0
ARC
  5
3DE
100
AcDbEntity
  8
0
100
AcDbCircle
 62
7
  6
CONTINUOUS
 10
1.8586826302
 20
-39.5615095642
 40
0.78
100
AcDbArc
 50
253.6783348578
 51
286.3216651422
  0
CIRCLE
  5
3DF
100
AcDbEntity
  8
0
100
AcDbCircle
 62
7
  6
CONTINUOUS
 10
7.1619834891
 20
-44.2248104231
 40
0.625
  0
CIRCLE
  5
3E0
100
AcDbEntity
  8
0
100
AcDbCircle
 62
7
  6
CONTINUOUS
 10
8.2226436609
 20
-45.2854705949
 40
0.625
  0
ARC
  5
3E1
100
AcDbEntity
  8
0
100
AcDbCircle
 62
7
  6
CONTINUOUS
 10
1.8586826302
 20
-40.9215095642
 40
0.5
100
AcDbArc
 50
8.9892993452
 51
171.0107006548
  0
ARC
  5
3E2
100
AcDbEntity
  8
0
100
AcDbCircle
 62
7
  6
CONTINUOUS
 10
2.8640393569
 20
-39.0283998653
 40
0.3993281503
100
AcDbArc
 50
343.6649142479
 51
348.6576625913
  0
ARC
  5
3E3
100
AcDbEntity
  8
0
100
AcDbCircle
 62
7
  6
CONTINUOUS
 10
1.7517923291
 20
-39.9268662909
 40
0.3993281503
100
AcDbArc
 50
253.6649142479
 51
258.6576625913
  0
CIRCLE
  5
3E4
100
AcDbEntity
  8
0
100
AcDbCircle
 62
7
  6
CONTINUOUS
 10
1.8586826302
 20
-40.9215095642
 40
0.2655
  0
CIRCLE
  5
3E5
100
AcDbEntity
  8
0
100
AcDbCircle
 62
7
  6
CONTINUOUS
 10
8.2226436609
 20
-45.2854705949
 40
0.26
  0
CIRCLE
  5
3E6
100
AcDbEntity
  8
0
100
AcDbCircle
 62
7
  6
CONTINUOUS
 10
7.1619834891
 20
-44.2248104231
 40
0.26
  0
CIRCLE
  5
3E7
100
AcDbEntity
  8
0
100
AcDbCircle
 62
7
  6
CONTINUOUS
 10
1.8586826302
 20
-40.9215095642
 40
0.187
  0
CIRCLE
  5
3E8
100
AcDbEntity
  8
0
100
AcDbCircle
 62
7
  6
CONTINUOUS
 10
8.2226436609
 20
-45.2854705949
 40
0.187
  0
CIRCLE
  5
3E9
100
AcDbEntity
  8
0
100
AcDbCircle
 62
7
  6
CONTINUOUS
 10
7.1619834891
 20
-44.2248104231
 40
0.187
  0
ARC
  5
3EA
100
AcDbEntity
  8
0
100
AcDbCircle
 62
7
  6
CONTINUOUS
 10
3.7610263802
 20
-39.5388330263
 40
0.125
100
AcDbArc
 50
342.0214013097
 51
81.0107006548
  0
ARC
  5
3EB
100
AcDbEntity
  8
0
100
AcDbCircle
 62
7
  6
CONTINUOUS
 10
2.4760060923
 20
-40.8238533142
 40
0.125
100
AcDbArc
 50
188.9892993452
 51
287.9785986903
  0
ARC
  5
3EC
100
AcDbEntity
  8
0
100
AcDbCircle
 62
3
  6
CONTINUOUS
 10
1.8586826302
 20
-38.9215095642
 40
15.8371139848
100
AcDbArc
 50
326.2077710156
 51
33.79576697
  0
ARC
  5
3ED
100
AcDbEntity
  8
0
100
AcDbCircle
 62
3
  6
CONTINUOUS
 10
1.8586826302
 20
-38.9215095642
 40
15.8371139848
100
AcDbArc
 50
56.2109157839
 51
123.79576697
  0
ARC
  5
3EE
100
AcDbEntity
  8
0
100
AcDbCircle
 62
3
  6
CONTINUOUS
 10
1.8586826302
 20
-38.9215095642
 40
15.8371139848
100
AcDbArc
 50
146.2077710156
 51
213.79576697
  0
ARC
  5
3EF
100
AcDbEntity
  8
0
100
AcDbCircle
 62
3
  6
CONTINUOUS
 10
1.8586826302
 20
-38.9215095642
 40
15.8371139848
100
AcDbArc
 50
236.2109157839
 51
303.79576697
  0
ARC
  5
3F0
100
AcDbEntity
  8
0
100
AcDbCircle
 62
7
  6
CONTINUOUS
 10
1.8586826302
 20
-38.9215095642
 40
15.3370383779
100
AcDbArc
 50
59.1079350937
 51
120.8848048893
  0
ARC
  5
3F1
100
AcDbEntity
  8
0
100
AcDbCircle
 62
7
  6
CONTINUOUS
 10
1.8586826302
 20
-38.9215095642
 40
15.3370383779
100
AcDbArc
 50
149.1151951107
 51
210.8920649063
  0
ARC
  5
3F2
100
AcDbEntity
  8
0
100
AcDbCircle
 62
7
  6
CONTINUOUS
 10
1.8586826302
 20
-38.9215095642
 40
15.3370383779
100
AcDbArc
 50
239.1079350937
 51
300.8848048893
  0
ARC
  5
3F3
100
AcDbEntity
  8
0
100
AcDbCircle
 62
7
  6
CONTINUOUS
 10
1.8586826302
 20
-38.9215095642
 40
15.3370383779
100
AcDbArc
 50
329.1151951107
 51
30.8920649063
  0
CIRCLE
  5
3F4
100
AcDbEntity
  8
0
100
AcDbCircle
 62
7
  6
CONTINUOUS
 10
1.8586826302
 20
-38.9215095642
 40
6.0252176293
  0
CIRCLE
  5
3F5
100
AcDbEntity
  8
0
100
AcDbCircle
 62
7
  6
CONTINUOUS
 10
1.8586826302
 20
-38.9215095642
 40
5.7094754065
  0
CIRCLE
  5
3F6
100
AcDbEntity
  8
0
100
AcDbCircle
 62
7
  6
CONTINUOUS
 10
1.8586826302
 20
-38.9215095642
 40
4.9201651492
  0
CIRCLE
  5
3F7
100
AcDbEntity
  8
0
100
AcDbCircle
 62
7
  6
CONTINUOUS
 10
1.8586826302
 20
-38.9215095642
 40
2.5
  0
CIRCLE
  5
3F8
100
AcDbEntity
  8
0
100
AcDbCircle
 62
7
  6
CONTINUOUS
 10
1.8586826302
 20
-38.9215095642
 40
2.4803470828
  0
ARC
  5
3F9
100
AcDbEntity
  8
0
100
AcDbCircle
 62
7
  6
CONTINUOUS
 10
1.8586826302
 20
-38.9215095642
 40
2.125
100
AcDbArc
 50
317.4445050567
 51
342.0214013097
  0
ARC
  5
3FA
100
AcDbEntity
  8
0
100
AcDbCircle
 62
7
  6
CONTINUOUS
 10
1.8586826302
 20
-38.9215095642
 40
2.125
100
AcDbArc
 50
107.9785986903
 51
132.5554949433
  0
ARC
  5
3FB
100
AcDbEntity
  8
0
100
AcDbCircle
 62
7
  6
CONTINUOUS
 10
1.8586826302
 20
-38.9215095642
 40
2.125
100
AcDbArc
 50
17.9785986903
 51
42.5554949433
  0
ARC
  5
3FC
100
AcDbEntity
  8
0
100
AcDbCircle
 62
7
  6
CONTINUOUS
 10
1.8586826302
 20
-38.9215095642
 40
2.125
100
AcDbArc
 50
47.4445050567
 51
72.0214013097
  0
ARC
  5
3FD
100
AcDbEntity
  8
0
100
AcDbCircle
 62
7
  6
CONTINUOUS
 10
1.8586826302
 20
-38.9215095642
 40
2.125
100
AcDbArc
 50
227.4445050567
 51
252.0214013097
  0
ARC
  5
3FE
100
AcDbEntity
  8
0
100
AcDbCircle
 62
7
  6
CONTINUOUS
 10
1.8586826302
 20
-38.9215095642
 40
2.125
100
AcDbArc
 50
197.9785986903
 51
222.5554949433
  0
ARC
  5
3FF
100
AcDbEntity
  8
0
100
AcDbCircle
 62
7
  6
CONTINUOUS
 10
1.8586826302
 20
-38.9215095642
 40
2.125
100
AcDbArc
 50
137.4445050567
 51
162.0214013097
  0
ARC
  5
400
100
AcDbEntity
  8
0
100
AcDbCircle
 62
7
  6
CONTINUOUS
 10
1.8586826302
 20
-38.9215095642
 40
2.125
100
AcDbArc
 50
287.9785986903
 51
312.5554949433
  0
ARC
  5
401
100
AcDbEntity
  8
0
100
AcDbCircle
 62
7
  6
CONTINUOUS
 10
1.8586826302
 20
-38.9215095642
 40
0.8223227354
100
AcDbArc
 50
321.6339889503
 51
341.5811014335
  0
ARC
  5
402
100
AcDbEntity
  8
0
100
AcDbCircle
 62
7
  6
CONTINUOUS
 10
1.8586826302
 20
-38.9215095642
 40
0.8223227354
100
AcDbArc
 50
18.4188985665
 51
38.3660110497
  0
ARC
  5
403
100
AcDbEntity
  8
0
100
AcDbCircle
 62
7
  6
CONTINUOUS
 10
1.8586826302
 20
-38.9215095642
 40
0.8223227354
100
AcDbArc
 50
231.6339889503
 51
251.3974090266
  0
ARC
  5
404
100
AcDbEntity
  8
0
100
AcDbCircle
 62
7
  6
CONTINUOUS
 10
1.8586826302
 20
-38.9215095642
 40
0.8223227354
100
AcDbArc
 50
288.6025909734
 51
308.3660110497
  0
ARC
  5
405
100
AcDbEntity
  8
0
100
AcDbCircle
 62
7
  6
CONTINUOUS
 10
1.8586826302
 20
-38.9215095642
 40
0.8223227354
100
AcDbArc
 50
141.6339889503
 51
218.3660110497
  0
ARC
  5
406
100
AcDbEntity
  8
0
100
AcDbCircle
 62
7
  6
CONTINUOUS
 10
1.8586826302
 20
-38.9215095642
 40
0.8223227354
100
AcDbArc
 50
51.6339889503
 51
128.3660110497
  0
ARC
  5
407
100
AcDbEntity
  8
0
100
AcDbCircle
 62
7
  6
CONTINUOUS
 10
2.4986826302
 20
-38.9215095642
 40
0.78
100
AcDbArc
 50
343.6783348578
 51
16.3216651422
  0
ARC
  5
408
100
AcDbEntity
  8
0
100
AcDbCircle
 62
7
  6
CONTINUOUS
 10
1.8586826302
 20
-38.9215095642
 40
0.7568130113
100
AcDbArc
 50
345.1225948166
 51
14.8774051834
  0
ARC
  5
409
100
AcDbEntity
  8
0
100
AcDbCircle
 62
7
  6
CONTINUOUS
 10
1.8586826302
 20
-38.9215095642
 40
0.7568130113
100
AcDbArc
 50
254.9266740395
 51
285.0733259605
  0
ARC
  5
40A
100
AcDbEntity
  8
0
100
AcDbCircle
 62
7
  6
CONTINUOUS
 10
1.8586826302
 20
-38.9215095642
 40
0.7536685445
100
AcDbArc
 50
41.2529323231
 51
48.7470676769
  0
ARC
  5
40B
100
AcDbEntity
  8
0
100
AcDbCircle
 62
7
  6
CONTINUOUS
 10
1.8586826302
 20
-38.9215095642
 40
0.7536685445
100
AcDbArc
 50
131.2529323231
 51
138.7470676769
  0
ARC
  5
40C
100
AcDbEntity
  8
0
100
AcDbCircle
 62
7
  6
CONTINUOUS
 10
1.8586826302
 20
-38.9215095642
 40
0.7536685445
100
AcDbArc
 50
221.2529323231
 51
228.7470676769
  0
ARC
  5
40D
100
AcDbEntity
  8
0
100
AcDbCircle
 62
7
  6
CONTINUOUS
 10
1.8586826302
 20
-38.9215095642
 40
0.7536685445
100
AcDbArc
 50
311.2529323231
 51
318.7470676769
  0
CIRCLE
  5
40E
100
AcDbEntity
  8
0
100
AcDbCircle
 62
7
  6
CONTINUOUS
 10
1.8586826302
 20
-38.9215095642
 40
0.75
  0
ARC
  5
40F
100
AcDbEntity
  8
0
100
AcDbCircle
 62
7
  6
CONTINUOUS
 10
1.8586826302
 20
-38.9215095642
 40
0.43725
100
AcDbArc
 50
12.4143532811
 51
347.5856467189
  0
ARC
  5
410
100
AcDbEntity
  8
0
100
AcDbCircle
 62
7
  6
CONTINUOUS
 10
1.8586826302
 20
-38.9215095642
 40
0.4072627199
100
AcDbArc
 50
13.3451444325
 51
346.6548555675
  0
ARC
  5
411
100
AcDbEntity
  8
0
100
AcDbCircle
 62
7
  6
CONTINUOUS
 10
1.8586826302
 20
-36.9215095642
 40
0.5
100
AcDbArc
 50
188.9892993452
 51
351.0107006548
  0
CIRCLE
  5
412
100
AcDbEntity
  8
0
100
AcDbCircle
 62
7
  6
CONTINUOUS
 10
1.8586826302
 20
-36.9215095642
 40
0.2655
  0
CIRCLE
  5
413
100
AcDbEntity
  8
0
100
AcDbCircle
 62
7
  6
CONTINUOUS
 10
1.8586826302
 20
-36.9215095642
 40
0.187
  0
ARC
  5
414
100
AcDbEntity
  8
0
100
AcDbCircle
 62
7
  6
CONTINUOUS
 10
2.4760060923
 20
-37.0191658142
 40
0.125
100
AcDbArc
 50
72.0214013097
 51
171.0107006548
  0
ARC
  5
415
100
AcDbEntity
  8
0
100
AcDbCircle
 62
7
  6
CONTINUOUS
 10
3.8586826302
 20
-38.9215095642
 40
0.5
100
AcDbArc
 50
98.9892993452
 51
261.0107006548
  0
CIRCLE
  5
416
100
AcDbEntity
  8
0
100
AcDbCircle
 62
7
  6
CONTINUOUS
 10
3.8586826302
 20
-38.9215095642
 40
0.2655
  0
CIRCLE
  5
417
100
AcDbEntity
  8
0
100
AcDbCircle
 62
7
  6
CONTINUOUS
 10
3.8586826302
 20
-38.9215095642
 40
0.187
  0
ARC
  5
418
100
AcDbEntity
  8
0
100
AcDbCircle
 62
7
  6
CONTINUOUS
 10
3.7610263802
 20
-38.3041861021
 40
0.125
100
AcDbArc
 50
278.9892993452
 51
17.9785986903
  0
ARC
  5
419
100
AcDbEntity
  8
0
100
AcDbCircle
 62
7
  6
CONTINUOUS
 10
3.6501356645
 20
-37.5706341631
 40
2.6222396616
100
AcDbArc
 50
232.5462092989
 51
234.3283703092
  0
ARC
  5
41A
100
AcDbEntity
  8
0
100
AcDbCircle
 62
7
  6
CONTINUOUS
 10
3.3714653531
 20
-34.1530746528
 40
5.3497282197
100
AcDbArc
 50
259.8128959132
 51
260.6620747504
  0
ARC
  5
41B
100
AcDbEntity
  8
0
100
AcDbCircle
 62
7
  6
CONTINUOUS
 10
6.792823489
 20
-37.380216088
 40
5.5178645301
100
AcDbArc
 50
189.3508632523
 51
190.1741660841
  0
CIRCLE
  5
41C
100
AcDbEntity
  8
0
100
AcDbCircle
 62
7
  6
CONTINUOUS
 10
8.2226436609
 20
-32.5575485335
 40
0.625
  0
CIRCLE
  5
41D
100
AcDbEntity
  8
0
100
AcDbCircle
 62
7
  6
CONTINUOUS
 10
7.1619834891
 20
-33.6182087053
 40
0.625
  0
CIRCLE
  5
41E
100
AcDbEntity
  8
0
100
AcDbCircle
 62
7
  6
CONTINUOUS
 10
8.2226436609
 20
-32.5575485335
 40
0.26
  0
CIRCLE
  5
41F
100
AcDbEntity
  8
0
100
AcDbCircle
 62
7
  6
CONTINUOUS
 10
7.1619834891
 20
-33.6182087053
 40
0.26
  0
CIRCLE
  5
420
100
AcDbEntity
  8
0
100
AcDbCircle
 62
7
  6
CONTINUOUS
 10
8.2226436609
 20
-32.5575485335
 40
0.187
  0
CIRCLE
  5
421
100
AcDbEntity
  8
0
100
AcDbCircle
 62
7
  6
CONTINUOUS
 10
7.1619834891
 20
-33.6182087053
 40
0.187
  0
SPLINE
  5
422
100
AcDbEntity
  8
0
100
AcDbSpline
 62
7
  6
CONTINUOUS
 70
0
 71
3
 72
39
 73
35
 74
0
 42
0.0000001
 43
0.0000001
 44
0.0000000001
 40
0.0
 40
0.0
 40
0.0
 40
0.0
 40
0.0944469041
 40
0.1880733952
 40
0.2799780329
 40
0.3693598567
 40
0.4554117181
 40
0.5373558771
 40
0.6144574644
 40
0.6860281519
 40
0.7195385912
 40
0.7514327915
 40
0.7816391265
 40
0.8100940513
 40
0.8367363105
 40
0.8493592049
 40
0.8615081143
 40
0.8843607208
 40
0.9052493104
 40
0.9241338628
 40
0.9328159719
 40
0.9409873767
 40
0.9486457286
 40
0.9557892206
 40
0.9624171764
 40
0.9685310043
 40
0.9741335792
 40
0.9792295581
 40
0.9838261611
 40
0.9879343943
 40
0.991571392
 40
0.9947640784
 40
0.9975531082
 40
1.0
 40
1.0
 40
1.0
 40
1.0
 10
12.5348348254
 20
4.4529266529
 30
0.0
 10
12.5348348254
 20
4.46451708
 30
0.0
 10
12.534739095
 20
4.4875973699
 30
0.0
 10
12.5343097157
 20
4.5219536933
 30
0.0
 10
12.5335981659
 20
4.5556836617
 30
0.0
 10
12.532611405
 20
4.5884767719
 30
0.0
 10
12.5313587166
 20
4.6200375863
 30
0.0
 10
12.5298519287
 20
4.6500785662
 30
0.0
 10
12.5281050717
 20
4.6783262948
 30
0.0
 10
12.5264291042
 20
4.7006215482
 30
0.0
 10
12.5249676482
 20
4.7173675426
 30
0.0
 10
12.5238463223
 20
4.7290472839
 30
0.0
 10
12.5226780205
 20
4.740098768
 30
0.0
 10
12.5214656845
 20
4.7504969085
 30
0.0
 10
12.5204029539
 20
4.7587394828
 30
0.0
 10
12.5195292206
 20
4.7649882306
 30
0.0
 10
12.5186760281
 20
4.7707700785
 30
0.0
 10
12.5175936721
 20
4.7775433068
 30
0.0
 10
12.5162352423
 20
4.7851081888
 30
0.0
 10
12.5150486254
 20
4.7909357492
 30
0.0
 10
12.5140783675
 20
4.7952129806
 30
0.0
 10
12.5133651205
 20
4.7981354256
 30
0.0
 10
12.5126462279
 20
4.8008616693
 30
0.0
 10
12.5119220857
 20
4.8033900822
 30
0.0
 10
12.5111930795
 20
4.8057192413
 30
0.0
 10
12.510459724
 20
4.8078480181
 30
0.0
 10
12.5097224832
 20
4.8097754911
 30
0.0
 10
12.5089817967
 20
4.8115008357
 30
0.0
 10
12.508238071
 20
4.8130233337
 30
0.0
 10
12.5074915391
 20
4.8143424817
 30
0.0
 10
12.5067421951
 20
4.8154580766
 30
0.0
 10
12.5059893649
 20
4.8163705546
 30
0.0
 10
12.5052322089
 20
4.8170800279
 30
0.0
 10
12.5046918715
 20
4.8174366694
 30
0.0
 10
12.5044239401
 20
4.8175722456
 30
0.0
  0
SPLINE
  5
423
100
AcDbEntity
  8
0
100
AcDbSpline
 62
7
  6
CONTINUOUS
 70
0
 71
3
 72
15
 73
11
 74
0
 42
0.0000001
 43
0.0000001
 44
0.0000000001
 40
0.0
 40
0.0
 40
0.0
 40
0.0
 40
0.1042619458
 40
0.2166105586
 40
0.3360398107
 40
0.4614755216
 40
0.5917807883
 40
0.725775244
 40
0.862287569
 40
1.0
 40
1.0
 40
1.0
 40
1.0
 10
12.5259823994
 20
4.200281641
 30
0.0
 10
12.5267144447
 20
4.2090391777
 30
0.0
 10
12.5280860994
 20
4.2272461303
 30
0.0
 10
12.529837675
 20
4.2555168621
 30
0.0
 10
12.5313486918
 20
4.2855885357
 30
0.0
 10
12.532604943
 20
4.3171866173
 30
0.0
 10
12.5335945506
 20
4.3500223812
 30
0.0
 10
12.5343081743
 20
4.3837991154
 30
0.0
 10
12.5347388143
 20
4.418204983
 30
0.0
 10
12.5348348254
 20
4.4413190834
 30
0.0
 10
12.5348348254
 20
4.4529266529
 30
0.0
  0
SPLINE
  5
424
100
AcDbEntity
  8
0
100
AcDbSpline
 62
7
  6
CONTINUOUS
 70
0
 71
3
 72
30
 73
26
 74
0
 42
0.0000001
 43
0.0000001
 44
0.0000000001
 40
0.0
 40
0.0
 40
0.0
 40
0.0
 40
0.1118197709
 40
0.2174481838
 40
0.3167206201
 40
0.4094990815
 40
0.4956532874
 40
0.5750593918
 40
0.6476216079
 40
0.7132704412
 40
0.7719516744
 40
0.7986713589
 40
0.8236460641
 40
0.8468830059
 40
0.8683932621
 40
0.8881931169
 40
0.906306004
 40
0.9227653701
 40
0.9376198677
 40
0.9509416124
 40
0.9628328466
 40
0.9734387412
 40
0.9829650653
 40
0.9916960691
 40
1.0
 40
1.0
 40
1.0
 40
1.0
 10
12.0340627478
 20
3.2621876945
 30
0.0
 10
12.0337296687
 20
3.2593007281
 30
0.0
 10
12.0330559205
 20
3.2536895968
 30
0.0
 10
12.0319878078
 20
3.2455276762
 30
0.0
 10
12.0308920898
 20
3.2378689745
 30
0.0
 10
12.0297708316
 20
3.2307258333
 30
0.0
 10
12.0286260494
 20
3.2241097829
 30
0.0
 10
12.0274595596
 20
3.2180316708
 30
0.0
 10
12.0262735175
 20
3.2125011558
 30
0.0
 10
12.0250702212
 20
3.2075268972
 30
0.0
 10
12.0240250731
 20
3.2037418662
 30
0.0
 10
12.0231742564
 20
3.2010021326
 30
0.0
 10
12.0225530006
 20
3.1991562553
 30
0.0
 10
12.0219288078
 20
3.1974548661
 30
0.0
 10
12.0213019197
 20
3.1958985264
 30
0.0
 10
12.0206726028
 20
3.1944877573
 30
0.0
 10
12.0200410919
 20
3.1932230349
 30
0.0
 10
12.0194075638
 20
3.1921047476
 30
0.0
 10
12.0187720324
 20
3.1911331333
 30
0.0
 10
12.0181344551
 20
3.1903081449
 30
0.0
 10
12.0174943789
 20
3.1896296393
 30
0.0
 10
12.0168508601
 20
3.1890977249
 30
0.0
 10
12.0162022131
 20
3.188713425
 30
0.0
 10
12.0155476403
 20
3.1884796277
 30
0.0
 10
12.0151033906
 20
3.1884266529
 30
0.0
 10
12.0148875772
 20
3.1884266529
 30
0.0
  0
SPLINE
  5
425
100
AcDbEntity
  8
0
100
AcDbSpline
 62
7
  6
CONTINUOUS
 70
0
 71
3
 72
30
 73
26
 74
0
 42
0.0000001
 43
0.0000001
 44
0.0000000001
 40
0.0
 40
0.0
 40
0.0
 40
0.0
 40
0.1118197709
 40
0.2174481838
 40
0.3167206201
 40
0.4094990815
 40
0.4956532874
 40
0.5750593918
 40
0.6476216079
 40
0.7132704412
 40
0.7719516744
 40
0.7986713589
 40
0.8236460641
 40
0.8468830059
 40
0.8683932621
 40
0.8881931169
 40
0.906306004
 40
0.9227653701
 40
0.9376198677
 40
0.9509416124
 40
0.9628328466
 40
0.9734387412
 40
0.9829650653
 40
0.9916960691
 40
1.0
 40
1.0
 40
1.0
 40
1.0
 10
-8.3166974874
 20
3.2621876945
 30
0.0
 10
-8.3163644083
 20
3.2593007281
 30
0.0
 10
-8.3156906601
 20
3.2536895968
 30
0.0
 10
-8.3146225474
 20
3.2455276762
 30
0.0
 10
-8.3135268294
 20
3.2378689745
 30
0.0
 10
-8.3124055712
 20
3.2307258333
 30
0.0
 10
-8.3112607891
 20
3.2241097829
 30
0.0
 10
-8.3100942992
 20
3.2180316708
 30
0.0
 10
-8.3089082571
 20
3.2125011558
 30
0.0
 10
-8.3077049609
 20
3.2075268972
 30
0.0
 10
-8.3066598127
 20
3.2037418662
 30
0.0
 10
-8.305808996
 20
3.2010021326
 30
0.0
 10
-8.3051877402
 20
3.1991562553
 30
0.0
 10
-8.3045635474
 20
3.1974548661
 30
0.0
 10
-8.3039366593
 20
3.1958985264
 30
0.0
 10
-8.3033073424
 20
3.1944877573
 30
0.0
 10
-8.3026758316
 20
3.1932230349
 30
0.0
 10
-8.3020423034
 20
3.1921047476
 30
0.0
 10
-8.301406772
 20
3.1911331333
 30
0.0
 10
-8.3007691947
 20
3.1903081449
 30
0.0
 10
-8.3001291185
 20
3.1896296393
 30
0.0
 10
-8.2994855997
 20
3.1890977249
 30
0.0
 10
-8.2988369528
 20
3.188713425
 30
0.0
 10
-8.2981823799
 20
3.1884796277
 30
0.0
 10
-8.2977381302
 20
3.1884266529
 30
0.0
 10
-8.2975223169
 20
3.1884266529
 30
0.0
  0
SPLINE
  5
426
100
AcDbEntity
  8
0
100
AcDbSpline
 62
7
  6
CONTINUOUS
 70
0
 71
3
 72
30
 73
26
 74
0
 42
0.0000001
 43
0.0000001
 44
0.0000000001
 40
0.0
 40
0.0
 40
0.0
 40
0.0
 40
0.0083039309
 40
0.0170349347
 40
0.0265612588
 40
0.0371671534
 40
0.0490583876
 40
0.0623801323
 40
0.0772346299
 40
0.093693996
 40
0.1118068831
 40
0.1316067379
 40
0.1531169941
 40
0.1763539359
 40
0.2013286411
 40
0.2280483256
 40
0.2867295588
 40
0.3523783921
 40
0.4249406082
 40
0.5043467126
 40
0.5905009185
 40
0.6832793799
 40
0.7825518162
 40
0.8881802291
 40
1.0
 40
1.0
 40
1.0
 40
1.0
 10
-8.2327696615
 20
3.1884266529
 30
0.0
 10
-8.2325538482
 20
3.1884266529
 30
0.0
 10
-8.2321095984
 20
3.1884796277
 30
0.0
 10
-8.2314550256
 20
3.188713425
 30
0.0
 10
-8.2308063787
 20
3.1890977249
 30
0.0
 10
-8.2301628599
 20
3.1896296393
 30
0.0
 10
-8.2295227837
 20
3.1903081449
 30
0.0
 10
-8.2288852063
 20
3.1911331333
 30
0.0
 10
-8.2282496749
 20
3.1921047476
 30
0.0
 10
-8.2276161468
 20
3.1932230349
 30
0.0
 10
-8.2269846359
 20
3.1944877573
 30
0.0
 10
-8.226355319
 20
3.1958985264
 30
0.0
 10
-8.2257284309
 20
3.1974548661
 30
0.0
 10
-8.2251042381
 20
3.1991562553
 30
0.0
 10
-8.2244829823
 20
3.2010021326
 30
0.0
 10
-8.2236321656
 20
3.2037418662
 30
0.0
 10
-8.2225870175
 20
3.2075268972
 30
0.0
 10
-8.2213837213
 20
3.2125011558
 30
0.0
 10
-8.2201976791
 20
3.2180316708
 30
0.0
 10
-8.2190311893
 20
3.2241097829
 30
0.0
 10
-8.2178864071
 20
3.2307258333
 30
0.0
 10
-8.216765149
 20
3.2378689745
 30
0.0
 10
-8.215669431
 20
3.2455276762
 30
0.0
 10
-8.2146013182
 20
3.2536895968
 30
0.0
 10
-8.21392757
 20
3.2593007281
 30
0.0
 10
-8.2135944909
 20
3.2621876945
 30
0.0
  0
SPLINE
  5
427
100
AcDbEntity
  8
0
100
AcDbSpline
 62
7
  6
CONTINUOUS
 70
0
 71
3
 72
30
 73
26
 74
0
 42
0.0000001
 43
0.0000001
 44
0.0000000001
 40
0.0
 40
0.0
 40
0.0
 40
0.0
 40
0.0083039309
 40
0.0170349347
 40
0.0265612588
 40
0.0371671534
 40
0.0490583876
 40
0.0623801323
 40
0.0772346299
 40
0.093693996
 40
0.1118068831
 40
0.1316067379
 40
0.1531169941
 40
0.1763539359
 40
0.2013286411
 40
0.2280483256
 40
0.2867295588
 40
0.3523783921
 40
0.4249406082
 40
0.5043467126
 40
0.5905009185
 40
0.6832793799
 40
0.7825518162
 40
0.8881802291
 40
1.0
 40
1.0
 40
1.0
 40
1.0
 10
-8.2975223169
 20
3.1884266529
 30
0.0
 10
-8.2973065035
 20
3.1884266529
 30
0.0
 10
-8.2968622538
 20
3.1884796277
 30
0.0
 10
-8.2962076809
 20
3.188713425
 30
0.0
 10
-8.295559034
 20
3.1890977249
 30
0.0
 10
-8.2949155152
 20
3.1896296393
 30
0.0
 10
-8.294275439
 20
3.1903081449
 30
0.0
 10
-8.2936378617
 20
3.1911331333
 30
0.0
 10
-8.2930023303
 20
3.1921047476
 30
0.0
 10
-8.2923688022
 20
3.1932230349
 30
0.0
 10
-8.2917372913
 20
3.1944877573
 30
0.0
 10
-8.2911079744
 20
3.1958985264
 30
0.0
 10
-8.2904810863
 20
3.1974548661
 30
0.0
 10
-8.2898568935
 20
3.1991562553
 30
0.0
 10
-8.2892356377
 20
3.2010021326
 30
0.0
 10
-8.288384821
 20
3.2037418662
 30
0.0
 10
-8.2873396728
 20
3.2075268972
 30
0.0
 10
-8.2861363766
 20
3.2125011558
 30
0.0
 10
-8.2849503345
 20
3.2180316708
 30
0.0
 10
-8.2837838447
 20
3.2241097829
 30
0.0
 10
-8.2826390625
 20
3.2307258333
 30
0.0
 10
-8.2815178043
 20
3.2378689745
 30
0.0
 10
-8.2804220863
 20
3.2455276762
 30
0.0
 10
-8.2793539736
 20
3.2536895968
 30
0.0
 10
-8.2786802254
 20
3.2593007281
 30
0.0
 10
-8.2783471463
 20
3.2621876945
 30
0.0
  0
SPLINE
  5
428
100
AcDbEntity
  8
0
100
AcDbSpline
 62
7
  6
CONTINUOUS
 70
0
 71
3
 72
31
 73
27
 74
0
 42
0.0000001
 43
0.0000001
 44
0.0000000001
 40
0.0
 40
0.0
 40
0.0
 40
0.0
 40
0.1116414507
 40
0.2173878493
 40
0.317022788
 40
0.4103360405
 40
0.4971304849
 40
0.5772414629
 40
0.6505147082
 40
0.7168139925
 40
0.7760456616
 40
0.8029897004
 40
0.8281430284
 40
0.8515032953
 40
0.8730752737
 40
0.892868707
 40
0.9108993175
 40
0.9271913795
 40
0.9417817208
 40
0.9547271654
 40
0.9661168711
 40
0.9760849005
 40
0.9848331276
 40
0.9926608628
 40
0.9963630396
 40
1.0
 40
1.0
 40
1.0
 40
1.0
 10
-8.8074368097
 20
4.7189741679
 30
0.0
 10
-8.8070816625
 20
4.72280167
 30
0.0
 10
-8.8063586804
 20
4.7302517064
 30
0.0
 10
-8.8052000086
 20
4.7411056758
 30
0.0
 10
-8.8039986584
 20
4.7513198913
 30
0.0
 10
-8.8027573881
 20
4.7608717066
 30
0.0
 10
-8.8014788465
 20
4.7697399816
 30
0.0
 10
-8.8001663614
 20
4.7779052119
 30
0.0
 10
-8.7988231692
 20
4.7853495327
 30
0.0
 10
-8.7974521256
 20
4.792056561
 30
0.0
 10
-8.7962550523
 20
4.7971692251
 30
0.0
 10
-8.7952768809
 20
4.8008757401
 30
0.0
 10
-8.7945614837
 20
4.8033736256
 30
0.0
 10
-8.793841358
 20
4.8056770783
 30
0.0
 10
-8.7931169664
 20
4.807785001
 30
0.0
 10
-8.7923887626
 20
4.8096965013
 30
0.0
 10
-8.7916571726
 20
4.8114107752
 30
0.0
 10
-8.790922581
 20
4.8129271174
 30
0.0
 10
-8.7901852662
 20
4.8142450088
 30
0.0
 10
-8.7894451526
 20
4.8153642245
 30
0.0
 10
-8.7887019643
 20
4.8162850644
 30
0.0
 10
-8.7879541627
 20
4.817007869
 30
0.0
 10
-8.7871995131
 20
4.8175320182
 30
0.0
 10
-8.7865488723
 20
4.8178043746
 30
0.0
 10
-8.7860359724
 20
4.8179093534
 30
0.0
 10
-8.7857829436
 20
4.8179266529
 30
0.0
 10
-8.7856577189
 20
4.8179266529
 30
0.0
  0
SPLINE
  5
429
100
AcDbEntity
  8
0
100
AcDbSpline
 62
7
  6
CONTINUOUS
 70
0
 71
3
 72
31
 73
27
 74
0
 42
0.0000001
 43
0.0000001
 44
0.0000000001
 40
0.0
 40
0.0
 40
0.0
 40
0.0
 40
0.0036369604
 40
0.0073391372
 40
0.0151668724
 40
0.0239150995
 40
0.0338831289
 40
0.0452728346
 40
0.0582182792
 40
0.0728086205
 40
0.0891006825
 40
0.107131293
 40
0.1269247263
 40
0.1484967047
 40
0.1718569716
 40
0.1970102996
 40
0.2239543384
 40
0.2831860075
 40
0.3494852918
 40
0.4227585371
 40
0.5028695151
 40
0.5896639595
 40
0.682977212
 40
0.7826121507
 40
0.8883585493
 40
1.0
 40
1.0
 40
1.0
 40
1.0
 10
-8.7856577189
 20
4.0879266529
 30
0.0
 10
-8.7857829436
 20
4.0879266529
 30
0.0
 10
-8.7860359724
 20
4.0879439524
 30
0.0
 10
-8.7865488723
 20
4.0880489312
 30
0.0
 10
-8.7871995131
 20
4.0883212875
 30
0.0
 10
-8.7879541627
 20
4.0888454368
 30
0.0
 10
-8.7887019643
 20
4.0895682414
 30
0.0
 10
-8.7894451526
 20
4.0904890813
 30
0.0
 10
-8.7901852662
 20
4.091608297
 30
0.0
 10
-8.790922581
 20
4.0929261884
 30
0.0
 10
-8.7916571726
 20
4.0944425306
 30
0.0
 10
-8.7923887626
 20
4.0961568045
 30
0.0
 10
-8.7931169664
 20
4.0980683048
 30
0.0
 10
-8.793841358
 20
4.1001762275
 30
0.0
 10
-8.7945614837
 20
4.1024796802
 30
0.0
 10
-8.7952768809
 20
4.1049775657
 30
0.0
 10
-8.7962550523
 20
4.1086840806
 30
0.0
 10
-8.7974521256
 20
4.1137967448
 30
0.0
 10
-8.7988231692
 20
4.1205037731
 30
0.0
 10
-8.8001663614
 20
4.1279480939
 30
0.0
 10
-8.8014788465
 20
4.1361133242
 30
0.0
 10
-8.8027573881
 20
4.1449815992
 30
0.0
 10
-8.8039986584
 20
4.1545334144
 30
0.0
 10
-8.8052000086
 20
4.16474763
 30
0.0
 10
-8.8063586804
 20
4.1756015994
 30
0.0
 10
-8.8070816625
 20
4.1830516358
 30
0.0
 10
-8.8074368097
 20
4.1868791379
 30
0.0
  0
SPLINE
  5
42A
100
AcDbEntity
  8
0
100
AcDbSpline
 62
7
  6
CONTINUOUS
 70
0
 71
3
 72
43
 73
39
 74
0
 42
0.0000001
 43
0.0000001
 44
0.0000000001
 40
0.0
 40
0.0
 40
0.0
 40
0.0
 40
0.0010588047
 40
0.0021381806
 40
0.0044300818
 40
0.0070097635
 40
0.0099681803
 40
0.0133654661
 40
0.0172409072
 40
0.0193666687
 40
0.0216206256
 40
0.0265193544
 40
0.0319479151
 40
0.0379129104
 40
0.0444184858
 40
0.0514670622
 40
0.0590590919
 40
0.0671930476
 40
0.0758666307
 40
0.0850770226
 40
0.1050946059
 40
0.1272122427
 40
0.1513835814
 40
0.1775589826
 40
0.2056818957
 40
0.2356869432
 40
0.2675071477
 40
0.3010693457
 40
0.3362936073
 40
0.3730990073
 40
0.4113987898
 40
0.4511010337
 40
0.5343371571
 40
0.6220183601
 40
0.7133077846
 40
0.8073306109
 40
0.9032181743
 40
1.0
 40
1.0
 40
1.0
 40
1.0
 10
-8.7856577189
 20
4.8179266529
 30
0.0
 10
-8.7855272694
 20
4.8179266529
 30
0.0
 10
-8.7852634616
 20
4.8179078541
 30
0.0
 10
-8.784728201
 20
4.8177936639
 30
0.0
 10
-8.7840490556
 20
4.8174969214
 30
0.0
 10
-8.7832635947
 20
4.8169278473
 30
0.0
 10
-8.7824855515
 20
4.8161438488
 30
0.0
 10
-8.781712427
 20
4.8151453322
 30
0.0
 10
-8.781091353
 20
4.8141664344
 30
0.0
 10
-8.7805927444
 20
4.8132798257
 30
0.0
 10
-8.7800652679
 20
4.812265433
 30
0.0
 10
-8.7794118009
 20
4.8108589738
 30
0.0
 10
-8.7786512788
 20
4.8090007526
 30
0.0
 10
-8.7778945816
 20
4.806928901
 30
0.0
 10
-8.7771421861
 20
4.8046444258
 30
0.0
 10
-8.7763946423
 20
4.8021483859
 30
0.0
 10
-8.7756524486
 20
4.79944217
 30
0.0
 10
-8.7749160233
 20
4.7965274495
 30
0.0
 10
-8.7741858242
 20
4.7934060466
 30
0.0
 10
-8.7731934201
 20
4.7888429168
 30
0.0
 10
-8.7719810764
 20
4.7826333983
 30
0.0
 10
-8.7705949716
 20
4.7745820639
 30
0.0
 10
-8.7692435505
 20
4.7657565575
 30
0.0
 10
-8.7679305428
 20
4.7561779827
 30
0.0
 10
-8.7666594145
 20
4.7458692294
 30
0.0
 10
-8.7654330876
 20
4.7348550475
 30
0.0
 10
-8.7642548961
 20
4.7231619033
 30
0.0
 10
-8.7631277711
 20
4.7108179023
 30
0.0
 10
-8.7620542823
 20
4.697852738
 30
0.0
 10
-8.7610373202
 20
4.6842976293
 30
0.0
 10
-8.7600793066
 20
4.6701852087
 30
0.0
 10
-8.7588643676
 20
4.6503570162
 30
0.0
 10
-8.7575195108
 20
4.6244419682
 30
0.0
 10
-8.7561965703
 20
4.5921634717
 30
0.0
 10
-8.7551537935
 20
4.5585451058
 30
0.0
 10
-8.754401363
 20
4.523907728
 30
0.0
 10
-8.7539471384
 20
4.4885884616
 30
0.0
 10
-8.7538458728
 20
4.4648506061
 30
0.0
 10
-8.7538458728
 20
4.4529266529
 30
0.0
  0
SPLINE
  5
42B
100
AcDbEntity
  8
0
100
AcDbSpline
 62
7
  6
CONTINUOUS
 70
0
 71
3
 72
43
 73
39
 74
0
 42
0.0000001
 43
0.0000001
 44
0.0000000001
 40
0.0
 40
0.0
 40
0.0
 40
0.0
 40
0.0967818257
 40
0.1926693891
 40
0.2866922154
 40
0.3779816399
 40
0.4656628429
 40
0.5488989663
 40
0.5886012102
 40
0.6269009927
 40
0.6637063927
 40
0.6989306543
 40
0.7324928523
 40
0.7643130568
 40
0.7943181043
 40
0.8224410174
 40
0.8486164186
 40
0.8727877573
 40
0.8949053941
 40
0.9149229774
 40
0.9241333693
 40
0.9328069524
 40
0.9409409081
 40
0.9485329378
 40
0.9555815142
 40
0.9620870896
 40
0.9680520849
 40
0.9734806456
 40
0.9783793744
 40
0.9806333313
 40
0.9827590928
 40
0.9866345339
 40
0.9900318197
 40
0.9929902365
 40
0.9955699182
 40
0.9978618194
 40
0.9989411953
 40
1.0
 40
1.0
 40
1.0
 40
1.0
 10
-8.7538458728
 20
4.4529266529
 30
0.0
 10
-8.7538458728
 20
4.4410026997
 30
0.0
 10
-8.7539471384
 20
4.4172648442
 30
0.0
 10
-8.754401363
 20
4.3819455778
 30
0.0
 10
-8.7551537935
 20
4.3473082
 30
0.0
 10
-8.7561965703
 20
4.3136898341
 30
0.0
 10
-8.7575195108
 20
4.2814113376
 30
0.0
 10
-8.7588643676
 20
4.2554962896
 30
0.0
 10
-8.7600793066
 20
4.235668097
 30
0.0
 10
-8.7610373202
 20
4.2215556765
 30
0.0
 10
-8.7620542823
 20
4.2080005678
 30
0.0
 10
-8.7631277711
 20
4.1950354034
 30
0.0
 10
-8.7642548961
 20
4.1826914025
 30
0.0
 10
-8.7654330876
 20
4.1709982583
 30
0.0
 10
-8.7666594145
 20
4.1599840764
 30
0.0
 10
-8.7679305428
 20
4.1496753231
 30
0.0
 10
-8.7692435505
 20
4.1400967483
 30
0.0
 10
-8.7705949716
 20
4.1312712419
 30
0.0
 10
-8.7719810764
 20
4.1232199075
 30
0.0
 10
-8.7731934201
 20
4.117010389
 30
0.0
 10
-8.7741858242
 20
4.1124472592
 30
0.0
 10
-8.7749160233
 20
4.1093258562
 30
0.0
 10
-8.7756524486
 20
4.1064111358
 30
0.0
 10
-8.7763946423
 20
4.1037049199
 30
0.0
 10
-8.7771421861
 20
4.10120888
 30
0.0
 10
-8.7778945816
 20
4.0989244048
 30
0.0
 10
-8.7786512788
 20
4.0968525532
 30
0.0
 10
-8.7794118009
 20
4.094994332
 30
0.0
 10
-8.7800652679
 20
4.0935878728
 30
0.0
 10
-8.7805927444
 20
4.0925734801
 30
0.0
 10
-8.781091353
 20
4.0916868714
 30
0.0
 10
-8.781712427
 20
4.0907079736
 30
0.0
 10
-8.7824855515
 20
4.089709457
 30
0.0
 10
-8.7832635947
 20
4.0889254585
 30
0.0
 10
-8.7840490556
 20
4.0883563844
 30
0.0
 10
-8.784728201
 20
4.0880596419
 30
0.0
 10
-8.7852634616
 20
4.0879454517
 30
0.0
 10
-8.7855272694
 20
4.0879266529
 30
0.0
 10
-8.7856577189
 20
4.0879266529
 30
0.0
  0
SPLINE
  5
42C
100
AcDbEntity
  8
0
100
AcDbSpline
 62
7
  6
CONTINUOUS
 70
0
 71
3
 72
13
 73
9
 74
0
 42
0.0000001
 43
0.0000001
 44
0.0000000001
 40
0.0
 40
0.0
 40
0.0
 40
0.0
 40
0.2515721839
 40
0.3786773766
 40
0.5058490348
 40
0.6322147219
 40
0.7569722075
 40
1.0
 40
1.0
 40
1.0
 40
1.0
 10
2.80320647
 20
4.7052287205
 30
0.0
 10
2.8215896907
 20
4.6948765211
 30
0.0
 10
2.8492261818
 20
4.6792320061
 30
0.0
 10
2.8860444019
 20
4.6581592508
 30
0.0
 10
2.9136930891
 20
4.6422042286
 30
0.0
 10
2.9411119884
 20
4.6262453598
 30
0.0
 10
2.9768520736
 20
4.6052688074
 30
0.0
 10
3.0033749818
 20
4.5895245898
 30
0.0
 10
3.0208750116
 20
4.5790776867
 30
0.0
  0
SPLINE
  5
42D
100
AcDbEntity
  8
0
100
AcDbSpline
 62
7
  6
CONTINUOUS
 70
0
 71
3
 72
13
 73
9
 74
0
 42
0.0000001
 43
0.0000001
 44
0.0000000001
 40
0.0
 40
0.0
 40
0.0
 40
0.0
 40
0.2473154941
 40
0.3732415126
 40
0.5
 40
0.6267584874
 40
0.7526845059
 40
1.0
 40
1.0
 40
1.0
 40
1.0
 10
3.0208750116
 20
4.5790776867
 30
0.0
 10
3.0213982125
 20
4.5582824871
 30
0.0
 10
3.0220410588
 20
4.5268947509
 30
0.0
 10
3.0224971827
 20
4.4848417938
 30
0.0
 10
3.0226154049
 20
4.4529266529
 30
0.0
 10
3.0224971827
 20
4.421011512
 30
0.0
 10
3.0220410588
 20
4.3789585549
 30
0.0
 10
3.0213982125
 20
4.3475708187
 30
0.0
 10
3.0208750116
 20
4.3267756191
 30
0.0
  0
SPLINE
  5
42E
100
AcDbEntity
  8
0
100
AcDbSpline
 62
7
  6
CONTINUOUS
 70
0
 71
3
 72
13
 73
9
 74
0
 42
0.0000001
 43
0.0000001
 44
0.0000000001
 40
0.0
 40
0.0
 40
0.0
 40
0.0
 40
0.2430277925
 40
0.3677852781
 40
0.4941509652
 40
0.6213226234
 40
0.7484278161
 40
1.0
 40
1.0
 40
1.0
 40
1.0
 10
3.0208750116
 20
4.3267756191
 30
0.0
 10
3.0033749818
 20
4.316328716
 30
0.0
 10
2.9768520736
 20
4.3005844983
 30
0.0
 10
2.9411119884
 20
4.279607946
 30
0.0
 10
2.9136930891
 20
4.2636490772
 30
0.0
 10
2.8860444019
 20
4.2476940549
 30
0.0
 10
2.8492261818
 20
4.2266212997
 30
0.0
 10
2.8215896907
 20
4.2109767847
 30
0.0
 10
2.80320647
 20
4.2006245853
 30
0.0
  0
SPLINE
  5
42F
100
AcDbEntity
  8
0
100
AcDbSpline
 62
7
  6
CONTINUOUS
 70
0
 71
3
 72
23
 73
19
 74
0
 42
0.0000001
 43
0.0000001
 44
0.0000000001
 40
0.0
 40
0.0
 40
0.0
 40
0.0
 40
0.0626041864
 40
0.1251938615
 40
0.1877685123
 40
0.2503272371
 40
0.312870323
 40
0.3753973816
 40
0.4379090979
 40
0.5004059708
 40
0.562888785
 40
0.6253589957
 40
0.6878175231
 40
0.7502664412
 40
0.8127070713
 40
0.8751415833
 40
0.9375719222
 40
1.0
 40
1.0
 40
1.0
 40
1.0
 10
3.0242782972
 20
4.3249266569
 30
0.0
 10
3.0214427032
 20
4.3197539396
 30
0.0
 10
3.015426306
 20
4.3095949513
 30
0.0
 10
3.0054082946
 20
4.2949965817
 30
0.0
 10
2.9944436361
 20
4.2810996263
 30
0.0
 10
2.982579681
 20
4.2679681807
 30
0.0
 10
2.9698696759
 20
4.2556602275
 30
0.0
 10
2.9563710024
 20
4.2442295406
 30
0.0
 10
2.9421419378
 20
4.2337293538
 30
0.0
 10
2.927248117
 20
4.2242032157
 30
0.0
 10
2.9117536189
 20
4.2156969481
 30
0.0
 10
2.8957291243
 20
4.2082455962
 30
0.0
 10
2.8792450473
 20
4.2018838741
 30
0.0
 10
2.862374921
 20
4.1966402644
 30
0.0
 10
2.8451943186
 20
4.1925362141
 30
0.0
 10
2.8277787785
 20
4.1895933246
 30
0.0
 10
2.8102075379
 20
4.1878207155
 30
0.0
 10
2.7984387685
 20
4.1874268462
 30
0.0
 10
2.7925564137
 20
4.187426989
 30
0.0
  0
SPLINE
  5
430
100
AcDbEntity
  8
0
100
AcDbSpline
 62
7
  6
CONTINUOUS
 70
0
 71
3
 72
22
 73
18
 74
0
 42
0.0000001
 43
0.0000001
 44
0.0000000001
 40
0.0
 40
0.0
 40
0.0
 40
0.0
 40
0.1251231304
 40
0.1877142749
 40
0.2502741673
 40
0.3128145834
 40
0.375344007
 40
0.4378606075
 40
0.5003619873
 40
0.5628491737
 40
0.6253236442
 40
0.687787563
 40
0.7502419463
 40
0.8126884561
 40
0.8751290726
 40
0.9375654224
 40
1.0
 40
1.0
 40
1.0
 40
1.0
 10
3.0216112063
 20
4.5856766529
 30
0.0
 10
3.0158467245
 20
4.595699167
 30
0.0
 10
3.0061987146
 20
4.6101925957
 30
0.0
 10
2.9915543015
 20
4.6281060431
 30
0.0
 10
2.9797131154
 20
4.6407968076
 30
0.0
 10
2.9670726919
 20
4.6526814143
 30
0.0
 10
2.9536837704
 20
4.6637101938
 30
0.0
 10
2.939605888
 20
4.6738385036
 30
0.0
 10
2.9248970939
 20
4.6830193441
 30
0.0
 10
2.9096221914
 20
4.6912155017
 30
0.0
 10
2.8938459394
 20
4.6983912795
 30
0.0
 10
2.877635613
 20
4.7045150439
 30
0.0
 10
2.8610614222
 20
4.709563175
 30
0.0
 10
2.8441933631
 20
4.7135102911
 30
0.0
 10
2.8271043608
 20
4.7163432215
 30
0.0
 10
2.8098679721
 20
4.7180471805
 30
0.0
 10
2.7983256837
 20
4.7184261766
 30
0.0
 10
2.7925564137
 20
4.7184263168
 30
0.0
  0
SPLINE
  5
431
100
AcDbEntity
  8
0
100
AcDbSpline
 62
7
  6
CONTINUOUS
 70
0
 71
3
 72
22
 73
18
 74
0
 42
0.0000001
 43
0.0000001
 44
0.0000000001
 40
0.0
 40
0.0
 40
0.0
 40
0.0
 40
0.0624345805
 40
0.124870932
 40
0.1873115488
 40
0.2497580584
 40
0.3122124405
 40
0.3746763581
 40
0.4371508272
 40
0.4996380119
 40
0.5621393901
 40
0.6246559899
 40
0.6871854142
 40
0.7497258313
 40
0.8122857231
 40
0.8748768673
 40
1.0
 40
1.0
 40
1.0
 40
1.0
 10
2.7899544231
 20
4.187426989
 30
0.0
 10
2.7841848891
 20
4.1874268516
 30
0.0
 10
2.7726420541
 20
4.187805328
 30
0.0
 10
2.7554048015
 20
4.1895086115
 30
0.0
 10
2.7383149019
 20
4.1923409789
 30
0.0
 10
2.7214459223
 20
4.1962876412
 30
0.0
 10
2.7048707983
 20
4.20133543
 30
0.0
 10
2.6886595373
 20
4.207458964
 30
0.0
 10
2.6728823581
 20
4.2146346188
 30
0.0
 10
2.657606548
 20
4.2228307623
 30
0.0
 10
2.6428968737
 20
4.2320116911
 30
0.0
 10
2.6288181497
 20
4.2421401902
 30
0.0
 10
2.6154284335
 20
4.253169254
 30
0.0
 10
2.6027872707
 20
4.265054234
 30
0.0
 10
2.5909454096
 20
4.2777454556
 30
0.0
 10
2.5763001917
 20
4.2956596128
 30
0.0
 10
2.5666516943
 20
4.3101536804
 30
0.0
 10
2.5608869488
 20
4.3201766529
 30
0.0
  0
SPLINE
  5
432
100
AcDbEntity
  8
0
100
AcDbSpline
 62
7
  6
CONTINUOUS
 70
0
 71
3
 72
38
 73
34
 74
0
 42
0.0000001
 43
0.0000001
 44
0.0000000001
 40
0.0
 40
0.0
 40
0.0
 40
0.0
 40
0.0311792267
 40
0.0623595379
 40
0.0935418673
 40
0.1247271197
 40
0.1559163806
 40
0.1871102638
 40
0.2183097767
 40
0.2495154118
 40
0.2807278042
 40
0.3119474552
 40
0.3431745244
 40
0.3744094454
 40
0.4056520444
 40
0.4369024346
 40
0.4681603403
 40
0.4994253768
 40
0.5306972572
 40
0.561975176
 40
0.5932587074
 40
0.624546929
 40
0.6558390695
 40
0.6871341992
 40
0.7184310935
 40
0.7497291661
 40
0.7810275768
 40
0.8123253672
 40
0.8436200268
 40
0.8749094689
 40
0.9061969645
 40
0.937487612
 40
1.0
 40
1.0
 40
1.0
 40
1.0
 10
2.7899290598
 20
4.7184263168
 30
0.0
 10
2.7841599411
 20
4.7184261794
 30
0.0
 10
2.7726178914
 20
4.7180468123
 30
0.0
 10
2.7553821453
 20
4.7163408772
 30
0.0
 10
2.7382933527
 20
4.7135089576
 30
0.0
 10
2.7214262502
 20
4.7095594581
 30
0.0
 10
2.7048523111
 20
4.704512056
 30
0.0
 10
2.6886426754
 20
4.698387334
 30
0.0
 10
2.6728672897
 20
4.6912106461
 30
0.0
 10
2.6575924177
 20
4.6830151955
 30
0.0
 10
2.6428853419
 20
4.6738327137
 30
0.0
 10
2.6288070437
 20
4.6637058308
 30
0.0
 10
2.6154193065
 20
4.6526755639
 30
0.0
 10
2.6027789579
 20
4.640790075
 30
0.0
 10
2.5909392743
 20
4.6281008526
 30
0.0
 10
2.5799530994
 20
4.6146604385
 30
0.0
 10
2.5698644843
 20
4.6005287555
 30
0.0
 10
2.560719696
 20
4.5857640584
 30
0.0
 10
2.5525555771
 20
4.5704311796
 30
0.0
 10
2.5454078729
 20
4.5545951126
 30
0.0
 10
2.5393081948
 20
4.5383234282
 30
0.0
 10
2.5342800173
 20
4.5216866153
 30
0.0
 10
2.5303485763
 20
4.5047548606
 30
0.0
 10
2.5275269286
 20
4.4876016273
 30
0.0
 10
2.5258298112
 20
4.4702997559
 30
0.0
 10
2.5252635679
 20
4.4529235242
 30
0.0
 10
2.5258297878
 20
4.4355470656
 30
0.0
 10
2.5275287744
 20
4.4182452924
 30
0.0
 10
2.5303490125
 20
4.4010921721
 30
0.0
 10
2.5342817703
 20
4.3841617551
 30
0.0
 10
2.5393095779
 20
4.3675229834
 30
0.0
 10
2.5474396714
 20
4.3458405256
 30
0.0
 10
2.5551201179
 20
4.3302032512
 30
0.0
 10
2.5608869488
 20
4.3201766529
 30
0.0
  0
SPLINE
  5
433
100
AcDbEntity
  8
0
100
AcDbSpline
 62
7
  6
CONTINUOUS
 70
0
 71
3
 72
47
 73
43
 74
0
 42
0.0000001
 43
0.0000001
 44
0.0000000001
 40
0.0
 40
0.0
 40
0.0
 40
0.0
 40
0.0312670793
 40
0.0469087584
 40
0.0625447436
 40
0.0937925885
 40
0.1250300898
 40
0.1406498439
 40
0.1562666723
 40
0.1874828062
 40
0.2186896998
 40
0.2342949108
 40
0.2498983812
 40
0.281091785
 40
0.312281387
 40
0.3278802166
 40
0.3434789168
 40
0.3746678062
 40
0.4058596688
 40
0.4370566892
 40
0.468260901
 40
0.4994738393
 40
0.5306968979
 40
0.5619310867
 40
0.5931767845
 40
0.6244341455
 40
0.6557028371
 40
0.6713458187
 40
0.6869913157
 40
0.7182796742
 40
0.7495757634
 40
0.765230771
 40
0.7808870178
 40
0.8121926146
 40
0.8434996968
 40
0.8591579496
 40
0.8748159122
 40
0.9061188189
 40
0.9374152561
 40
0.9530686117
 40
0.9687228154
 40
1.0
 40
1.0
 40
1.0
 40
1.0
 10
2.9930076508
 20
4.3439266529
 30
0.0
 10
2.989456814
 20
4.3377529303
 30
0.0
 10
2.9836694288
 20
4.3287443462
 30
0.0
 10
2.97510888
 20
4.3173516133
 30
0.0
 10
2.9660012098
 20
4.3063954925
 30
0.0
 10
2.9536301946
 20
4.2935626681
 30
0.0
 10
2.9400620508
 20
4.282008338
 30
0.0
 10
2.9285747885
 20
4.2736006644
 30
0.0
 10
2.9166917904
 20
4.2657710985
 30
0.0
 10
2.9011420284
 20
4.2570950283
 30
0.0
 10
2.8848165977
 20
4.2499917563
 30
0.0
 10
2.8713928907
 20
4.2452937318
 30
0.0
 10
2.8577569282
 20
4.2412637811
 30
0.0
 10
2.8403668268
 20
4.2374923813
 30
0.0
 10
2.8226908778
 20
4.2354522595
 30
0.0
 10
2.8084872611
 20
4.234868253
 30
0.0
 10
2.7942723899
 20
4.2349851628
 30
0.0
 10
2.7765388453
 20
4.23644419
 30
0.0
 10
2.755537529
 20
4.2402809801
 30
0.0
 10
2.7350108124
 20
4.2461648289
 30
0.0
 10
2.7151579231
 20
4.2540403487
 30
0.0
 10
2.6961699418
 20
4.2638316998
 30
0.0
 10
2.6782291387
 20
4.2754434141
 30
0.0
 10
2.6615089657
 20
4.2887647027
 30
0.0
 10
2.6461703199
 20
4.3036673201
 30
0.0
 10
2.6323605054
 20
4.320005763
 30
0.0
 10
2.6222367527
 20
4.3346906781
 30
0.0
 10
2.6150292639
 20
4.3469884139
 30
0.0
 10
2.6084310464
 20
4.3596286878
 30
0.0
 10
2.6013533478
 20
4.3760150097
 30
0.0
 10
2.5959124247
 20
4.3930173216
 30
0.0
 10
2.592571253
 20
4.4068862404
 30
0.0
 10
2.5899126474
 20
4.4209042252
 30
0.0
 10
2.5878781835
 20
4.4386463132
 30
0.0
 10
2.5875881241
 20
4.4565027713
 30
0.0
 10
2.5884014154
 20
4.4707489162
 30
0.0
 10
2.5899110705
 20
4.4849372073
 30
0.0
 10
2.5930943293
 20
4.5025068832
 30
0.0
 10
2.5979801673
 20
4.5196799736
 30
0.0
 10
2.6028791042
 20
4.5330775897
 30
0.0
 10
2.6084266797
 20
4.5462138362
 30
0.0
 10
2.6133054232
 20
4.555750935
 30
0.0
 10
2.6168574076
 20
4.5619266529
 30
0.0
  0
SPLINE
  5
434
100
AcDbEntity
  8
0
100
AcDbSpline
 62
7
  6
CONTINUOUS
 70
0
 71
3
 72
13
 73
9
 74
0
 42
0.0000001
 43
0.0000001
 44
0.0000000001
 40
0.0
 40
0.0
 40
0.0
 40
0.0
 40
0.2430277925
 40
0.3677852781
 40
0.4941509652
 40
0.6213226234
 40
0.7484278161
 40
1.0
 40
1.0
 40
1.0
 40
1.0
 10
2.80320647
 20
4.2006245853
 30
0.0
 10
2.7857064402
 20
4.2110714883
 30
0.0
 10
2.7591835321
 20
4.226815706
 30
0.0
 10
2.7234434469
 20
4.2477922583
 30
0.0
 10
2.6960245475
 20
4.2637511272
 30
0.0
 10
2.6683758604
 20
4.2797061494
 30
0.0
 10
2.6315576402
 20
4.3007789046
 30
0.0
 10
2.6039211492
 20
4.3164234196
 30
0.0
 10
2.5855379285
 20
4.3267756191
 30
0.0
  0
SPLINE
  5
435
100
AcDbEntity
  8
0
100
AcDbSpline
 62
7
  6
CONTINUOUS
 70
0
 71
3
 72
47
 73
43
 74
0
 42
0.0000001
 43
0.0000001
 44
0.0000000001
 40
0.0
 40
0.0
 40
0.0
 40
0.0
 40
0.0312670793
 40
0.0469087584
 40
0.0625447436
 40
0.0937925885
 40
0.1250300898
 40
0.1406498439
 40
0.1562666723
 40
0.1874828062
 40
0.2186896998
 40
0.2342949108
 40
0.2498983812
 40
0.281091785
 40
0.312281387
 40
0.3278802166
 40
0.3434789168
 40
0.3746678062
 40
0.4058596688
 40
0.4370566892
 40
0.468260901
 40
0.4994738393
 40
0.5306968979
 40
0.5619310867
 40
0.5931767845
 40
0.6244341455
 40
0.6557028371
 40
0.6713458187
 40
0.6869913157
 40
0.7182796742
 40
0.7495757634
 40
0.765230771
 40
0.7808870178
 40
0.8121926146
 40
0.8434996968
 40
0.8591579496
 40
0.8748159122
 40
0.9061188189
 40
0.9374152561
 40
0.9530686117
 40
0.9687228154
 40
1.0
 40
1.0
 40
1.0
 40
1.0
 10
2.6168574076
 20
4.5619266529
 30
0.0
 10
2.6204082444
 20
4.5681003755
 30
0.0
 10
2.6261956296
 20
4.5771089596
 30
0.0
 10
2.6347561784
 20
4.5885016924
 30
0.0
 10
2.6438638486
 20
4.5994578133
 30
0.0
 10
2.6562348638
 20
4.6122906377
 30
0.0
 10
2.6698030076
 20
4.6238449678
 30
0.0
 10
2.6812902699
 20
4.6322526413
 30
0.0
 10
2.693173268
 20
4.6400822072
 30
0.0
 10
2.70872303
 20
4.6487582775
 30
0.0
 10
2.7250484607
 20
4.6558615495
 30
0.0
 10
2.7384721677
 20
4.660559574
 30
0.0
 10
2.7521081302
 20
4.6645895247
 30
0.0
 10
2.7694982316
 20
4.6683609244
 30
0.0
 10
2.7871741806
 20
4.6704010463
 30
0.0
 10
2.8013777973
 20
4.6709850528
 30
0.0
 10
2.8155926685
 20
4.670868143
 30
0.0
 10
2.8333262131
 20
4.6694091158
 30
0.0
 10
2.8543275294
 20
4.6655723257
 30
0.0
 10
2.874854246
 20
4.6596884768
 30
0.0
 10
2.8947071353
 20
4.6518129571
 30
0.0
 10
2.9136951166
 20
4.642021606
 30
0.0
 10
2.9316359197
 20
4.6304098917
 30
0.0
 10
2.9483560927
 20
4.6170886031
 30
0.0
 10
2.9636947385
 20
4.6021859857
 30
0.0
 10
2.977504553
 20
4.5858475428
 30
0.0
 10
2.9876283057
 20
4.5711626277
 30
0.0
 10
2.9948357945
 20
4.5588648919
 30
0.0
 10
3.001434012
 20
4.546224618
 30
0.0
 10
3.0085117106
 20
4.5298382961
 30
0.0
 10
3.0139526337
 20
4.5128359842
 30
0.0
 10
3.0172938054
 20
4.4989670654
 30
0.0
 10
3.019952411
 20
4.4849490806
 30
0.0
 10
3.0219868749
 20
4.4672069926
 30
0.0
 10
3.0222769343
 20
4.4493505345
 30
0.0
 10
3.021463643
 20
4.4351043896
 30
0.0
 10
3.0199539879
 20
4.4209160985
 30
0.0
 10
3.0167707291
 20
4.4033464226
 30
0.0
 10
3.0118848911
 20
4.3861733322
 30
0.0
 10
3.0069859542
 20
4.3727757161
 30
0.0
 10
3.0014383787
 20
4.3596394696
 30
0.0
 10
2.9965596352
 20
4.3501023708
 30
0.0
 10
2.9930076508
 20
4.3439266529
 30
0.0
  0
SPLINE
  5
436
100
AcDbEntity
  8
0
100
AcDbSpline
 62
7
  6
CONTINUOUS
 70
0
 71
3
 72
13
 73
9
 74
0
 42
0.0000001
 43
0.0000001
 44
0.0000000001
 40
0.0
 40
0.0
 40
0.0
 40
0.0
 40
0.2473154941
 40
0.3732415126
 40
0.5
 40
0.6267584874
 40
0.7526845059
 40
1.0
 40
1.0
 40
1.0
 40
1.0
 10
2.5855379285
 20
4.3267756191
 30
0.0
 10
2.5860611294
 20
4.3475708187
 30
0.0
 10
2.5867039758
 20
4.3789585549
 30
0.0
 10
2.5871600997
 20
4.421011512
 30
0.0
 10
2.5872783218
 20
4.4529266529
 30
0.0
 10
2.5871600997
 20
4.4848417938
 30
0.0
 10
2.5867039758
 20
4.5268947509
 30
0.0
 10
2.5860611294
 20
4.5582824871
 30
0.0
 10
2.5855379285
 20
4.5790776867
 30
0.0
  0
SPLINE
  5
437
100
AcDbEntity
  8
0
100
AcDbSpline
 62
7
  6
CONTINUOUS
 70
0
 71
3
 72
22
 73
18
 74
0
 42
0.0000001
 43
0.0000001
 44
0.0000000001
 40
0.0
 40
0.0
 40
0.0
 40
0.0
 40
0.0624345776
 40
0.1248709274
 40
0.1873115439
 40
0.2497580537
 40
0.312212437
 40
0.3746763558
 40
0.4371508263
 40
0.4996380127
 40
0.5621393925
 40
0.624655993
 40
0.6871854166
 40
0.7497258327
 40
0.8122857251
 40
0.8748768696
 40
1.0
 40
1.0
 40
1.0
 40
1.0
 10
2.7925564137
 20
4.187426989
 30
0.0
 10
2.7867871438
 20
4.1874271291
 30
0.0
 10
2.7752448553
 20
4.1878061253
 30
0.0
 10
2.7580084666
 20
4.1895100843
 30
0.0
 10
2.7409194644
 20
4.1923430147
 30
0.0
 10
2.7240514053
 20
4.1962901307
 30
0.0
 10
2.7074772145
 20
4.2013382618
 30
0.0
 10
2.6912668881
 20
4.2074620263
 30
0.0
 10
2.675490636
 20
4.2146378041
 30
0.0
 10
2.6602157336
 20
4.2228339617
 30
0.0
 10
2.6455069394
 20
4.2320148022
 30
0.0
 10
2.6314290571
 20
4.242143112
 30
0.0
 10
2.6180401356
 20
4.2531718915
 30
0.0
 10
2.6053997121
 20
4.2650564982
 30
0.0
 10
2.5935585259
 20
4.2777472627
 30
0.0
 10
2.5789141128
 20
4.2956607101
 30
0.0
 10
2.569266103
 20
4.3101541388
 30
0.0
 10
2.5635016211
 20
4.3201766529
 30
0.0
  0
SPLINE
  5
438
100
AcDbEntity
  8
0
100
AcDbSpline
 62
7
  6
CONTINUOUS
 70
0
 71
3
 72
13
 73
9
 74
0
 42
0.0000001
 43
0.0000001
 44
0.0000000001
 40
0.0
 40
0.0
 40
0.0
 40
0.0
 40
0.2515721839
 40
0.3786773766
 40
0.5058490348
 40
0.6322147219
 40
0.7569722075
 40
1.0
 40
1.0
 40
1.0
 40
1.0
 10
2.5855379285
 20
4.5790776867
 30
0.0
 10
2.6039211492
 20
4.5894298862
 30
0.0
 10
2.6315576402
 20
4.6050744012
 30
0.0
 10
2.6683758604
 20
4.6261471564
 30
0.0
 10
2.6960245475
 20
4.6421021786
 30
0.0
 10
2.7234434469
 20
4.6580610474
 30
0.0
 10
2.7591835321
 20
4.6790375998
 30
0.0
 10
2.7857064402
 20
4.6947818175
 30
0.0
 10
2.80320647
 20
4.7052287205
 30
0.0
  0
SPLINE
  5
439
100
AcDbEntity
  8
0
100
AcDbSpline
 62
7
  6
CONTINUOUS
 70
0
 71
3
 72
38
 73
34
 74
0
 42
0.0000001
 43
0.0000001
 44
0.0000000001
 40
0.0
 40
0.0
 40
0.0
 40
0.0
 40
0.0311792281
 40
0.0623595398
 40
0.0935418693
 40
0.1247271211
 40
0.155916381
 40
0.1871102628
 40
0.2183097739
 40
0.2495154071
 40
0.2807277973
 40
0.3119474463
 40
0.3431745134
 40
0.3744094324
 40
0.4056520297
 40
0.4369024183
 40
0.4681603227
 40
0.4994253583
 40
0.5306972381
 40
0.5619751567
 40
0.5932586881
 40
0.6245469102
 40
0.6558390515
 40
0.6871341824
 40
0.7184310781
 40
0.7497291522
 40
0.7810275646
 40
0.8123253569
 40
0.8436200187
 40
0.874909463
 40
0.9061969603
 40
0.9374876092
 40
1.0
 40
1.0
 40
1.0
 40
1.0
 10
2.7925564137
 20
4.7184263168
 30
0.0
 10
2.786787163
 20
4.7184264569
 30
0.0
 10
2.7752448309
 20
4.7180476291
 30
0.0
 10
2.7580086122
 20
4.7163424449
 30
0.0
 10
2.7409193035
 20
4.7135112182
 30
0.0
 10
2.724051646
 20
4.7095623525
 30
0.0
 10
2.7074771203
 20
4.7045155188
 30
0.0
 10
2.6912668703
 20
4.698391304
 30
0.0
 10
2.6754908503
 20
4.6912150556
 30
0.0
 10
2.6602153284
 20
4.6830199805
 30
0.0
 10
2.6455075932
 20
4.6738378083
 30
0.0
 10
2.6314286328
 20
4.663711169
 30
0.0
 10
2.618040234
 20
4.6526810832
 30
0.0
 10
2.6053992328
 20
4.6407957107
 30
0.0
 10
2.5935589078
 20
4.6281065455
 30
0.0
 10
2.5825721103
 20
4.6146661287
 30
0.0
 10
2.5724828951
 20
4.6005343873
 30
0.0
 10
2.5633375329
 20
4.5857695791
 30
0.0
 10
2.555172873
 20
4.5704365388
 30
0.0
 10
2.5480246614
 20
4.5546002651
 30
0.0
 10
2.5419245162
 20
4.5383283315
 30
0.0
 10
2.5368959128
 20
4.5216912319
 30
0.0
 10
2.5329640909
 20
4.5047591572
 30
0.0
 10
2.5301421101
 20
4.4876055753
 30
0.0
 10
2.528444708
 20
4.4703033316
 30
0.0
 10
2.5278782317
 20
4.452926709
 30
0.0
 10
2.5284442697
 20
4.4355498458
 30
0.0
 10
2.5301431275
 20
4.4182476594
 30
0.0
 10
2.5329632896
 20
4.4010941227
 30
0.0
 10
2.5368960236
 20
4.3841632909
 30
0.0
 10
2.5419238596
 20
4.3675241116
 30
0.0
 10
2.550054058
 20
4.3458411268
 30
0.0
 10
2.5577346583
 20
4.3302034806
 30
0.0
 10
2.5635016211
 20
4.3201766529
 30
0.0
  0
SPLINE
  5
43A
100
AcDbEntity
  8
0
100
AcDbSpline
 62
7
  6
CONTINUOUS
 70
0
 71
3
 72
24
 73
20
 74
0
 42
0.0000001
 43
0.0000001
 44
0.0000000001
 40
0.0
 40
0.0
 40
0.0
 40
0.0
 40
0.1896343974
 40
0.3644447204
 40
0.4455741134
 40
0.5222000015
 40
0.5940971715
 40
0.66104959
 40
0.7228514353
 40
0.7793325712
 40
0.8303368208
 40
0.8757318716
 40
0.9154245779
 40
0.933111074
 40
0.9493508949
 40
0.964147474
 40
0.9775092581
 40
0.9894515174
 40
1.0
 40
1.0
 40
1.0
 40
1.0
 10
12.6908229084
 20
4.5619266529
 30
0.0
 10
12.6904806907
 20
4.5687275635
 30
0.0
 10
12.6897416863
 20
4.5817938447
 30
0.0
 10
12.6886024683
 20
4.5977539832
 30
0.0
 10
12.6875892589
 20
4.6096530715
 30
0.0
 10
12.6868074433
 20
4.6178625935
 30
0.0
 10
12.6859873369
 20
4.6255566269
 30
0.0
 10
12.6851317413
 20
4.6327109978
 30
0.0
 10
12.6842432052
 20
4.6393032316
 30
0.0
 10
12.6833250172
 20
4.645312733
 30
0.0
 10
12.6823803933
 20
4.6507211239
 30
0.0
 10
12.68141233
 20
4.6555117972
 30
0.0
 10
12.6805601808
 20
4.6591036875
 30
0.0
 10
12.679859748
 20
4.6616530333
 30
0.0
 10
12.6793507448
 20
4.6633271936
 30
0.0
 10
12.6788382157
 20
4.6648371781
 30
0.0
 10
12.6783225589
 20
4.6661821411
 30
0.0
 10
12.6778042606
 20
4.6673611987
 30
0.0
 10
12.6774346621
 20
4.6680801804
 30
0.0
 10
12.6772474538
 20
4.6684094656
 30
0.0
  0
SPLINE
  5
43B
100
AcDbEntity
  8
0
100
AcDbSpline
 62
7
  6
CONTINUOUS
 70
0
 71
3
 72
9
 73
5
 74
0
 42
0.0000001
 43
0.0000001
 44
0.0000000001
 40
0.0
 40
0.0
 40
0.0
 40
0.0
 40
0.5066196467
 40
1.0
 40
1.0
 40
1.0
 40
1.0
 10
12.6546395208
 20
4.2006245853
 30
0.0
 10
12.6570550285
 20
4.2039512202
 30
0.0
 10
12.661677777
 20
4.2106247489
 30
0.0
 10
12.6659300246
 20
4.2175430052
 30
0.0
 10
12.6679114038
 20
4.2210220155
 30
0.0
  0
SPLINE
  5
43C
100
AcDbEntity
  8
0
100
AcDbSpline
 62
7
  6
CONTINUOUS
 70
0
 71
3
 72
9
 73
5
 74
0
 42
0.0000001
 43
0.0000001
 44
0.0000000001
 40
0.0
 40
0.0
 40
0.0
 40
0.0
 40
0.4933803533
 40
1.0
 40
1.0
 40
1.0
 40
1.0
 10
12.6679114038
 20
4.6848312903
 30
0.0
 10
12.6659300246
 20
4.6883103005
 30
0.0
 10
12.661677777
 20
4.6952285569
 30
0.0
 10
12.6570550285
 20
4.7019020856
 30
0.0
 10
12.6546395208
 20
4.7052287205
 30
0.0
  0
SPLINE
  5
43D
100
AcDbEntity
  8
0
100
AcDbSpline
 62
7
  6
CONTINUOUS
 70
0
 71
3
 72
34
 73
30
 74
0
 42
0.0000001
 43
0.0000001
 44
0.0000000001
 40
0.0
 40
0.0
 40
0.0
 40
0.0
 40
0.0038051163
 40
0.0081537357
 40
0.013056082
 40
0.018517904
 40
0.0245421187
 40
0.0311291301
 40
0.0382763947
 40
0.0459801829
 40
0.0630387803
 40
0.082260728
 40
0.1035834666
 40
0.1269383747
 40
0.152244673
 40
0.1794132729
 40
0.2083496507
 40
0.2389483002
 40
0.2711008973
 40
0.30469049
 40
0.3756887778
 40
0.4509124129
 40
0.52926603
 40
0.6096066322
 40
0.6907607277
 40
0.7715445825
 40
0.8507722359
 40
0.9273039715
 40
1.0
 40
1.0
 40
1.0
 40
1.0
 10
12.6772474538
 20
4.2374438404
 30
0.0
 10
12.6774516943
 20
4.2378030846
 30
0.0
 10
12.6778540971
 20
4.238593027
 30
0.0
 10
12.6784154989
 20
4.2398957649
 30
0.0
 10
12.6789737865
 20
4.2413934949
 30
0.0
 10
12.6795283396
 20
4.2430851008
 30
0.0
 10
12.6800785593
 20
4.2449694777
 30
0.0
 10
12.6806238078
 20
4.2470450903
 30
0.0
 10
12.6811636518
 20
4.2493100395
 30
0.0
 10
12.6819007405
 20
4.2526963878
 30
0.0
 10
12.682794608
 20
4.2573896338
 30
0.0
 10
12.6838052094
 20
4.2635638155
 30
0.0
 10
12.6847829777
 20
4.2704346561
 30
0.0
 10
12.6857236564
 20
4.2779769413
 30
0.0
 10
12.6866236429
 20
4.2861631508
 30
0.0
 10
12.6874794639
 20
4.2949632785
 30
0.0
 10
12.6882875883
 20
4.304344909
 30
0.0
 10
12.6890452311
 20
4.3142736617
 30
0.0
 10
12.6897492568
 20
4.3247129007
 30
0.0
 10
12.6906293841
 20
4.3395372437
 30
0.0
 10
12.6915672553
 20
4.3590433287
 30
0.0
 10
12.6924254931
 20
4.3834181926
 30
0.0
 10
12.693022612
 20
4.4088157122
 30
0.0
 10
12.6933494996
 20
4.4348622102
 30
0.0
 10
12.6934011187
 20
4.4611746284
 30
0.0
 10
12.6931766166
 20
4.4873652668
 30
0.0
 10
12.6926796577
 20
4.5130501069
 30
0.0
 10
12.6919175368
 20
4.5378496899
 30
0.0
 10
12.6912196754
 20
4.5540416814
 30
0.0
 10
12.6908229084
 20
4.5619266529
 30
0.0
  0
SPLINE
  5
43E
100
AcDbEntity
  8
0
100
AcDbSpline
 62
7
  6
CONTINUOUS
 70
0
 71
3
 72
20
 73
16
 74
0
 42
0.0000001
 43
0.0000001
 44
0.0000000001
 40
0.0
 40
0.0
 40
0.0
 40
0.0
 40
0.0303539297
 40
0.0620799072
 40
0.0963823755
 40
0.1342188607
 40
0.1763048768
 40
0.223160082
 40
0.2751528286
 40
0.3325402377
 40
0.3955061499
 40
0.4641832722
 40
0.6190092254
 40
0.7975417307
 40
1.0
 40
1.0
 40
1.0
 40
1.0
 10
12.5329088202
 20
4.187426989
 30
0.0
 10
12.5330556719
 20
4.1874270298
 30
0.0
 10
12.533356925
 20
4.1874605539
 30
0.0
 10
12.5338020668
 20
4.1876088347
 30
0.0
 10
12.5342438754
 20
4.1878532057
 30
0.0
 10
12.5346825815
 20
4.1881920439
 30
0.0
 10
12.5351190841
 20
4.1886246928
 30
0.0
 10
12.5355539117
 20
4.1891510434
 30
0.0
 10
12.5359873867
 20
4.1897710584
 30
0.0
 10
12.5364196408
 20
4.1904846398
 30
0.0
 10
12.5368506807
 20
4.1912916353
 30
0.0
 10
12.5374477035
 20
4.1925428045
 30
0.0
 10
12.538181072
 20
4.1943460398
 30
0.0
 10
12.5390234355
 20
4.1967985262
 30
0.0
 10
12.5395469923
 20
4.1985663997
 30
0.0
 10
12.5398101291
 20
4.199509881
 30
0.0
  0
SPLINE
  5
43F
100
AcDbEntity
  8
0
100
AcDbSpline
 62
7
  6
CONTINUOUS
 70
0
 71
3
 72
20
 73
16
 74
0
 42
0.0000001
 43
0.0000001
 44
0.0000000001
 40
0.0
 40
0.0
 40
0.0
 40
0.0
 40
0.0306195461
 40
0.0625888724
 40
0.0971030822
 40
0.1351164467
 40
0.1773373152
 40
0.2242767895
 40
0.2763011559
 40
0.3336740291
 40
0.3965869495
 40
0.4651806045
 40
0.6197782645
 40
0.7979943404
 40
1.0
 40
1.0
 40
1.0
 40
1.0
 10
12.5329088202
 20
4.7184263168
 30
0.0
 10
12.5330538153
 20
4.718426357
 30
0.0
 10
12.5333510986
 20
4.7183938717
 30
0.0
 10
12.5337906221
 20
4.7182495039
 30
0.0
 10
12.5342269508
 20
4.7180111896
 30
0.0
 10
12.5346602235
 20
4.7176805062
 30
0.0
 10
12.5350913449
 20
4.717258296
 30
0.0
 10
12.535520868
 20
4.7167448189
 30
0.0
 10
12.5359491058
 20
4.7161401448
 30
0.0
 10
12.5363761489
 20
4.7154443016
 30
0.0
 10
12.5368020104
 20
4.7146573569
 30
0.0
 10
12.5373918416
 20
4.7134372577
 30
0.0
 10
12.5381164423
 20
4.7116782227
 30
0.0
 10
12.5389488576
 20
4.7092854687
 30
0.0
 10
12.5394666162
 20
4.707560462
 30
0.0
 10
12.5397268239
 20
4.7066399602
 30
0.0
  0
SPLINE
  5
440
100
AcDbEntity
  8
0
100
AcDbSpline
 62
7
  6
CONTINUOUS
 70
0
 71
3
 72
14
 73
10
 74
0
 42
0.0000001
 43
0.0000001
 44
0.0000000001
 40
0.0
 40
0.0
 40
0.0
 40
0.0
 40
0.2479351585
 40
0.3719121949
 40
0.496118663
 40
0.6207839608
 40
0.7461604521
 40
0.8724959293
 40
1.0
 40
1.0
 40
1.0
 40
1.0
 10
12.5554752684
 20
4.5790776867
 30
0.0
 10
12.5562837897
 20
4.5860494177
 30
0.0
 10
12.5571542557
 20
4.5965544459
 30
0.0
 10
12.5574360609
 20
4.610599236
 30
0.0
 10
12.5571646843
 20
4.6211543517
 30
0.0
 10
12.5563752447
 20
4.6317233304
 30
0.0
 10
12.5550456082
 20
4.6422990865
 30
0.0
 10
12.5531675403
 20
4.652872599
 30
0.0
 10
12.5515657589
 20
4.659880647
 30
0.0
 10
12.5506811366
 20
4.6633798992
 30
0.0
  0
SPLINE
  5
441
100
AcDbEntity
  8
0
100
AcDbSpline
 62
7
  6
CONTINUOUS
 70
0
 71
3
 72
19
 73
15
 74
0
 42
0.0000001
 43
0.0000001
 44
0.0000000001
 40
0.0
 40
0.0
 40
0.0
 40
0.0
 40
0.1270349194
 40
0.2520648816
 40
0.3754469131
 40
0.4367394286
 40
0.497903489
 40
0.5590728294
 40
0.620398445
 40
0.6820371579
 40
0.7441471659
 40
0.8068792115
 40
0.8703667006
 40
1.0
 40
1.0
 40
1.0
 40
1.0
 10
12.6736830505
 20
4.5790776867
 30
0.0
 10
12.6751908552
 20
4.582632194
 30
0.0
 10
12.6779665021
 20
4.5897804214
 30
0.0
 10
12.6812933752
 20
4.6007082643
 30
0.0
 10
12.6832287062
 20
4.6099366876
 30
0.0
 10
12.6841990153
 20
4.6173484518
 30
0.0
 10
12.6846250451
 20
4.6229161649
 30
0.0
 10
12.6847399113
 20
4.6285000902
 30
0.0
 10
12.6845318299
 20
4.6340959127
 30
0.0
 10
12.6839965149
 20
4.6396987167
 30
0.0
 10
12.6831298239
 20
4.64530309
 30
0.0
 10
12.6819332943
 20
4.6509039503
 30
0.0
 10
12.6798919942
 20
4.6584106214
 30
0.0
 10
12.6779018306
 20
4.6639462499
 30
0.0
 10
12.6764015863
 20
4.6675895121
 30
0.0
  0
LINE
  5
442
100
AcDbEntity
  8
0
100
AcDbLine
 62
7
  6
CONTINUOUS
 10
12.6764015863
 20
4.6675895121
 11
12.6762585313
 21
4.6679354965
  0
SPLINE
  5
443
100
AcDbEntity
  8
0
100
AcDbSpline
 62
7
  6
CONTINUOUS
 70
0
 71
3
 72
9
 73
5
 74
0
 42
0.0000001
 43
0.0000001
 44
0.0000000001
 40
0.0
 40
0.0
 40
0.0
 40
0.0
 40
0.2455499381
 40
1.0
 40
1.0
 40
1.0
 40
1.0
 10
12.6762585313
 20
4.6679354965
 30
0.0
 10
12.6756668796
 20
4.6693606226
 30
0.0
 10
12.6731544342
 20
4.6751215728
 30
0.0
 10
12.6702577006
 20
4.6807115383
 30
0.0
 10
12.6679114038
 20
4.6848312903
 30
0.0
  0
SPLINE
  5
444
100
AcDbEntity
  8
0
100
AcDbSpline
 62
7
  6
CONTINUOUS
 70
0
 71
3
 72
9
 73
5
 74
0
 42
0.0000001
 43
0.0000001
 44
0.0000000001
 40
0.0
 40
0.0
 40
0.0
 40
0.0
 40
0.2545918402
 40
1.0
 40
1.0
 40
1.0
 40
1.0
 10
12.6679114038
 20
4.2210220155
 30
0.0
 10
12.6687031469
 20
4.2224122
 30
0.0
 10
12.6717395295
 20
4.2279137069
 30
0.0
 10
12.6744625251
 20
4.2335917248
 30
0.0
 10
12.6762585313
 20
4.2379178093
 30
0.0
  0
LINE
  5
445
100
AcDbEntity
  8
0
100
AcDbLine
 62
7
  6
CONTINUOUS
 10
12.6762585313
 20
4.2379178093
 11
12.6764015863
 21
4.2382637937
  0
SPLINE
  5
446
100
AcDbEntity
  8
0
100
AcDbSpline
 62
7
  6
CONTINUOUS
 70
0
 71
3
 72
19
 73
15
 74
0
 42
0.0000001
 43
0.0000001
 44
0.0000000001
 40
0.0
 40
0.0
 40
0.0
 40
0.0
 40
0.1296332994
 40
0.1931207885
 40
0.2558528341
 40
0.3179628421
 40
0.379601555
 40
0.4409271706
 40
0.502096511
 40
0.5632605714
 40
0.6245530869
 40
0.7479351184
 40
0.8729650806
 40
1.0
 40
1.0
 40
1.0
 40
1.0
 10
12.6764015863
 20
4.2382637937
 30
0.0
 10
12.6779018306
 20
4.2419070559
 30
0.0
 10
12.6798919942
 20
4.2474426844
 30
0.0
 10
12.6819332943
 20
4.2549493555
 30
0.0
 10
12.6831298239
 20
4.2605502157
 30
0.0
 10
12.6839965149
 20
4.2661545891
 30
0.0
 10
12.6845318299
 20
4.2717573931
 30
0.0
 10
12.6847399113
 20
4.2773532155
 30
0.0
 10
12.6846250451
 20
4.2829371408
 30
0.0
 10
12.6841990153
 20
4.288504854
 30
0.0
 10
12.6832287062
 20
4.2959166182
 30
0.0
 10
12.6812933752
 20
4.3051450415
 30
0.0
 10
12.6779665021
 20
4.3160728844
 30
0.0
 10
12.6751908552
 20
4.3232211117
 30
0.0
 10
12.6736830505
 20
4.3267756191
 30
0.0
  0
SPLINE
  5
447
100
AcDbEntity
  8
0
100
AcDbSpline
 62
7
  6
CONTINUOUS
 70
0
 71
3
 72
15
 73
11
 74
0
 42
0.0000001
 43
0.0000001
 44
0.0000000001
 40
0.0
 40
0.0
 40
0.0
 40
0.0
 40
0.1249964674
 40
0.2499956899
 40
0.3749971618
 40
0.4999999975
 40
0.6250028277
 40
0.7500042899
 40
0.8750035088
 40
1.0
 40
1.0
 40
1.0
 40
1.0
 10
12.5554752684
 20
4.3267756191
 30
0.0
 10
12.556870492
 20
4.3372294898
 30
0.0
 10
12.5594057965
 20
4.3581728756
 30
0.0
 10
12.5622846031
 20
4.3896871848
 30
0.0
 10
12.564087933
 20
4.4212835684
 30
0.0
 10
12.5647030939
 20
4.4529266518
 30
0.0
 10
12.5640879333
 20
4.4845697344
 30
0.0
 10
12.5622846036
 20
4.5161661164
 30
0.0
 10
12.5594057978
 20
4.5476804266
 30
0.0
 10
12.5568704922
 20
4.568623814
 30
0.0
 10
12.5554752684
 20
4.5790776867
 30
0.0
  0
SPLINE
  5
448
100
AcDbEntity
  8
0
100
AcDbSpline
 62
7
  6
CONTINUOUS
 70
0
 71
3
 72
21
 73
17
 74
0
 42
0.0000001
 43
0.0000001
 44
0.0000000001
 40
0.0
 40
0.0
 40
0.0
 40
0.0
 40
0.1249717227
 40
0.187468436
 40
0.2499692878
 40
0.3124732585
 40
0.374980562
 40
0.437489661
 40
0.5
 40
0.562510339
 40
0.625019438
 40
0.6875267415
 40
0.7500307122
 40
0.812531564
 40
0.8750282773
 40
1.0
 40
1.0
 40
1.0
 40
1.0
 10
12.6736830505
 20
4.3267756191
 30
0.0
 10
12.6766317563
 20
4.3370292535
 30
0.0
 10
12.6806835906
 20
4.3525234641
 30
0.0
 10
12.6851481928
 20
4.3733947476
 30
0.0
 10
12.6879779282
 20
4.3891535716
 30
0.0
 10
12.6902407597
 20
4.4050049902
 30
0.0
 10
12.691892688
 20
4.4209329129
 30
0.0
 10
12.6928986382
 20
4.4369155225
 30
0.0
 10
12.6932373128
 20
4.4529266529
 30
0.0
 10
12.6928986382
 20
4.4689377833
 30
0.0
 10
12.691892688
 20
4.4849203928
 30
0.0
 10
12.6902407597
 20
4.5008483156
 30
0.0
 10
12.6879779282
 20
4.5166997342
 30
0.0
 10
12.6851481928
 20
4.5324585581
 30
0.0
 10
12.6806835906
 20
4.5533298417
 30
0.0
 10
12.6766317563
 20
4.5688240523
 30
0.0
 10
12.6736830505
 20
4.5790776867
 30
0.0
  0
SPLINE
  5
449
100
AcDbEntity
  8
0
100
AcDbSpline
 62
7
  6
CONTINUOUS
 70
0
 71
3
 72
14
 73
10
 74
0
 42
0.0000001
 43
0.0000001
 44
0.0000000001
 40
0.0
 40
0.0
 40
0.0
 40
0.0
 40
0.1275040531
 40
0.2538395195
 40
0.3792160086
 40
0.503881325
 40
0.6280878186
 40
0.7520648696
 40
1.0
 40
1.0
 40
1.0
 40
1.0
 10
12.5506812262
 20
4.2424737656
 30
0.0
 10
12.5515658387
 20
4.2459730036
 30
0.0
 10
12.5531676057
 20
4.2529810218
 30
0.0
 10
12.5550456488
 20
4.2635544905
 30
0.0
 10
12.5563752634
 20
4.2741302026
 30
0.0
 10
12.5571646952
 20
4.2846991367
 30
0.0
 10
12.557436059
 20
4.2952542084
 30
0.0
 10
12.5571542507
 20
4.3092989375
 30
0.0
 10
12.5562837861
 20
4.3198039192
 30
0.0
 10
12.5554752684
 20
4.3267756191
 30
0.0
  0
SPLINE
  5
44A
100
AcDbEntity
  8
0
100
AcDbSpline
 62
7
  6
CONTINUOUS
 70
0
 71
3
 72
19
 73
15
 74
0
 42
0.0000001
 43
0.0000001
 44
0.0000000001
 40
0.0
 40
0.0
 40
0.0
 40
0.0
 40
0.0355737342
 40
0.0751556913
 40
0.1186962358
 40
0.1661217454
 40
0.2173507477
 40
0.272298069
 40
0.3308618399
 40
0.392925799
 40
0.5270782688
 40
0.6737536961
 40
0.8318587087
 40
1.0
 40
1.0
 40
1.0
 40
1.0
 10
12.5404642496
 20
4.2019783218
 30
0.0
 10
12.5408094091
 20
4.2033464124
 30
0.0
 10
12.541486946
 20
4.2062498625
 30
0.0
 10
12.5424329981
 20
4.2108620885
 30
0.0
 10
12.5433609027
 20
4.2159565595
 30
0.0
 10
12.5442688847
 20
4.2215231351
 30
0.0
 10
12.5451549662
 20
4.2275508768
 30
0.0
 10
12.5460170647
 20
4.234028011
 30
0.0
 10
12.5468534551
 20
4.2409415758
 30
0.0
 10
12.5479610956
 20
4.2509861808
 30
0.0
 10
12.5492561525
 20
4.2645252417
 30
0.0
 10
12.5506465857
 20
4.2818795529
 30
0.0
 10
12.5518981238
 20
4.300595694
 30
0.0
 10
12.5526133629
 20
4.3135160989
 30
0.0
 10
12.5529485179
 20
4.3201766529
 30
0.0
  0
SPLINE
  5
44B
100
AcDbEntity
  8
0
100
AcDbSpline
 62
7
  6
CONTINUOUS
 70
0
 71
3
 72
28
 73
24
 74
0
 42
0.0000001
 43
0.0000001
 44
0.0000000001
 40
0.0
 40
0.0
 40
0.0
 40
0.0
 40
0.0137461651
 40
0.0293728579
 40
0.0468430249
 40
0.0661149205
 40
0.0871368258
 40
0.1098483684
 40
0.1341871099
 40
0.1600818026
 40
0.1874555802
 40
0.2162299554
 40
0.2776307831
 40
0.3435554125
 40
0.4132147838
 40
0.4857746173
 40
0.560364735
 40
0.6360880174
 40
0.7120360517
 40
0.7872944989
 40
0.8609539326
 40
0.9321546535
 40
1.0
 40
1.0
 40
1.0
 40
1.0
 10
12.5404642565
 20
4.7038752133
 30
0.0
 10
12.5408953913
 20
4.7021665681
 30
0.0
 10
12.5417355314
 20
4.6984949629
 30
0.0
 10
12.5428905214
 20
4.6926013397
 30
0.0
 10
12.5440176114
 20
4.6859825816
 30
0.0
 10
12.5451125127
 20
4.6786584706
 30
0.0
 10
12.5461716474
 20
4.670650872
 30
0.0
 10
12.5471917991
 20
4.661983887
 30
0.0
 10
12.548169333
 20
4.652683677
 30
0.0
 10
12.5491013189
 20
4.6427783421
 30
0.0
 10
12.5499849907
 20
4.6322978392
 30
0.0
 10
12.5511192656
 20
4.6172711565
 30
0.0
 10
12.5523835616
 20
4.5972990009
 30
0.0
 10
12.5536394087
 20
4.572077011
 30
0.0
 10
12.5546487538
 20
4.545412384
 30
0.0
 10
12.5553988993
 20
4.5176279849
 30
0.0
 10
12.5558802094
 20
4.4890601827
 30
0.0
 10
12.5560867419
 20
4.4600547308
 30
0.0
 10
12.5560159288
 20
4.4309629549
 30
0.0
 10
12.555668594
 20
4.4021377544
 30
0.0
 10
12.5550491906
 20
4.3739258009
 30
0.0
 10
12.5541651786
 20
4.3466717094
 30
0.0
 10
12.5533856168
 20
4.3288631436
 30
0.0
 10
12.5529485179
 20
4.3201766529
 30
0.0
  0
SPLINE
  5
44C
100
AcDbEntity
  8
0
100
AcDbSpline
 62
7
  6
CONTINUOUS
 70
0
 71
3
 72
24
 73
20
 74
0
 42
0.0000001
 43
0.0000001
 44
0.0000000001
 40
0.0
 40
0.0
 40
0.0
 40
0.0
 40
0.1896343974
 40
0.3644447204
 40
0.4455741134
 40
0.5222000015
 40
0.5940971715
 40
0.66104959
 40
0.7228514353
 40
0.7793325712
 40
0.8303368208
 40
0.8757318716
 40
0.9154245779
 40
0.933111074
 40
0.9493508949
 40
0.964147474
 40
0.9775092581
 40
0.9894515174
 40
1.0
 40
1.0
 40
1.0
 40
1.0
 10
-8.973457648
 20
4.5619266529
 30
0.0
 10
-8.9731154303
 20
4.5687275635
 30
0.0
 10
-8.9723764259
 20
4.5817938447
 30
0.0
 10
-8.971237208
 20
4.5977539832
 30
0.0
 10
-8.9702239985
 20
4.6096530715
 30
0.0
 10
-8.969442183
 20
4.6178625935
 30
0.0
 10
-8.9686220765
 20
4.6255566269
 30
0.0
 10
-8.9677664809
 20
4.6327109978
 30
0.0
 10
-8.9668779448
 20
4.6393032316
 30
0.0
 10
-8.9659597569
 20
4.645312733
 30
0.0
 10
-8.9650151329
 20
4.6507211239
 30
0.0
 10
-8.9640470696
 20
4.6555117972
 30
0.0
 10
-8.9631949204
 20
4.6591036875
 30
0.0
 10
-8.9624944876
 20
4.6616530333
 30
0.0
 10
-8.9619854844
 20
4.6633271936
 30
0.0
 10
-8.9614729553
 20
4.6648371781
 30
0.0
 10
-8.9609572986
 20
4.6661821411
 30
0.0
 10
-8.9604390003
 20
4.6673611987
 30
0.0
 10
-8.9600694017
 20
4.6680801804
 30
0.0
 10
-8.9598821935
 20
4.6684094656
 30
0.0
  0
SPLINE
  5
44D
100
AcDbEntity
  8
0
100
AcDbSpline
 62
7
  6
CONTINUOUS
 70
0
 71
3
 72
9
 73
5
 74
0
 42
0.0000001
 43
0.0000001
 44
0.0000000001
 40
0.0
 40
0.0
 40
0.0
 40
0.0
 40
0.5066196467
 40
1.0
 40
1.0
 40
1.0
 40
1.0
 10
-8.9372742604
 20
4.2006245853
 30
0.0
 10
-8.9396897681
 20
4.2039512202
 30
0.0
 10
-8.9443125166
 20
4.2106247489
 30
0.0
 10
-8.9485647643
 20
4.2175430052
 30
0.0
 10
-8.9505461434
 20
4.2210220155
 30
0.0
  0
SPLINE
  5
44E
100
AcDbEntity
  8
0
100
AcDbSpline
 62
7
  6
CONTINUOUS
 70
0
 71
3
 72
21
 73
17
 74
0
 42
0.0000001
 43
0.0000001
 44
0.0000000001
 40
0.0
 40
0.0
 40
0.0
 40
0.0
 40
0.0601750489
 40
0.1227587303
 40
0.1872777212
 40
0.2533023347
 40
0.388109928
 40
0.5235320356
 40
0.5903279068
 40
0.6559081831
 40
0.7198294713
 40
0.7816589459
 40
0.8409803401
 40
0.8973924084
 40
0.9505182427
 40
1.0
 40
1.0
 40
1.0
 40
1.0
 10
-8.7656180212
 20
4.5856766529
 30
0.0
 10
-8.7652922105
 20
4.5792017986
 30
0.0
 10
-8.7646921283
 20
4.5659896082
 30
0.0
 10
-8.7639525949
 20
4.5458263068
 30
0.0
 10
-8.7633602144
 20
4.5250276609
 30
0.0
 10
-8.7627678149
 20
4.4964455669
 30
0.0
 10
-8.7624229664
 20
4.4602189973
 30
0.0
 10
-8.7625943512
 20
4.4239081309
 30
0.0
 10
-8.7630472998
 20
4.3950598256
 30
0.0
 10
-8.7635387989
 20
4.373916932
 30
0.0
 10
-8.7641800207
 20
4.3533133572
 30
0.0
 10
-8.7649666008
 20
4.3333896111
 30
0.0
 10
-8.7658928501
 20
4.3142817694
 30
0.0
 10
-8.7669524751
 20
4.2961200184
 30
0.0
 10
-8.7681376606
 20
4.2790284934
 30
0.0
 10
-8.7690399728
 20
4.2680103939
 30
0.0
 10
-8.7695152849
 20
4.2627006365
 30
0.0
  0
SPLINE
  5
44F
100
AcDbEntity
  8
0
100
AcDbSpline
 62
7
  6
CONTINUOUS
 70
0
 71
3
 72
28
 73
24
 74
0
 42
0.0000001
 43
0.0000001
 44
0.0000000001
 40
0.0
 40
0.0
 40
0.0
 40
0.0
 40
0.217267607
 40
0.3169170983
 40
0.410285591
 40
0.4971713014
 40
0.577381474
 40
0.6507614265
 40
0.7171766571
 40
0.7765059599
 40
0.8286748965
 40
0.8520672724
 40
0.8736647499
 40
0.8934728859
 40
0.911503515
 40
0.9277807788
 40
0.9423433534
 40
0.9552481709
 40
0.9665803587
 40
0.9764694115
 40
0.9851141585
 40
0.9928159551
 40
1.0
 40
1.0
 40
1.0
 40
1.0
 10
-8.7695152849
 20
4.2627006365
 30
0.0
 10
-8.7700218023
 20
4.2570422804
 30
0.0
 10
-8.7708263729
 20
4.2487941899
 30
0.0
 10
-8.7720409976
 20
4.2381350848
 30
0.0
 10
-8.7729566245
 20
4.2308736276
 30
0.0
 10
-8.7739009861
 20
4.2241287097
 30
0.0
 10
-8.7748720564
 20
4.2179160122
 30
0.0
 10
-8.775867207
 20
4.2122497773
 30
0.0
 10
-8.7768836147
 20
4.2071427879
 30
0.0
 10
-8.7779189763
 20
4.2026068084
 30
0.0
 10
-8.7788248411
 20
4.1991969062
 30
0.0
 10
-8.7795657085
 20
4.1967666146
 30
0.0
 10
-8.7801042763
 20
4.1951599273
 30
0.0
 10
-8.7806457779
 20
4.1937028718
 30
0.0
 10
-8.7811899893
 20
4.1923962555
 30
0.0
 10
-8.7817365817
 20
4.1912405877
 30
0.0
 10
-8.7822852775
 20
4.1902360707
 30
0.0
 10
-8.782835995
 20
4.1893827003
 30
0.0
 10
-8.7833890421
 20
4.1886803062
 30
0.0
 10
-8.7839453928
 20
4.1881287253
 30
0.0
 10
-8.7845074941
 20
4.1877285721
 30
0.0
 10
-8.785077778
 20
4.1874832792
 30
0.0
 10
-8.7854687654
 20
4.1874270401
 30
0.0
 10
-8.7856566094
 20
4.187426989
 30
0.0
  0
SPLINE
  5
450
100
AcDbEntity
  8
0
100
AcDbSpline
 62
7
  6
CONTINUOUS
 70
0
 71
3
 72
34
 73
30
 74
0
 42
0.0000001
 43
0.0000001
 44
0.0000000001
 40
0.0
 40
0.0
 40
0.0
 40
0.0
 40
0.1085545202
 40
0.2125894357
 40
0.3115796097
 40
0.4050891343
 40
0.4927514538
 40
0.5742135912
 40
0.6491470047
 40
0.7172374139
 40
0.7782272332
 40
0.8059894605
 40
0.8318945715
 40
0.8559241992
 40
0.8780645524
 40
0.8983045768
 40
0.9166371395
 40
0.933062576
 40
0.9475965342
 40
0.9602700092
 40
0.9711369279
 40
0.9759224551
 40
0.9802971352
 40
0.9842852359
 40
0.987919658
 40
0.9912439718
 40
0.9943150872
 40
0.9972050318
 40
1.0
 40
1.0
 40
1.0
 40
1.0
 10
-8.7656180212
 20
4.5856766529
 30
0.0
 10
-8.7658654427
 20
4.5905936734
 30
0.0
 10
-8.766385827
 20
4.6002212432
 30
0.0
 10
-8.7672637501
 20
4.6143250902
 30
0.0
 10
-8.7682198255
 20
4.627739914
 30
0.0
 10
-8.7692496467
 20
4.6404044543
 30
0.0
 10
-8.7703484059
 20
4.6522651194
 30
0.0
 10
-8.7715115889
 20
4.6632728669
 30
0.0
 10
-8.7727333152
 20
4.6733808159
 30
0.0
 10
-8.7740086289
 20
4.6825456261
 30
0.0
 10
-8.7751431161
 20
4.6895686551
 30
0.0
 10
-8.7760828136
 20
4.694683243
 30
0.0
 10
-8.7767753567
 20
4.698138466
 30
0.0
 10
-8.7774770508
 20
4.7013312846
 30
0.0
 10
-8.7781870521
 20
4.7042585601
 30
0.0
 10
-8.7789044934
 20
4.7069173151
 30
0.0
 10
-8.7796285017
 20
4.7093047457
 30
0.0
 10
-8.7803583484
 20
4.7114184531
 30
0.0
 10
-8.7810930204
 20
4.7132569791
 30
0.0
 10
-8.7818316959
 20
4.7148191197
 30
0.0
 10
-8.7824747634
 20
4.7159339934
 30
0.0
 10
-8.7829971216
 20
4.7166777516
 30
0.0
 10
-8.7833730883
 20
4.7171413379
 30
0.0
 10
-8.783750078
 20
4.717534702
 30
0.0
 10
-8.7841283263
 20
4.717857795
 30
0.0
 10
-8.7845081511
 20
4.7181104273
 30
0.0
 10
-8.7848899589
 20
4.7182920683
 30
0.0
 10
-8.7852736263
 20
4.7184017678
 30
0.0
 10
-8.785532069
 20
4.7184263513
 30
0.0
 10
-8.7856588284
 20
4.7184263168
 30
0.0
  0
SPLINE
  5
451
100
AcDbEntity
  8
0
100
AcDbSpline
 62
7
  6
CONTINUOUS
 70
0
 71
3
 72
9
 73
5
 74
0
 42
0.0000001
 43
0.0000001
 44
0.0000000001
 40
0.0
 40
0.0
 40
0.0
 40
0.0
 40
0.4933803533
 40
1.0
 40
1.0
 40
1.0
 40
1.0
 10
-8.9505461434
 20
4.6848312903
 30
0.0
 10
-8.9485647643
 20
4.6883103005
 30
0.0
 10
-8.9443125166
 20
4.6952285569
 30
0.0
 10
-8.9396897681
 20
4.7019020856
 30
0.0
 10
-8.9372742604
 20
4.7052287205
 30
0.0
  0
SPLINE
  5
452
100
AcDbEntity
  8
0
100
AcDbSpline
 62
7
  6
CONTINUOUS
 70
0
 71
3
 72
34
 73
30
 74
0
 42
0.0000001
 43
0.0000001
 44
0.0000000001
 40
0.0
 40
0.0
 40
0.0
 40
0.0
 40
0.0038051163
 40
0.0081537357
 40
0.013056082
 40
0.018517904
 40
0.0245421187
 40
0.0311291301
 40
0.0382763947
 40
0.0459801829
 40
0.0630387803
 40
0.082260728
 40
0.1035834666
 40
0.1269383747
 40
0.152244673
 40
0.1794132729
 40
0.2083496507
 40
0.2389483002
 40
0.2711008973
 40
0.30469049
 40
0.3756887778
 40
0.4509124129
 40
0.52926603
 40
0.6096066322
 40
0.6907607277
 40
0.7715445825
 40
0.8507722359
 40
0.9273039715
 40
1.0
 40
1.0
 40
1.0
 40
1.0
 10
-8.9598821935
 20
4.2374438404
 30
0.0
 10
-8.9600864339
 20
4.2378030846
 30
0.0
 10
-8.9604888367
 20
4.238593027
 30
0.0
 10
-8.9610502386
 20
4.2398957649
 30
0.0
 10
-8.9616085261
 20
4.2413934949
 30
0.0
 10
-8.9621630792
 20
4.2430851008
 30
0.0
 10
-8.9627132989
 20
4.2449694777
 30
0.0
 10
-8.9632585474
 20
4.2470450903
 30
0.0
 10
-8.9637983914
 20
4.2493100395
 30
0.0
 10
-8.9645354801
 20
4.2526963878
 30
0.0
 10
-8.9654293476
 20
4.2573896338
 30
0.0
 10
-8.966439949
 20
4.2635638155
 30
0.0
 10
-8.9674177173
 20
4.2704346561
 30
0.0
 10
-8.968358396
 20
4.2779769413
 30
0.0
 10
-8.9692583825
 20
4.2861631508
 30
0.0
 10
-8.9701142035
 20
4.2949632785
 30
0.0
 10
-8.9709223279
 20
4.304344909
 30
0.0
 10
-8.9716799707
 20
4.3142736617
 30
0.0
 10
-8.9723839964
 20
4.3247129007
 30
0.0
 10
-8.9732641237
 20
4.3395372437
 30
0.0
 10
-8.9742019949
 20
4.3590433287
 30
0.0
 10
-8.9750602327
 20
4.3834181926
 30
0.0
 10
-8.9756573516
 20
4.4088157122
 30
0.0
 10
-8.9759842392
 20
4.4348622102
 30
0.0
 10
-8.9760358583
 20
4.4611746284
 30
0.0
 10
-8.9758113562
 20
4.4873652668
 30
0.0
 10
-8.9753143973
 20
4.5130501069
 30
0.0
 10
-8.9745522764
 20
4.5378496899
 30
0.0
 10
-8.973854415
 20
4.5540416814
 30
0.0
 10
-8.973457648
 20
4.5619266529
 30
0.0
  0
SPLINE
  5
453
100
AcDbEntity
  8
0
100
AcDbSpline
 62
7
  6
CONTINUOUS
 70
0
 71
3
 72
20
 73
16
 74
0
 42
0.0000001
 43
0.0000001
 44
0.0000000001
 40
0.0
 40
0.0
 40
0.0
 40
0.0
 40
0.0303539297
 40
0.0620799072
 40
0.0963823755
 40
0.1342188607
 40
0.1763048768
 40
0.223160082
 40
0.2751528286
 40
0.3325402377
 40
0.3955061499
 40
0.4641832722
 40
0.6190092254
 40
0.7975417307
 40
1.0
 40
1.0
 40
1.0
 40
1.0
 10
-8.8155435599
 20
4.187426989
 30
0.0
 10
-8.8156904115
 20
4.1874270298
 30
0.0
 10
-8.8159916646
 20
4.1874605539
 30
0.0
 10
-8.8164368064
 20
4.1876088347
 30
0.0
 10
-8.816878615
 20
4.1878532057
 30
0.0
 10
-8.8173173211
 20
4.1881920439
 30
0.0
 10
-8.8177538237
 20
4.1886246928
 30
0.0
 10
-8.8181886513
 20
4.1891510434
 30
0.0
 10
-8.8186221263
 20
4.1897710584
 30
0.0
 10
-8.8190543804
 20
4.1904846398
 30
0.0
 10
-8.8194854204
 20
4.1912916353
 30
0.0
 10
-8.8200824432
 20
4.1925428045
 30
0.0
 10
-8.8208158116
 20
4.1943460398
 30
0.0
 10
-8.8216581752
 20
4.1967985262
 30
0.0
 10
-8.8221817319
 20
4.1985663997
 30
0.0
 10
-8.8224448687
 20
4.199509881
 30
0.0
  0
SPLINE
  5
454
100
AcDbEntity
  8
0
100
AcDbSpline
 62
7
  6
CONTINUOUS
 70
0
 71
3
 72
20
 73
16
 74
0
 42
0.0000001
 43
0.0000001
 44
0.0000000001
 40
0.0
 40
0.0
 40
0.0
 40
0.0
 40
0.0306195461
 40
0.0625888724
 40
0.0971030822
 40
0.1351164467
 40
0.1773373152
 40
0.2242767895
 40
0.2763011559
 40
0.3336740291
 40
0.3965869495
 40
0.4651806045
 40
0.6197782645
 40
0.7979943404
 40
1.0
 40
1.0
 40
1.0
 40
1.0
 10
-8.8155435599
 20
4.7184263168
 30
0.0
 10
-8.8156885549
 20
4.718426357
 30
0.0
 10
-8.8159858383
 20
4.7183938717
 30
0.0
 10
-8.8164253617
 20
4.7182495039
 30
0.0
 10
-8.8168616904
 20
4.7180111896
 30
0.0
 10
-8.8172949632
 20
4.7176805062
 30
0.0
 10
-8.8177260845
 20
4.717258296
 30
0.0
 10
-8.8181556077
 20
4.7167448189
 30
0.0
 10
-8.8185838455
 20
4.7161401448
 30
0.0
 10
-8.8190108885
 20
4.7154443016
 30
0.0
 10
-8.81943675
 20
4.7146573569
 30
0.0
 10
-8.8200265813
 20
4.7134372577
 30
0.0
 10
-8.8207511819
 20
4.7116782227
 30
0.0
 10
-8.8215835973
 20
4.7092854687
 30
0.0
 10
-8.8221013559
 20
4.707560462
 30
0.0
 10
-8.8223615635
 20
4.7066399602
 30
0.0
  0
SPLINE
  5
455
100
AcDbEntity
  8
0
100
AcDbSpline
 62
7
  6
CONTINUOUS
 70
0
 71
3
 72
21
 73
17
 74
0
 42
0.0000001
 43
0.0000001
 44
0.0000000001
 40
0.0
 40
0.0
 40
0.0
 40
0.0
 40
0.1249717227
 40
0.187468436
 40
0.2499692878
 40
0.3124732585
 40
0.374980562
 40
0.437489661
 40
0.5
 40
0.562510339
 40
0.625019438
 40
0.6875267415
 40
0.7500307122
 40
0.812531564
 40
0.8750282773
 40
1.0
 40
1.0
 40
1.0
 40
1.0
 10
-8.9182307306
 20
4.5790776867
 30
0.0
 10
-8.9211794363
 20
4.5688240523
 30
0.0
 10
-8.9252312707
 20
4.5533298417
 30
0.0
 10
-8.9296958728
 20
4.5324585581
 30
0.0
 10
-8.9325256083
 20
4.5166997342
 30
0.0
 10
-8.9347884398
 20
4.5008483156
 30
0.0
 10
-8.936440368
 20
4.4849203928
 30
0.0
 10
-8.9374463182
 20
4.4689377833
 30
0.0
 10
-8.9377849928
 20
4.4529266529
 30
0.0
 10
-8.9374463182
 20
4.4369155225
 30
0.0
 10
-8.936440368
 20
4.4209329129
 30
0.0
 10
-8.9347884398
 20
4.4050049902
 30
0.0
 10
-8.9325256083
 20
4.3891535716
 30
0.0
 10
-8.9296958728
 20
4.3733947476
 30
0.0
 10
-8.9252312707
 20
4.3525234641
 30
0.0
 10
-8.9211794363
 20
4.3370292535
 30
0.0
 10
-8.9182307306
 20
4.3267756191
 30
0.0
  0
SPLINE
  5
456
100
AcDbEntity
  8
0
100
AcDbSpline
 62
7
  6
CONTINUOUS
 70
0
 71
3
 72
42
 73
38
 74
0
 42
0.0000001
 43
0.0000001
 44
0.0000000001
 40
0.0
 40
0.0
 40
0.0
 40
0.0
 40
0.077614825
 40
0.1595348133
 40
0.2443471298
 40
0.3306295274
 40
0.4169103591
 40
0.5017268
 40
0.5836388193
 40
0.6612581663
 40
0.6980451563
 40
0.7332733039
 40
0.7667963765
 40
0.7984715501
 40
0.828168723
 40
0.8557642405
 40
0.8811448331
 40
0.9042108068
 40
0.9248697731
 40
0.9342738814
 40
0.9430501459
 40
0.9511910719
 40
0.9586907798
 40
0.9655463895
 40
0.9717566068
 40
0.9773220716
 40
0.9822464339
 40
0.9865394395
 40
0.9902203496
 40
0.991841579
 40
0.9933239352
 40
0.9946755586
 40
0.995907346
 40
0.9970338548
 40
0.9980743177
 40
0.9990532643
 40
1.0
 40
1.0
 40
1.0
 40
1.0
 10
-8.7955038622
 20
4.5856766529
 30
0.0
 10
-8.7949816312
 20
4.5752983283
 30
0.0
 10
-8.7940740743
 20
4.5539574569
 30
0.0
 10
-8.7931154737
 20
4.5212563086
 30
0.0
 10
-8.7925335553
 20
4.4873856501
 30
0.0
 10
-8.7923382823
 20
4.4529267569
 30
0.0
 10
-8.7925334894
 20
4.418467308
 30
0.0
 10
-8.793115494
 20
4.3845973826
 30
0.0
 10
-8.7940740312
 20
4.3518961174
 30
0.0
 10
-8.7951908192
 20
4.325634806
 30
0.0
 10
-8.7962715949
 20
4.3056299919
 30
0.0
 10
-8.7971497175
 20
4.2915271517
 30
0.0
 10
-8.7981055246
 20
4.2781153876
 30
0.0
 10
-8.7991352698
 20
4.2654518833
 30
0.0
 10
-8.8002340335
 20
4.2535909255
 30
0.0
 10
-8.8013969716
 20
4.2425831291
 30
0.0
 10
-8.8026189311
 20
4.232475368
 30
0.0
 10
-8.803893881
 20
4.2233108937
 30
0.0
 10
-8.8050284142
 20
4.216287922
 30
0.0
 10
-8.8059681311
 20
4.2111733493
 30
0.0
 10
-8.806660572
 20
4.2077178444
 30
0.0
 10
-8.8073621395
 20
4.2045247371
 30
0.0
 10
-8.8080721455
 20
4.2015974263
 30
0.0
 10
-8.8087896148
 20
4.1989387626
 30
0.0
 10
-8.8095136546
 20
4.1965511982
 30
0.0
 10
-8.8102433393
 20
4.1944370568
 30
0.0
 10
-8.8109778773
 20
4.1925981189
 30
0.0
 10
-8.811716592
 20
4.1910358689
 30
0.0
 10
-8.8123596967
 20
4.189921034
 30
0.0
 10
-8.8128820288
 20
4.1891771904
 30
0.0
 10
-8.8132579759
 20
4.188713369
 30
0.0
 10
-8.813634913
 20
4.1883196283
 30
0.0
 10
-8.8140131053
 20
4.1879961126
 30
0.0
 10
-8.8143928916
 20
4.187743123
 30
0.0
 10
-8.8147747001
 20
4.1875612948
 30
0.0
 10
-8.8151583684
 20
4.1874515345
 30
0.0
 10
-8.8154168062
 20
4.1874269538
 30
0.0
 10
-8.8155435599
 20
4.187426989
 30
0.0
  0
SPLINE
  5
457
100
AcDbEntity
  8
0
100
AcDbSpline
 62
7
  6
CONTINUOUS
 70
0
 71
3
 72
34
 73
30
 74
0
 42
0.0000001
 43
0.0000001
 44
0.0000000001
 40
0.0
 40
0.0
 40
0.0
 40
0.0
 40
0.1085505324
 40
0.2125818615
 40
0.3115689151
 40
0.4050758281
 40
0.4927360904
 40
0.574196765
 40
0.6491293493
 40
0.7172195936
 40
0.7782099254
 40
0.80597267
 40
0.8318784732
 40
0.8559089633
 40
0.8780503486
 40
0.898291573
 40
0.9166254997
 40
0.9330524512
 40
0.9475880557
 40
0.960263284
 40
0.9711320199
 40
0.975918455
 40
0.9802940236
 40
0.9842829696
 40
0.9879181647
 40
0.9912431404
 40
0.9943147592
 40
0.9972049963
 40
1.0
 40
1.0
 40
1.0
 40
1.0
 10
-8.7955038622
 20
4.5856766529
 30
0.0
 10
-8.7957512726
 20
4.5905934528
 30
0.0
 10
-8.7962716325
 20
4.6002206013
 30
0.0
 10
-8.7971495103
 20
4.61432385
 30
0.0
 10
-8.7981055336
 20
4.6277381441
 30
0.0
 10
-8.7991352968
 20
4.640402231
 30
0.0
 10
-8.8002339925
 20
4.6522625254
 30
0.0
 10
-8.8013971075
 20
4.6632699911
 30
0.0
 10
-8.802618762
 20
4.6733777531
 30
0.0
 10
-8.8038940009
 20
4.6825424756
 30
0.0
 10
-8.8050284195
 20
4.6895654965
 30
0.0
 10
-8.8059680588
 20
4.6946801315
 30
0.0
 10
-8.8066605617
 20
4.698135429
 30
0.0
 10
-8.8073622157
 20
4.7013283492
 30
0.0
 10
-8.808072177
 20
4.7042557536
 30
0.0
 10
-8.8087895787
 20
4.7069146648
 30
0.0
 10
-8.8095135475
 20
4.7093022793
 30
0.0
 10
-8.8102433552
 20
4.7114161977
 30
0.0
 10
-8.810977989
 20
4.7132549611
 30
0.0
 10
-8.8117166268
 20
4.7148173648
 30
0.0
 10
-8.8123596571
 20
4.7159324802
 30
0.0
 10
-8.8128819842
 20
4.7166764509
 30
0.0
 10
-8.8132579312
 20
4.7171402005
 30
0.0
 10
-8.8136349006
 20
4.7175337344
 30
0.0
 10
-8.8140131277
 20
4.7178570039
 30
0.0
 10
-8.8143929301
 20
4.71810982
 30
0.0
 10
-8.8147747143
 20
4.7182916533
 30
0.0
 10
-8.8151583585
 20
4.7184015549
 30
0.0
 10
-8.8154167999
 20
4.7184262816
 30
0.0
 10
-8.8155435599
 20
4.7184263168
 30
0.0
  0
SPLINE
  5
458
100
AcDbEntity
  8
0
100
AcDbSpline
 62
7
  6
CONTINUOUS
 70
0
 71
3
 72
15
 73
11
 74
0
 42
0.0000001
 43
0.0000001
 44
0.0000000001
 40
0.0
 40
0.0
 40
0.0
 40
0.0
 40
0.1305892218
 40
0.2591248575
 40
0.3856048389
 40
0.5102478894
 40
0.6334863092
 40
0.755866504
 40
0.8779076124
 40
1.0
 40
1.0
 40
1.0
 40
1.0
 10
-8.8000229484
 20
4.3267756191
 30
0.0
 10
-8.8021907763
 20
4.3215880348
 30
0.0
 10
-8.8062774885
 20
4.3112021803
 30
0.0
 10
-8.8115422422
 20
4.2954480494
 30
0.0
 10
-8.8157426337
 20
4.2796383769
 30
0.0
 10
-8.8187594447
 20
4.2637904182
 30
0.0
 10
-8.8205423088
 20
4.2479337408
 30
0.0
 10
-8.821127739
 20
4.2321015812
 30
0.0
 10
-8.8206271941
 20
4.2163193214
 30
0.0
 10
-8.8196720238
 20
4.2058460934
 30
0.0
 10
-8.8190664782
 20
4.2006245853
 30
0.0
  0
SPLINE
  5
459
100
AcDbEntity
  8
0
100
AcDbSpline
 62
7
  6
CONTINUOUS
 70
0
 71
3
 72
47
 73
43
 74
0
 42
0.0000001
 43
0.0000001
 44
0.0000000001
 40
0.0
 40
0.0
 40
0.0
 40
0.0
 40
0.0036573321
 40
0.0052444637
 40
0.0066822179
 40
0.0079838659
 40
0.0091673996
 40
0.0102568249
 40
0.0112829292
 40
0.0122825285
 40
0.0132954562
 40
0.0155015805
 40
0.0167615209
 40
0.0181521521
 40
0.019688175
 40
0.0213804127
 40
0.0252621174
 40
0.0298405932
 40
0.0351368323
 40
0.0411617986
 40
0.0479207436
 40
0.0554144832
 40
0.063639059
 40
0.0725885691
 40
0.0822560593
 40
0.0926334092
 40
0.1154715708
 40
0.1410041531
 40
0.1691169731
 40
0.1996771624
 40
0.2325420898
 40
0.2675523542
 40
0.3045414845
 40
0.3433285552
 40
0.3837270455
 40
0.4685613002
 40
0.5573927566
 40
0.6484879129
 40
0.7400687446
 40
0.8303443242
 40
0.9175572543
 40
1.0
 40
1.0
 40
1.0
 40
1.0
 10
-8.9598821935
 20
4.6684094656
 30
0.0
 10
-8.9596810801
 20
4.6687632087
 30
0.0
 10
-8.9593696451
 20
4.6692589997
 30
0.0
 10
-8.9589063289
 20
4.6698413232
 30
0.0
 10
-8.9585743637
 20
4.670190955
 30
0.0
 10
-8.9582411549
 20
4.6704744063
 30
0.0
 10
-8.9579062437
 20
4.6706913918
 30
0.0
 10
-8.9575692189
 20
4.670841191
 30
0.0
 10
-8.9572301057
 20
4.6709225868
 30
0.0
 10
-8.9568898473
 20
4.6709342587
 30
0.0
 10
-8.9564242662
 20
4.67085457
 30
0.0
 10
-8.9559688345
 20
4.6706266524
 30
0.0
 10
-8.9555433297
 20
4.6702930291
 30
0.0
 10
-8.955210751
 20
4.6699653823
 30
0.0
 10
-8.954879561
 20
4.6695717373
 30
0.0
 10
-8.9544177572
 20
4.6689286738
 30
0.0
 10
-8.9538504998
 20
4.6679490313
 30
0.0
 10
-8.9532010079
 20
4.6665618362
 30
0.0
 10
-8.9525552116
 20
4.6649138701
 30
0.0
 10
-8.9519139388
 20
4.6630065849
 30
0.0
 10
-8.9512781733
 20
4.6608414423
 30
0.0
 10
-8.9506489159
 20
4.6584207357
 30
0.0
 10
-8.950026915
 20
4.6557473374
 30
0.0
 10
-8.9494130546
 20
4.6528245054
 30
0.0
 10
-8.9488081498
 20
4.6496556433
 30
0.0
 10
-8.9479884061
 20
4.6449552453
 30
0.0
 10
-8.9470026635
 20
4.6384929081
 30
0.0
 10
-8.9459007832
 20
4.6300544727
 30
0.0
 10
-8.9448517667
 20
4.6207442229
 30
0.0
 10
-8.9438607759
 20
4.6106076953
 30
0.0
 10
-8.9429334184
 20
4.5996948144
 30
0.0
 10
-8.9420740938
 20
4.5880590486
 30
0.0
 10
-8.9412876008
 20
4.5757578436
 30
0.0
 10
-8.9405775309
 20
4.5628515627
 30
0.0
 10
-8.939724099
 20
4.5446224562
 30
0.0
 10
-8.9388834091
 20
4.5208195362
 30
0.0
 10
-8.938238326
 20
4.4913684289
 30
0.0
 10
-8.9379550585
 20
4.4611609646
 30
0.0
 10
-8.9380394436
 20
4.4307916483
 30
0.0
 10
-8.9384896523
 20
4.4008574774
 30
0.0
 10
-8.93929648
 20
4.3719478939
 30
0.0
 10
-8.940087789
 20
4.353087673
 30
0.0
 10
-8.940548766
 20
4.3439266529
 30
0.0
  0
SPLINE
  5
45A
100
AcDbEntity
  8
0
100
AcDbSpline
 62
7
  6
CONTINUOUS
 70
0
 71
3
 72
25
 73
21
 74
0
 42
0.0000001
 43
0.0000001
 44
0.0000000001
 40
0.0
 40
0.0
 40
0.0
 40
0.0
 40
0.069872469
 40
0.1383857583
 40
0.2054633413
 40
0.2710670067
 40
0.3352068402
 40
0.3979571844
 40
0.4288597397
 40
0.4594761175
 40
0.5199616156
 40
0.5797011882
 40
0.6093944072
 40
0.6390173222
 40
0.698193401
 40
0.757519814
 40
0.817224503
 40
0.8774745938
 40
0.9383809441
 40
1.0
 40
1.0
 40
1.0
 40
1.0
 10
-8.9182307306
 20
4.3267756191
 30
0.0
 10
-8.9200748858
 20
4.3242358503
 30
0.0
 10
-8.9236422327
 20
4.3191430131
 30
0.0
 10
-8.9286334779
 20
4.3113763906
 30
0.0
 10
-8.9331668006
 20
4.3035536541
 30
0.0
 10
-8.9371913136
 20
4.295676194
 30
0.0
 10
-8.9406583361
 20
4.2877486639
 30
0.0
 10
-8.9430566053
 20
4.2810717066
 30
0.0
 10
-8.9446486242
 20
4.2757200656
 30
0.0
 10
-8.9460080615
 20
4.2704096954
 30
0.0
 10
-8.9472997578
 20
4.2637501189
 30
0.0
 10
-8.9480303907
 20
4.2570471308
 30
0.0
 10
-8.9482770573
 20
4.2517034795
 30
0.0
 10
-8.9483019654
 20
4.2463795216
 30
0.0
 10
-8.947926662
 20
4.2397285712
 30
0.0
 10
-8.9468566797
 20
4.2317879873
 30
0.0
 10
-8.9452119607
 20
4.2238979484
 30
0.0
 10
-8.9430403148
 20
4.2160639599
 30
0.0
 10
-8.9403929049
 20
4.2082880861
 30
0.0
 10
-8.9383551762
 20
4.2031727426
 30
0.0
 10
-8.9372742604
 20
4.2006245853
 30
0.0
  0
SPLINE
  5
45B
100
AcDbEntity
  8
0
100
AcDbSpline
 62
7
  6
CONTINUOUS
 70
0
 71
3
 72
15
 73
11
 74
0
 42
0.0000001
 43
0.0000001
 44
0.0000000001
 40
0.0
 40
0.0
 40
0.0
 40
0.0
 40
0.1220923863
 40
0.2441335045
 40
0.3665137054
 40
0.4897521289
 40
0.6143951879
 40
0.7408751845
 40
0.8694108149
 40
1.0
 40
1.0
 40
1.0
 40
1.0
 10
-8.8190664782
 20
4.7052287205
 30
0.0
 10
-8.8196720238
 20
4.7000072124
 30
0.0
 10
-8.8206271942
 20
4.6895339841
 30
0.0
 10
-8.8211277392
 20
4.6737517237
 30
0.0
 10
-8.8205423089
 20
4.6579195632
 30
0.0
 10
-8.8187594444
 20
4.6420628851
 30
0.0
 10
-8.8157426325
 20
4.6262149254
 30
0.0
 10
-8.8115422406
 20
4.6104052522
 30
0.0
 10
-8.8062774862
 20
4.5946511227
 30
0.0
 10
-8.8021907757
 20
4.5842652695
 30
0.0
 10
-8.8000229484
 20
4.5790776867
 30
0.0
  0
SPLINE
  5
45C
100
AcDbEntity
  8
0
100
AcDbSpline
 62
7
  6
CONTINUOUS
 70
0
 71
3
 72
25
 73
21
 74
0
 42
0.0000001
 43
0.0000001
 44
0.0000000001
 40
0.0
 40
0.0
 40
0.0
 40
0.0
 40
0.0616190559
 40
0.1225254062
 40
0.182775497
 40
0.242480186
 40
0.301806599
 40
0.3609826778
 40
0.3906055928
 40
0.4202988118
 40
0.4800383844
 40
0.5405238825
 40
0.5711402603
 40
0.6020428156
 40
0.6647931598
 40
0.7289329933
 40
0.7945366587
 40
0.8616142417
 40
0.930127531
 40
1.0
 40
1.0
 40
1.0
 40
1.0
 10
-8.9372742604
 20
4.7052287205
 30
0.0
 10
-8.9383551762
 20
4.7026805632
 30
0.0
 10
-8.9403929049
 20
4.6975652197
 30
0.0
 10
-8.9430403148
 20
4.6897893459
 30
0.0
 10
-8.9452119607
 20
4.6819553574
 30
0.0
 10
-8.9468566797
 20
4.6740653185
 30
0.0
 10
-8.947926662
 20
4.6661247346
 30
0.0
 10
-8.9483019654
 20
4.6594737842
 30
0.0
 10
-8.9482770573
 20
4.6541498263
 30
0.0
 10
-8.9480303907
 20
4.648806175
 30
0.0
 10
-8.9472997578
 20
4.6421031868
 30
0.0
 10
-8.9460080615
 20
4.6354436103
 30
0.0
 10
-8.9446486242
 20
4.6301332402
 30
0.0
 10
-8.9430566053
 20
4.6247815992
 30
0.0
 10
-8.9406583361
 20
4.6181046419
 30
0.0
 10
-8.9371913136
 20
4.6101771118
 30
0.0
 10
-8.9331668006
 20
4.6022996517
 30
0.0
 10
-8.9286334779
 20
4.5944769151
 30
0.0
 10
-8.9236422327
 20
4.5867102927
 30
0.0
 10
-8.9200748858
 20
4.5816174555
 30
0.0
 10
-8.9182307306
 20
4.5790776867
 30
0.0
  0
SPLINE
  5
45D
100
AcDbEntity
  8
0
100
AcDbSpline
 62
7
  6
CONTINUOUS
 70
0
 71
3
 72
41
 73
37
 74
0
 42
0.0000001
 43
0.0000001
 44
0.0000000001
 40
0.0
 40
0.0
 40
0.0
 40
0.0
 40
0.1196887876
 40
0.2335462827
 40
0.3408403901
 40
0.4409962107
 40
0.5334876718
 40
0.6178222152
 40
0.6935400246
 40
0.7280490197
 40
0.7602660641
 40
0.7901515855
 40
0.8176764694
 40
0.8428162844
 40
0.8655506337
 40
0.8858677545
 40
0.9037741849
 40
0.919293273
 40
0.9261729565
 40
0.9324775667
 40
0.9382212344
 40
0.9434245121
 40
0.9481157057
 40
0.9523338723
 40
0.9561331656
 40
0.9595880232
 40
0.9627975124
 40
0.9658850093
 40
0.9689890094
 40
0.9722458088
 40
0.9757735341
 40
0.9796652514
 40
0.9839901729
 40
0.9887984629
 40
0.99412631
 40
1.0
 40
1.0
 40
1.0
 40
1.0
 10
-8.940548766
 20
4.3439266529
 30
0.0
 10
-8.9407807546
 20
4.3393163307
 30
0.0
 10
-8.9412716063
 20
4.330322162
 30
0.0
 10
-8.9421120988
 20
4.3172033222
 30
0.0
 10
-8.9430353421
 20
4.3048453185
 30
0.0
 10
-8.9440353808
 20
4.2933201762
 30
0.0
 10
-8.945106604
 20
4.2826909745
 30
0.0
 10
-8.946242247
 20
4.2730168182
 30
0.0
 10
-8.9472658083
 20
4.2655823771
 30
0.0
 10
-8.9481212707
 20
4.2601554578
 30
0.0
 10
-8.9487550066
 20
4.2564834783
 30
0.0
 10
-8.9494000177
 20
4.2530872484
 30
0.0
 10
-8.9500552476
 20
4.2499713634
 30
0.0
 10
-8.9507196251
 20
4.2471399623
 30
0.0
 10
-8.9513920981
 20
4.2445969666
 30
0.0
 10
-8.9520716942
 20
4.2423456639
 30
0.0
 10
-8.9527572149
 20
4.2403887883
 30
0.0
 10
-8.953353932
 20
4.2389519214
 30
0.0
 10
-8.9538396861
 20
4.237956796
 30
0.0
 10
-8.9541902946
 20
4.2373161302
 30
0.0
 10
-8.9545419093
 20
4.236750786
 30
0.0
 10
-8.9548945223
 20
4.2362607894
 30
0.0
 10
-8.9552482206
 20
4.2358460926
 30
0.0
 10
-8.9556032751
 20
4.2355066849
 30
0.0
 10
-8.9559601837
 20
4.2352427487
 30
0.0
 10
-8.9563195911
 20
4.2350549575
 30
0.0
 10
-8.9566818096
 20
4.2349447621
 30
0.0
 10
-8.957045958
 20
4.2349140219
 30
0.0
 10
-8.9574098176
 20
4.2349635465
 30
0.0
 10
-8.9577713982
 20
4.235092114
 30
0.0
 10
-8.9581301661
 20
4.2352978694
 30
0.0
 10
-8.9584865835
 20
4.2355795483
 30
0.0
 10
-8.9588412836
 20
4.2359366246
 30
0.0
 10
-8.959194712
 20
4.2363689871
 30
0.0
 10
-8.9595470819
 20
4.2368766451
 30
0.0
 10
-8.9597702308
 20
4.2372469061
 30
0.0
 10
-8.9598821935
 20
4.2374438404
 30
0.0
  0
SPLINE
  5
45E
100
AcDbEntity
  8
0
100
AcDbSpline
 62
7
  6
CONTINUOUS
 70
0
 71
3
 72
15
 73
11
 74
0
 42
0.0000001
 43
0.0000001
 44
0.0000000001
 40
0.0
 40
0.0
 40
0.0
 40
0.0
 40
0.1249964674
 40
0.2499956899
 40
0.3749971618
 40
0.4999999975
 40
0.6250028277
 40
0.7500042899
 40
0.8750035088
 40
1.0
 40
1.0
 40
1.0
 40
1.0
 10
-8.8000229484
 20
4.5790776867
 30
0.0
 10
-8.801418172
 20
4.568623816
 30
0.0
 10
-8.8039534765
 20
4.5476804301
 30
0.0
 10
-8.8068322831
 20
4.516166121
 30
0.0
 10
-8.8086356131
 20
4.4845697374
 30
0.0
 10
-8.8092507739
 20
4.452926654
 30
0.0
 10
-8.8086356134
 20
4.4212835714
 30
0.0
 10
-8.8068322836
 20
4.3896871894
 30
0.0
 10
-8.8039534778
 20
4.3581728792
 30
0.0
 10
-8.8014181723
 20
4.3372294918
 30
0.0
 10
-8.8000229484
 20
4.3267756191
 30
0.0
  0
SPLINE
  5
45F
100
AcDbEntity
  8
0
100
AcDbSpline
 62
7
  6
CONTINUOUS
 70
0
 71
3
 72
15
 73
11
 74
0
 42
0.0000001
 43
0.0000001
 44
0.0000000001
 40
0.0
 40
0.0
 40
0.0
 40
0.0
 40
0.1453524083
 40
0.2868079831
 40
0.4230969843
 40
0.5529474777
 40
0.6754525845
 40
0.7903911539
 40
0.8982555593
 40
1.0
 40
1.0
 40
1.0
 40
1.0
 10
-5.5114662481
 20
-7.1930796981
 30
0.0
 10
-5.5185738639
 20
-7.1887271901
 30
0.0
 10
-5.5325134064
 20
-7.1799982401
 30
0.0
 10
-5.5527335439
 20
-7.1665868207
 30
0.0
 10
-5.5717727173
 20
-7.1530229917
 30
0.0
 10
-5.5893822362
 20
-7.1393539775
 30
0.0
 10
-5.6053880432
 20
-7.1256524066
 30
0.0
 10
-5.6197443747
 20
-7.1120033056
 30
0.0
 10
-5.6325412462
 20
-7.0984812132
 30
0.0
 10
-5.6403590467
 20
-7.0893454917
 30
0.0
 10
-5.6440487695
 20
-7.0848265226
 30
0.0
  0
SPLINE
  5
460
100
AcDbEntity
  8
0
100
AcDbSpline
 62
7
  6
CONTINUOUS
 70
0
 71
3
 72
19
 73
15
 74
0
 42
0.0000001
 43
0.0000001
 44
0.0000000001
 40
0.0
 40
0.0
 40
0.0
 40
0.0
 40
0.1239135187
 40
0.2486584689
 40
0.3113153546
 40
0.3741210923
 40
0.4370327446
 40
0.5
 40
0.5629672554
 40
0.6258789077
 40
0.6886846454
 40
0.7513415311
 40
0.8760864813
 40
1.0
 40
1.0
 40
1.0
 40
1.0
 10
-5.6440487695
 20
-7.0848265226
 30
0.0
 10
-5.6458509906
 20
-7.0759974784
 30
0.0
 10
-5.649149958
 20
-7.0582130218
 30
0.0
 10
-5.6523017693
 20
-7.0357848457
 30
0.0
 10
-5.6541354571
 20
-7.0176801976
 30
0.0
 10
-5.6551409616
 20
-7.0040165305
 30
0.0
 10
-5.6557531759
 20
-6.9903069197
 30
0.0
 10
-5.6559592865
 20
-6.9765733471
 30
0.0
 10
-5.6557531759
 20
-6.9628397745
 30
0.0
 10
-5.6551409616
 20
-6.9491301637
 30
0.0
 10
-5.6541354571
 20
-6.9354664966
 30
0.0
 10
-5.6523017693
 20
-6.9173618485
 30
0.0
 10
-5.649149958
 20
-6.8949336725
 30
0.0
 10
-5.6458509906
 20
-6.8771492158
 30
0.0
 10
-5.6440487695
 20
-6.8683201716
 30
0.0
  0
SPLINE
  5
461
100
AcDbEntity
  8
0
100
AcDbSpline
 62
7
  6
CONTINUOUS
 70
0
 71
3
 72
15
 73
11
 74
0
 42
0.0000001
 43
0.0000001
 44
0.0000000001
 40
0.0
 40
0.0
 40
0.0
 40
0.0
 40
0.1017444407
 40
0.2096088461
 40
0.3245474155
 40
0.4470525223
 40
0.5769030157
 40
0.7131920169
 40
0.8546475917
 40
1.0
 40
1.0
 40
1.0
 40
1.0
 10
-5.6440487695
 20
-6.8683201716
 30
0.0
 10
-5.6403590467
 20
-6.8638012025
 30
0.0
 10
-5.6325412462
 20
-6.854665481
 30
0.0
 10
-5.6197443747
 20
-6.8411433886
 30
0.0
 10
-5.6053880432
 20
-6.8274942876
 30
0.0
 10
-5.5893822362
 20
-6.8137927168
 30
0.0
 10
-5.5717727173
 20
-6.8001237025
 30
0.0
 10
-5.5527335439
 20
-6.7865598735
 30
0.0
 10
-5.5325134064
 20
-6.7731484541
 30
0.0
 10
-5.5185738639
 20
-6.7644195042
 30
0.0
 10
-5.5114662481
 20
-6.7600669962
 30
0.0
  0
SPLINE
  5
462
100
AcDbEntity
  8
0
100
AcDbSpline
 62
7
  6
CONTINUOUS
 70
0
 71
3
 72
18
 73
14
 74
0
 42
0.0000001
 43
0.0000001
 44
0.0000000001
 40
0.0
 40
0.0
 40
0.0
 40
0.0
 40
0.1219730971
 40
0.1839754588
 40
0.2465198403
 40
0.3095102951
 40
0.3728376439
 40
0.436389733
 40
0.5000543644
 40
0.6272420788
 40
0.7535297939
 40
0.8780497529
 40
1.0
 40
1.0
 40
1.0
 40
1.0
 10
-5.1905147614
 20
-6.8571104602
 30
0.0
 10
-5.187112317
 20
-6.8664127694
 30
0.0
 10
-5.1826452626
 20
-6.8806984384
 30
0.0
 10
-5.1779627002
 20
-6.9001663263
 30
0.0
 10
-5.1750555286
 20
-6.9151210091
 30
0.0
 10
-5.1727843439
 20
-6.9302934481
 30
0.0
 10
-5.1711554352
 20
-6.9456305401
 30
0.0
 10
-5.1701765762
 20
-6.9610778483
 30
0.0
 10
-5.1697410363
 20
-6.9817376001
 30
0.0
 10
-5.1708262358
 20
-7.0075018769
 30
0.0
 10
-5.174713907
 20
-7.0379878735
 30
0.0
 10
-5.1811320432
 20
-7.0676079749
 30
0.0
 10
-5.187114778
 20
-7.0867430151
 30
0.0
 10
-5.1905171927
 20
-7.0960433593
 30
0.0
  0
SPLINE
  5
463
100
AcDbEntity
  8
0
100
AcDbSpline
 62
7
  6
CONTINUOUS
 70
0
 71
3
 72
9
 73
5
 74
0
 42
0.0000001
 43
0.0000001
 44
0.0000000001
 40
0.0
 40
0.0
 40
0.0
 40
0.0
 40
0.5066617877
 40
1.0
 40
1.0
 40
1.0
 40
1.0
 10
-5.1905171927
 20
-7.0960433593
 30
0.0
 10
-5.1932804252
 20
-7.103596528
 30
0.0
 10
-5.1993137101
 20
-7.118299675
 30
0.0
 10
-5.2065383345
 20
-7.1324587555
 30
0.0
 10
-5.2104022115
 20
-7.1392704323
 30
0.0
  0
SPLINE
  5
464
100
AcDbEntity
  8
0
100
AcDbSpline
 62
7
  6
CONTINUOUS
 70
0
 71
3
 72
20
 73
16
 74
0
 42
0.0000001
 43
0.0000001
 44
0.0000000001
 40
0.0
 40
0.0
 40
0.0
 40
0.0
 40
0.1410112706
 40
0.2768626041
 40
0.4074926723
 40
0.4709344808
 40
0.5331730669
 40
0.5942791408
 40
0.6543438205
 40
0.7134742423
 40
0.7717963714
 40
0.8294507779
 40
0.8865915881
 40
0.943383992
 40
1.0
 40
1.0
 40
1.0
 40
1.0
 10
-5.2104022115
 20
-7.1392704323
 30
0.0
 10
-5.2146142795
 20
-7.1466959393
 30
0.0
 10
-5.2235959024
 20
-7.1608885165
 30
0.0
 10
-5.2389354881
 20
-7.1802677146
 30
0.0
 10
-5.2530685063
 20
-7.1944561254
 30
0.0
 10
-5.2650041135
 20
-7.204385974
 30
0.0
 10
-5.2741492605
 20
-7.2110516266
 30
0.0
 10
-5.2835456374
 20
-7.2169837167
 30
0.0
 10
-5.2931632356
 20
-7.2221652723
 30
0.0
 10
-5.3029728806
 20
-7.2265780744
 30
0.0
 10
-5.3129433831
 20
-7.2302086852
 30
0.0
 10
-5.3230434009
 20
-7.2330454487
 30
0.0
 10
-5.3332415155
 20
-7.2350778204
 30
0.0
 10
-5.3435042082
 20
-7.2363009837
 30
0.0
 10
-5.3503731568
 20
-7.2365730842
 30
0.0
 10
-5.3538007448
 20
-7.2365731603
 30
0.0
  0
SPLINE
  5
465
100
AcDbEntity
  8
0
100
AcDbSpline
 62
7
  6
CONTINUOUS
 70
0
 71
3
 72
9
 73
5
 74
0
 42
0.0000001
 43
0.0000001
 44
0.0000000001
 40
0.0
 40
0.0
 40
0.0
 40
0.0
 40
0.5053805904
 40
1.0
 40
1.0
 40
1.0
 40
1.0
 10
-5.1945897046
 20
-6.8465733471
 30
0.0
 10
-5.1969842534
 20
-6.8407079245
 30
0.0
 10
-5.2020907439
 20
-6.8292485636
 30
0.0
 10
-5.2079460136
 20
-6.8181517159
 30
0.0
 10
-5.2110312265
 20
-6.8127732949
 30
0.0
  0
SPLINE
  5
466
100
AcDbEntity
  8
0
100
AcDbSpline
 62
7
  6
CONTINUOUS
 70
0
 71
3
 72
21
 73
17
 74
0
 42
0.0000001
 43
0.0000001
 44
0.0000000001
 40
0.0
 40
0.0
 40
0.0
 40
0.0
 40
0.1408985898
 40
0.2094532213
 40
0.2767094393
 40
0.4072794677
 40
0.4707041016
 40
0.5329344812
 40
0.5940434245
 40
0.6541197052
 40
0.7132713576
 40
0.771622953
 40
0.8293136952
 40
0.8864969702
 40
0.9433354568
 40
1.0
 40
1.0
 40
1.0
 40
1.0
 10
-5.2110312265
 20
-6.8127732949
 30
0.0
 10
-5.2152464556
 20
-6.8054249275
 30
0.0
 10
-5.222045471
 20
-6.7947906492
 30
0.0
 10
-5.2320982906
 20
-6.7815258558
 30
0.0
 10
-5.2424575973
 20
-6.7693032238
 30
0.0
 10
-5.2536190024
 20
-6.7581887203
 30
0.0
 10
-5.2655039537
 20
-6.7483737791
 30
0.0
 10
-5.2746083629
 20
-6.7417866531
 30
0.0
 10
-5.2839584396
 20
-6.7359238548
 30
0.0
 10
-5.2935265917
 20
-6.7308044753
 30
0.0
 10
-5.3032829999
 20
-6.7264447543
 30
0.0
 10
-5.3131972463
 20
-6.7228577286
 30
0.0
 10
-5.3232390253
 20
-6.7200566477
 30
0.0
 10
-5.3333766576
 20
-6.718048623
 30
0.0
 10
-5.3435779832
 20
-6.716841787
 30
0.0
 10
-5.3504053783
 20
-6.7165734582
 30
0.0
 10
-5.353812331
 20
-6.7165735339
 30
0.0
  0
SPLINE
  5
467
100
AcDbEntity
  8
0
100
AcDbSpline
 62
7
  6
CONTINUOUS
 70
0
 71
3
 72
11
 73
7
 74
0
 42
0.0000001
 43
0.0000001
 44
0.0000000001
 40
0.0
 40
0.0
 40
0.0
 40
0.0
 40
0.2401732686
 40
0.4850365616
 40
0.7374846583
 40
1.0
 40
1.0
 40
1.0
 40
1.0
 10
-5.4046475155
 20
-7.1930796981
 30
0.0
 10
-5.4040426457
 20
-7.1930796981
 30
0.0
 10
-5.4028182517
 20
-7.1931995659
 30
0.0
 10
-5.4010256112
 20
-7.1937216489
 30
0.0
 10
-5.3993027256
 20
-7.1945744242
 30
0.0
 10
-5.3982399744
 20
-7.1953271571
 30
0.0
 10
-5.3977276048
 20
-7.1957449854
 30
0.0
  0
SPLINE
  5
468
100
AcDbEntity
  8
0
100
AcDbSpline
 62
7
  6
CONTINUOUS
 70
0
 71
3
 72
11
 73
7
 74
0
 42
0.0000001
 43
0.0000001
 44
0.0000000001
 40
0.0
 40
0.0
 40
0.0
 40
0.0
 40
0.2401732686
 40
0.4850365616
 40
0.7374846583
 40
1.0
 40
1.0
 40
1.0
 40
1.0
 10
-5.4046475155
 20
-6.7600669962
 30
0.0
 10
-5.4040426457
 20
-6.7600669962
 30
0.0
 10
-5.4028182517
 20
-6.7599471283
 30
0.0
 10
-5.4010256112
 20
-6.7594250453
 30
0.0
 10
-5.3993027256
 20
-6.75857227
 30
0.0
 10
-5.3982399744
 20
-6.7578195371
 30
0.0
 10
-5.3977276048
 20
-6.7574017088
 30
0.0
  0
SPLINE
  5
469
100
AcDbEntity
  8
0
100
AcDbSpline
 62
7
  6
CONTINUOUS
 70
0
 71
3
 72
15
 73
11
 74
0
 42
0.0000001
 43
0.0000001
 44
0.0000000001
 40
0.0
 40
0.0
 40
0.0
 40
0.0
 40
0.119057511
 40
0.2387427078
 40
0.3596605012
 40
0.482372663
 40
0.6073780386
 40
0.7351040355
 40
0.8658915427
 40
1.0
 40
1.0
 40
1.0
 40
1.0
 10
-5.3891560838
 20
-7.2365731603
 30
0.0
 10
-5.3936275752
 20
-7.2365732596
 30
0.0
 10
-5.402600998
 20
-7.2361100327
 30
0.0
 10
-5.4159700618
 20
-7.2340277087
 30
0.0
 10
-5.4291942006
 20
-7.2305718433
 30
0.0
 10
-5.4421992865
 20
-7.225760147
 30
0.0
 10
-5.4549168753
 20
-7.2196224304
 30
0.0
 10
-5.4672782308
 20
-7.2121906302
 30
0.0
 10
-5.479218656
 20
-7.2035088756
 30
0.0
 10
-5.4867600073
 20
-7.197000227
 30
0.0
 10
-5.4904418952
 20
-7.1935632644
 30
0.0
  0
SPLINE
  5
46A
100
AcDbEntity
  8
0
100
AcDbSpline
 62
7
  6
CONTINUOUS
 70
0
 71
3
 72
17
 73
13
 74
0
 42
0.0000001
 43
0.0000001
 44
0.0000000001
 40
0.0
 40
0.0
 40
0.0
 40
0.0
 40
0.1189994808
 40
0.2386330948
 40
0.2988987019
 40
0.3595485145
 40
0.4822355288
 40
0.5444348928
 40
0.6072696525
 40
0.7350094912
 40
0.8658344983
 40
1.0
 40
1.0
 40
1.0
 40
1.0
 10
-5.3891676701
 20
-6.7165735339
 30
0.0
 10
-5.3936602397
 20
-6.7165736337
 30
0.0
 10
-5.4026758404
 20
-6.7170423465
 30
0.0
 10
-5.4138443677
 20
-6.7187912304
 30
0.0
 10
-5.4226873595
 20
-6.7208735536
 30
0.0
 10
-5.4315251361
 20
-6.7234290334
 30
0.0
 10
-5.4402299842
 20
-6.7266657447
 30
0.0
 10
-5.4487430316
 20
-6.7305439869
 30
0.0
 10
-5.4572348745
 20
-6.7349047281
 30
0.0
 10
-5.4676349185
 20
-6.7411900345
 30
0.0
 10
-5.4796161588
 20
-6.7499524955
 30
0.0
 10
-5.4871807925
 20
-6.7565191653
 30
0.0
 10
-5.4908728566
 20
-6.759986759
 30
0.0
  0
SPLINE
  5
46B
100
AcDbEntity
  8
0
100
AcDbSpline
 62
7
  6
CONTINUOUS
 70
0
 71
3
 72
19
 73
15
 74
0
 42
0.0000001
 43
0.0000001
 44
0.0000000001
 40
0.0
 40
0.0
 40
0.0
 40
0.0
 40
0.1239135187
 40
0.2486584689
 40
0.3113153546
 40
0.3741210923
 40
0.4370327446
 40
0.5
 40
0.5629672554
 40
0.6258789077
 40
0.6886846454
 40
0.7513415311
 40
0.8760864813
 40
1.0
 40
1.0
 40
1.0
 40
1.0
 10
-5.3788837266
 20
-6.8683201716
 30
0.0
 10
-5.3806859477
 20
-6.8771492158
 30
0.0
 10
-5.3839849151
 20
-6.8949336725
 30
0.0
 10
-5.3871367263
 20
-6.9173618485
 30
0.0
 10
-5.3889704142
 20
-6.9354664966
 30
0.0
 10
-5.3899759186
 20
-6.9491301637
 30
0.0
 10
-5.390588133
 20
-6.9628397745
 30
0.0
 10
-5.3907942435
 20
-6.9765733471
 30
0.0
 10
-5.390588133
 20
-6.9903069197
 30
0.0
 10
-5.3899759186
 20
-7.0040165305
 30
0.0
 10
-5.3889704142
 20
-7.0176801976
 30
0.0
 10
-5.3871367263
 20
-7.0357848457
 30
0.0
 10
-5.3839849151
 20
-7.0582130218
 30
0.0
 10
-5.3806859477
 20
-7.0759974784
 30
0.0
 10
-5.3788837266
 20
-7.0848265226
 30
0.0
  0
SPLINE
  5
46C
100
AcDbEntity
  8
0
100
AcDbSpline
 62
7
  6
CONTINUOUS
 70
0
 71
3
 72
17
 73
13
 74
0
 42
0.0000001
 43
0.0000001
 44
0.0000000001
 40
0.0
 40
0.0
 40
0.0
 40
0.0
 40
0.0507521541
 40
0.1062279752
 40
0.1656818145
 40
0.2283685672
 40
0.3603916239
 40
0.4965882669
 40
0.6320482742
 40
0.7629485808
 40
0.8864675634
 40
1.0
 40
1.0
 40
1.0
 40
1.0
 10
-5.272064994
 20
-7.0848265226
 30
0.0
 10
-5.2714906906
 20
-7.0848265226
 30
0.0
 10
-5.2702884046
 20
-7.0848811197
 30
0.0
 10
-5.2684247177
 20
-7.0850952683
 30
0.0
 10
-5.2664440592
 20
-7.0854430125
 30
0.0
 10
-5.2636394283
 20
-7.0860844771
 30
0.0
 10
-5.2600499425
 20
-7.0871669955
 30
0.0
 10
-5.2557822231
 20
-7.0888054338
 30
0.0
 10
-5.2516451362
 20
-7.0907197692
 30
0.0
 10
-5.2477659482
 20
-7.0928278942
 30
0.0
 10
-5.2442460989
 20
-7.0950577356
 30
0.0
 10
-5.242088853
 20
-7.0966579683
 30
0.0
 10
-5.241093717
 20
-7.0974704935
 30
0.0
  0
SPLINE
  5
46D
100
AcDbEntity
  8
0
100
AcDbSpline
 62
7
  6
CONTINUOUS
 70
0
 71
3
 72
17
 73
13
 74
0
 42
0.0000001
 43
0.0000001
 44
0.0000000001
 40
0.0
 40
0.0
 40
0.0
 40
0.0
 40
0.0507521541
 40
0.1062279752
 40
0.1656818145
 40
0.2283685672
 40
0.3603916239
 40
0.4965882669
 40
0.6320482742
 40
0.7629485808
 40
0.8864675634
 40
1.0
 40
1.0
 40
1.0
 40
1.0
 10
-5.272064994
 20
-6.8683201716
 30
0.0
 10
-5.2714906906
 20
-6.8683201716
 30
0.0
 10
-5.2702884046
 20
-6.8682655745
 30
0.0
 10
-5.2684247177
 20
-6.8680514259
 30
0.0
 10
-5.2664440592
 20
-6.8677036817
 30
0.0
 10
-5.2636394283
 20
-6.8670622171
 30
0.0
 10
-5.2600499425
 20
-6.8659796987
 30
0.0
 10
-5.2557822231
 20
-6.8643412604
 30
0.0
 10
-5.2516451362
 20
-6.862426925
 30
0.0
 10
-5.2477659482
 20
-6.8603188
 30
0.0
 10
-5.2442460989
 20
-6.8580889586
 30
0.0
 10
-5.242088853
 20
-6.8564887259
 30
0.0
 10
-5.241093717
 20
-6.8556762007
 30
0.0
  0
SPLINE
  5
46E
100
AcDbEntity
  8
0
100
AcDbSpline
 62
7
  6
CONTINUOUS
 70
0
 71
3
 72
15
 73
11
 74
0
 42
0.0000001
 43
0.0000001
 44
0.0000000001
 40
0.0
 40
0.0
 40
0.0
 40
0.0
 40
0.1453524083
 40
0.2868079831
 40
0.4230969843
 40
0.5529474777
 40
0.6754525845
 40
0.7903911539
 40
0.8982555593
 40
1.0
 40
1.0
 40
1.0
 40
1.0
 10
-5.3788837266
 20
-7.0848265226
 30
0.0
 10
-5.3859913424
 20
-7.0891790306
 30
0.0
 10
-5.399930885
 20
-7.0979079805
 30
0.0
 10
-5.4201510225
 20
-7.1113194
 30
0.0
 10
-5.4391901959
 20
-7.1248832289
 30
0.0
 10
-5.4567997148
 20
-7.1385522432
 30
0.0
 10
-5.4728055217
 20
-7.152253814
 30
0.0
 10
-5.4871618533
 20
-7.165902915
 30
0.0
 10
-5.4999587248
 20
-7.1794250075
 30
0.0
 10
-5.5077765252
 20
-7.1885607289
 30
0.0
 10
-5.5114662481
 20
-7.1930796981
 30
0.0
  0
SPLINE
  5
46F
100
AcDbEntity
  8
0
100
AcDbSpline
 62
7
  6
CONTINUOUS
 70
0
 71
3
 72
21
 73
17
 74
0
 42
0.0000001
 43
0.0000001
 44
0.0000000001
 40
0.0
 40
0.0
 40
0.0
 40
0.0
 40
0.1409036607
 40
0.2094604769
 40
0.2767185847
 40
0.4072912582
 40
0.4707165708
 40
0.5329471585
 40
0.5940558339
 40
0.654131383
 40
0.7132818607
 40
0.7716318841
 40
0.8293207125
 40
0.8865018045
 40
0.9433379216
 40
1.0
 40
1.0
 40
1.0
 40
1.0
 10
-5.2463559887
 20
-6.8128266135
 30
0.0
 10
-5.2505710916
 20
-6.8054744964
 30
0.0
 10
-5.257370254
 20
-6.7948346821
 30
0.0
 10
-5.2674239734
 20
-6.7815627664
 30
0.0
 10
-5.2777845413
 20
-6.7693335193
 30
0.0
 10
-5.2889478197
 20
-6.7582128291
 30
0.0
 10
-5.3008352454
 20
-6.7483923021
 30
0.0
 10
-5.3099417021
 20
-6.7418014085
 30
0.0
 10
-5.3192940426
 20
-6.735935229
 30
0.0
 10
-5.3288646474
 20
-6.7308128691
 30
0.0
 10
-5.3386236769
 20
-6.7264505964
 30
0.0
 10
-5.3485406838
 20
-6.722861457
 30
0.0
 10
-5.3585853375
 20
-6.7200587183
 30
0.0
 10
-5.3687259307
 20
-6.7180495018
 30
0.0
 10
-5.3789302743
 20
-6.7168419469
 30
0.0
 10
-5.3857597054
 20
-6.7165734582
 30
0.0
 10
-5.3891676701
 20
-6.7165735339
 30
0.0
  0
SPLINE
  5
470
100
AcDbEntity
  8
0
100
AcDbSpline
 62
7
  6
CONTINUOUS
 70
0
 71
3
 72
21
 73
17
 74
0
 42
0.0000001
 43
0.0000001
 44
0.0000000001
 40
0.0
 40
0.0
 40
0.0
 40
0.0
 40
0.0605764875
 40
0.1221305202
 40
0.1844937186
 40
0.2475318565
 40
0.3111059387
 40
0.3750570052
 40
0.4392220538
 40
0.5034375974
 40
0.5675398071
 40
0.6313651133
 40
0.7575094899
 40
0.8195724371
 40
0.880763366
 40
1.0
 40
1.0
 40
1.0
 40
1.0
 10
-5.2299450437
 20
-6.8465733471
 30
0.0
 10
-5.2277319593
 20
-6.8519942747
 30
0.0
 10
-5.2235886957
 20
-6.8630563951
 30
0.0
 10
-5.2182726562
 20
-6.8800875415
 30
0.0
 10
-5.213832393
 20
-6.8976135834
 30
0.0
 10
-5.210289491
 20
-6.9155414176
 30
0.0
 10
-5.2076624077
 20
-6.9337810774
 30
0.0
 10
-5.2059632281
 20
-6.952239672
 30
0.0
 10
-5.2052021854
 20
-6.9708227207
 30
0.0
 10
-5.2053819656
 20
-6.9894348492
 30
0.0
 10
-5.2065024625
 20
-7.0079820239
 30
0.0
 10
-5.2092310679
 20
-7.0323960834
 30
0.0
 10
-5.2137986317
 20
-7.0563794353
 30
0.0
 10
-5.2202023341
 20
-7.0796308672
 30
0.0
 10
-5.2276593929
 20
-7.1018600569
 30
0.0
 10
-5.2345955047
 20
-7.1179186051
 30
0.0
 10
-5.2398123392
 20
-7.1281956385
 30
0.0
  0
SPLINE
  5
471
100
AcDbEntity
  8
0
100
AcDbSpline
 62
7
  6
CONTINUOUS
 70
0
 71
3
 72
20
 73
16
 74
0
 42
0.0000001
 43
0.0000001
 44
0.0000000001
 40
0.0
 40
0.0
 40
0.0
 40
0.0
 40
0.141015485
 40
0.2768702674
 40
0.407502578
 40
0.4709449652
 40
0.5331837383
 40
0.5942895951
 40
0.6543536632
 40
0.713483101
 40
0.7718039065
 40
0.8294567009
 40
0.8865956693
 40
0.9433860732
 40
1.0
 40
1.0
 40
1.0
 40
1.0
 10
-5.245731851
 20
-7.1392251159
 30
0.0
 10
-5.2499437931
 20
-7.1466538007
 30
0.0
 10
-5.2589255304
 20
-7.1608525621
 30
0.0
 10
-5.2742664285
 20
-7.1802405363
 30
0.0
 10
-5.2884014498
 20
-7.1944356121
 30
0.0
 10
-5.3003391363
 20
-7.2043702089
 30
0.0
 10
-5.3094860052
 20
-7.211039067
 30
0.0
 10
-5.3188842895
 20
-7.2169740352
 30
0.0
 10
-5.3285039588
 20
-7.2221581242
 30
0.0
 10
-5.3383158164
 20
-7.2265731013
 30
0.0
 10
-5.348288653
 20
-7.2302055092
 30
0.0
 10
-5.3583911014
 20
-7.2330436854
 30
0.0
 10
-5.3685917211
 20
-7.2350770717
 30
0.0
 10
-5.3788569677
 20
-7.2363008472
 30
0.0
 10
-5.3857276394
 20
-7.2365730842
 30
0.0
 10
-5.3891560838
 20
-7.2365731603
 30
0.0
  0
SPLINE
  5
472
100
AcDbEntity
  8
0
100
AcDbSpline
 62
7
  6
CONTINUOUS
 70
0
 71
3
 72
45
 73
41
 74
0
 42
0.0000001
 43
0.0000001
 44
0.0000000001
 40
0.0
 40
0.0
 40
0.0
 40
0.0
 40
0.0128513267
 40
0.0257402646
 40
0.038691441
 40
0.051730823
 40
0.0648871307
 40
0.0781878531
 40
0.1053036192
 40
0.1332505709
 40
0.1621439873
 40
0.1920543393
 40
0.2230077703
 40
0.2549895349
 40
0.287948694
 40
0.3218028922
 40
0.3564428168
 40
0.3917370601
 40
0.4275370898
 40
0.4636814477
 40
0.5
 40
0.5363185523
 40
0.5724629102
 40
0.6082629399
 40
0.6435571832
 40
0.6781971078
 40
0.712051306
 40
0.7450104651
 40
0.7769922297
 40
0.8079456607
 40
0.8378560127
 40
0.8667494291
 40
0.8946963808
 40
0.9218121469
 40
0.9351128693
 40
0.948269177
 40
0.961308559
 40
0.9742597354
 40
0.9871486733
 40
1.0
 40
1.0
 40
1.0
 40
1.0
 10
-5.5235121654
 20
-6.7895733471
 30
0.0
 10
-5.5213489325
 20
-6.7895733471
 30
0.0
 10
-5.5170146461
 20
-6.7897243478
 30
0.0
 10
-5.5105321484
 20
-6.7904012595
 30
0.0
 10
-5.5040799979
 20
-6.7915274334
 30
0.0
 10
-5.4976760397
 20
-6.7931009749
 30
0.0
 10
-5.4913354054
 20
-6.7951168782
 30
0.0
 10
-5.4829340764
 20
-6.7984086211
 30
0.0
 10
-5.4726457476
 20
-6.8036365692
 30
0.0
 10
-5.4608881261
 20
-6.8115338331
 30
0.0
 10
-5.4497442348
 20
-6.8210160346
 30
0.0
 10
-5.4393198011
 20
-6.8319885895
 30
0.0
 10
-5.4297118891
 20
-6.8443450135
 30
0.0
 10
-5.4210098729
 20
-6.8579657072
 30
0.0
 10
-5.4132948659
 20
-6.8727199589
 30
0.0
 10
-5.4066394525
 20
-6.8884667885
 30
0.0
 10
-5.401106372
 20
-6.9050557434
 30
0.0
 10
-5.3967474581
 20
-6.9223282047
 30
0.0
 10
-5.3936039567
 20
-6.9401191894
 30
0.0
 10
-5.3917060328
 20
-6.9582587239
 30
0.0
 10
-5.3910714521
 20
-6.9765733471
 30
0.0
 10
-5.3917060328
 20
-6.9948879703
 30
0.0
 10
-5.3936039567
 20
-7.0130275048
 30
0.0
 10
-5.3967474581
 20
-7.0308184895
 30
0.0
 10
-5.401106372
 20
-7.0480909508
 30
0.0
 10
-5.4066394525
 20
-7.0646799057
 30
0.0
 10
-5.4132948659
 20
-7.0804267353
 30
0.0
 10
-5.4210098729
 20
-7.095180987
 30
0.0
 10
-5.4297118891
 20
-7.1088016807
 30
0.0
 10
-5.4393198011
 20
-7.1211581047
 30
0.0
 10
-5.4497442348
 20
-7.1321306596
 30
0.0
 10
-5.4608881261
 20
-7.1416128611
 30
0.0
 10
-5.4726457476
 20
-7.149510125
 30
0.0
 10
-5.4829340764
 20
-7.1547380731
 30
0.0
 10
-5.4913354054
 20
-7.158029816
 30
0.0
 10
-5.4976760397
 20
-7.1600457193
 30
0.0
 10
-5.5040799979
 20
-7.1616192608
 30
0.0
 10
-5.5105321484
 20
-7.1627454347
 30
0.0
 10
-5.5170146461
 20
-7.1634223464
 30
0.0
 10
-5.5213489325
 20
-7.1635733471
 30
0.0
 10
-5.5235121654
 20
-7.1635733471
 30
0.0
  0
SPLINE
  5
473
100
AcDbEntity
  8
0
100
AcDbSpline
 62
7
  6
CONTINUOUS
 70
0
 71
3
 72
15
 73
11
 74
0
 42
0.0000001
 43
0.0000001
 44
0.0000000001
 40
0.0
 40
0.0
 40
0.0
 40
0.0
 40
0.1093848924
 40
0.2247529651
 40
0.3455303054
 40
0.4709316038
 40
0.5999829275
 40
0.7318632405
 40
0.865594525
 40
1.0
 40
1.0
 40
1.0
 40
1.0
 10
-5.3977276048
 20
-7.1957449854
 30
0.0
 10
-5.3970237242
 20
-7.1963189875
 30
0.0
 10
-5.3956864156
 20
-7.1976355827
 30
0.0
 10
-5.3939652712
 20
-7.1999417158
 30
0.0
 10
-5.3924933091
 20
-7.2025666855
 30
0.0
 10
-5.3912809669
 20
-7.2054429576
 30
0.0
 10
-5.390334794
 20
-7.2085131525
 30
0.0
 10
-5.3896581689
 20
-7.211723901
 30
0.0
 10
-5.389252359
 20
-7.2150241572
 30
0.0
 10
-5.389161877
 20
-7.2172516321
 30
0.0
 10
-5.389161877
 20
-7.2183676398
 30
0.0
  0
SPLINE
  5
474
100
AcDbEntity
  8
0
100
AcDbSpline
 62
7
  6
CONTINUOUS
 70
0
 71
3
 72
15
 73
11
 74
0
 42
0.0000001
 43
0.0000001
 44
0.0000000001
 40
0.0
 40
0.0
 40
0.0
 40
0.0
 40
0.1017444407
 40
0.2096088461
 40
0.3245474155
 40
0.4470525223
 40
0.5769030157
 40
0.7131920169
 40
0.8546475917
 40
1.0
 40
1.0
 40
1.0
 40
1.0
 10
-5.5114662481
 20
-6.7600669962
 30
0.0
 10
-5.5077765252
 20
-6.7645859653
 30
0.0
 10
-5.4999587248
 20
-6.7737216868
 30
0.0
 10
-5.4871618533
 20
-6.7872437792
 30
0.0
 10
-5.4728055217
 20
-6.8008928802
 30
0.0
 10
-5.4567997148
 20
-6.814594451
 30
0.0
 10
-5.4391901959
 20
-6.8282634653
 30
0.0
 10
-5.4201510225
 20
-6.8418272942
 30
0.0
 10
-5.399930885
 20
-6.8552387137
 30
0.0
 10
-5.3859913424
 20
-6.8639676636
 30
0.0
 10
-5.3788837266
 20
-6.8683201716
 30
0.0
  0
SPLINE
  5
475
100
AcDbEntity
  8
0
100
AcDbSpline
 62
7
  6
CONTINUOUS
 70
0
 71
3
 72
15
 73
11
 74
0
 42
0.0000001
 43
0.0000001
 44
0.0000000001
 40
0.0
 40
0.0
 40
0.0
 40
0.0
 40
0.1093848924
 40
0.2247529651
 40
0.3455303054
 40
0.4709316038
 40
0.5999829275
 40
0.7318632405
 40
0.865594525
 40
1.0
 40
1.0
 40
1.0
 40
1.0
 10
-5.3977276048
 20
-6.7574017088
 30
0.0
 10
-5.3970237242
 20
-6.7568277067
 30
0.0
 10
-5.3956864156
 20
-6.7555111115
 30
0.0
 10
-5.3939652712
 20
-6.7532049784
 30
0.0
 10
-5.3924933091
 20
-6.7505800087
 30
0.0
 10
-5.3912809669
 20
-6.7477037366
 30
0.0
 10
-5.390334794
 20
-6.7446335417
 30
0.0
 10
-5.3896581689
 20
-6.7414227932
 30
0.0
 10
-5.389252359
 20
-6.738122537
 30
0.0
 10
-5.389161877
 20
-6.7358950621
 30
0.0
 10
-5.389161877
 20
-6.7347790544
 30
0.0
  0
SPLINE
  5
476
100
AcDbEntity
  8
0
100
AcDbSpline
 62
7
  6
CONTINUOUS
 70
0
 71
3
 72
45
 73
41
 74
0
 42
0.0000001
 43
0.0000001
 44
0.0000000001
 40
0.0
 40
0.0
 40
0.0
 40
0.0
 40
0.0128513267
 40
0.0257402646
 40
0.038691441
 40
0.051730823
 40
0.0648871307
 40
0.0781878531
 40
0.1053036192
 40
0.1332505709
 40
0.1621439873
 40
0.1920543393
 40
0.2230077703
 40
0.2549895349
 40
0.287948694
 40
0.3218028922
 40
0.3564428168
 40
0.3917370601
 40
0.4275370898
 40
0.4636814477
 40
0.5
 40
0.5363185523
 40
0.5724629102
 40
0.6082629399
 40
0.6435571832
 40
0.6781971078
 40
0.712051306
 40
0.7450104651
 40
0.7769922297
 40
0.8079456607
 40
0.8378560127
 40
0.8667494291
 40
0.8946963808
 40
0.9218121469
 40
0.9351128693
 40
0.948269177
 40
0.961308559
 40
0.9742597354
 40
0.9871486733
 40
1.0
 40
1.0
 40
1.0
 40
1.0
 10
-5.5235121654
 20
-7.1635733471
 30
0.0
 10
-5.5256753983
 20
-7.1635733471
 30
0.0
 10
-5.5300096847
 20
-7.1634223464
 30
0.0
 10
-5.5364921824
 20
-7.1627454347
 30
0.0
 10
-5.5429443329
 20
-7.1616192608
 30
0.0
 10
-5.5493482911
 20
-7.1600457193
 30
0.0
 10
-5.5556889254
 20
-7.158029816
 30
0.0
 10
-5.5640902544
 20
-7.1547380731
 30
0.0
 10
-5.5743785832
 20
-7.149510125
 30
0.0
 10
-5.5861362047
 20
-7.1416128611
 30
0.0
 10
-5.597280096
 20
-7.1321306596
 30
0.0
 10
-5.6077045297
 20
-7.1211581047
 30
0.0
 10
-5.6173124417
 20
-7.1088016807
 30
0.0
 10
-5.6260144579
 20
-7.095180987
 30
0.0
 10
-5.6337294649
 20
-7.0804267353
 30
0.0
 10
-5.6403848783
 20
-7.0646799057
 30
0.0
 10
-5.6459179588
 20
-7.0480909508
 30
0.0
 10
-5.6502768727
 20
-7.0308184895
 30
0.0
 10
-5.6534203741
 20
-7.0130275048
 30
0.0
 10
-5.655318298
 20
-6.9948879703
 30
0.0
 10
-5.6559528787
 20
-6.9765733471
 30
0.0
 10
-5.655318298
 20
-6.9582587239
 30
0.0
 10
-5.6534203741
 20
-6.9401191894
 30
0.0
 10
-5.6502768727
 20
-6.9223282047
 30
0.0
 10
-5.6459179588
 20
-6.9050557434
 30
0.0
 10
-5.6403848783
 20
-6.8884667885
 30
0.0
 10
-5.6337294649
 20
-6.8727199589
 30
0.0
 10
-5.6260144579
 20
-6.8579657072
 30
0.0
 10
-5.6173124417
 20
-6.8443450135
 30
0.0
 10
-5.6077045297
 20
-6.8319885895
 30
0.0
 10
-5.597280096
 20
-6.8210160346
 30
0.0
 10
-5.5861362047
 20
-6.8115338331
 30
0.0
 10
-5.5743785832
 20
-6.8036365692
 30
0.0
 10
-5.5640902544
 20
-6.7984086211
 30
0.0
 10
-5.5556889254
 20
-6.7951168782
 30
0.0
 10
-5.5493482911
 20
-6.7931009749
 30
0.0
 10
-5.5429443329
 20
-6.7915274334
 30
0.0
 10
-5.5364921824
 20
-6.7904012595
 30
0.0
 10
-5.5300096847
 20
-6.7897243478
 30
0.0
 10
-5.5256753983
 20
-6.7895733471
 30
0.0
 10
-5.5235121654
 20
-6.7895733471
 30
0.0
  0
SPLINE
  5
477
100
AcDbEntity
  8
0
100
AcDbSpline
 62
7
  6
CONTINUOUS
 70
0
 71
3
 72
15
 73
11
 74
0
 42
0.0000001
 43
0.0000001
 44
0.0000000001
 40
0.0
 40
0.0
 40
0.0
 40
0.0
 40
0.1453524083
 40
0.2868079831
 40
0.4230969843
 40
0.5529474777
 40
0.6754525845
 40
0.7903911539
 40
0.8982555593
 40
1.0
 40
1.0
 40
1.0
 40
1.0
 10
9.2288315084
 20
-6.7600669962
 30
0.0
 10
9.2359391242
 20
-6.7644195042
 30
0.0
 10
9.2498786668
 20
-6.7731484541
 30
0.0
 10
9.2700988043
 20
-6.7865598735
 30
0.0
 10
9.2891379777
 20
-6.8001237025
 30
0.0
 10
9.3067474966
 20
-6.8137927168
 30
0.0
 10
9.3227533036
 20
-6.8274942876
 30
0.0
 10
9.3371096351
 20
-6.8411433886
 30
0.0
 10
9.3499065066
 20
-6.854665481
 30
0.0
 10
9.3577243071
 20
-6.8638012025
 30
0.0
 10
9.3614140299
 20
-6.8683201716
 30
0.0
  0
SPLINE
  5
478
100
AcDbEntity
  8
0
100
AcDbSpline
 62
7
  6
CONTINUOUS
 70
0
 71
3
 72
19
 73
15
 74
0
 42
0.0000001
 43
0.0000001
 44
0.0000000001
 40
0.0
 40
0.0
 40
0.0
 40
0.0
 40
0.1239135187
 40
0.2486584689
 40
0.3113153546
 40
0.3741210923
 40
0.4370327446
 40
0.5
 40
0.5629672554
 40
0.6258789077
 40
0.6886846454
 40
0.7513415311
 40
0.8760864813
 40
1.0
 40
1.0
 40
1.0
 40
1.0
 10
9.3614140299
 20
-6.8683201716
 30
0.0
 10
9.363216251
 20
-6.8771492158
 30
0.0
 10
9.3665152184
 20
-6.8949336725
 30
0.0
 10
9.3696670296
 20
-6.9173618485
 30
0.0
 10
9.3715007175
 20
-6.9354664966
 30
0.0
 10
9.3725062219
 20
-6.9491301637
 30
0.0
 10
9.3731184363
 20
-6.9628397745
 30
0.0
 10
9.3733245468
 20
-6.9765733471
 30
0.0
 10
9.3731184363
 20
-6.9903069197
 30
0.0
 10
9.3725062219
 20
-7.0040165305
 30
0.0
 10
9.3715007175
 20
-7.0176801976
 30
0.0
 10
9.3696670296
 20
-7.0357848457
 30
0.0
 10
9.3665152184
 20
-7.0582130218
 30
0.0
 10
9.363216251
 20
-7.0759974784
 30
0.0
 10
9.3614140299
 20
-7.0848265226
 30
0.0
  0
SPLINE
  5
479
100
AcDbEntity
  8
0
100
AcDbSpline
 62
7
  6
CONTINUOUS
 70
0
 71
3
 72
15
 73
11
 74
0
 42
0.0000001
 43
0.0000001
 44
0.0000000001
 40
0.0
 40
0.0
 40
0.0
 40
0.0
 40
0.1017444407
 40
0.2096088461
 40
0.3245474155
 40
0.4470525223
 40
0.5769030157
 40
0.7131920169
 40
0.8546475917
 40
1.0
 40
1.0
 40
1.0
 40
1.0
 10
9.3614140299
 20
-7.0848265226
 30
0.0
 10
9.3577243071
 20
-7.0893454917
 30
0.0
 10
9.3499065066
 20
-7.0984812132
 30
0.0
 10
9.3371096351
 20
-7.1120033056
 30
0.0
 10
9.3227533036
 20
-7.1256524066
 30
0.0
 10
9.3067474966
 20
-7.1393539775
 30
0.0
 10
9.2891379777
 20
-7.1530229917
 30
0.0
 10
9.2700988043
 20
-7.1665868207
 30
0.0
 10
9.2498786668
 20
-7.1799982401
 30
0.0
 10
9.2359391242
 20
-7.1887271901
 30
0.0
 10
9.2288315084
 20
-7.1930796981
 30
0.0
  0
SPLINE
  5
47A
100
AcDbEntity
  8
0
100
AcDbSpline
 62
7
  6
CONTINUOUS
 70
0
 71
3
 72
15
 73
11
 74
0
 42
0.0000001
 43
0.0000001
 44
0.0000000001
 40
0.0
 40
0.0
 40
0.0
 40
0.0
 40
0.1341084573
 40
0.2648959645
 40
0.3926219614
 40
0.517627337
 40
0.6403394988
 40
0.7612572922
 40
0.880942489
 40
1.0
 40
1.0
 40
1.0
 40
1.0
 10
9.2078071555
 20
-6.7595834298
 30
0.0
 10
9.2041252676
 20
-6.7561464672
 30
0.0
 10
9.1965839164
 20
-6.7496378186
 30
0.0
 10
9.1846434912
 20
-6.740956064
 30
0.0
 10
9.1722821357
 20
-6.7335242638
 30
0.0
 10
9.1595645469
 20
-6.7273865472
 30
0.0
 10
9.146559461
 20
-6.7225748509
 30
0.0
 10
9.1333353222
 20
-6.7191189856
 30
0.0
 10
9.1199662584
 20
-6.7170366615
 30
0.0
 10
9.1109928356
 20
-6.7165734346
 30
0.0
 10
9.1065213442
 20
-6.7165735339
 30
0.0
  0
SPLINE
  5
47B
100
AcDbEntity
  8
0
100
AcDbSpline
 62
7
  6
CONTINUOUS
 70
0
 71
3
 72
17
 73
13
 74
0
 42
0.0000001
 43
0.0000001
 44
0.0000000001
 40
0.0
 40
0.0
 40
0.0
 40
0.0
 40
0.1341655017
 40
0.2649905088
 40
0.3927303475
 40
0.4555651072
 40
0.5177644712
 40
0.6404514855
 40
0.7011012981
 40
0.7613669052
 40
0.8810005192
 40
1.0
 40
1.0
 40
1.0
 40
1.0
 10
9.2082381169
 20
-7.1931599353
 30
0.0
 10
9.2045460529
 20
-7.1966275289
 30
0.0
 10
9.1969814192
 20
-7.2031941987
 30
0.0
 10
9.1850001789
 20
-7.2119566597
 30
0.0
 10
9.1746001349
 20
-7.2182419662
 30
0.0
 10
9.166108292
 20
-7.2226027073
 30
0.0
 10
9.1575952446
 20
-7.2264809495
 30
0.0
 10
9.1488903965
 20
-7.2297176608
 30
0.0
 10
9.1400526198
 20
-7.2322731406
 30
0.0
 10
9.131209628
 20
-7.2343554638
 30
0.0
 10
9.1200411008
 20
-7.2361043477
 30
0.0
 10
9.1110255001
 20
-7.2365730605
 30
0.0
 10
9.1065329305
 20
-7.2365731603
 30
0.0
  0
SPLINE
  5
47C
100
AcDbEntity
  8
0
100
AcDbSpline
 62
7
  6
CONTINUOUS
 70
0
 71
3
 72
11
 73
7
 74
0
 42
0.0000001
 43
0.0000001
 44
0.0000000001
 40
0.0
 40
0.0
 40
0.0
 40
0.0
 40
0.2401732686
 40
0.4850365616
 40
0.7374846583
 40
1.0
 40
1.0
 40
1.0
 40
1.0
 10
9.1220127759
 20
-7.1930796981
 30
0.0
 10
9.1214079061
 20
-7.1930796981
 30
0.0
 10
9.120183512
 20
-7.1931995659
 30
0.0
 10
9.1183908716
 20
-7.1937216489
 30
0.0
 10
9.1166679859
 20
-7.1945744242
 30
0.0
 10
9.1156052347
 20
-7.1953271571
 30
0.0
 10
9.1150928652
 20
-7.1957449854
 30
0.0
  0
SPLINE
  5
47D
100
AcDbEntity
  8
0
100
AcDbSpline
 62
7
  6
CONTINUOUS
 70
0
 71
3
 72
11
 73
7
 74
0
 42
0.0000001
 43
0.0000001
 44
0.0000000001
 40
0.0
 40
0.0
 40
0.0
 40
0.0
 40
0.2401732686
 40
0.4850365616
 40
0.7374846583
 40
1.0
 40
1.0
 40
1.0
 40
1.0
 10
9.1220127759
 20
-6.7600669962
 30
0.0
 10
9.1214079061
 20
-6.7600669962
 30
0.0
 10
9.120183512
 20
-6.7599471283
 30
0.0
 10
9.1183908716
 20
-6.7594250453
 30
0.0
 10
9.1166679859
 20
-6.75857227
 30
0.0
 10
9.1156052347
 20
-6.7578195371
 30
0.0
 10
9.1150928652
 20
-6.7574017088
 30
0.0
  0
SPLINE
  5
47E
100
AcDbEntity
  8
0
100
AcDbSpline
 62
7
  6
CONTINUOUS
 70
0
 71
3
 72
23
 73
19
 74
0
 42
0.0000001
 43
0.0000001
 44
0.0000000001
 40
0.0
 40
0.0
 40
0.0
 40
0.0
 40
0.0552200583
 40
0.1106748871
 40
0.1665926736
 40
0.2231878726
 40
0.2806564376
 40
0.3391704851
 40
0.3988763535
 40
0.4598908728
 40
0.5223035786
 40
0.5861741968
 40
0.6515348273
 40
0.7183856123
 40
0.7867085174
 40
0.8564722864
 40
0.9276136373
 40
1.0
 40
1.0
 40
1.0
 40
1.0
 10
9.0711775914
 20
-7.2365731603
 30
0.0
 10
9.0671651074
 20
-7.2365732494
 30
0.0
 10
9.0591181181
 20
-7.2362006536
 30
0.0
 10
9.0471130835
 20
-7.234525035
 30
0.0
 10
9.0352124099
 20
-7.231741199
 30
0.0
 10
9.0234693468
 20
-7.2278613753
 30
0.0
 10
9.0119343362
 20
-7.2229034381
 30
0.0
 10
9.0006569411
 20
-7.2168897989
 30
0.0
 10
8.9896855986
 20
-7.2098468535
 30
0.0
 10
8.9790664378
 20
-7.2018062725
 30
0.0
 10
8.9688450843
 20
-7.1928022853
 30
0.0
 10
8.9590638665
 20
-7.1828747111
 30
0.0
 10
8.949765343
 20
-7.1720655659
 30
0.0
 10
8.9409872424
 20
-7.1604227267
 30
0.0
 10
8.9327677958
 20
-7.1479943123
 30
0.0
 10
8.9251401384
 20
-7.1348330478
 30
0.0
 10
8.9181395002
 20
-7.1209971481
 30
0.0
 10
8.9139430008
 20
-7.1114430203
 30
0.0
 10
8.911954965
 20
-7.1065733471
 30
0.0
  0
SPLINE
  5
47F
100
AcDbEntity
  8
0
100
AcDbSpline
 62
7
  6
CONTINUOUS
 70
0
 71
3
 72
21
 73
17
 74
0
 42
0.0000001
 43
0.0000001
 44
0.0000000001
 40
0.0
 40
0.0
 40
0.0
 40
0.0
 40
0.0548250608
 40
0.109904515
 40
0.165483949
 40
0.2217940386
 40
0.2790423615
 40
0.3374105747
 40
0.3970486317
 40
0.4580755823
 40
0.5205761134
 40
0.5846040636
 40
0.7172266186
 40
0.7858509789
 40
0.8559225352
 40
1.0
 40
1.0
 40
1.0
 40
1.0
 10
9.0711660052
 20
-6.7165735339
 30
0.0
 10
9.0669767412
 20
-6.7165736269
 30
0.0
 10
9.0585731629
 20
-6.7169809642
 30
0.0
 10
9.0460425328
 20
-6.7188089801
 30
0.0
 10
9.0336308421
 20
-6.7218441904
 30
0.0
 10
9.0213989447
 20
-6.7260724707
 30
0.0
 10
9.0094036386
 20
-6.7314715704
 30
0.0
 10
8.9977017325
 20
-6.738016082
 30
0.0
 10
8.9863469028
 20
-6.7456732282
 30
0.0
 10
8.975392504
 20
-6.7544070918
 30
0.0
 10
8.964887698
 20
-6.7641759348
 30
0.0
 10
8.9513920945
 20
-6.7786858078
 30
0.0
 10
8.93917049
 20
-6.7949449753
 30
0.0
 10
8.9283049661
 20
-6.812612216
 30
0.0
 10
8.9181094245
 20
-6.8316745141
 30
0.0
 10
8.9116648541
 20
-6.8467643159
 30
0.0
 10
8.9078824531
 20
-6.8571033349
 30
0.0
  0
SPLINE
  5
480
100
AcDbEntity
  8
0
100
AcDbSpline
 62
7
  6
CONTINUOUS
 70
0
 71
3
 72
18
 73
14
 74
0
 42
0.0000001
 43
0.0000001
 44
0.0000000001
 40
0.0
 40
0.0
 40
0.0
 40
0.0
 40
0.1219502471
 40
0.2464702061
 40
0.3727579212
 40
0.4999456356
 40
0.563610267
 40
0.6271623561
 40
0.6904897049
 40
0.7534801597
 40
0.8160245412
 40
0.8780269029
 40
1.0
 40
1.0
 40
1.0
 40
1.0
 10
8.9078824531
 20
-6.8571033349
 30
0.0
 10
8.9044800384
 20
-6.8664036792
 30
0.0
 10
8.8984973036
 20
-6.8855387193
 30
0.0
 10
8.8920791673
 20
-6.9151588207
 30
0.0
 10
8.8881914962
 20
-6.9456448173
 30
0.0
 10
8.8871062967
 20
-6.9714090941
 30
0.0
 10
8.8875418366
 20
-6.992068846
 30
0.0
 10
8.8885206955
 20
-7.0075161541
 30
0.0
 10
8.8901496043
 20
-7.0228532461
 30
0.0
 10
8.892420789
 20
-7.0380256852
 30
0.0
 10
8.8953279606
 20
-7.0529803679
 30
0.0
 10
8.900010523
 20
-7.0724482558
 30
0.0
 10
8.9044775774
 20
-7.0867339248
 30
0.0
 10
8.9078800218
 20
-7.096036234
 30
0.0
  0
SPLINE
  5
481
100
AcDbEntity
  8
0
100
AcDbSpline
 62
7
  6
CONTINUOUS
 70
0
 71
3
 72
17
 73
13
 74
0
 42
0.0000001
 43
0.0000001
 44
0.0000000001
 40
0.0
 40
0.0
 40
0.0
 40
0.0
 40
0.0507521541
 40
0.1062279752
 40
0.1656818145
 40
0.2283685672
 40
0.3603916239
 40
0.4965882669
 40
0.6320482742
 40
0.7629485808
 40
0.8864675634
 40
1.0
 40
1.0
 40
1.0
 40
1.0
 10
8.9894302544
 20
-7.0848265226
 30
0.0
 10
8.988855951
 20
-7.0848265226
 30
0.0
 10
8.9876536649
 20
-7.0848811197
 30
0.0
 10
8.9857899781
 20
-7.0850952683
 30
0.0
 10
8.9838093196
 20
-7.0854430125
 30
0.0
 10
8.9810046886
 20
-7.0860844771
 30
0.0
 10
8.9774152029
 20
-7.0871669955
 30
0.0
 10
8.9731474834
 20
-7.0888054338
 30
0.0
 10
8.9690103965
 20
-7.0907197692
 30
0.0
 10
8.9651312086
 20
-7.0928278942
 30
0.0
 10
8.9616113593
 20
-7.0950577356
 30
0.0
 10
8.9594541134
 20
-7.0966579683
 30
0.0
 10
8.9584589774
 20
-7.0974704935
 30
0.0
  0
SPLINE
  5
482
100
AcDbEntity
  8
0
100
AcDbSpline
 62
7
  6
CONTINUOUS
 70
0
 71
3
 72
45
 73
41
 74
0
 42
0.0000001
 43
0.0000001
 44
0.0000000001
 40
0.0
 40
0.0
 40
0.0
 40
0.0
 40
0.0128513267
 40
0.0257402646
 40
0.038691441
 40
0.051730823
 40
0.0648871307
 40
0.0781878531
 40
0.1053036192
 40
0.1332505709
 40
0.1621439873
 40
0.1920543393
 40
0.2230077703
 40
0.2549895349
 40
0.287948694
 40
0.3218028922
 40
0.3564428168
 40
0.3917370601
 40
0.4275370898
 40
0.4636814477
 40
0.5
 40
0.5363185523
 40
0.5724629102
 40
0.6082629399
 40
0.6435571832
 40
0.6781971078
 40
0.712051306
 40
0.7450104651
 40
0.7769922297
 40
0.8079456607
 40
0.8378560127
 40
0.8667494291
 40
0.8946963808
 40
0.9218121469
 40
0.9351128693
 40
0.948269177
 40
0.961308559
 40
0.9742597354
 40
0.9871486733
 40
1.0
 40
1.0
 40
1.0
 40
1.0
 10
9.2408774258
 20
-6.7895733471
 30
0.0
 10
9.2430406587
 20
-6.7895733471
 30
0.0
 10
9.247374945
 20
-6.7897243478
 30
0.0
 10
9.2538574428
 20
-6.7904012595
 30
0.0
 10
9.2603095932
 20
-6.7915274334
 30
0.0
 10
9.2667135515
 20
-6.7931009749
 30
0.0
 10
9.2730541858
 20
-6.7951168782
 30
0.0
 10
9.2814555148
 20
-6.7984086211
 30
0.0
 10
9.2917438436
 20
-6.8036365692
 30
0.0
 10
9.3035014651
 20
-6.8115338331
 30
0.0
 10
9.3146453564
 20
-6.8210160346
 30
0.0
 10
9.3250697901
 20
-6.8319885895
 30
0.0
 10
9.334677702
 20
-6.8443450135
 30
0.0
 10
9.3433797183
 20
-6.8579657072
 30
0.0
 10
9.3510947253
 20
-6.8727199589
 30
0.0
 10
9.3577501386
 20
-6.8884667885
 30
0.0
 10
9.3632832192
 20
-6.9050557434
 30
0.0
 10
9.3676421331
 20
-6.9223282047
 30
0.0
 10
9.3707856345
 20
-6.9401191894
 30
0.0
 10
9.3726835583
 20
-6.9582587239
 30
0.0
 10
9.3733181391
 20
-6.9765733471
 30
0.0
 10
9.3726835583
 20
-6.9948879703
 30
0.0
 10
9.3707856345
 20
-7.0130275048
 30
0.0
 10
9.3676421331
 20
-7.0308184895
 30
0.0
 10
9.3632832192
 20
-7.0480909508
 30
0.0
 10
9.3577501386
 20
-7.0646799057
 30
0.0
 10
9.3510947253
 20
-7.0804267353
 30
0.0
 10
9.3433797183
 20
-7.095180987
 30
0.0
 10
9.334677702
 20
-7.1088016807
 30
0.0
 10
9.3250697901
 20
-7.1211581047
 30
0.0
 10
9.3146453564
 20
-7.1321306596
 30
0.0
 10
9.3035014651
 20
-7.1416128611
 30
0.0
 10
9.2917438436
 20
-7.149510125
 30
0.0
 10
9.2814555148
 20
-7.1547380731
 30
0.0
 10
9.2730541858
 20
-7.158029816
 30
0.0
 10
9.2667135515
 20
-7.1600457193
 30
0.0
 10
9.2603095932
 20
-7.1616192608
 30
0.0
 10
9.2538574428
 20
-7.1627454347
 30
0.0
 10
9.247374945
 20
-7.1634223464
 30
0.0
 10
9.2430406587
 20
-7.1635733471
 30
0.0
 10
9.2408774258
 20
-7.1635733471
 30
0.0
  0
SPLINE
  5
483
100
AcDbEntity
  8
0
100
AcDbSpline
 62
7
  6
CONTINUOUS
 70
0
 71
3
 72
17
 73
13
 74
0
 42
0.0000001
 43
0.0000001
 44
0.0000000001
 40
0.0
 40
0.0
 40
0.0
 40
0.0
 40
0.0507521541
 40
0.1062279752
 40
0.1656818145
 40
0.2283685672
 40
0.3603916239
 40
0.4965882669
 40
0.6320482742
 40
0.7629485808
 40
0.8864675634
 40
1.0
 40
1.0
 40
1.0
 40
1.0
 10
8.9894302544
 20
-6.8683201716
 30
0.0
 10
8.988855951
 20
-6.8683201716
 30
0.0
 10
8.9876536649
 20
-6.8682655745
 30
0.0
 10
8.9857899781
 20
-6.8680514259
 30
0.0
 10
8.9838093196
 20
-6.8677036817
 30
0.0
 10
8.9810046886
 20
-6.8670622171
 30
0.0
 10
8.9774152029
 20
-6.8659796987
 30
0.0
 10
8.9731474834
 20
-6.8643412604
 30
0.0
 10
8.9690103965
 20
-6.862426925
 30
0.0
 10
8.9651312086
 20
-6.8603188
 30
0.0
 10
8.9616113593
 20
-6.8580889586
 30
0.0
 10
8.9594541134
 20
-6.8564887259
 30
0.0
 10
8.9584589774
 20
-6.8556762007
 30
0.0
  0
SPLINE
  5
484
100
AcDbEntity
  8
0
100
AcDbSpline
 62
7
  6
CONTINUOUS
 70
0
 71
3
 72
15
 73
11
 74
0
 42
0.0000001
 43
0.0000001
 44
0.0000000001
 40
0.0
 40
0.0
 40
0.0
 40
0.0
 40
0.1017444407
 40
0.2096088461
 40
0.3245474155
 40
0.4470525223
 40
0.5769030157
 40
0.7131920169
 40
0.8546475917
 40
1.0
 40
1.0
 40
1.0
 40
1.0
 10
9.2288315084
 20
-7.1930796981
 30
0.0
 10
9.2251417856
 20
-7.1885607289
 30
0.0
 10
9.2173239852
 20
-7.1794250075
 30
0.0
 10
9.2045271136
 20
-7.165902915
 30
0.0
 10
9.1901707821
 20
-7.152253814
 30
0.0
 10
9.1741649752
 20
-7.1385522432
 30
0.0
 10
9.1565554562
 20
-7.1248832289
 30
0.0
 10
9.1375162828
 20
-7.1113194
 30
0.0
 10
9.1172961453
 20
-7.0979079805
 30
0.0
 10
9.1033566028
 20
-7.0891790306
 30
0.0
 10
9.096248987
 20
-7.0848265226
 30
0.0
  0
SPLINE
  5
485
100
AcDbEntity
  8
0
100
AcDbSpline
 62
7
  6
CONTINUOUS
 70
0
 71
3
 72
45
 73
41
 74
0
 42
0.0000001
 43
0.0000001
 44
0.0000000001
 40
0.0
 40
0.0
 40
0.0
 40
0.0
 40
0.0128513267
 40
0.0257402646
 40
0.038691441
 40
0.051730823
 40
0.0648871307
 40
0.0781878531
 40
0.1053036192
 40
0.1332505709
 40
0.1621439873
 40
0.1920543393
 40
0.2230077703
 40
0.2549895349
 40
0.287948694
 40
0.3218028922
 40
0.3564428168
 40
0.3917370601
 40
0.4275370898
 40
0.4636814477
 40
0.5
 40
0.5363185523
 40
0.5724629102
 40
0.6082629399
 40
0.6435571832
 40
0.6781971078
 40
0.712051306
 40
0.7450104651
 40
0.7769922297
 40
0.8079456607
 40
0.8378560127
 40
0.8667494291
 40
0.8946963808
 40
0.9218121469
 40
0.9351128693
 40
0.948269177
 40
0.961308559
 40
0.9742597354
 40
0.9871486733
 40
1.0
 40
1.0
 40
1.0
 40
1.0
 10
9.2408774258
 20
-7.1635733471
 30
0.0
 10
9.2387141928
 20
-7.1635733471
 30
0.0
 10
9.2343799065
 20
-7.1634223464
 30
0.0
 10
9.2278974087
 20
-7.1627454347
 30
0.0
 10
9.2214452583
 20
-7.1616192608
 30
0.0
 10
9.2150413
 20
-7.1600457193
 30
0.0
 10
9.2087006657
 20
-7.158029816
 30
0.0
 10
9.2002993368
 20
-7.1547380731
 30
0.0
 10
9.190011008
 20
-7.149510125
 30
0.0
 10
9.1782533864
 20
-7.1416128611
 30
0.0
 10
9.1671094952
 20
-7.1321306596
 30
0.0
 10
9.1566850615
 20
-7.1211581047
 30
0.0
 10
9.1470771495
 20
-7.1088016807
 30
0.0
 10
9.1383751332
 20
-7.095180987
 30
0.0
 10
9.1306601262
 20
-7.0804267353
 30
0.0
 10
9.1240047129
 20
-7.0646799057
 30
0.0
 10
9.1184716324
 20
-7.0480909508
 30
0.0
 10
9.1141127184
 20
-7.0308184895
 30
0.0
 10
9.1109692171
 20
-7.0130275048
 30
0.0
 10
9.1090712932
 20
-6.9948879703
 30
0.0
 10
9.1084367125
 20
-6.9765733471
 30
0.0
 10
9.1090712932
 20
-6.9582587239
 30
0.0
 10
9.1109692171
 20
-6.9401191894
 30
0.0
 10
9.1141127184
 20
-6.9223282047
 30
0.0
 10
9.1184716324
 20
-6.9050557434
 30
0.0
 10
9.1240047129
 20
-6.8884667885
 30
0.0
 10
9.1306601262
 20
-6.8727199589
 30
0.0
 10
9.1383751332
 20
-6.8579657072
 30
0.0
 10
9.1470771495
 20
-6.8443450135
 30
0.0
 10
9.1566850615
 20
-6.8319885895
 30
0.0
 10
9.1671094952
 20
-6.8210160346
 30
0.0
 10
9.1782533864
 20
-6.8115338331
 30
0.0
 10
9.190011008
 20
-6.8036365692
 30
0.0
 10
9.2002993368
 20
-6.7984086211
 30
0.0
 10
9.2087006657
 20
-6.7951168782
 30
0.0
 10
9.2150413
 20
-6.7931009749
 30
0.0
 10
9.2214452583
 20
-6.7915274334
 30
0.0
 10
9.2278974087
 20
-6.7904012595
 30
0.0
 10
9.2343799065
 20
-6.7897243478
 30
0.0
 10
9.2387141928
 20
-6.7895733471
 30
0.0
 10
9.2408774258
 20
-6.7895733471
 30
0.0
  0
SPLINE
  5
486
100
AcDbEntity
  8
0
100
AcDbSpline
 62
7
  6
CONTINUOUS
 70
0
 71
3
 72
19
 73
15
 74
0
 42
0.0000001
 43
0.0000001
 44
0.0000000001
 40
0.0
 40
0.0
 40
0.0
 40
0.0
 40
0.1239135187
 40
0.2486584689
 40
0.3113153546
 40
0.3741210923
 40
0.4370327446
 40
0.5
 40
0.5629672554
 40
0.6258789077
 40
0.6886846454
 40
0.7513415311
 40
0.8760864813
 40
1.0
 40
1.0
 40
1.0
 40
1.0
 10
9.096248987
 20
-7.0848265226
 30
0.0
 10
9.0980512081
 20
-7.0759974784
 30
0.0
 10
9.1013501755
 20
-7.0582130218
 30
0.0
 10
9.1045019867
 20
-7.0357848457
 30
0.0
 10
9.1063356746
 20
-7.0176801976
 30
0.0
 10
9.107341179
 20
-7.0040165305
 30
0.0
 10
9.1079533934
 20
-6.9903069197
 30
0.0
 10
9.1081595039
 20
-6.9765733471
 30
0.0
 10
9.1079533934
 20
-6.9628397745
 30
0.0
 10
9.107341179
 20
-6.9491301637
 30
0.0
 10
9.1063356746
 20
-6.9354664966
 30
0.0
 10
9.1045019867
 20
-6.9173618485
 30
0.0
 10
9.1013501755
 20
-6.8949336725
 30
0.0
 10
9.0980512081
 20
-6.8771492158
 30
0.0
 10
9.096248987
 20
-6.8683201716
 30
0.0
  0
SPLINE
  5
487
100
AcDbEntity
  8
0
100
AcDbSpline
 62
7
  6
CONTINUOUS
 70
0
 71
3
 72
21
 73
17
 74
0
 42
0.0000001
 43
0.0000001
 44
0.0000000001
 40
0.0
 40
0.0
 40
0.0
 40
0.0
 40
0.0566620784
 40
0.1134981955
 40
0.1706792875
 40
0.2283681159
 40
0.2867181393
 40
0.345868617
 40
0.4059441661
 40
0.4670528415
 40
0.5292834292
 40
0.5927087418
 40
0.7232814153
 40
0.7905395231
 40
0.8590963393
 40
1.0
 40
1.0
 40
1.0
 40
1.0
 10
9.1065329305
 20
-7.2365731603
 30
0.0
 10
9.1031249657
 20
-7.236573236
 30
0.0
 10
9.0962955347
 20
-7.2363047474
 30
0.0
 10
9.086091191
 20
-7.2350971924
 30
0.0
 10
9.0759505979
 20
-7.2330879759
 30
0.0
 10
9.0659059441
 20
-7.2302852373
 30
0.0
 10
9.0559889373
 20
-7.2266960978
 30
0.0
 10
9.0462299078
 20
-7.2223338251
 30
0.0
 10
9.036659303
 20
-7.2172114652
 30
0.0
 10
9.0273069625
 20
-7.2113452857
 30
0.0
 10
9.0182005058
 20
-7.2047543921
 30
0.0
 10
9.0063130801
 20
-7.1949338651
 30
0.0
 10
8.9951498016
 20
-7.1838131749
 30
0.0
 10
8.9847892338
 20
-7.1715839278
 30
0.0
 10
8.9747355144
 20
-7.1583120121
 30
0.0
 10
8.9679363519
 20
-7.1476721978
 30
0.0
 10
8.9637212491
 20
-7.1403200807
 30
0.0
  0
SPLINE
  5
488
100
AcDbEntity
  8
0
100
AcDbSpline
 62
7
  6
CONTINUOUS
 70
0
 71
3
 72
15
 73
11
 74
0
 42
0.0000001
 43
0.0000001
 44
0.0000000001
 40
0.0
 40
0.0
 40
0.0
 40
0.0
 40
0.1453524083
 40
0.2868079831
 40
0.4230969843
 40
0.5529474777
 40
0.6754525845
 40
0.7903911539
 40
0.8982555593
 40
1.0
 40
1.0
 40
1.0
 40
1.0
 10
9.096248987
 20
-6.8683201716
 30
0.0
 10
9.1033566028
 20
-6.8639676636
 30
0.0
 10
9.1172961453
 20
-6.8552387137
 30
0.0
 10
9.1375162828
 20
-6.8418272942
 30
0.0
 10
9.1565554562
 20
-6.8282634653
 30
0.0
 10
9.1741649752
 20
-6.814594451
 30
0.0
 10
9.1901707821
 20
-6.8008928802
 30
0.0
 10
9.2045271136
 20
-6.7872437792
 30
0.0
 10
9.2173239852
 20
-6.7737216868
 30
0.0
 10
9.2251417856
 20
-6.7645859653
 30
0.0
 10
9.2288315084
 20
-6.7600669962
 30
0.0
  0
SPLINE
  5
489
100
AcDbEntity
  8
0
100
AcDbSpline
 62
7
  6
CONTINUOUS
 70
0
 71
3
 72
20
 73
16
 74
0
 42
0.0000001
 43
0.0000001
 44
0.0000000001
 40
0.0
 40
0.0
 40
0.0
 40
0.0
 40
0.0566139268
 40
0.1134043307
 40
0.1705432991
 40
0.2281960935
 40
0.286516899
 40
0.3456463368
 40
0.4057104049
 40
0.4668162617
 40
0.5290550348
 40
0.592497422
 40
0.7231297326
 40
0.858984515
 40
1.0
 40
1.0
 40
1.0
 40
1.0
 10
9.1065213442
 20
-6.7165735339
 30
0.0
 10
9.1030928998
 20
-6.71657361
 30
0.0
 10
9.0962222281
 20
-6.7168458471
 30
0.0
 10
9.0859569815
 20
-6.7180696225
 30
0.0
 10
9.0757563618
 20
-6.7201030088
 30
0.0
 10
9.0656539134
 20
-6.722941185
 30
0.0
 10
9.0556810768
 20
-6.7265735929
 30
0.0
 10
9.0458692192
 20
-6.73098857
 30
0.0
 10
9.0362495499
 20
-6.736172659
 30
0.0
 10
9.0268512656
 20
-6.7421076272
 30
0.0
 10
9.0177043967
 20
-6.7487764853
 30
0.0
 10
9.0057667102
 20
-6.7587110822
 30
0.0
 10
8.9916316888
 20
-6.7729061579
 30
0.0
 10
8.9762907908
 20
-6.7922941321
 30
0.0
 10
8.9673090535
 20
-6.8064928935
 30
0.0
 10
8.9630971114
 20
-6.8139215783
 30
0.0
  0
SPLINE
  5
48A
100
AcDbEntity
  8
0
100
AcDbSpline
 62
7
  6
CONTINUOUS
 70
0
 71
3
 72
19
 73
15
 74
0
 42
0.0000001
 43
0.0000001
 44
0.0000000001
 40
0.0
 40
0.0
 40
0.0
 40
0.0
 40
0.1180282229
 40
0.1788064003
 40
0.2405798354
 40
0.3664843479
 40
0.4945195606
 40
0.6232859004
 40
0.6875162728
 40
0.7513905823
 40
0.8147322314
 40
0.8773845076
 40
0.9392010752
 40
1.0
 40
1.0
 40
1.0
 40
1.0
 10
8.9630971114
 20
-6.8139215783
 30
0.0
 10
8.9572280114
 20
-6.8242730251
 30
0.0
 10
8.9493798164
 20
-6.8405717619
 30
0.0
 10
8.9408568754
 20
-6.8632894391
 30
0.0
 10
8.933440534
 20
-6.8872294749
 30
0.0
 10
8.9266380141
 20
-6.9183970978
 30
0.0
 10
8.9225233608
 20
-6.9568311439
 30
0.0
 10
8.9224964486
 20
-6.9892638355
 30
0.0
 10
8.9245342973
 20
-7.0150911256
 30
0.0
 10
8.9270811803
 20
-7.0342337359
 30
0.0
 10
8.9306332382
 20
-7.0530532518
 30
0.0
 10
8.9351711023
 20
-7.0714467875
 30
0.0
 10
8.9406702622
 20
-7.0893076937
 30
0.0
 10
8.9449934922
 20
-7.1008983401
 30
0.0
 10
8.9473103041
 20
-7.1065733471
 30
0.0
  0
SPLINE
  5
48B
100
AcDbEntity
  8
0
100
AcDbSpline
 62
7
  6
CONTINUOUS
 70
0
 71
3
 72
15
 73
11
 74
0
 42
0.0000001
 43
0.0000001
 44
0.0000000001
 40
0.0
 40
0.0
 40
0.0
 40
0.0
 40
0.1093848924
 40
0.2247529651
 40
0.3455303054
 40
0.4709316038
 40
0.5999829275
 40
0.7318632405
 40
0.865594525
 40
1.0
 40
1.0
 40
1.0
 40
1.0
 10
9.1150928652
 20
-7.1957449854
 30
0.0
 10
9.1143889846
 20
-7.1963189875
 30
0.0
 10
9.113051676
 20
-7.1976355827
 30
0.0
 10
9.1113305316
 20
-7.1999417158
 30
0.0
 10
9.1098585695
 20
-7.2025666855
 30
0.0
 10
9.1086462273
 20
-7.2054429576
 30
0.0
 10
9.1077000544
 20
-7.2085131525
 30
0.0
 10
9.1070234293
 20
-7.211723901
 30
0.0
 10
9.1066176194
 20
-7.2150241572
 30
0.0
 10
9.1065271374
 20
-7.2172516321
 30
0.0
 10
9.1065271374
 20
-7.2183676398
 30
0.0
  0
SPLINE
  5
48C
100
AcDbEntity
  8
0
100
AcDbSpline
 62
7
  6
CONTINUOUS
 70
0
 71
3
 72
15
 73
11
 74
0
 42
0.0000001
 43
0.0000001
 44
0.0000000001
 40
0.0
 40
0.0
 40
0.0
 40
0.0
 40
0.1093848924
 40
0.2247529651
 40
0.3455303054
 40
0.4709316038
 40
0.5999829275
 40
0.7318632405
 40
0.865594525
 40
1.0
 40
1.0
 40
1.0
 40
1.0
 10
9.1150928652
 20
-6.7574017088
 30
0.0
 10
9.1143889846
 20
-6.7568277067
 30
0.0
 10
9.113051676
 20
-6.7555111115
 30
0.0
 10
9.1113305316
 20
-6.7532049784
 30
0.0
 10
9.1098585695
 20
-6.7505800087
 30
0.0
 10
9.1086462273
 20
-6.7477037366
 30
0.0
 10
9.1077000544
 20
-6.7446335417
 30
0.0
 10
9.1070234293
 20
-6.7414227932
 30
0.0
 10
9.1066176194
 20
-6.738122537
 30
0.0
 10
9.1065271374
 20
-6.7358950621
 30
0.0
 10
9.1065271374
 20
-6.7347790544
 30
0.0
  0
SPLINE
  5
48D
100
AcDbEntity
  8
0
100
AcDbSpline
 62
7
  6
CONTINUOUS
 70
0
 71
3
 72
35
 73
31
 74
0
 42
0.0000001
 43
0.0000001
 44
0.0000000001
 40
0.0
 40
0.0
 40
0.0
 40
0.0
 40
0.0625961662
 40
0.0939150299
 40
0.1252262965
 40
0.187813484
 40
0.2503913256
 40
0.2816841774
 40
0.3129721426
 40
0.344255045
 40
0.3755327096
 40
0.4068051403
 40
0.4380720506
 40
0.4693331449
 40
0.5005884668
 40
0.5318379348
 40
0.5630815115
 40
0.5943194349
 40
0.6255517515
 40
0.6567785977
 40
0.6880003636
 40
0.7192172369
 40
0.7504295337
 40
0.7816377737
 40
0.8128422591
 40
0.8440434548
 40
0.8752419698
 40
0.9064381901
 40
0.9376326914
 40
1.0
 40
1.0
 40
1.0
 40
1.0
 10
3.1535528063
 20
4.4529266529
 30
0.0
 10
3.1535528063
 20
4.4409885296
 30
0.0
 10
3.1526740049
 20
4.4230613448
 30
0.0
 10
3.1497622449
 20
4.39934998
 30
0.0
 10
3.1456929085
 20
4.3758093586
 30
0.0
 10
3.1384565744
 20
4.3468054475
 30
0.0
 10
3.1284198568
 20
4.3186509373
 30
0.0
 10
3.1187751089
 20
4.2968077
 30
0.0
 10
3.1107470326
 20
4.280799055
 30
0.0
 10
3.1019472644
 20
4.2652050842
 30
0.0
 10
3.092395625
 20
4.2500633153
 30
0.0
 10
3.0821146673
 20
4.2354107407
 30
0.0
 10
3.071130783
 20
4.221281432
 30
0.0
 10
3.0594691079
 20
4.2077104026
 30
0.0
 10
3.047157629
 20
4.1947306058
 30
0.0
 10
3.0342273298
 20
4.182371981
 30
0.0
 10
3.0207080303
 20
4.1706656052
 30
0.0
 10
3.0066325391
 20
4.159639578
 30
0.0
 10
2.9920356989
 20
4.1493191469
 30
0.0
 10
2.9769514575
 20
4.139730846
 30
0.0
 10
2.9614166214
 20
4.1308972541
 30
0.0
 10
2.9454691814
 20
4.1228384625
 30
0.0
 10
2.9291465648
 20
4.1155758387
 30
0.0
 10
2.9124886439
 20
4.109125897
 30
0.0
 10
2.8955358158
 20
4.1035032308
 30
0.0
 10
2.8783281601
 20
4.0987235164
 30
0.0
 10
2.8609079095
 20
4.0947968496
 30
0.0
 10
2.8433159978
 20
4.0917320475
 30
0.0
 10
2.8196964385
 20
4.0888081934
 30
0.0
 10
2.8018362178
 20
4.0879266529
 30
0.0
 10
2.7899417414
 20
4.0879266529
 30
0.0
  0
SPLINE
  5
48E
100
AcDbEntity
  8
0
100
AcDbSpline
 62
7
  6
CONTINUOUS
 70
0
 71
3
 72
35
 73
31
 74
0
 42
0.0000001
 43
0.0000001
 44
0.0000000001
 40
0.0
 40
0.0
 40
0.0
 40
0.0
 40
0.0623673086
 40
0.0935618099
 40
0.1247580302
 40
0.1559565452
 40
0.1871577409
 40
0.2183622263
 40
0.2495704663
 40
0.2807827631
 40
0.3119996364
 40
0.3432214023
 40
0.3744482485
 40
0.4056805651
 40
0.4369184885
 40
0.4681620652
 40
0.4994115332
 40
0.5306668551
 40
0.5619279494
 40
0.5931948597
 40
0.6244672904
 40
0.655744955
 40
0.6870278574
 40
0.7183158226
 40
0.7496086744
 40
0.812186516
 40
0.8747737035
 40
0.9060849701
 40
0.9374038338
 40
1.0
 40
1.0
 40
1.0
 40
1.0
 10
2.7899417414
 20
4.8179266529
 30
0.0
 10
2.8018362178
 20
4.8179266529
 30
0.0
 10
2.8196964385
 20
4.8170451124
 30
0.0
 10
2.8433159978
 20
4.8141212583
 30
0.0
 10
2.8609079095
 20
4.8110564562
 30
0.0
 10
2.8783281601
 20
4.8071297894
 30
0.0
 10
2.8955358158
 20
4.802350075
 30
0.0
 10
2.9124886439
 20
4.7967274088
 30
0.0
 10
2.9291465648
 20
4.7902774671
 30
0.0
 10
2.9454691814
 20
4.7830148433
 30
0.0
 10
2.9614166214
 20
4.7749560517
 30
0.0
 10
2.9769514575
 20
4.7661224598
 30
0.0
 10
2.9920356989
 20
4.7565341589
 30
0.0
 10
3.0066325391
 20
4.7462137278
 30
0.0
 10
3.0207080303
 20
4.7351877006
 30
0.0
 10
3.0342273298
 20
4.7234813248
 30
0.0
 10
3.047157629
 20
4.7111227
 30
0.0
 10
3.0594691079
 20
4.6981429031
 30
0.0
 10
3.071130783
 20
4.6845718738
 30
0.0
 10
3.0821146673
 20
4.6704425651
 30
0.0
 10
3.092395625
 20
4.6557899905
 30
0.0
 10
3.1019472644
 20
4.6406482216
 30
0.0
 10
3.1107470326
 20
4.6250542507
 30
0.0
 10
3.1187751089
 20
4.6090456058
 30
0.0
 10
3.1284198568
 20
4.5872023685
 30
0.0
 10
3.1384565744
 20
4.5590478583
 30
0.0
 10
3.1456929085
 20
4.5300439472
 30
0.0
 10
3.1497622449
 20
4.5065033258
 30
0.0
 10
3.1526740049
 20
4.482791961
 30
0.0
 10
3.1535528063
 20
4.4648647762
 30
0.0
 10
3.1535528063
 20
4.4529266529
 30
0.0
  0
SPLINE
  5
48F
100
AcDbEntity
  8
0
100
AcDbSpline
 62
7
  6
CONTINUOUS
 70
0
 71
3
 72
35
 73
31
 74
0
 42
0.0000001
 43
0.0000001
 44
0.0000000001
 40
0.0
 40
0.0
 40
0.0
 40
0.0
 40
0.0625961662
 40
0.0939150299
 40
0.1252262965
 40
0.187813484
 40
0.2503913256
 40
0.2816841774
 40
0.3129721426
 40
0.344255045
 40
0.3755327096
 40
0.4068051403
 40
0.4380720506
 40
0.4693331449
 40
0.5005884668
 40
0.5318379348
 40
0.5630815115
 40
0.5943194349
 40
0.6255517515
 40
0.6567785977
 40
0.6880003636
 40
0.7192172369
 40
0.7504295337
 40
0.7816377737
 40
0.8128422591
 40
0.8440434548
 40
0.8752419698
 40
0.9064381901
 40
0.9376326914
 40
1.0
 40
1.0
 40
1.0
 40
1.0
 10
2.4263306766
 20
4.4529266529
 30
0.0
 10
2.4263306766
 20
4.4648647762
 30
0.0
 10
2.427209478
 20
4.482791961
 30
0.0
 10
2.430121238
 20
4.5065033258
 30
0.0
 10
2.4341905744
 20
4.5300439472
 30
0.0
 10
2.4414269085
 20
4.5590478583
 30
0.0
 10
2.4514636261
 20
4.5872023685
 30
0.0
 10
2.461108374
 20
4.6090456058
 30
0.0
 10
2.4691364502
 20
4.6250542507
 30
0.0
 10
2.4779362185
 20
4.6406482216
 30
0.0
 10
2.4874878579
 20
4.6557899905
 30
0.0
 10
2.4977688156
 20
4.6704425651
 30
0.0
 10
2.5087526999
 20
4.6845718738
 30
0.0
 10
2.520414375
 20
4.6981429031
 30
0.0
 10
2.5327258538
 20
4.7111227
 30
0.0
 10
2.5456561531
 20
4.7234813248
 30
0.0
 10
2.5591754526
 20
4.7351877006
 30
0.0
 10
2.5732509438
 20
4.7462137278
 30
0.0
 10
2.587847784
 20
4.7565341589
 30
0.0
 10
2.6029320254
 20
4.7661224598
 30
0.0
 10
2.6184668615
 20
4.7749560517
 30
0.0
 10
2.6344143015
 20
4.7830148433
 30
0.0
 10
2.6507369181
 20
4.7902774671
 30
0.0
 10
2.667394839
 20
4.7967274088
 30
0.0
 10
2.6843476671
 20
4.802350075
 30
0.0
 10
2.7015553228
 20
4.8071297894
 30
0.0
 10
2.7189755734
 20
4.8110564562
 30
0.0
 10
2.7365674851
 20
4.8141212583
 30
0.0
 10
2.7601870444
 20
4.8170451124
 30
0.0
 10
2.7780472651
 20
4.8179266529
 30
0.0
 10
2.7899417414
 20
4.8179266529
 30
0.0
  0
SPLINE
  5
490
100
AcDbEntity
  8
0
100
AcDbSpline
 62
7
  6
CONTINUOUS
 70
0
 71
3
 72
35
 73
31
 74
0
 42
0.0000001
 43
0.0000001
 44
0.0000000001
 40
0.0
 40
0.0
 40
0.0
 40
0.0
 40
0.0623673086
 40
0.0935618099
 40
0.1247580302
 40
0.1559565452
 40
0.1871577409
 40
0.2183622263
 40
0.2495704663
 40
0.2807827631
 40
0.3119996364
 40
0.3432214023
 40
0.3744482485
 40
0.4056805651
 40
0.4369184885
 40
0.4681620652
 40
0.4994115332
 40
0.5306668551
 40
0.5619279494
 40
0.5931948597
 40
0.6244672904
 40
0.655744955
 40
0.6870278574
 40
0.7183158226
 40
0.7496086744
 40
0.812186516
 40
0.8747737035
 40
0.9060849701
 40
0.9374038338
 40
1.0
 40
1.0
 40
1.0
 40
1.0
 10
2.7899417414
 20
4.0879266529
 30
0.0
 10
2.7780472651
 20
4.0879266529
 30
0.0
 10
2.7601870444
 20
4.0888081934
 30
0.0
 10
2.7365674851
 20
4.0917320475
 30
0.0
 10
2.7189755734
 20
4.0947968496
 30
0.0
 10
2.7015553228
 20
4.0987235164
 30
0.0
 10
2.6843476671
 20
4.1035032308
 30
0.0
 10
2.667394839
 20
4.109125897
 30
0.0
 10
2.6507369181
 20
4.1155758387
 30
0.0
 10
2.6344143015
 20
4.1228384625
 30
0.0
 10
2.6184668615
 20
4.1308972541
 30
0.0
 10
2.6029320254
 20
4.139730846
 30
0.0
 10
2.587847784
 20
4.1493191469
 30
0.0
 10
2.5732509438
 20
4.159639578
 30
0.0
 10
2.5591754526
 20
4.1706656052
 30
0.0
 10
2.5456561531
 20
4.182371981
 30
0.0
 10
2.5327258538
 20
4.1947306058
 30
0.0
 10
2.520414375
 20
4.2077104026
 30
0.0
 10
2.5087526999
 20
4.221281432
 30
0.0
 10
2.4977688156
 20
4.2354107407
 30
0.0
 10
2.4874878579
 20
4.2500633153
 30
0.0
 10
2.4779362185
 20
4.2652050842
 30
0.0
 10
2.4691364502
 20
4.280799055
 30
0.0
 10
2.461108374
 20
4.2968077
 30
0.0
 10
2.4514636261
 20
4.3186509373
 30
0.0
 10
2.4414269085
 20
4.3468054475
 30
0.0
 10
2.4341905744
 20
4.3758093586
 30
0.0
 10
2.430121238
 20
4.39934998
 30
0.0
 10
2.427209478
 20
4.4230613448
 30
0.0
 10
2.4263306766
 20
4.4409885296
 30
0.0
 10
2.4263306766
 20
4.4529266529
 30
0.0
  0
SPLINE
  5
491
100
AcDbEntity
  8
0
100
AcDbSpline
 62
7
  6
CONTINUOUS
 70
0
 71
3
 72
15
 73
11
 74
0
 42
0.0000001
 43
0.0000001
 44
0.0000000001
 40
0.0
 40
0.0
 40
0.0
 40
0.0
 40
0.1252329505
 40
0.2504328687
 40
0.37556308
 40
0.5006107027
 40
0.62556535
 40
0.7504307989
 40
0.8752344591
 40
1.0
 40
1.0
 40
1.0
 40
1.0
 10
11.9937127932
 20
3.1129266529
 30
0.0
 10
11.9937127932
 20
3.1083527103
 30
0.0
 10
11.9946115169
 20
3.0991808652
 30
0.0
 10
11.9986043122
 20
3.0859704558
 30
0.0
 10
12.0050886365
 20
3.0737898017
 30
0.0
 10
12.0138158493
 20
3.0631138373
 30
0.0
 10
12.0244505136
 20
3.0543512211
 30
0.0
 10
12.0365860134
 20
3.0478395487
 30
0.0
 10
12.049748978
 20
3.0438294229
 30
0.0
 10
12.0588895509
 20
3.0429266529
 30
0.0
 10
12.0634464221
 20
3.0429266529
 30
0.0
  0
SPLINE
  5
492
100
AcDbEntity
  8
0
100
AcDbSpline
 62
7
  6
CONTINUOUS
 70
0
 71
3
 72
15
 73
11
 74
0
 42
0.0000001
 43
0.0000001
 44
0.0000000001
 40
0.0
 40
0.0
 40
0.0
 40
0.0
 40
0.1252329505
 40
0.2504328687
 40
0.37556308
 40
0.5006107027
 40
0.62556535
 40
0.7504307989
 40
0.8752344591
 40
1.0
 40
1.0
 40
1.0
 40
1.0
 10
-8.2763475329
 20
3.1129266529
 30
0.0
 10
-8.2763475329
 20
3.1083527103
 30
0.0
 10
-8.2772462565
 20
3.0991808652
 30
0.0
 10
-8.2812390518
 20
3.0859704558
 30
0.0
 10
-8.2877233761
 20
3.0737898017
 30
0.0
 10
-8.2964505889
 20
3.0631138373
 30
0.0
 10
-8.3070852532
 20
3.0543512211
 30
0.0
 10
-8.319220753
 20
3.0478395487
 30
0.0
 10
-8.3323837177
 20
3.0438294229
 30
0.0
 10
-8.3415242905
 20
3.0429266529
 30
0.0
 10
-8.3460811617
 20
3.0429266529
 30
0.0
  0
SPLINE
  5
493
100
AcDbEntity
  8
0
100
AcDbSpline
 62
7
  6
CONTINUOUS
 70
0
 71
3
 72
15
 73
11
 74
0
 42
0.0000001
 43
0.0000001
 44
0.0000000001
 40
0.0
 40
0.0
 40
0.0
 40
0.0
 40
0.1247655409
 40
0.2495692011
 40
0.37443465
 40
0.4993892973
 40
0.62443692
 40
0.7495671313
 40
0.8747670495
 40
1.0
 40
1.0
 40
1.0
 40
1.0
 10
-8.258925419
 20
3.0429266529
 30
0.0
 10
-8.2543685478
 20
3.0429266529
 30
0.0
 10
-8.2452279749
 20
3.0438294229
 30
0.0
 10
-8.2320650103
 20
3.0478395487
 30
0.0
 10
-8.2199295105
 20
3.0543512211
 30
0.0
 10
-8.2092948461
 20
3.0631138373
 30
0.0
 10
-8.2005676334
 20
3.0737898017
 30
0.0
 10
-8.194083309
 20
3.0859704558
 30
0.0
 10
-8.1900905138
 20
3.0991808652
 30
0.0
 10
-8.1891917901
 20
3.1083527103
 30
0.0
 10
-8.1891917901
 20
3.1129266529
 30
0.0
  0
SPLINE
  5
494
100
AcDbEntity
  8
0
100
AcDbSpline
 62
7
  6
CONTINUOUS
 70
0
 71
3
 72
28
 73
24
 74
0
 42
0.0000001
 43
0.0000001
 44
0.0000000001
 40
0.0
 40
0.0
 40
0.0
 40
0.0
 40
0.0021305426
 40
0.0044214873
 40
0.0070014036
 40
0.0099605939
 40
0.0172256425
 40
0.0264982361
 40
0.0378928926
 40
0.0514488124
 40
0.0671722808
 40
0.0850543774
 40
0.1050744273
 40
0.1271929998
 40
0.1775366568
 40
0.2356686756
 40
0.301049768
 40
0.3730845067
 40
0.451087418
 40
0.5343299542
 40
0.6220067751
 40
0.807332104
 40
1.0
 40
1.0
 40
1.0
 40
1.0
 10
3.2457685553
 20
3.0429266529
 30
0.0
 10
3.245718216
 20
3.0429266529
 30
0.0
 10
3.2456132601
 20
3.0429420913
 30
0.0
 10
3.2454604
 20
3.0430091922
 30
0.0
 10
3.2453096901
 20
3.0431183493
 30
0.0
 10
3.2450961139
 20
3.0433339907
 30
0.0
 10
3.2448377138
 20
3.0437193133
 30
0.0
 10
3.244548159
 20
3.0443132635
 30
0.0
 10
3.2442606606
 20
3.0450699983
 30
0.0
 10
3.2439757881
 20
3.0459882208
 30
0.0
 10
3.2436944023
 20
3.0470667325
 30
0.0
 10
3.2434174074
 20
3.0483033167
 30
0.0
 10
3.2431456535
 20
3.0496953216
 30
0.0
 10
3.2427750382
 20
3.0518489275
 30
0.0
 10
3.2423385816
 20
3.0549041131
 30
0.0
 10
3.2418652323
 20
3.0589848578
 30
0.0
 10
3.2414273972
 20
3.0635846407
 30
0.0
 10
3.2410300486
 20
3.0686590961
 30
0.0
 10
3.2406770015
 20
3.0741597519
 30
0.0
 10
3.2403722124
 20
3.0800333806
 30
0.0
 10
3.2400275549
 20
3.0884436144
 30
0.0
 10
3.2397429656
 20
3.0994432129
 30
0.0
 10
3.2396676533
 20
3.108374401
 30
0.0
 10
3.2396676533
 20
3.1129266529
 30
0.0
  0
SPLINE
  5
495
100
AcDbEntity
  8
0
100
AcDbSpline
 62
7
  6
CONTINUOUS
 70
0
 71
3
 72
28
 73
24
 74
0
 42
0.0000001
 43
0.0000001
 44
0.0000000001
 40
0.0
 40
0.0
 40
0.0
 40
0.0
 40
0.192667896
 40
0.3779932249
 40
0.4656700458
 40
0.548912582
 40
0.6269154933
 40
0.698950232
 40
0.7643313244
 40
0.8224633432
 40
0.8728070002
 40
0.8949255727
 40
0.9149456226
 40
0.9328277192
 40
0.9485511876
 40
0.9621071074
 40
0.9735017639
 40
0.9827743575
 40
0.9900394061
 40
0.9929985964
 40
0.9955785127
 40
0.9978694574
 40
1.0
 40
1.0
 40
1.0
 40
1.0
 10
2.2434729552
 20
3.1129266529
 30
0.0
 10
2.2434729552
 20
3.108374401
 30
0.0
 10
2.2435482675
 20
3.0994432129
 30
0.0
 10
2.2438328568
 20
3.0884436144
 30
0.0
 10
2.2441775143
 20
3.0800333806
 30
0.0
 10
2.2444823034
 20
3.0741597519
 30
0.0
 10
2.2448353505
 20
3.0686590961
 30
0.0
 10
2.2452326991
 20
3.0635846407
 30
0.0
 10
2.2456705343
 20
3.0589848578
 30
0.0
 10
2.2461438835
 20
3.0549041131
 30
0.0
 10
2.2465803401
 20
3.0518489275
 30
0.0
 10
2.2469509554
 20
3.0496953216
 30
0.0
 10
2.2472227093
 20
3.0483033167
 30
0.0
 10
2.2474997043
 20
3.0470667325
 30
0.0
 10
2.24778109
 20
3.0459882208
 30
0.0
 10
2.2480659625
 20
3.0450699983
 30
0.0
 10
2.2483534609
 20
3.0443132635
 30
0.0
 10
2.2486430157
 20
3.0437193133
 30
0.0
 10
2.2489014158
 20
3.0433339907
 30
0.0
 10
2.249114992
 20
3.0431183493
 30
0.0
 10
2.2492657019
 20
3.0430091922
 30
0.0
 10
2.249418562
 20
3.0429420913
 30
0.0
 10
2.2495235179
 20
3.0429266529
 30
0.0
 10
2.2495738572
 20
3.0429266529
 30
0.0
  0
SPLINE
  5
496
100
AcDbEntity
  8
0
100
AcDbSpline
 62
7
  6
CONTINUOUS
 70
0
 71
3
 72
9
 73
5
 74
0
 42
0.0000001
 43
0.0000001
 44
0.0000000001
 40
0.0
 40
0.0
 40
0.0
 40
0.0
 40
0.2463170966
 40
1.0
 40
1.0
 40
1.0
 40
1.0
 10
-5.1866632388
 20
-7.0853843731
 30
0.0
 10
-5.185855489
 20
-7.0849839241
 30
0.0
 10
-5.1826107536
 20
-7.0832890204
 30
0.0
 10
-5.1795082056
 20
-7.0813245552
 30
0.0
 10
-5.1772649039
 20
-7.0797190792
 30
0.0
  0
SPLINE
  5
497
100
AcDbEntity
  8
0
100
AcDbSpline
 62
3
  6
CONTINUOUS
 70
0
 71
3
 72
15
 73
11
 74
0
 42
0.0000001
 43
0.0000001
 44
0.0000000001
 40
0.0
 40
0.0
 40
0.0
 40
0.0
 40
0.1252329505
 40
0.2504328687
 40
0.37556308
 40
0.5006107027
 40
0.62556535
 40
0.7504307989
 40
0.8752344591
 40
1.0
 40
1.0
 40
1.0
 40
1.0
 10
11.9239791644
 20
3.1129266529
 30
0.0
 10
11.9239791644
 20
3.1037787677
 30
0.0
 10
11.9257766117
 20
3.0854350774
 30
0.0
 10
11.9337622022
 20
3.0590142587
 30
0.0
 10
11.9467308509
 20
3.0346529505
 30
0.0
 10
11.9641852764
 20
3.0133010218
 30
0.0
 10
11.9854546051
 20
2.9957757893
 30
0.0
 10
12.0097256047
 20
2.9827524445
 30
0.0
 10
12.036051534
 20
2.974732193
 30
0.0
 10
12.0543326797
 20
2.9729266529
 30
0.0
 10
12.0634464221
 20
2.9729266529
 30
0.0
  0
SPLINE
  5
498
100
AcDbEntity
  8
0
100
AcDbSpline
 62
3
  6
CONTINUOUS
 70
0
 71
3
 72
15
 73
11
 74
0
 42
0.0000001
 43
0.0000001
 44
0.0000000001
 40
0.0
 40
0.0
 40
0.0
 40
0.0
 40
0.1247655409
 40
0.2495692011
 40
0.37443465
 40
0.4993892973
 40
0.62443692
 40
0.7495671313
 40
0.8747670495
 40
1.0
 40
1.0
 40
1.0
 40
1.0
 10
-8.258925419
 20
2.9729266529
 30
0.0
 10
-8.2498116766
 20
2.9729266529
 30
0.0
 10
-8.2315305309
 20
2.974732193
 30
0.0
 10
-8.2052046016
 20
2.9827524445
 30
0.0
 10
-8.180933602
 20
2.9957757893
 30
0.0
 10
-8.1596642733
 20
3.0133010218
 30
0.0
 10
-8.1422098478
 20
3.0346529505
 30
0.0
 10
-8.1292411991
 20
3.0590142587
 30
0.0
 10
-8.1212556086
 20
3.0854350774
 30
0.0
 10
-8.1194581612
 20
3.1037787677
 30
0.0
 10
-8.1194581612
 20
3.1129266529
 30
0.0
  0
SPLINE
  5
499
100
AcDbEntity
  8
0
100
AcDbSpline
 62
3
  6
CONTINUOUS
 70
0
 71
3
 72
31
 73
27
 74
0
 42
0.0000001
 43
0.0000001
 44
0.0000000001
 40
0.0
 40
0.0
 40
0.0
 40
0.0
 40
0.192665234
 40
0.3779880023
 40
0.4656636119
 40
0.548904998
 40
0.6269068315
 40
0.698940575
 40
0.7643207641
 40
0.8224519797
 40
0.8486260807
 40
0.8727965254
 40
0.8949147923
 40
0.9149345655
 40
0.9328164152
 40
0.9485396663
 40
0.9620953988
 40
0.9734898979
 40
0.9783881466
 40
0.9827663539
 40
0.9866416585
 40
0.9900395437
 40
0.9929986931
 40
0.9955785738
 40
0.9978694868
 40
1.0
 40
1.0
 40
1.0
 40
1.0
 10
2.2373720532
 20
3.1129266529
 30
0.0
 10
2.2373720532
 20
3.103822149
 30
0.0
 10
2.2375226782
 20
3.0859597731
 30
0.0
 10
2.2380918557
 20
3.0639605756
 30
0.0
 10
2.2387811726
 20
3.0471401091
 30
0.0
 10
2.2393907452
 20
3.0353928486
 30
0.0
 10
2.2400968586
 20
3.0243915471
 30
0.0
 10
2.2408914922
 20
3.0142426033
 30
0.0
 10
2.2417673675
 20
3.0050431435
 30
0.0
 10
2.2425819066
 20
2.9980159615
 30
0.0
 10
2.2432780318
 20
2.9929371923
 30
0.0
 10
2.243796447
 20
2.9895522227
 30
0.0
 10
2.2443280888
 20
2.9864639956
 30
0.0
 10
2.2448715504
 20
2.9836799774
 30
0.0
 10
2.2454255636
 20
2.9812068188
 30
0.0
 10
2.2459882904
 20
2.979049769
 30
0.0
 10
2.2465581632
 20
2.977213402
 30
0.0
 10
2.2470593462
 20
2.9758931826
 30
0.0
 10
2.247471257
 20
2.975006992
 30
0.0
 10
2.2477656538
 20
2.9744591601
 30
0.0
 10
2.2480611109
 20
2.9739938351
 30
0.0
 10
2.2483577907
 20
2.9736108712
 30
0.0
 10
2.2486561687
 20
2.9733100893
 30
0.0
 10
2.2489575374
 20
2.9730917219
 30
0.0
 10
2.2492632692
 20
2.9729575322
 30
0.0
 10
2.2494731786
 20
2.9729266529
 30
0.0
 10
2.2495738572
 20
2.9729266529
 30
0.0
  0
SPLINE
  5
49A
100
AcDbEntity
  8
0
100
AcDbSpline
 62
3
  6
CONTINUOUS
 70
0
 71
3
 72
23
 73
19
 74
0
 42
0.0000001
 43
0.0000001
 44
0.0000000001
 40
0.0
 40
0.0
 40
0.0
 40
0.0
 40
0.056087865
 40
0.1143025992
 40
0.1748755475
 40
0.237958019
 40
0.3029205888
 40
0.3686676648
 40
0.4344672882
 40
0.5000926691
 40
0.5653973571
 40
0.6305738962
 40
0.6958700354
 40
0.7607456135
 40
0.8241333733
 40
0.8852893956
 40
0.9439504092
 40
1.0
 40
1.0
 40
1.0
 40
1.0
 10
-5.190295222
 20
-6.8563864664
 30
0.0
 10
-5.1870978979
 20
-6.8600293965
 30
0.0
 10
-5.180998646
 20
-6.8678270775
 30
0.0
 10
-5.1729170676
 20
-6.8806239004
 30
0.0
 10
-5.1658397734
 20
-6.8946848384
 30
0.0
 10
-5.1598999721
 20
-6.9098878583
 30
0.0
 10
-5.1551683558
 20
-6.9259735008
 30
0.0
 10
-5.1517520541
 20
-6.9426289113
 30
0.0
 10
-5.1497337467
 20
-6.9595675416
 30
0.0
 10
-5.1490679966
 20
-6.9765727391
 30
0.0
 10
-5.1497191177
 20
-6.9935249255
 30
0.0
 10
-5.1517258081
 20
-7.0103434114
 30
0.0
 10
-5.1551067717
 20
-7.0269027124
 30
0.0
 10
-5.1597988306
 20
-7.0429788681
 30
0.0
 10
-5.1657455975
 20
-7.0582544127
 30
0.0
 10
-5.1728716893
 20
-7.0724200644
 30
0.0
 10
-5.1809834613
 20
-7.0852988986
 30
0.0
 10
-5.1870980903
 20
-7.0931298685
 30
0.0
 10
-5.190292835
 20
-7.0967706617
 30
0.0
  0
SPLINE
  5
49B
100
AcDbEntity
  8
0
100
AcDbSpline
 62
7
  6
CONTINUOUS
 70
0
 71
3
 72
39
 73
35
 74
0
 42
0.0000001
 43
0.0000001
 44
0.0000000001
 40
0.0
 40
0.0
 40
0.0
 40
0.0
 40
0.0944469041
 40
0.1880733952
 40
0.2799780329
 40
0.3693598567
 40
0.4554117181
 40
0.5373558771
 40
0.6144574644
 40
0.6860281519
 40
0.7195385912
 40
0.7514327915
 40
0.7816391265
 40
0.8100940513
 40
0.8367363105
 40
0.8493592049
 40
0.8615081143
 40
0.8843607208
 40
0.9052493104
 40
0.9241338628
 40
0.9328159719
 40
0.9409873767
 40
0.9486457286
 40
0.9557892206
 40
0.9624171764
 40
0.9685310043
 40
0.9741335792
 40
0.9792295581
 40
0.9838261611
 40
0.9879343943
 40
0.991571392
 40
0.9947640784
 40
0.9975531082
 40
1.0
 40
1.0
 40
1.0
 40
1.0
 10
58.0569706863
 20
4.4529266529
 30
0.0
 10
58.0569706863
 20
4.46451708
 30
0.0
 10
58.0568749559
 20
4.4875973699
 30
0.0
 10
58.0564455765
 20
4.5219536933
 30
0.0
 10
58.0557340267
 20
4.5556836617
 30
0.0
 10
58.0547472659
 20
4.5884767719
 30
0.0
 10
58.0534945775
 20
4.6200375863
 30
0.0
 10
58.0519877896
 20
4.6500785662
 30
0.0
 10
58.0502409325
 20
4.6783262948
 30
0.0
 10
58.048564965
 20
4.7006215482
 30
0.0
 10
58.047103509
 20
4.7173675426
 30
0.0
 10
58.0459821831
 20
4.7290472839
 30
0.0
 10
58.0448138813
 20
4.740098768
 30
0.0
 10
58.0436015453
 20
4.7504969085
 30
0.0
 10
58.0425388148
 20
4.7587394828
 30
0.0
 10
58.0416650815
 20
4.7649882306
 30
0.0
 10
58.040811889
 20
4.7707700785
 30
0.0
 10
58.039729533
 20
4.7775433068
 30
0.0
 10
58.0383711032
 20
4.7851081888
 30
0.0
 10
58.0371844863
 20
4.7909357492
 30
0.0
 10
58.0362142284
 20
4.7952129806
 30
0.0
 10
58.0355009814
 20
4.7981354256
 30
0.0
 10
58.0347820888
 20
4.8008616693
 30
0.0
 10
58.0340579466
 20
4.8033900822
 30
0.0
 10
58.0333289404
 20
4.8057192413
 30
0.0
 10
58.0325955849
 20
4.8078480181
 30
0.0
 10
58.0318583441
 20
4.8097754911
 30
0.0
 10
58.0311176576
 20
4.8115008357
 30
0.0
 10
58.0303739319
 20
4.8130233337
 30
0.0
 10
58.0296274
 20
4.8143424817
 30
0.0
 10
58.028878056
 20
4.8154580766
 30
0.0
 10
58.0281252258
 20
4.8163705546
 30
0.0
 10
58.0273680698
 20
4.8170800279
 30
0.0
 10
58.0268277323
 20
4.8174366694
 30
0.0
 10
58.026559801
 20
4.8175722456
 30
0.0
  0
SPLINE
  5
49C
100
AcDbEntity
  8
0
100
AcDbSpline
 62
7
  6
CONTINUOUS
 70
0
 71
3
 72
15
 73
11
 74
0
 42
0.0000001
 43
0.0000001
 44
0.0000000001
 40
0.0
 40
0.0
 40
0.0
 40
0.0
 40
0.1042619458
 40
0.2166105586
 40
0.3360398107
 40
0.4614755216
 40
0.5917807883
 40
0.725775244
 40
0.862287569
 40
1.0
 40
1.0
 40
1.0
 40
1.0
 10
58.0481182603
 20
4.200281641
 30
0.0
 10
58.0488503055
 20
4.2090391777
 30
0.0
 10
58.0502219603
 20
4.2272461303
 30
0.0
 10
58.0519735358
 20
4.2555168621
 30
0.0
 10
58.0534845527
 20
4.2855885357
 30
0.0
 10
58.0547408038
 20
4.3171866173
 30
0.0
 10
58.0557304114
 20
4.3500223812
 30
0.0
 10
58.0564440352
 20
4.3837991154
 30
0.0
 10
58.0568746751
 20
4.418204983
 30
0.0
 10
58.0569706863
 20
4.4413190834
 30
0.0
 10
58.0569706863
 20
4.4529266529
 30
0.0
  0
SPLINE
  5
49D
100
AcDbEntity
  8
0
100
AcDbSpline
 62
7
  6
CONTINUOUS
 70
0
 71
3
 72
30
 73
26
 74
0
 42
0.0000001
 43
0.0000001
 44
0.0000000001
 40
0.0
 40
0.0
 40
0.0
 40
0.0
 40
0.1118197709
 40
0.2174481838
 40
0.3167206201
 40
0.4094990815
 40
0.4956532874
 40
0.5750593918
 40
0.6476216079
 40
0.7132704412
 40
0.7719516744
 40
0.7986713589
 40
0.8236460641
 40
0.8468830059
 40
0.8683932621
 40
0.8881931169
 40
0.906306004
 40
0.9227653701
 40
0.9376198677
 40
0.9509416124
 40
0.9628328466
 40
0.9734387412
 40
0.9829650653
 40
0.9916960691
 40
1.0
 40
1.0
 40
1.0
 40
1.0
 10
57.5561986086
 20
3.2621876945
 30
0.0
 10
57.5558655296
 20
3.2593007281
 30
0.0
 10
57.5551917813
 20
3.2536895968
 30
0.0
 10
57.5541236686
 20
3.2455276762
 30
0.0
 10
57.5530279506
 20
3.2378689745
 30
0.0
 10
57.5519066925
 20
3.2307258333
 30
0.0
 10
57.5507619103
 20
3.2241097829
 30
0.0
 10
57.5495954205
 20
3.2180316708
 30
0.0
 10
57.5484093783
 20
3.2125011558
 30
0.0
 10
57.5472060821
 20
3.2075268972
 30
0.0
 10
57.546160934
 20
3.2037418662
 30
0.0
 10
57.5453101173
 20
3.2010021326
 30
0.0
 10
57.5446888614
 20
3.1991562553
 30
0.0
 10
57.5440646687
 20
3.1974548661
 30
0.0
 10
57.5434377806
 20
3.1958985264
 30
0.0
 10
57.5428084637
 20
3.1944877573
 30
0.0
 10
57.5421769528
 20
3.1932230349
 30
0.0
 10
57.5415434247
 20
3.1921047476
 30
0.0
 10
57.5409078933
 20
3.1911331333
 30
0.0
 10
57.5402703159
 20
3.1903081449
 30
0.0
 10
57.5396302397
 20
3.1896296393
 30
0.0
 10
57.5389867209
 20
3.1890977249
 30
0.0
 10
57.538338074
 20
3.188713425
 30
0.0
 10
57.5376835012
 20
3.1884796277
 30
0.0
 10
57.5372392514
 20
3.1884266529
 30
0.0
 10
57.5370234381
 20
3.1884266529
 30
0.0
  0
SPLINE
  5
49E
100
AcDbEntity
  8
0
100
AcDbSpline
 62
7
  6
CONTINUOUS
 70
0
 71
3
 72
30
 73
26
 74
0
 42
0.0000001
 43
0.0000001
 44
0.0000000001
 40
0.0
 40
0.0
 40
0.0
 40
0.0
 40
0.1118197709
 40
0.2174481838
 40
0.3167206201
 40
0.4094990815
 40
0.4956532874
 40
0.5750593918
 40
0.6476216079
 40
0.7132704412
 40
0.7719516744
 40
0.7986713589
 40
0.8236460641
 40
0.8468830059
 40
0.8683932621
 40
0.8881931169
 40
0.906306004
 40
0.9227653701
 40
0.9376198677
 40
0.9509416124
 40
0.9628328466
 40
0.9734387412
 40
0.9829650653
 40
0.9916960691
 40
1.0
 40
1.0
 40
1.0
 40
1.0
 10
37.2054383735
 20
3.2621876945
 30
0.0
 10
37.2057714525
 20
3.2593007281
 30
0.0
 10
37.2064452008
 20
3.2536895968
 30
0.0
 10
37.2075133135
 20
3.2455276762
 30
0.0
 10
37.2086090315
 20
3.2378689745
 30
0.0
 10
37.2097302896
 20
3.2307258333
 30
0.0
 10
37.2108750718
 20
3.2241097829
 30
0.0
 10
37.2120415617
 20
3.2180316708
 30
0.0
 10
37.2132276038
 20
3.2125011558
 30
0.0
 10
37.2144309
 20
3.2075268972
 30
0.0
 10
37.2154760481
 20
3.2037418662
 30
0.0
 10
37.2163268649
 20
3.2010021326
 30
0.0
 10
37.2169481207
 20
3.1991562553
 30
0.0
 10
37.2175723134
 20
3.1974548661
 30
0.0
 10
37.2181992016
 20
3.1958985264
 30
0.0
 10
37.2188285185
 20
3.1944877573
 30
0.0
 10
37.2194600293
 20
3.1932230349
 30
0.0
 10
37.2200935574
 20
3.1921047476
 30
0.0
 10
37.2207290888
 20
3.1911331333
 30
0.0
 10
37.2213666662
 20
3.1903081449
 30
0.0
 10
37.2220067424
 20
3.1896296393
 30
0.0
 10
37.2226502612
 20
3.1890977249
 30
0.0
 10
37.2232989081
 20
3.188713425
 30
0.0
 10
37.2239534809
 20
3.1884796277
 30
0.0
 10
37.2243977307
 20
3.1884266529
 30
0.0
 10
37.224613544
 20
3.1884266529
 30
0.0
  0
SPLINE
  5
49F
100
AcDbEntity
  8
0
100
AcDbSpline
 62
7
  6
CONTINUOUS
 70
0
 71
3
 72
30
 73
26
 74
0
 42
0.0000001
 43
0.0000001
 44
0.0000000001
 40
0.0
 40
0.0
 40
0.0
 40
0.0
 40
0.0083039309
 40
0.0170349347
 40
0.0265612588
 40
0.0371671534
 40
0.0490583876
 40
0.0623801323
 40
0.0772346299
 40
0.093693996
 40
0.1118068831
 40
0.1316067379
 40
0.1531169941
 40
0.1763539359
 40
0.2013286411
 40
0.2280483256
 40
0.2867295588
 40
0.3523783921
 40
0.4249406082
 40
0.5043467126
 40
0.5905009185
 40
0.6832793799
 40
0.7825518162
 40
0.8881802291
 40
1.0
 40
1.0
 40
1.0
 40
1.0
 10
37.2893661994
 20
3.1884266529
 30
0.0
 10
37.2895820127
 20
3.1884266529
 30
0.0
 10
37.2900262625
 20
3.1884796277
 30
0.0
 10
37.2906808353
 20
3.188713425
 30
0.0
 10
37.2913294822
 20
3.1890977249
 30
0.0
 10
37.291973001
 20
3.1896296393
 30
0.0
 10
37.2926130772
 20
3.1903081449
 30
0.0
 10
37.2932506546
 20
3.1911331333
 30
0.0
 10
37.293886186
 20
3.1921047476
 30
0.0
 10
37.2945197141
 20
3.1932230349
 30
0.0
 10
37.2951512249
 20
3.1944877573
 30
0.0
 10
37.2957805418
 20
3.1958985264
 30
0.0
 10
37.29640743
 20
3.1974548661
 30
0.0
 10
37.2970316227
 20
3.1991562553
 30
0.0
 10
37.2976528785
 20
3.2010021326
 30
0.0
 10
37.2985036953
 20
3.2037418662
 30
0.0
 10
37.2995488434
 20
3.2075268972
 30
0.0
 10
37.3007521396
 20
3.2125011558
 30
0.0
 10
37.3019381817
 20
3.2180316708
 30
0.0
 10
37.3031046716
 20
3.2241097829
 30
0.0
 10
37.3042494538
 20
3.2307258333
 30
0.0
 10
37.3053707119
 20
3.2378689745
 30
0.0
 10
37.3064664299
 20
3.2455276762
 30
0.0
 10
37.3075345426
 20
3.2536895968
 30
0.0
 10
37.3082082909
 20
3.2593007281
 30
0.0
 10
37.3085413699
 20
3.2621876945
 30
0.0
  0
SPLINE
  5
4A0
100
AcDbEntity
  8
0
100
AcDbSpline
 62
7
  6
CONTINUOUS
 70
0
 71
3
 72
30
 73
26
 74
0
 42
0.0000001
 43
0.0000001
 44
0.0000000001
 40
0.0
 40
0.0
 40
0.0
 40
0.0
 40
0.0083039309
 40
0.0170349347
 40
0.0265612588
 40
0.0371671534
 40
0.0490583876
 40
0.0623801323
 40
0.0772346299
 40
0.093693996
 40
0.1118068831
 40
0.1316067379
 40
0.1531169941
 40
0.1763539359
 40
0.2013286411
 40
0.2280483256
 40
0.2867295588
 40
0.3523783921
 40
0.4249406082
 40
0.5043467126
 40
0.5905009185
 40
0.6832793799
 40
0.7825518162
 40
0.8881802291
 40
1.0
 40
1.0
 40
1.0
 40
1.0
 10
37.224613544
 20
3.1884266529
 30
0.0
 10
37.2248293573
 20
3.1884266529
 30
0.0
 10
37.2252736071
 20
3.1884796277
 30
0.0
 10
37.2259281799
 20
3.188713425
 30
0.0
 10
37.2265768268
 20
3.1890977249
 30
0.0
 10
37.2272203456
 20
3.1896296393
 30
0.0
 10
37.2278604218
 20
3.1903081449
 30
0.0
 10
37.2284979992
 20
3.1911331333
 30
0.0
 10
37.2291335306
 20
3.1921047476
 30
0.0
 10
37.2297670587
 20
3.1932230349
 30
0.0
 10
37.2303985696
 20
3.1944877573
 30
0.0
 10
37.2310278865
 20
3.1958985264
 30
0.0
 10
37.2316547746
 20
3.1974548661
 30
0.0
 10
37.2322789674
 20
3.1991562553
 30
0.0
 10
37.2329002232
 20
3.2010021326
 30
0.0
 10
37.2337510399
 20
3.2037418662
 30
0.0
 10
37.234796188
 20
3.2075268972
 30
0.0
 10
37.2359994842
 20
3.2125011558
 30
0.0
 10
37.2371855264
 20
3.2180316708
 30
0.0
 10
37.2383520162
 20
3.2241097829
 30
0.0
 10
37.2394967984
 20
3.2307258333
 30
0.0
 10
37.2406180565
 20
3.2378689745
 30
0.0
 10
37.2417137745
 20
3.2455276762
 30
0.0
 10
37.2427818873
 20
3.2536895968
 30
0.0
 10
37.2434556355
 20
3.2593007281
 30
0.0
 10
37.2437887146
 20
3.2621876945
 30
0.0
  0
SPLINE
  5
4A1
100
AcDbEntity
  8
0
100
AcDbSpline
 62
7
  6
CONTINUOUS
 70
0
 71
3
 72
31
 73
27
 74
0
 42
0.0000001
 43
0.0000001
 44
0.0000000001
 40
0.0
 40
0.0
 40
0.0
 40
0.0
 40
0.1116414507
 40
0.2173878493
 40
0.317022788
 40
0.4103360405
 40
0.4971304849
 40
0.5772414629
 40
0.6505147082
 40
0.7168139925
 40
0.7760456616
 40
0.8029897004
 40
0.8281430284
 40
0.8515032953
 40
0.8730752737
 40
0.892868707
 40
0.9108993175
 40
0.9271913795
 40
0.9417817208
 40
0.9547271654
 40
0.9661168711
 40
0.9760849005
 40
0.9848331276
 40
0.9926608628
 40
0.9963630396
 40
1.0
 40
1.0
 40
1.0
 40
1.0
 10
36.7146990512
 20
4.7189741679
 30
0.0
 10
36.7150541984
 20
4.72280167
 30
0.0
 10
36.7157771804
 20
4.7302517064
 30
0.0
 10
36.7169358523
 20
4.7411056758
 30
0.0
 10
36.7181372024
 20
4.7513198913
 30
0.0
 10
36.7193784728
 20
4.7608717066
 30
0.0
 10
36.7206570144
 20
4.7697399816
 30
0.0
 10
36.7219694995
 20
4.7779052119
 30
0.0
 10
36.7233126916
 20
4.7853495327
 30
0.0
 10
36.7246837352
 20
4.792056561
 30
0.0
 10
36.7258808086
 20
4.7971692251
 30
0.0
 10
36.7268589799
 20
4.8008757401
 30
0.0
 10
36.7275743772
 20
4.8033736256
 30
0.0
 10
36.7282945029
 20
4.8056770783
 30
0.0
 10
36.7290188945
 20
4.807785001
 30
0.0
 10
36.7297470982
 20
4.8096965013
 30
0.0
 10
36.7304786883
 20
4.8114107752
 30
0.0
 10
36.7312132798
 20
4.8129271174
 30
0.0
 10
36.7319505947
 20
4.8142450088
 30
0.0
 10
36.7326907083
 20
4.8153642245
 30
0.0
 10
36.7334338965
 20
4.8162850644
 30
0.0
 10
36.7341816982
 20
4.817007869
 30
0.0
 10
36.7349363478
 20
4.8175320182
 30
0.0
 10
36.7355869885
 20
4.8178043746
 30
0.0
 10
36.7360998884
 20
4.8179093534
 30
0.0
 10
36.7363529172
 20
4.8179266529
 30
0.0
 10
36.736478142
 20
4.8179266529
 30
0.0
  0
SPLINE
  5
4A2
100
AcDbEntity
  8
0
100
AcDbSpline
 62
7
  6
CONTINUOUS
 70
0
 71
3
 72
31
 73
27
 74
0
 42
0.0000001
 43
0.0000001
 44
0.0000000001
 40
0.0
 40
0.0
 40
0.0
 40
0.0
 40
0.0036369604
 40
0.0073391372
 40
0.0151668724
 40
0.0239150995
 40
0.0338831289
 40
0.0452728346
 40
0.0582182792
 40
0.0728086205
 40
0.0891006825
 40
0.107131293
 40
0.1269247263
 40
0.1484967047
 40
0.1718569716
 40
0.1970102996
 40
0.2239543384
 40
0.2831860075
 40
0.3494852918
 40
0.4227585371
 40
0.5028695151
 40
0.5896639595
 40
0.682977212
 40
0.7826121507
 40
0.8883585493
 40
1.0
 40
1.0
 40
1.0
 40
1.0
 10
36.736478142
 20
4.0879266529
 30
0.0
 10
36.7363529172
 20
4.0879266529
 30
0.0
 10
36.7360998884
 20
4.0879439524
 30
0.0
 10
36.7355869885
 20
4.0880489312
 30
0.0
 10
36.7349363478
 20
4.0883212875
 30
0.0
 10
36.7341816982
 20
4.0888454368
 30
0.0
 10
36.7334338965
 20
4.0895682414
 30
0.0
 10
36.7326907083
 20
4.0904890813
 30
0.0
 10
36.7319505947
 20
4.091608297
 30
0.0
 10
36.7312132798
 20
4.0929261884
 30
0.0
 10
36.7304786883
 20
4.0944425306
 30
0.0
 10
36.7297470982
 20
4.0961568045
 30
0.0
 10
36.7290188945
 20
4.0980683048
 30
0.0
 10
36.7282945029
 20
4.1001762275
 30
0.0
 10
36.7275743772
 20
4.1024796802
 30
0.0
 10
36.7268589799
 20
4.1049775657
 30
0.0
 10
36.7258808086
 20
4.1086840806
 30
0.0
 10
36.7246837352
 20
4.1137967448
 30
0.0
 10
36.7233126916
 20
4.1205037731
 30
0.0
 10
36.7219694995
 20
4.1279480939
 30
0.0
 10
36.7206570144
 20
4.1361133242
 30
0.0
 10
36.7193784728
 20
4.1449815992
 30
0.0
 10
36.7181372024
 20
4.1545334144
 30
0.0
 10
36.7169358523
 20
4.16474763
 30
0.0
 10
36.7157771804
 20
4.1756015994
 30
0.0
 10
36.7150541984
 20
4.1830516358
 30
0.0
 10
36.7146990512
 20
4.1868791379
 30
0.0
  0
SPLINE
  5
4A3
100
AcDbEntity
  8
0
100
AcDbSpline
 62
7
  6
CONTINUOUS
 70
0
 71
3
 72
43
 73
39
 74
0
 42
0.0000001
 43
0.0000001
 44
0.0000000001
 40
0.0
 40
0.0
 40
0.0
 40
0.0
 40
0.0010588047
 40
0.0021381806
 40
0.0044300818
 40
0.0070097635
 40
0.0099681803
 40
0.0133654661
 40
0.0172409072
 40
0.0193666687
 40
0.0216206256
 40
0.0265193544
 40
0.0319479151
 40
0.0379129104
 40
0.0444184858
 40
0.0514670622
 40
0.0590590919
 40
0.0671930476
 40
0.0758666307
 40
0.0850770226
 40
0.1050946059
 40
0.1272122427
 40
0.1513835814
 40
0.1775589826
 40
0.2056818957
 40
0.2356869432
 40
0.2675071477
 40
0.3010693457
 40
0.3362936073
 40
0.3730990073
 40
0.4113987898
 40
0.4511010337
 40
0.5343371571
 40
0.62201836
 40
0.7133077846
 40
0.8073306109
 40
0.9032181743
 40
1.0
 40
1.0
 40
1.0
 40
1.0
 10
36.736478142
 20
4.8179266529
 30
0.0
 10
36.7366085914
 20
4.8179266529
 30
0.0
 10
36.7368723993
 20
4.8179078541
 30
0.0
 10
36.7374076598
 20
4.8177936639
 30
0.0
 10
36.7380868053
 20
4.8174969214
 30
0.0
 10
36.7388722662
 20
4.8169278473
 30
0.0
 10
36.7396503094
 20
4.8161438488
 30
0.0
 10
36.7404234338
 20
4.8151453322
 30
0.0
 10
36.7410445079
 20
4.8141664344
 30
0.0
 10
36.7415431164
 20
4.8132798257
 30
0.0
 10
36.742070593
 20
4.812265433
 30
0.0
 10
36.74272406
 20
4.8108589738
 30
0.0
 10
36.7434845821
 20
4.8090007526
 30
0.0
 10
36.7442412793
 20
4.806928901
 30
0.0
 10
36.7449936748
 20
4.8046444258
 30
0.0
 10
36.7457412186
 20
4.8021483859
 30
0.0
 10
36.7464834123
 20
4.79944217
 30
0.0
 10
36.7472198375
 20
4.7965274495
 30
0.0
 10
36.7479500367
 20
4.7934060466
 30
0.0
 10
36.7489424408
 20
4.7888429168
 30
0.0
 10
36.7501547844
 20
4.7826333983
 30
0.0
 10
36.7515408893
 20
4.7745820639
 30
0.0
 10
36.7528923104
 20
4.7657565575
 30
0.0
 10
36.7542053181
 20
4.7561779827
 30
0.0
 10
36.7554764464
 20
4.7458692294
 30
0.0
 10
36.7567027733
 20
4.7348550475
 30
0.0
 10
36.7578809648
 20
4.7231619033
 30
0.0
 10
36.7590080898
 20
4.7108179023
 30
0.0
 10
36.7600815785
 20
4.697852738
 30
0.0
 10
36.7610985406
 20
4.6842976293
 30
0.0
 10
36.7620565543
 20
4.6701852087
 30
0.0
 10
36.7632714933
 20
4.6503570162
 30
0.0
 10
36.7646163501
 20
4.6244419682
 30
0.0
 10
36.7659392906
 20
4.5921634717
 30
0.0
 10
36.7669820674
 20
4.5585451058
 30
0.0
 10
36.7677344979
 20
4.523907728
 30
0.0
 10
36.7681887224
 20
4.4885884616
 30
0.0
 10
36.7682899881
 20
4.4648506061
 30
0.0
 10
36.7682899881
 20
4.4529266529
 30
0.0
  0
SPLINE
  5
4A4
100
AcDbEntity
  8
0
100
AcDbSpline
 62
7
  6
CONTINUOUS
 70
0
 71
3
 72
43
 73
39
 74
0
 42
0.0000001
 43
0.0000001
 44
0.0000000001
 40
0.0
 40
0.0
 40
0.0
 40
0.0
 40
0.0967818257
 40
0.1926693891
 40
0.2866922154
 40
0.3779816399
 40
0.4656628429
 40
0.5488989663
 40
0.5886012102
 40
0.6269009927
 40
0.6637063927
 40
0.6989306543
 40
0.7324928523
 40
0.7643130568
 40
0.7943181043
 40
0.8224410174
 40
0.8486164186
 40
0.8727877573
 40
0.8949053941
 40
0.9149229774
 40
0.9241333693
 40
0.9328069524
 40
0.9409409081
 40
0.9485329378
 40
0.9555815142
 40
0.9620870896
 40
0.9680520849
 40
0.9734806456
 40
0.9783793744
 40
0.9806333313
 40
0.9827590928
 40
0.9866345339
 40
0.9900318197
 40
0.9929902365
 40
0.9955699182
 40
0.9978618194
 40
0.9989411953
 40
1.0
 40
1.0
 40
1.0
 40
1.0
 10
36.7682899881
 20
4.4529266529
 30
0.0
 10
36.7682899881
 20
4.4410026997
 30
0.0
 10
36.7681887224
 20
4.4172648442
 30
0.0
 10
36.7677344979
 20
4.3819455778
 30
0.0
 10
36.7669820674
 20
4.3473082
 30
0.0
 10
36.7659392906
 20
4.3136898341
 30
0.0
 10
36.7646163501
 20
4.2814113376
 30
0.0
 10
36.7632714933
 20
4.2554962896
 30
0.0
 10
36.7620565543
 20
4.235668097
 30
0.0
 10
36.7610985406
 20
4.2215556765
 30
0.0
 10
36.7600815785
 20
4.2080005678
 30
0.0
 10
36.7590080898
 20
4.1950354034
 30
0.0
 10
36.7578809648
 20
4.1826914025
 30
0.0
 10
36.7567027733
 20
4.1709982583
 30
0.0
 10
36.7554764464
 20
4.1599840764
 30
0.0
 10
36.7542053181
 20
4.1496753231
 30
0.0
 10
36.7528923104
 20
4.1400967483
 30
0.0
 10
36.7515408893
 20
4.1312712419
 30
0.0
 10
36.7501547844
 20
4.1232199075
 30
0.0
 10
36.7489424408
 20
4.117010389
 30
0.0
 10
36.7479500367
 20
4.1124472592
 30
0.0
 10
36.7472198375
 20
4.1093258562
 30
0.0
 10
36.7464834123
 20
4.1064111358
 30
0.0
 10
36.7457412186
 20
4.1037049199
 30
0.0
 10
36.7449936748
 20
4.10120888
 30
0.0
 10
36.7442412793
 20
4.0989244048
 30
0.0
 10
36.7434845821
 20
4.0968525532
 30
0.0
 10
36.74272406
 20
4.094994332
 30
0.0
 10
36.742070593
 20
4.0935878728
 30
0.0
 10
36.7415431164
 20
4.0925734801
 30
0.0
 10
36.7410445079
 20
4.0916868714
 30
0.0
 10
36.7404234338
 20
4.0907079736
 30
0.0
 10
36.7396503094
 20
4.089709457
 30
0.0
 10
36.7388722662
 20
4.0889254585
 30
0.0
 10
36.7380868053
 20
4.0883563844
 30
0.0
 10
36.7374076598
 20
4.0880596419
 30
0.0
 10
36.7368723993
 20
4.0879454517
 30
0.0
 10
36.7366085914
 20
4.0879266529
 30
0.0
 10
36.736478142
 20
4.0879266529
 30
0.0
  0
SPLINE
  5
4A5
100
AcDbEntity
  8
0
100
AcDbSpline
 62
7
  6
CONTINUOUS
 70
0
 71
3
 72
13
 73
9
 74
0
 42
0.0000001
 43
0.0000001
 44
0.0000000001
 40
0.0
 40
0.0
 40
0.0
 40
0.0
 40
0.2515721839
 40
0.3786773766
 40
0.5058490348
 40
0.6322147219
 40
0.7569722075
 40
1.0
 40
1.0
 40
1.0
 40
1.0
 10
48.3253423309
 20
4.7052287205
 30
0.0
 10
48.3437255516
 20
4.6948765211
 30
0.0
 10
48.3713620426
 20
4.6792320061
 30
0.0
 10
48.4081802628
 20
4.6581592508
 30
0.0
 10
48.4358289499
 20
4.6422042286
 30
0.0
 10
48.4632478493
 20
4.6262453598
 30
0.0
 10
48.4989879345
 20
4.6052688074
 30
0.0
 10
48.5255108426
 20
4.5895245898
 30
0.0
 10
48.5430108724
 20
4.5790776867
 30
0.0
  0
SPLINE
  5
4A6
100
AcDbEntity
  8
0
100
AcDbSpline
 62
7
  6
CONTINUOUS
 70
0
 71
3
 72
13
 73
9
 74
0
 42
0.0000001
 43
0.0000001
 44
0.0000000001
 40
0.0
 40
0.0
 40
0.0
 40
0.0
 40
0.2473154941
 40
0.3732415126
 40
0.5
 40
0.6267584874
 40
0.7526845059
 40
1.0
 40
1.0
 40
1.0
 40
1.0
 10
48.5430108724
 20
4.5790776867
 30
0.0
 10
48.5435340733
 20
4.5582824871
 30
0.0
 10
48.5441769197
 20
4.5268947509
 30
0.0
 10
48.5446330436
 20
4.4848417938
 30
0.0
 10
48.5447512657
 20
4.4529266529
 30
0.0
 10
48.5446330436
 20
4.421011512
 30
0.0
 10
48.5441769197
 20
4.3789585549
 30
0.0
 10
48.5435340733
 20
4.3475708187
 30
0.0
 10
48.5430108724
 20
4.3267756191
 30
0.0
  0
SPLINE
  5
4A7
100
AcDbEntity
  8
0
100
AcDbSpline
 62
7
  6
CONTINUOUS
 70
0
 71
3
 72
13
 73
9
 74
0
 42
0.0000001
 43
0.0000001
 44
0.0000000001
 40
0.0
 40
0.0
 40
0.0
 40
0.0
 40
0.2430277925
 40
0.3677852781
 40
0.4941509652
 40
0.6213226234
 40
0.7484278161
 40
1.0
 40
1.0
 40
1.0
 40
1.0
 10
48.5430108724
 20
4.3267756191
 30
0.0
 10
48.5255108426
 20
4.316328716
 30
0.0
 10
48.4989879345
 20
4.3005844983
 30
0.0
 10
48.4632478493
 20
4.279607946
 30
0.0
 10
48.4358289499
 20
4.2636490772
 30
0.0
 10
48.4081802628
 20
4.2476940549
 30
0.0
 10
48.3713620426
 20
4.2266212997
 30
0.0
 10
48.3437255516
 20
4.2109767847
 30
0.0
 10
48.3253423309
 20
4.2006245853
 30
0.0
  0
SPLINE
  5
4A8
100
AcDbEntity
  8
0
100
AcDbSpline
 62
7
  6
CONTINUOUS
 70
0
 71
3
 72
23
 73
19
 74
0
 42
0.0000001
 43
0.0000001
 44
0.0000000001
 40
0.0
 40
0.0
 40
0.0
 40
0.0
 40
0.0626041864
 40
0.1251938615
 40
0.1877685123
 40
0.2503272371
 40
0.312870323
 40
0.3753973816
 40
0.4379090979
 40
0.5004059708
 40
0.562888785
 40
0.6253589957
 40
0.6878175231
 40
0.7502664412
 40
0.8127070713
 40
0.8751415833
 40
0.9375719222
 40
1.0
 40
1.0
 40
1.0
 40
1.0
 10
48.5464141581
 20
4.3249266569
 30
0.0
 10
48.5435785641
 20
4.3197539396
 30
0.0
 10
48.5375621669
 20
4.3095949513
 30
0.0
 10
48.5275441555
 20
4.2949965817
 30
0.0
 10
48.516579497
 20
4.2810996263
 30
0.0
 10
48.5047155419
 20
4.2679681807
 30
0.0
 10
48.4920055367
 20
4.2556602275
 30
0.0
 10
48.4785068633
 20
4.2442295406
 30
0.0
 10
48.4642777987
 20
4.2337293538
 30
0.0
 10
48.4493839779
 20
4.2242032157
 30
0.0
 10
48.4338894798
 20
4.2156969481
 30
0.0
 10
48.4178649852
 20
4.2082455962
 30
0.0
 10
48.4013809082
 20
4.2018838741
 30
0.0
 10
48.3845107819
 20
4.1966402644
 30
0.0
 10
48.3673301794
 20
4.1925362141
 30
0.0
 10
48.3499146393
 20
4.1895933246
 30
0.0
 10
48.3323433987
 20
4.1878207155
 30
0.0
 10
48.3205746294
 20
4.1874268462
 30
0.0
 10
48.3146922746
 20
4.187426989
 30
0.0
  0
SPLINE
  5
4A9
100
AcDbEntity
  8
0
100
AcDbSpline
 62
7
  6
CONTINUOUS
 70
0
 71
3
 72
22
 73
18
 74
0
 42
0.0000001
 43
0.0000001
 44
0.0000000001
 40
0.0
 40
0.0
 40
0.0
 40
0.0
 40
0.1251231304
 40
0.1877142749
 40
0.2502741673
 40
0.3128145834
 40
0.375344007
 40
0.4378606075
 40
0.5003619873
 40
0.5628491737
 40
0.6253236442
 40
0.687787563
 40
0.7502419463
 40
0.8126884561
 40
0.8751290726
 40
0.9375654224
 40
1.0
 40
1.0
 40
1.0
 40
1.0
 10
48.5437470672
 20
4.5856766529
 30
0.0
 10
48.5379825854
 20
4.595699167
 30
0.0
 10
48.5283345755
 20
4.6101925957
 30
0.0
 10
48.5136901624
 20
4.6281060431
 30
0.0
 10
48.5018489763
 20
4.6407968076
 30
0.0
 10
48.4892085528
 20
4.6526814143
 30
0.0
 10
48.4758196312
 20
4.6637101938
 30
0.0
 10
48.4617417489
 20
4.6738385036
 30
0.0
 10
48.4470329548
 20
4.6830193441
 30
0.0
 10
48.4317580523
 20
4.6912155017
 30
0.0
 10
48.4159818002
 20
4.6983912795
 30
0.0
 10
48.3997714739
 20
4.7045150439
 30
0.0
 10
48.383197283
 20
4.709563175
 30
0.0
 10
48.366329224
 20
4.7135102911
 30
0.0
 10
48.3492402217
 20
4.7163432215
 30
0.0
 10
48.332003833
 20
4.7180471805
 30
0.0
 10
48.3204615445
 20
4.7184261766
 30
0.0
 10
48.3146922746
 20
4.7184263168
 30
0.0
  0
SPLINE
  5
4AA
100
AcDbEntity
  8
0
100
AcDbSpline
 62
7
  6
CONTINUOUS
 70
0
 71
3
 72
22
 73
18
 74
0
 42
0.0000001
 43
0.0000001
 44
0.0000000001
 40
0.0
 40
0.0
 40
0.0
 40
0.0
 40
0.0624345805
 40
0.124870932
 40
0.1873115488
 40
0.2497580584
 40
0.3122124405
 40
0.3746763581
 40
0.4371508272
 40
0.4996380119
 40
0.5621393901
 40
0.6246559899
 40
0.6871854142
 40
0.7497258313
 40
0.8122857231
 40
0.8748768673
 40
1.0
 40
1.0
 40
1.0
 40
1.0
 10
48.3120902839
 20
4.187426989
 30
0.0
 10
48.30632075
 20
4.1874268516
 30
0.0
 10
48.294777915
 20
4.187805328
 30
0.0
 10
48.2775406624
 20
4.1895086115
 30
0.0
 10
48.2604507627
 20
4.1923409789
 30
0.0
 10
48.2435817832
 20
4.1962876412
 30
0.0
 10
48.2270066592
 20
4.20133543
 30
0.0
 10
48.2107953982
 20
4.207458964
 30
0.0
 10
48.195018219
 20
4.2146346188
 30
0.0
 10
48.1797424089
 20
4.2228307623
 30
0.0
 10
48.1650327346
 20
4.2320116911
 30
0.0
 10
48.1509540106
 20
4.2421401902
 30
0.0
 10
48.1375642943
 20
4.253169254
 30
0.0
 10
48.1249231316
 20
4.265054234
 30
0.0
 10
48.1130812704
 20
4.2777454556
 30
0.0
 10
48.0984360526
 20
4.2956596128
 30
0.0
 10
48.0887875552
 20
4.3101536804
 30
0.0
 10
48.0830228097
 20
4.3201766529
 30
0.0
  0
SPLINE
  5
4AB
100
AcDbEntity
  8
0
100
AcDbSpline
 62
7
  6
CONTINUOUS
 70
0
 71
3
 72
38
 73
34
 74
0
 42
0.0000001
 43
0.0000001
 44
0.0000000001
 40
0.0
 40
0.0
 40
0.0
 40
0.0
 40
0.0311792267
 40
0.0623595379
 40
0.0935418673
 40
0.1247271197
 40
0.1559163806
 40
0.1871102638
 40
0.2183097767
 40
0.2495154118
 40
0.2807278042
 40
0.3119474552
 40
0.3431745244
 40
0.3744094454
 40
0.4056520444
 40
0.4369024346
 40
0.4681603403
 40
0.4994253768
 40
0.5306972572
 40
0.561975176
 40
0.5932587074
 40
0.624546929
 40
0.6558390695
 40
0.6871341992
 40
0.7184310935
 40
0.7497291661
 40
0.7810275768
 40
0.8123253672
 40
0.8436200268
 40
0.8749094689
 40
0.9061969645
 40
0.937487612
 40
1.0
 40
1.0
 40
1.0
 40
1.0
 10
48.3120649207
 20
4.7184263168
 30
0.0
 10
48.306295802
 20
4.7184261794
 30
0.0
 10
48.2947537522
 20
4.7180468123
 30
0.0
 10
48.2775180062
 20
4.7163408772
 30
0.0
 10
48.2604292136
 20
4.7135089576
 30
0.0
 10
48.243562111
 20
4.7095594581
 30
0.0
 10
48.2269881719
 20
4.704512056
 30
0.0
 10
48.2107785363
 20
4.698387334
 30
0.0
 10
48.1950031506
 20
4.6912106461
 30
0.0
 10
48.1797282786
 20
4.6830151955
 30
0.0
 10
48.1650212028
 20
4.6738327137
 30
0.0
 10
48.1509429046
 20
4.6637058308
 30
0.0
 10
48.1375551674
 20
4.6526755639
 30
0.0
 10
48.1249148188
 20
4.640790075
 30
0.0
 10
48.1130751352
 20
4.6281008526
 30
0.0
 10
48.1020889603
 20
4.6146604385
 30
0.0
 10
48.0920003452
 20
4.6005287555
 30
0.0
 10
48.0828555568
 20
4.5857640584
 30
0.0
 10
48.074691438
 20
4.5704311796
 30
0.0
 10
48.0675437338
 20
4.5545951126
 30
0.0
 10
48.0614440557
 20
4.5383234282
 30
0.0
 10
48.0564158781
 20
4.5216866153
 30
0.0
 10
48.0524844372
 20
4.5047548606
 30
0.0
 10
48.0496627894
 20
4.4876016273
 30
0.0
 10
48.0479656721
 20
4.4702997559
 30
0.0
 10
48.0473994288
 20
4.4529235242
 30
0.0
 10
48.0479656486
 20
4.4355470656
 30
0.0
 10
48.0496646352
 20
4.4182452924
 30
0.0
 10
48.0524848734
 20
4.4010921721
 30
0.0
 10
48.0564176312
 20
4.3841617551
 30
0.0
 10
48.0614454388
 20
4.3675229834
 30
0.0
 10
48.0695755323
 20
4.3458405256
 30
0.0
 10
48.0772559788
 20
4.3302032512
 30
0.0
 10
48.0830228097
 20
4.3201766529
 30
0.0
  0
SPLINE
  5
4AC
100
AcDbEntity
  8
0
100
AcDbSpline
 62
7
  6
CONTINUOUS
 70
0
 71
3
 72
47
 73
43
 74
0
 42
0.0000001
 43
0.0000001
 44
0.0000000001
 40
0.0
 40
0.0
 40
0.0
 40
0.0
 40
0.0312670793
 40
0.0469087584
 40
0.0625447436
 40
0.0937925885
 40
0.1250300898
 40
0.1406498439
 40
0.1562666723
 40
0.1874828062
 40
0.2186896998
 40
0.2342949108
 40
0.2498983812
 40
0.281091785
 40
0.312281387
 40
0.3278802166
 40
0.3434789168
 40
0.3746678062
 40
0.4058596688
 40
0.4370566892
 40
0.468260901
 40
0.4994738393
 40
0.5306968979
 40
0.5619310867
 40
0.5931767845
 40
0.6244341455
 40
0.6557028371
 40
0.6713458187
 40
0.6869913157
 40
0.7182796742
 40
0.7495757634
 40
0.765230771
 40
0.7808870178
 40
0.8121926146
 40
0.8434996968
 40
0.8591579496
 40
0.8748159122
 40
0.9061188189
 40
0.9374152561
 40
0.9530686117
 40
0.9687228154
 40
1.0
 40
1.0
 40
1.0
 40
1.0
 10
48.5151435117
 20
4.3439266529
 30
0.0
 10
48.5115926749
 20
4.3377529303
 30
0.0
 10
48.5058052897
 20
4.3287443462
 30
0.0
 10
48.4972447409
 20
4.3173516133
 30
0.0
 10
48.4881370707
 20
4.3063954925
 30
0.0
 10
48.4757660555
 20
4.2935626681
 30
0.0
 10
48.4621979117
 20
4.282008338
 30
0.0
 10
48.4507106494
 20
4.2736006644
 30
0.0
 10
48.4388276512
 20
4.2657710985
 30
0.0
 10
48.4232778893
 20
4.2570950283
 30
0.0
 10
48.4069524586
 20
4.2499917563
 30
0.0
 10
48.3935287516
 20
4.2452937318
 30
0.0
 10
48.379892789
 20
4.2412637811
 30
0.0
 10
48.3625026877
 20
4.2374923813
 30
0.0
 10
48.3448267387
 20
4.2354522595
 30
0.0
 10
48.3306231219
 20
4.234868253
 30
0.0
 10
48.3164082508
 20
4.2349851628
 30
0.0
 10
48.2986747062
 20
4.23644419
 30
0.0
 10
48.2776733899
 20
4.2402809801
 30
0.0
 10
48.2571466733
 20
4.2461648289
 30
0.0
 10
48.237293784
 20
4.2540403487
 30
0.0
 10
48.2183058027
 20
4.2638316998
 30
0.0
 10
48.2003649996
 20
4.2754434141
 30
0.0
 10
48.1836448266
 20
4.2887647027
 30
0.0
 10
48.1683061808
 20
4.3036673201
 30
0.0
 10
48.1544963663
 20
4.320005763
 30
0.0
 10
48.1443726136
 20
4.3346906781
 30
0.0
 10
48.1371651248
 20
4.3469884139
 30
0.0
 10
48.1305669073
 20
4.3596286878
 30
0.0
 10
48.1234892087
 20
4.3760150097
 30
0.0
 10
48.1180482856
 20
4.3930173216
 30
0.0
 10
48.1147071138
 20
4.4068862404
 30
0.0
 10
48.1120485082
 20
4.4209042252
 30
0.0
 10
48.1100140444
 20
4.4386463132
 30
0.0
 10
48.109723985
 20
4.4565027713
 30
0.0
 10
48.1105372763
 20
4.4707489162
 30
0.0
 10
48.1120469314
 20
4.4849372073
 30
0.0
 10
48.1152301901
 20
4.5025068832
 30
0.0
 10
48.1201160281
 20
4.5196799736
 30
0.0
 10
48.125014965
 20
4.5330775897
 30
0.0
 10
48.1305625405
 20
4.5462138362
 30
0.0
 10
48.1354412841
 20
4.555750935
 30
0.0
 10
48.1389932685
 20
4.5619266529
 30
0.0
  0
SPLINE
  5
4AD
100
AcDbEntity
  8
0
100
AcDbSpline
 62
7
  6
CONTINUOUS
 70
0
 71
3
 72
13
 73
9
 74
0
 42
0.0000001
 43
0.0000001
 44
0.0000000001
 40
0.0
 40
0.0
 40
0.0
 40
0.0
 40
0.2430277925
 40
0.3677852781
 40
0.4941509652
 40
0.6213226234
 40
0.7484278161
 40
1.0
 40
1.0
 40
1.0
 40
1.0
 10
48.3253423309
 20
4.2006245853
 30
0.0
 10
48.3078423011
 20
4.2110714883
 30
0.0
 10
48.2813193929
 20
4.226815706
 30
0.0
 10
48.2455793078
 20
4.2477922583
 30
0.0
 10
48.2181604084
 20
4.2637511272
 30
0.0
 10
48.1905117212
 20
4.2797061494
 30
0.0
 10
48.1536935011
 20
4.3007789046
 30
0.0
 10
48.12605701
 20
4.3164234196
 30
0.0
 10
48.1076737894
 20
4.3267756191
 30
0.0
  0
SPLINE
  5
4AE
100
AcDbEntity
  8
0
100
AcDbSpline
 62
7
  6
CONTINUOUS
 70
0
 71
3
 72
47
 73
43
 74
0
 42
0.0000001
 43
0.0000001
 44
0.0000000001
 40
0.0
 40
0.0
 40
0.0
 40
0.0
 40
0.0312670793
 40
0.0469087584
 40
0.0625447436
 40
0.0937925885
 40
0.1250300898
 40
0.1406498439
 40
0.1562666723
 40
0.1874828062
 40
0.2186896998
 40
0.2342949108
 40
0.2498983812
 40
0.281091785
 40
0.312281387
 40
0.3278802166
 40
0.3434789168
 40
0.3746678062
 40
0.4058596688
 40
0.4370566892
 40
0.468260901
 40
0.4994738393
 40
0.5306968979
 40
0.5619310867
 40
0.5931767845
 40
0.6244341455
 40
0.6557028371
 40
0.6713458187
 40
0.6869913157
 40
0.7182796742
 40
0.7495757634
 40
0.765230771
 40
0.7808870178
 40
0.8121926146
 40
0.8434996968
 40
0.8591579496
 40
0.8748159122
 40
0.9061188189
 40
0.9374152561
 40
0.9530686117
 40
0.9687228154
 40
1.0
 40
1.0
 40
1.0
 40
1.0
 10
48.1389932685
 20
4.5619266529
 30
0.0
 10
48.1425441052
 20
4.5681003755
 30
0.0
 10
48.1483314904
 20
4.5771089596
 30
0.0
 10
48.1568920393
 20
4.5885016924
 30
0.0
 10
48.1659997095
 20
4.5994578133
 30
0.0
 10
48.1783707246
 20
4.6122906377
 30
0.0
 10
48.1919388685
 20
4.6238449678
 30
0.0
 10
48.2034261308
 20
4.6322526413
 30
0.0
 10
48.2153091289
 20
4.6400822072
 30
0.0
 10
48.2308588909
 20
4.6487582775
 30
0.0
 10
48.2471843215
 20
4.6558615495
 30
0.0
 10
48.2606080286
 20
4.660559574
 30
0.0
 10
48.2742439911
 20
4.6645895247
 30
0.0
 10
48.2916340925
 20
4.6683609244
 30
0.0
 10
48.3093100415
 20
4.6704010463
 30
0.0
 10
48.3235136582
 20
4.6709850528
 30
0.0
 10
48.3377285294
 20
4.670868143
 30
0.0
 10
48.355462074
 20
4.6694091158
 30
0.0
 10
48.3764633903
 20
4.6655723257
 30
0.0
 10
48.3969901069
 20
4.6596884768
 30
0.0
 10
48.4168429962
 20
4.6518129571
 30
0.0
 10
48.4358309774
 20
4.642021606
 30
0.0
 10
48.4537717806
 20
4.6304098917
 30
0.0
 10
48.4704919536
 20
4.6170886031
 30
0.0
 10
48.4858305993
 20
4.6021859857
 30
0.0
 10
48.4996404139
 20
4.5858475428
 30
0.0
 10
48.5097641666
 20
4.5711626277
 30
0.0
 10
48.5169716554
 20
4.5588648919
 30
0.0
 10
48.5235698728
 20
4.546224618
 30
0.0
 10
48.5306475715
 20
4.5298382961
 30
0.0
 10
48.5360884945
 20
4.5128359842
 30
0.0
 10
48.5394296663
 20
4.4989670654
 30
0.0
 10
48.5420882719
 20
4.4849490806
 30
0.0
 10
48.5441227358
 20
4.4672069926
 30
0.0
 10
48.5444127952
 20
4.4493505345
 30
0.0
 10
48.5435995039
 20
4.4351043896
 30
0.0
 10
48.5420898487
 20
4.4209160985
 30
0.0
 10
48.53890659
 20
4.4033464226
 30
0.0
 10
48.534020752
 20
4.3861733322
 30
0.0
 10
48.5291218151
 20
4.3727757161
 30
0.0
 10
48.5235742396
 20
4.3596394696
 30
0.0
 10
48.5186954961
 20
4.3501023708
 30
0.0
 10
48.5151435117
 20
4.3439266529
 30
0.0
  0
SPLINE
  5
4AF
100
AcDbEntity
  8
0
100
AcDbSpline
 62
7
  6
CONTINUOUS
 70
0
 71
3
 72
13
 73
9
 74
0
 42
0.0000001
 43
0.0000001
 44
0.0000000001
 40
0.0
 40
0.0
 40
0.0
 40
0.0
 40
0.2473154941
 40
0.3732415126
 40
0.5
 40
0.6267584874
 40
0.7526845059
 40
1.0
 40
1.0
 40
1.0
 40
1.0
 10
48.1076737894
 20
4.3267756191
 30
0.0
 10
48.1081969903
 20
4.3475708187
 30
0.0
 10
48.1088398367
 20
4.3789585549
 30
0.0
 10
48.1092959605
 20
4.421011512
 30
0.0
 10
48.1094141827
 20
4.4529266529
 30
0.0
 10
48.1092959605
 20
4.4848417938
 30
0.0
 10
48.1088398367
 20
4.5268947509
 30
0.0
 10
48.1081969903
 20
4.5582824871
 30
0.0
 10
48.1076737894
 20
4.5790776867
 30
0.0
  0
SPLINE
  5
4B0
100
AcDbEntity
  8
0
100
AcDbSpline
 62
7
  6
CONTINUOUS
 70
0
 71
3
 72
22
 73
18
 74
0
 42
0.0000001
 43
0.0000001
 44
0.0000000001
 40
0.0
 40
0.0
 40
0.0
 40
0.0
 40
0.0624345776
 40
0.1248709274
 40
0.1873115439
 40
0.2497580537
 40
0.312212437
 40
0.3746763558
 40
0.4371508263
 40
0.4996380127
 40
0.5621393925
 40
0.624655993
 40
0.6871854166
 40
0.7497258327
 40
0.8122857251
 40
0.8748768696
 40
1.0
 40
1.0
 40
1.0
 40
1.0
 10
48.3146922746
 20
4.187426989
 30
0.0
 10
48.3089230047
 20
4.1874271291
 30
0.0
 10
48.2973807162
 20
4.1878061253
 30
0.0
 10
48.2801443275
 20
4.1895100843
 30
0.0
 10
48.2630553252
 20
4.1923430147
 30
0.0
 10
48.2461872662
 20
4.1962901307
 30
0.0
 10
48.2296130753
 20
4.2013382618
 30
0.0
 10
48.213402749
 20
4.2074620263
 30
0.0
 10
48.1976264969
 20
4.2146378041
 30
0.0
 10
48.1823515944
 20
4.2228339617
 30
0.0
 10
48.1676428003
 20
4.2320148022
 30
0.0
 10
48.153564918
 20
4.242143112
 30
0.0
 10
48.1401759964
 20
4.2531718915
 30
0.0
 10
48.1275355729
 20
4.2650564982
 30
0.0
 10
48.1156943868
 20
4.2777472627
 30
0.0
 10
48.1010499737
 20
4.2956607101
 30
0.0
 10
48.0914019638
 20
4.3101541388
 30
0.0
 10
48.085637482
 20
4.3201766529
 30
0.0
  0
SPLINE
  5
4B1
100
AcDbEntity
  8
0
100
AcDbSpline
 62
7
  6
CONTINUOUS
 70
0
 71
3
 72
13
 73
9
 74
0
 42
0.0000001
 43
0.0000001
 44
0.0000000001
 40
0.0
 40
0.0
 40
0.0
 40
0.0
 40
0.2515721839
 40
0.3786773766
 40
0.5058490348
 40
0.6322147219
 40
0.7569722075
 40
1.0
 40
1.0
 40
1.0
 40
1.0
 10
48.1076737894
 20
4.5790776867
 30
0.0
 10
48.12605701
 20
4.5894298862
 30
0.0
 10
48.1536935011
 20
4.6050744012
 30
0.0
 10
48.1905117212
 20
4.6261471564
 30
0.0
 10
48.2181604084
 20
4.6421021786
 30
0.0
 10
48.2455793078
 20
4.6580610474
 30
0.0
 10
48.2813193929
 20
4.6790375998
 30
0.0
 10
48.3078423011
 20
4.6947818175
 30
0.0
 10
48.3253423309
 20
4.7052287205
 30
0.0
  0
SPLINE
  5
4B2
100
AcDbEntity
  8
0
100
AcDbSpline
 62
7
  6
CONTINUOUS
 70
0
 71
3
 72
38
 73
34
 74
0
 42
0.0000001
 43
0.0000001
 44
0.0000000001
 40
0.0
 40
0.0
 40
0.0
 40
0.0
 40
0.0311792281
 40
0.0623595398
 40
0.0935418693
 40
0.1247271211
 40
0.155916381
 40
0.1871102628
 40
0.2183097739
 40
0.2495154071
 40
0.2807277973
 40
0.3119474463
 40
0.3431745134
 40
0.3744094324
 40
0.4056520297
 40
0.4369024183
 40
0.4681603227
 40
0.4994253583
 40
0.5306972381
 40
0.5619751567
 40
0.5932586881
 40
0.6245469102
 40
0.6558390515
 40
0.6871341824
 40
0.7184310781
 40
0.7497291522
 40
0.7810275646
 40
0.8123253569
 40
0.8436200187
 40
0.874909463
 40
0.9061969603
 40
0.9374876092
 40
1.0
 40
1.0
 40
1.0
 40
1.0
 10
48.3146922746
 20
4.7184263168
 30
0.0
 10
48.3089230239
 20
4.7184264569
 30
0.0
 10
48.2973806918
 20
4.7180476291
 30
0.0
 10
48.2801444731
 20
4.7163424449
 30
0.0
 10
48.2630551643
 20
4.7135112182
 30
0.0
 10
48.2461875068
 20
4.7095623525
 30
0.0
 10
48.2296129812
 20
4.7045155188
 30
0.0
 10
48.2134027312
 20
4.698391304
 30
0.0
 10
48.1976267112
 20
4.6912150556
 30
0.0
 10
48.1823511892
 20
4.6830199805
 30
0.0
 10
48.1676434541
 20
4.6738378083
 30
0.0
 10
48.1535644937
 20
4.663711169
 30
0.0
 10
48.1401760949
 20
4.6526810832
 30
0.0
 10
48.1275350937
 20
4.6407957107
 30
0.0
 10
48.1156947687
 20
4.6281065455
 30
0.0
 10
48.1047079711
 20
4.6146661287
 30
0.0
 10
48.094618756
 20
4.6005343873
 30
0.0
 10
48.0854733937
 20
4.5857695791
 30
0.0
 10
48.0773087339
 20
4.5704365388
 30
0.0
 10
48.0701605223
 20
4.5546002651
 30
0.0
 10
48.0640603771
 20
4.5383283315
 30
0.0
 10
48.0590317737
 20
4.5216912319
 30
0.0
 10
48.0550999518
 20
4.5047591572
 30
0.0
 10
48.052277971
 20
4.4876055753
 30
0.0
 10
48.0505805688
 20
4.4703033316
 30
0.0
 10
48.0500140926
 20
4.452926709
 30
0.0
 10
48.0505801305
 20
4.4355498458
 30
0.0
 10
48.0522789883
 20
4.4182476594
 30
0.0
 10
48.0550991505
 20
4.4010941227
 30
0.0
 10
48.0590318845
 20
4.3841632909
 30
0.0
 10
48.0640597205
 20
4.3675241116
 30
0.0
 10
48.0721899189
 20
4.3458411268
 30
0.0
 10
48.0798705192
 20
4.3302034806
 30
0.0
 10
48.085637482
 20
4.3201766529
 30
0.0
  0
SPLINE
  5
4B3
100
AcDbEntity
  8
0
100
AcDbSpline
 62
7
  6
CONTINUOUS
 70
0
 71
3
 72
24
 73
20
 74
0
 42
0.0000001
 43
0.0000001
 44
0.0000000001
 40
0.0
 40
0.0
 40
0.0
 40
0.0
 40
0.1896343974
 40
0.3644447204
 40
0.4455741134
 40
0.5222000015
 40
0.5940971715
 40
0.66104959
 40
0.7228514353
 40
0.7793325712
 40
0.8303368208
 40
0.8757318716
 40
0.9154245779
 40
0.933111074
 40
0.9493508949
 40
0.964147474
 40
0.9775092581
 40
0.9894515174
 40
1.0
 40
1.0
 40
1.0
 40
1.0
 10
58.2129587693
 20
4.5619266529
 30
0.0
 10
58.2126165516
 20
4.5687275635
 30
0.0
 10
58.2118775472
 20
4.5817938447
 30
0.0
 10
58.2107383292
 20
4.5977539832
 30
0.0
 10
58.2097251197
 20
4.6096530715
 30
0.0
 10
58.2089433042
 20
4.6178625935
 30
0.0
 10
58.2081231978
 20
4.6255566269
 30
0.0
 10
58.2072676022
 20
4.6327109978
 30
0.0
 10
58.206379066
 20
4.6393032316
 30
0.0
 10
58.2054608781
 20
4.645312733
 30
0.0
 10
58.2045162542
 20
4.6507211239
 30
0.0
 10
58.2035481909
 20
4.6555117972
 30
0.0
 10
58.2026960416
 20
4.6591036875
 30
0.0
 10
58.2019956089
 20
4.6616530333
 30
0.0
 10
58.2014866056
 20
4.6633271936
 30
0.0
 10
58.2009740766
 20
4.6648371781
 30
0.0
 10
58.2004584198
 20
4.6661821411
 30
0.0
 10
58.1999401215
 20
4.6673611987
 30
0.0
 10
58.199570523
 20
4.6680801804
 30
0.0
 10
58.1993833147
 20
4.6684094656
 30
0.0
  0
SPLINE
  5
4B4
100
AcDbEntity
  8
0
100
AcDbSpline
 62
7
  6
CONTINUOUS
 70
0
 71
3
 72
9
 73
5
 74
0
 42
0.0000001
 43
0.0000001
 44
0.0000000001
 40
0.0
 40
0.0
 40
0.0
 40
0.0
 40
0.5066196467
 40
1.0
 40
1.0
 40
1.0
 40
1.0
 10
58.1767753816
 20
4.2006245853
 30
0.0
 10
58.1791908894
 20
4.2039512202
 30
0.0
 10
58.1838136378
 20
4.2106247489
 30
0.0
 10
58.1880658855
 20
4.2175430052
 30
0.0
 10
58.1900472647
 20
4.2210220155
 30
0.0
  0
SPLINE
  5
4B5
100
AcDbEntity
  8
0
100
AcDbSpline
 62
7
  6
CONTINUOUS
 70
0
 71
3
 72
9
 73
5
 74
0
 42
0.0000001
 43
0.0000001
 44
0.0000000001
 40
0.0
 40
0.0
 40
0.0
 40
0.0
 40
0.4933803533
 40
1.0
 40
1.0
 40
1.0
 40
1.0
 10
58.1900472647
 20
4.6848312903
 30
0.0
 10
58.1880658855
 20
4.6883103005
 30
0.0
 10
58.1838136378
 20
4.6952285569
 30
0.0
 10
58.1791908894
 20
4.7019020856
 30
0.0
 10
58.1767753816
 20
4.7052287205
 30
0.0
  0
SPLINE
  5
4B6
100
AcDbEntity
  8
0
100
AcDbSpline
 62
7
  6
CONTINUOUS
 70
0
 71
3
 72
34
 73
30
 74
0
 42
0.0000001
 43
0.0000001
 44
0.0000000001
 40
0.0
 40
0.0
 40
0.0
 40
0.0
 40
0.0038051163
 40
0.0081537357
 40
0.013056082
 40
0.018517904
 40
0.0245421187
 40
0.0311291301
 40
0.0382763947
 40
0.0459801829
 40
0.0630387803
 40
0.082260728
 40
0.1035834666
 40
0.1269383747
 40
0.152244673
 40
0.1794132729
 40
0.2083496507
 40
0.2389483002
 40
0.2711008973
 40
0.30469049
 40
0.3756887778
 40
0.4509124129
 40
0.52926603
 40
0.6096066322
 40
0.6907607277
 40
0.7715445825
 40
0.8507722359
 40
0.9273039715
 40
1.0
 40
1.0
 40
1.0
 40
1.0
 10
58.1993833147
 20
4.2374438404
 30
0.0
 10
58.1995875552
 20
4.2378030846
 30
0.0
 10
58.1999899579
 20
4.238593027
 30
0.0
 10
58.2005513598
 20
4.2398957649
 30
0.0
 10
58.2011096474
 20
4.2413934949
 30
0.0
 10
58.2016642005
 20
4.2430851008
 30
0.0
 10
58.2022144202
 20
4.2449694777
 30
0.0
 10
58.2027596686
 20
4.2470450903
 30
0.0
 10
58.2032995126
 20
4.2493100395
 30
0.0
 10
58.2040366014
 20
4.2526963878
 30
0.0
 10
58.2049304689
 20
4.2573896338
 30
0.0
 10
58.2059410703
 20
4.2635638155
 30
0.0
 10
58.2069188386
 20
4.2704346561
 30
0.0
 10
58.2078595172
 20
4.2779769413
 30
0.0
 10
58.2087595038
 20
4.2861631508
 30
0.0
 10
58.2096153247
 20
4.2949632785
 30
0.0
 10
58.2104234491
 20
4.304344909
 30
0.0
 10
58.2111810919
 20
4.3142736617
 30
0.0
 10
58.2118851176
 20
4.3247129007
 30
0.0
 10
58.2127652449
 20
4.3395372437
 30
0.0
 10
58.2137031162
 20
4.3590433287
 30
0.0
 10
58.2145613539
 20
4.3834181926
 30
0.0
 10
58.2151584729
 20
4.4088157122
 30
0.0
 10
58.2154853604
 20
4.4348622102
 30
0.0
 10
58.2155369796
 20
4.4611746284
 30
0.0
 10
58.2153124775
 20
4.4873652668
 30
0.0
 10
58.2148155186
 20
4.5130501069
 30
0.0
 10
58.2140533977
 20
4.5378496899
 30
0.0
 10
58.2133555362
 20
4.5540416814
 30
0.0
 10
58.2129587693
 20
4.5619266529
 30
0.0
  0
SPLINE
  5
4B7
100
AcDbEntity
  8
0
100
AcDbSpline
 62
7
  6
CONTINUOUS
 70
0
 71
3
 72
20
 73
16
 74
0
 42
0.0000001
 43
0.0000001
 44
0.0000000001
 40
0.0
 40
0.0
 40
0.0
 40
0.0
 40
0.0303539297
 40
0.0620799072
 40
0.0963823755
 40
0.1342188607
 40
0.1763048768
 40
0.223160082
 40
0.2751528286
 40
0.3325402377
 40
0.3955061499
 40
0.4641832722
 40
0.6190092254
 40
0.7975417307
 40
1.0
 40
1.0
 40
1.0
 40
1.0
 10
58.0550446811
 20
4.187426989
 30
0.0
 10
58.0551915327
 20
4.1874270298
 30
0.0
 10
58.0554927859
 20
4.1874605539
 30
0.0
 10
58.0559379277
 20
4.1876088347
 30
0.0
 10
58.0563797363
 20
4.1878532057
 30
0.0
 10
58.0568184423
 20
4.1881920439
 30
0.0
 10
58.057254945
 20
4.1886246928
 30
0.0
 10
58.0576897726
 20
4.1891510434
 30
0.0
 10
58.0581232475
 20
4.1897710584
 30
0.0
 10
58.0585555017
 20
4.1904846398
 30
0.0
 10
58.0589865416
 20
4.1912916353
 30
0.0
 10
58.0595835644
 20
4.1925428045
 30
0.0
 10
58.0603169329
 20
4.1943460398
 30
0.0
 10
58.0611592964
 20
4.1967985262
 30
0.0
 10
58.0616828532
 20
4.1985663997
 30
0.0
 10
58.06194599
 20
4.199509881
 30
0.0
  0
SPLINE
  5
4B8
100
AcDbEntity
  8
0
100
AcDbSpline
 62
7
  6
CONTINUOUS
 70
0
 71
3
 72
20
 73
16
 74
0
 42
0.0000001
 43
0.0000001
 44
0.0000000001
 40
0.0
 40
0.0
 40
0.0
 40
0.0
 40
0.0306195461
 40
0.0625888724
 40
0.0971030822
 40
0.1351164467
 40
0.1773373152
 40
0.2242767895
 40
0.2763011559
 40
0.3336740291
 40
0.3965869495
 40
0.4651806045
 40
0.6197782645
 40
0.7979943404
 40
1.0
 40
1.0
 40
1.0
 40
1.0
 10
58.0550446811
 20
4.7184263168
 30
0.0
 10
58.0551896762
 20
4.718426357
 30
0.0
 10
58.0554869595
 20
4.7183938717
 30
0.0
 10
58.055926483
 20
4.7182495039
 30
0.0
 10
58.0563628117
 20
4.7180111896
 30
0.0
 10
58.0567960844
 20
4.7176805062
 30
0.0
 10
58.0572272057
 20
4.717258296
 30
0.0
 10
58.0576567289
 20
4.7167448189
 30
0.0
 10
58.0580849667
 20
4.7161401448
 30
0.0
 10
58.0585120098
 20
4.7154443016
 30
0.0
 10
58.0589378713
 20
4.7146573569
 30
0.0
 10
58.0595277025
 20
4.7134372577
 30
0.0
 10
58.0602523031
 20
4.7116782227
 30
0.0
 10
58.0610847185
 20
4.7092854687
 30
0.0
 10
58.0616024771
 20
4.707560462
 30
0.0
 10
58.0618626848
 20
4.7066399602
 30
0.0
  0
SPLINE
  5
4B9
100
AcDbEntity
  8
0
100
AcDbSpline
 62
7
  6
CONTINUOUS
 70
0
 71
3
 72
14
 73
10
 74
0
 42
0.0000001
 43
0.0000001
 44
0.0000000001
 40
0.0
 40
0.0
 40
0.0
 40
0.0
 40
0.2479351585
 40
0.3719121949
 40
0.496118663
 40
0.6207839608
 40
0.7461604521
 40
0.8724959293
 40
1.0
 40
1.0
 40
1.0
 40
1.0
 10
58.0776111292
 20
4.5790776867
 30
0.0
 10
58.0784196506
 20
4.5860494177
 30
0.0
 10
58.0792901165
 20
4.5965544459
 30
0.0
 10
58.0795719218
 20
4.610599236
 30
0.0
 10
58.0793005452
 20
4.6211543517
 30
0.0
 10
58.0785111055
 20
4.6317233304
 30
0.0
 10
58.0771814691
 20
4.6422990865
 30
0.0
 10
58.0753034012
 20
4.652872599
 30
0.0
 10
58.0737016198
 20
4.659880647
 30
0.0
 10
58.0728169975
 20
4.6633798992
 30
0.0
  0
SPLINE
  5
4BA
100
AcDbEntity
  8
0
100
AcDbSpline
 62
7
  6
CONTINUOUS
 70
0
 71
3
 72
19
 73
15
 74
0
 42
0.0000001
 43
0.0000001
 44
0.0000000001
 40
0.0
 40
0.0
 40
0.0
 40
0.0
 40
0.1270349194
 40
0.2520648816
 40
0.3754469131
 40
0.4367394286
 40
0.497903489
 40
0.5590728294
 40
0.620398445
 40
0.6820371579
 40
0.7441471659
 40
0.8068792115
 40
0.8703667006
 40
1.0
 40
1.0
 40
1.0
 40
1.0
 10
58.1958189114
 20
4.5790776867
 30
0.0
 10
58.197326716
 20
4.582632194
 30
0.0
 10
58.2001023629
 20
4.5897804214
 30
0.0
 10
58.2034292361
 20
4.6007082643
 30
0.0
 10
58.205364567
 20
4.6099366876
 30
0.0
 10
58.2063348762
 20
4.6173484518
 30
0.0
 10
58.206760906
 20
4.6229161649
 30
0.0
 10
58.2068757722
 20
4.6285000902
 30
0.0
 10
58.2066676907
 20
4.6340959127
 30
0.0
 10
58.2061323757
 20
4.6396987167
 30
0.0
 10
58.2052656848
 20
4.64530309
 30
0.0
 10
58.2040691552
 20
4.6509039503
 30
0.0
 10
58.202027855
 20
4.6584106214
 30
0.0
 10
58.2000376914
 20
4.6639462499
 30
0.0
 10
58.1985374472
 20
4.6675895121
 30
0.0
  0
LINE
  5
4BB
100
AcDbEntity
  8
0
100
AcDbLine
 62
7
  6
CONTINUOUS
 10
58.1985374472
 20
4.6675895121
 11
58.1983943921
 21
4.6679354965
  0
SPLINE
  5
4BC
100
AcDbEntity
  8
0
100
AcDbSpline
 62
7
  6
CONTINUOUS
 70
0
 71
3
 72
9
 73
5
 74
0
 42
0.0000001
 43
0.0000001
 44
0.0000000001
 40
0.0
 40
0.0
 40
0.0
 40
0.0
 40
0.2455499381
 40
1.0
 40
1.0
 40
1.0
 40
1.0
 10
58.1983943921
 20
4.6679354965
 30
0.0
 10
58.1978027404
 20
4.6693606226
 30
0.0
 10
58.1952902951
 20
4.6751215728
 30
0.0
 10
58.1923935615
 20
4.6807115383
 30
0.0
 10
58.1900472647
 20
4.6848312903
 30
0.0
  0
SPLINE
  5
4BD
100
AcDbEntity
  8
0
100
AcDbSpline
 62
7
  6
CONTINUOUS
 70
0
 71
3
 72
9
 73
5
 74
0
 42
0.0000001
 43
0.0000001
 44
0.0000000001
 40
0.0
 40
0.0
 40
0.0
 40
0.0
 40
0.2545918402
 40
1.0
 40
1.0
 40
1.0
 40
1.0
 10
58.1900472647
 20
4.2210220155
 30
0.0
 10
58.1908390078
 20
4.2224122
 30
0.0
 10
58.1938753904
 20
4.2279137069
 30
0.0
 10
58.196598386
 20
4.2335917248
 30
0.0
 10
58.1983943921
 20
4.2379178093
 30
0.0
  0
LINE
  5
4BE
100
AcDbEntity
  8
0
100
AcDbLine
 62
7
  6
CONTINUOUS
 10
58.1983943921
 20
4.2379178093
 11
58.1985374472
 21
4.2382637937
  0
SPLINE
  5
4BF
100
AcDbEntity
  8
0
100
AcDbSpline
 62
7
  6
CONTINUOUS
 70
0
 71
3
 72
19
 73
15
 74
0
 42
0.0000001
 43
0.0000001
 44
0.0000000001
 40
0.0
 40
0.0
 40
0.0
 40
0.0
 40
0.1296332994
 40
0.1931207885
 40
0.2558528341
 40
0.3179628421
 40
0.379601555
 40
0.4409271706
 40
0.502096511
 40
0.5632605714
 40
0.6245530869
 40
0.7479351184
 40
0.8729650806
 40
1.0
 40
1.0
 40
1.0
 40
1.0
 10
58.1985374472
 20
4.2382637937
 30
0.0
 10
58.2000376914
 20
4.2419070559
 30
0.0
 10
58.202027855
 20
4.2474426844
 30
0.0
 10
58.2040691552
 20
4.2549493555
 30
0.0
 10
58.2052656848
 20
4.2605502157
 30
0.0
 10
58.2061323757
 20
4.2661545891
 30
0.0
 10
58.2066676907
 20
4.2717573931
 30
0.0
 10
58.2068757722
 20
4.2773532155
 30
0.0
 10
58.206760906
 20
4.2829371408
 30
0.0
 10
58.2063348762
 20
4.288504854
 30
0.0
 10
58.205364567
 20
4.2959166182
 30
0.0
 10
58.2034292361
 20
4.3051450415
 30
0.0
 10
58.2001023629
 20
4.3160728844
 30
0.0
 10
58.197326716
 20
4.3232211117
 30
0.0
 10
58.1958189114
 20
4.3267756191
 30
0.0
  0
SPLINE
  5
4C0
100
AcDbEntity
  8
0
100
AcDbSpline
 62
7
  6
CONTINUOUS
 70
0
 71
3
 72
15
 73
11
 74
0
 42
0.0000001
 43
0.0000001
 44
0.0000000001
 40
0.0
 40
0.0
 40
0.0
 40
0.0
 40
0.1249964674
 40
0.2499956899
 40
0.3749971618
 40
0.4999999975
 40
0.6250028277
 40
0.7500042899
 40
0.8750035088
 40
1.0
 40
1.0
 40
1.0
 40
1.0
 10
58.0776111292
 20
4.3267756191
 30
0.0
 10
58.0790063528
 20
4.3372294898
 30
0.0
 10
58.0815416573
 20
4.3581728756
 30
0.0
 10
58.0844204639
 20
4.3896871848
 30
0.0
 10
58.0862237939
 20
4.4212835684
 30
0.0
 10
58.0868389548
 20
4.4529266518
 30
0.0
 10
58.0862237942
 20
4.4845697344
 30
0.0
 10
58.0844204644
 20
4.5161661164
 30
0.0
 10
58.0815416586
 20
4.5476804266
 30
0.0
 10
58.0790063531
 20
4.568623814
 30
0.0
 10
58.0776111292
 20
4.5790776867
 30
0.0
  0
SPLINE
  5
4C1
100
AcDbEntity
  8
0
100
AcDbSpline
 62
7
  6
CONTINUOUS
 70
0
 71
3
 72
21
 73
17
 74
0
 42
0.0000001
 43
0.0000001
 44
0.0000000001
 40
0.0
 40
0.0
 40
0.0
 40
0.0
 40
0.1249717227
 40
0.187468436
 40
0.2499692878
 40
0.3124732585
 40
0.374980562
 40
0.437489661
 40
0.5
 40
0.562510339
 40
0.625019438
 40
0.6875267415
 40
0.7500307122
 40
0.812531564
 40
0.8750282773
 40
1.0
 40
1.0
 40
1.0
 40
1.0
 10
58.1958189114
 20
4.3267756191
 30
0.0
 10
58.1987676171
 20
4.3370292535
 30
0.0
 10
58.2028194515
 20
4.3525234641
 30
0.0
 10
58.2072840537
 20
4.3733947476
 30
0.0
 10
58.2101137891
 20
4.3891535716
 30
0.0
 10
58.2123766206
 20
4.4050049902
 30
0.0
 10
58.2140285489
 20
4.4209329129
 30
0.0
 10
58.2150344991
 20
4.4369155225
 30
0.0
 10
58.2153731737
 20
4.4529266529
 30
0.0
 10
58.2150344991
 20
4.4689377833
 30
0.0
 10
58.2140285489
 20
4.4849203928
 30
0.0
 10
58.2123766206
 20
4.5008483156
 30
0.0
 10
58.2101137891
 20
4.5166997342
 30
0.0
 10
58.2072840537
 20
4.5324585581
 30
0.0
 10
58.2028194515
 20
4.5533298417
 30
0.0
 10
58.1987676171
 20
4.5688240523
 30
0.0
 10
58.1958189114
 20
4.5790776867
 30
0.0
  0
SPLINE
  5
4C2
100
AcDbEntity
  8
0
100
AcDbSpline
 62
7
  6
CONTINUOUS
 70
0
 71
3
 72
14
 73
10
 74
0
 42
0.0000001
 43
0.0000001
 44
0.0000000001
 40
0.0
 40
0.0
 40
0.0
 40
0.0
 40
0.1275040531
 40
0.2538395195
 40
0.3792160086
 40
0.503881325
 40
0.6280878186
 40
0.7520648696
 40
1.0
 40
1.0
 40
1.0
 40
1.0
 10
58.0728170871
 20
4.2424737656
 30
0.0
 10
58.0737016996
 20
4.2459730036
 30
0.0
 10
58.0753034665
 20
4.2529810218
 30
0.0
 10
58.0771815096
 20
4.2635544905
 30
0.0
 10
58.0785111243
 20
4.2741302026
 30
0.0
 10
58.079300556
 20
4.2846991367
 30
0.0
 10
58.0795719199
 20
4.2952542084
 30
0.0
 10
58.0792901116
 20
4.3092989375
 30
0.0
 10
58.078419647
 20
4.3198039192
 30
0.0
 10
58.0776111292
 20
4.3267756191
 30
0.0
  0
SPLINE
  5
4C3
100
AcDbEntity
  8
0
100
AcDbSpline
 62
7
  6
CONTINUOUS
 70
0
 71
3
 72
19
 73
15
 74
0
 42
0.0000001
 43
0.0000001
 44
0.0000000001
 40
0.0
 40
0.0
 40
0.0
 40
0.0
 40
0.0355737342
 40
0.0751556913
 40
0.1186962358
 40
0.1661217454
 40
0.2173507477
 40
0.272298069
 40
0.3308618399
 40
0.392925799
 40
0.5270782688
 40
0.6737536961
 40
0.8318587087
 40
1.0
 40
1.0
 40
1.0
 40
1.0
 10
58.0626001105
 20
4.2019783218
 30
0.0
 10
58.06294527
 20
4.2033464124
 30
0.0
 10
58.0636228069
 20
4.2062498625
 30
0.0
 10
58.0645688589
 20
4.2108620885
 30
0.0
 10
58.0654967635
 20
4.2159565595
 30
0.0
 10
58.0664047455
 20
4.2215231351
 30
0.0
 10
58.067290827
 20
4.2275508768
 30
0.0
 10
58.0681529256
 20
4.234028011
 30
0.0
 10
58.068989316
 20
4.2409415758
 30
0.0
 10
58.0700969565
 20
4.2509861808
 30
0.0
 10
58.0713920133
 20
4.2645252417
 30
0.0
 10
58.0727824466
 20
4.2818795529
 30
0.0
 10
58.0740339847
 20
4.300595694
 30
0.0
 10
58.0747492238
 20
4.3135160989
 30
0.0
 10
58.0750843788
 20
4.3201766529
 30
0.0
  0
SPLINE
  5
4C4
100
AcDbEntity
  8
0
100
AcDbSpline
 62
7
  6
CONTINUOUS
 70
0
 71
3
 72
28
 73
24
 74
0
 42
0.0000001
 43
0.0000001
 44
0.0000000001
 40
0.0
 40
0.0
 40
0.0
 40
0.0
 40
0.0137461651
 40
0.0293728579
 40
0.0468430249
 40
0.0661149205
 40
0.0871368258
 40
0.1098483684
 40
0.1341871099
 40
0.1600818026
 40
0.1874555802
 40
0.2162299554
 40
0.2776307831
 40
0.3435554125
 40
0.4132147838
 40
0.4857746173
 40
0.560364735
 40
0.6360880174
 40
0.7120360517
 40
0.7872944989
 40
0.8609539326
 40
0.9321546535
 40
1.0
 40
1.0
 40
1.0
 40
1.0
 10
58.0626001174
 20
4.7038752133
 30
0.0
 10
58.0630312522
 20
4.7021665681
 30
0.0
 10
58.0638713922
 20
4.6984949629
 30
0.0
 10
58.0650263823
 20
4.6926013397
 30
0.0
 10
58.0661534723
 20
4.6859825816
 30
0.0
 10
58.0672483736
 20
4.6786584706
 30
0.0
 10
58.0683075083
 20
4.670650872
 30
0.0
 10
58.06932766
 20
4.661983887
 30
0.0
 10
58.0703051938
 20
4.652683677
 30
0.0
 10
58.0712371798
 20
4.6427783421
 30
0.0
 10
58.0721208515
 20
4.6322978392
 30
0.0
 10
58.0732551265
 20
4.6172711565
 30
0.0
 10
58.0745194225
 20
4.5972990009
 30
0.0
 10
58.0757752696
 20
4.572077011
 30
0.0
 10
58.0767846146
 20
4.545412384
 30
0.0
 10
58.0775347602
 20
4.5176279849
 30
0.0
 10
58.0780160703
 20
4.4890601827
 30
0.0
 10
58.0782226027
 20
4.4600547308
 30
0.0
 10
58.0781517896
 20
4.4309629549
 30
0.0
 10
58.0778044549
 20
4.4021377544
 30
0.0
 10
58.0771850515
 20
4.3739258009
 30
0.0
 10
58.0763010394
 20
4.3466717094
 30
0.0
 10
58.0755214777
 20
4.3288631436
 30
0.0
 10
58.0750843788
 20
4.3201766529
 30
0.0
  0
SPLINE
  5
4C5
100
AcDbEntity
  8
0
100
AcDbSpline
 62
7
  6
CONTINUOUS
 70
0
 71
3
 72
24
 73
20
 74
0
 42
0.0000001
 43
0.0000001
 44
0.0000000001
 40
0.0
 40
0.0
 40
0.0
 40
0.0
 40
0.1896343974
 40
0.3644447204
 40
0.4455741134
 40
0.5222000015
 40
0.5940971715
 40
0.66104959
 40
0.7228514353
 40
0.7793325712
 40
0.8303368208
 40
0.8757318716
 40
0.9154245779
 40
0.933111074
 40
0.9493508949
 40
0.964147474
 40
0.9775092581
 40
0.9894515174
 40
1.0
 40
1.0
 40
1.0
 40
1.0
 10
36.5486782128
 20
4.5619266529
 30
0.0
 10
36.5490204305
 20
4.5687275635
 30
0.0
 10
36.549759435
 20
4.5817938447
 30
0.0
 10
36.5508986529
 20
4.5977539832
 30
0.0
 10
36.5519118624
 20
4.6096530715
 30
0.0
 10
36.5526936779
 20
4.6178625935
 30
0.0
 10
36.5535137844
 20
4.6255566269
 30
0.0
 10
36.55436938
 20
4.6327109978
 30
0.0
 10
36.5552579161
 20
4.6393032316
 30
0.0
 10
36.556176104
 20
4.645312733
 30
0.0
 10
36.557120728
 20
4.6507211239
 30
0.0
 10
36.5580887913
 20
4.6555117972
 30
0.0
 10
36.5589409405
 20
4.6591036875
 30
0.0
 10
36.5596413733
 20
4.6616530333
 30
0.0
 10
36.5601503765
 20
4.6633271936
 30
0.0
 10
36.5606629056
 20
4.6648371781
 30
0.0
 10
36.5611785623
 20
4.6661821411
 30
0.0
 10
36.5616968606
 20
4.6673611987
 30
0.0
 10
36.5620664592
 20
4.6680801804
 30
0.0
 10
36.5622536674
 20
4.6684094656
 30
0.0
  0
SPLINE
  5
4C6
100
AcDbEntity
  8
0
100
AcDbSpline
 62
7
  6
CONTINUOUS
 70
0
 71
3
 72
9
 73
5
 74
0
 42
0.0000001
 43
0.0000001
 44
0.0000000001
 40
0.0
 40
0.0
 40
0.0
 40
0.0
 40
0.5066196467
 40
1.0
 40
1.0
 40
1.0
 40
1.0
 10
36.5848616005
 20
4.2006245853
 30
0.0
 10
36.5824460928
 20
4.2039512202
 30
0.0
 10
36.5778233443
 20
4.2106247489
 30
0.0
 10
36.5735710966
 20
4.2175430052
 30
0.0
 10
36.5715897175
 20
4.2210220155
 30
0.0
  0
SPLINE
  5
4C7
100
AcDbEntity
  8
0
100
AcDbSpline
 62
7
  6
CONTINUOUS
 70
0
 71
3
 72
21
 73
17
 74
0
 42
0.0000001
 43
0.0000001
 44
0.0000000001
 40
0.0
 40
0.0
 40
0.0
 40
0.0
 40
0.0601750489
 40
0.1227587303
 40
0.1872777212
 40
0.2533023347
 40
0.388109928
 40
0.5235320356
 40
0.5903279068
 40
0.6559081831
 40
0.7198294713
 40
0.7816589459
 40
0.8409803401
 40
0.8973924084
 40
0.9505182427
 40
1.0
 40
1.0
 40
1.0
 40
1.0
 10
36.7565178396
 20
4.5856766529
 30
0.0
 10
36.7568436504
 20
4.5792017986
 30
0.0
 10
36.7574437326
 20
4.5659896082
 30
0.0
 10
36.758183266
 20
4.5458263068
 30
0.0
 10
36.7587756465
 20
4.5250276609
 30
0.0
 10
36.759368046
 20
4.4964455669
 30
0.0
 10
36.7597128945
 20
4.4602189973
 30
0.0
 10
36.7595415096
 20
4.4239081309
 30
0.0
 10
36.759088561
 20
4.3950598256
 30
0.0
 10
36.758597062
 20
4.373916932
 30
0.0
 10
36.7579558401
 20
4.3533133572
 30
0.0
 10
36.7571692601
 20
4.3333896111
 30
0.0
 10
36.7562430107
 20
4.3142817694
 30
0.0
 10
36.7551833858
 20
4.2961200184
 30
0.0
 10
36.7539982003
 20
4.2790284934
 30
0.0
 10
36.753095888
 20
4.2680103939
 30
0.0
 10
36.752620576
 20
4.2627006365
 30
0.0
  0
SPLINE
  5
4C8
100
AcDbEntity
  8
0
100
AcDbSpline
 62
7
  6
CONTINUOUS
 70
0
 71
3
 72
28
 73
24
 74
0
 42
0.0000001
 43
0.0000001
 44
0.0000000001
 40
0.0
 40
0.0
 40
0.0
 40
0.0
 40
0.217267607
 40
0.3169170983
 40
0.410285591
 40
0.4971713014
 40
0.577381474
 40
0.6507614265
 40
0.7171766571
 40
0.7765059599
 40
0.8286748965
 40
0.8520672724
 40
0.8736647499
 40
0.8934728859
 40
0.911503515
 40
0.9277807788
 40
0.9423433534
 40
0.9552481709
 40
0.9665803587
 40
0.9764694115
 40
0.9851141585
 40
0.9928159551
 40
1.0
 40
1.0
 40
1.0
 40
1.0
 10
36.752620576
 20
4.2627006365
 30
0.0
 10
36.7521140585
 20
4.2570422804
 30
0.0
 10
36.751309488
 20
4.2487941899
 30
0.0
 10
36.7500948632
 20
4.2381350848
 30
0.0
 10
36.7491792364
 20
4.2308736276
 30
0.0
 10
36.7482348748
 20
4.2241287097
 30
0.0
 10
36.7472638044
 20
4.2179160122
 30
0.0
 10
36.7462686539
 20
4.2122497773
 30
0.0
 10
36.7452522462
 20
4.2071427879
 30
0.0
 10
36.7442168846
 20
4.2026068084
 30
0.0
 10
36.7433110197
 20
4.1991969062
 30
0.0
 10
36.7425701524
 20
4.1967666146
 30
0.0
 10
36.7420315846
 20
4.1951599273
 30
0.0
 10
36.741490083
 20
4.1937028718
 30
0.0
 10
36.7409458716
 20
4.1923962555
 30
0.0
 10
36.7403992792
 20
4.1912405877
 30
0.0
 10
36.7398505833
 20
4.1902360707
 30
0.0
 10
36.7392998659
 20
4.1893827003
 30
0.0
 10
36.7387468187
 20
4.1886803062
 30
0.0
 10
36.738190468
 20
4.1881287253
 30
0.0
 10
36.7376283668
 20
4.1877285721
 30
0.0
 10
36.7370580829
 20
4.1874832792
 30
0.0
 10
36.7366670955
 20
4.1874270401
 30
0.0
 10
36.7364792514
 20
4.187426989
 30
0.0
  0
SPLINE
  5
4C9
100
AcDbEntity
  8
0
100
AcDbSpline
 62
7
  6
CONTINUOUS
 70
0
 71
3
 72
34
 73
30
 74
0
 42
0.0000001
 43
0.0000001
 44
0.0000000001
 40
0.0
 40
0.0
 40
0.0
 40
0.0
 40
0.1085545202
 40
0.2125894357
 40
0.3115796097
 40
0.4050891343
 40
0.4927514538
 40
0.5742135912
 40
0.6491470047
 40
0.7172374139
 40
0.7782272332
 40
0.8059894605
 40
0.8318945715
 40
0.8559241992
 40
0.8780645524
 40
0.8983045768
 40
0.9166371395
 40
0.933062576
 40
0.9475965342
 40
0.9602700092
 40
0.9711369279
 40
0.9759224551
 40
0.9802971352
 40
0.9842852359
 40
0.987919658
 40
0.9912439718
 40
0.9943150872
 40
0.9972050318
 40
1.0
 40
1.0
 40
1.0
 40
1.0
 10
36.7565178396
 20
4.5856766529
 30
0.0
 10
36.7562704181
 20
4.5905936734
 30
0.0
 10
36.7557500338
 20
4.6002212432
 30
0.0
 10
36.7548721108
 20
4.6143250902
 30
0.0
 10
36.7539160354
 20
4.627739914
 30
0.0
 10
36.7528862142
 20
4.6404044543
 30
0.0
 10
36.751787455
 20
4.6522651194
 30
0.0
 10
36.7506242719
 20
4.6632728669
 30
0.0
 10
36.7494025457
 20
4.6733808159
 30
0.0
 10
36.748127232
 20
4.6825456261
 30
0.0
 10
36.7469927447
 20
4.6895686551
 30
0.0
 10
36.7460530472
 20
4.694683243
 30
0.0
 10
36.7453605042
 20
4.698138466
 30
0.0
 10
36.7446588101
 20
4.7013312846
 30
0.0
 10
36.7439488088
 20
4.7042585601
 30
0.0
 10
36.7432313674
 20
4.7069173151
 30
0.0
 10
36.7425073592
 20
4.7093047457
 30
0.0
 10
36.7417775125
 20
4.7114184531
 30
0.0
 10
36.7410428404
 20
4.7132569791
 30
0.0
 10
36.740304165
 20
4.7148191197
 30
0.0
 10
36.7396610975
 20
4.7159339934
 30
0.0
 10
36.7391387393
 20
4.7166777516
 30
0.0
 10
36.7387627725
 20
4.7171413379
 30
0.0
 10
36.7383857829
 20
4.717534702
 30
0.0
 10
36.7380075346
 20
4.717857795
 30
0.0
 10
36.7376277098
 20
4.7181104273
 30
0.0
 10
36.737245902
 20
4.7182920683
 30
0.0
 10
36.7368622345
 20
4.7184017678
 30
0.0
 10
36.7366037918
 20
4.7184263513
 30
0.0
 10
36.7364770325
 20
4.7184263168
 30
0.0
  0
SPLINE
  5
4CA
100
AcDbEntity
  8
0
100
AcDbSpline
 62
7
  6
CONTINUOUS
 70
0
 71
3
 72
9
 73
5
 74
0
 42
0.0000001
 43
0.0000001
 44
0.0000000001
 40
0.0
 40
0.0
 40
0.0
 40
0.0
 40
0.4933803533
 40
1.0
 40
1.0
 40
1.0
 40
1.0
 10
36.5715897175
 20
4.6848312903
 30
0.0
 10
36.5735710966
 20
4.6883103005
 30
0.0
 10
36.5778233443
 20
4.6952285569
 30
0.0
 10
36.5824460928
 20
4.7019020856
 30
0.0
 10
36.5848616005
 20
4.7052287205
 30
0.0
  0
SPLINE
  5
4CB
100
AcDbEntity
  8
0
100
AcDbSpline
 62
7
  6
CONTINUOUS
 70
0
 71
3
 72
34
 73
30
 74
0
 42
0.0000001
 43
0.0000001
 44
0.0000000001
 40
0.0
 40
0.0
 40
0.0
 40
0.0
 40
0.0038051163
 40
0.0081537357
 40
0.013056082
 40
0.018517904
 40
0.0245421187
 40
0.0311291301
 40
0.0382763947
 40
0.0459801829
 40
0.0630387803
 40
0.082260728
 40
0.1035834666
 40
0.1269383747
 40
0.152244673
 40
0.1794132729
 40
0.2083496507
 40
0.2389483002
 40
0.2711008973
 40
0.30469049
 40
0.3756887778
 40
0.4509124129
 40
0.52926603
 40
0.6096066322
 40
0.6907607277
 40
0.7715445825
 40
0.8507722359
 40
0.9273039715
 40
1.0
 40
1.0
 40
1.0
 40
1.0
 10
36.5622536674
 20
4.2374438404
 30
0.0
 10
36.562049427
 20
4.2378030846
 30
0.0
 10
36.5616470242
 20
4.238593027
 30
0.0
 10
36.5610856223
 20
4.2398957649
 30
0.0
 10
36.5605273348
 20
4.2413934949
 30
0.0
 10
36.5599727816
 20
4.2430851008
 30
0.0
 10
36.5594225619
 20
4.2449694777
 30
0.0
 10
36.5588773135
 20
4.2470450903
 30
0.0
 10
36.5583374695
 20
4.2493100395
 30
0.0
 10
36.5576003808
 20
4.2526963878
 30
0.0
 10
36.5567065132
 20
4.2573896338
 30
0.0
 10
36.5556959119
 20
4.2635638155
 30
0.0
 10
36.5547181436
 20
4.2704346561
 30
0.0
 10
36.5537774649
 20
4.2779769413
 30
0.0
 10
36.5528774783
 20
4.2861631508
 30
0.0
 10
36.5520216574
 20
4.2949632785
 30
0.0
 10
36.551213533
 20
4.304344909
 30
0.0
 10
36.5504558902
 20
4.3142736617
 30
0.0
 10
36.5497518645
 20
4.3247129007
 30
0.0
 10
36.5488717372
 20
4.3395372437
 30
0.0
 10
36.5479338659
 20
4.3590433287
 30
0.0
 10
36.5470756282
 20
4.3834181926
 30
0.0
 10
36.5464785093
 20
4.4088157122
 30
0.0
 10
36.5461516217
 20
4.4348622102
 30
0.0
 10
36.5461000025
 20
4.4611746284
 30
0.0
 10
36.5463245046
 20
4.4873652668
 30
0.0
 10
36.5468214635
 20
4.5130501069
 30
0.0
 10
36.5475835844
 20
4.5378496899
 30
0.0
 10
36.5482814459
 20
4.5540416814
 30
0.0
 10
36.5486782128
 20
4.5619266529
 30
0.0
  0
SPLINE
  5
4CC
100
AcDbEntity
  8
0
100
AcDbSpline
 62
7
  6
CONTINUOUS
 70
0
 71
3
 72
20
 73
16
 74
0
 42
0.0000001
 43
0.0000001
 44
0.0000000001
 40
0.0
 40
0.0
 40
0.0
 40
0.0
 40
0.0303539297
 40
0.0620799072
 40
0.0963823755
 40
0.1342188607
 40
0.1763048768
 40
0.223160082
 40
0.2751528286
 40
0.3325402377
 40
0.3955061499
 40
0.4641832722
 40
0.6190092254
 40
0.7975417307
 40
1.0
 40
1.0
 40
1.0
 40
1.0
 10
36.706592301
 20
4.187426989
 30
0.0
 10
36.7064454494
 20
4.1874270298
 30
0.0
 10
36.7061441963
 20
4.1874605539
 30
0.0
 10
36.7056990545
 20
4.1876088347
 30
0.0
 10
36.7052572458
 20
4.1878532057
 30
0.0
 10
36.7048185398
 20
4.1881920439
 30
0.0
 10
36.7043820371
 20
4.1886246928
 30
0.0
 10
36.7039472096
 20
4.1891510434
 30
0.0
 10
36.7035137346
 20
4.1897710584
 30
0.0
 10
36.7030814805
 20
4.1904846398
 30
0.0
 10
36.7026504405
 20
4.1912916353
 30
0.0
 10
36.7020534177
 20
4.1925428045
 30
0.0
 10
36.7013200493
 20
4.1943460398
 30
0.0
 10
36.7004776857
 20
4.1967985262
 30
0.0
 10
36.699954129
 20
4.1985663997
 30
0.0
 10
36.6996909922
 20
4.199509881
 30
0.0
  0
SPLINE
  5
4CD
100
AcDbEntity
  8
0
100
AcDbSpline
 62
7
  6
CONTINUOUS
 70
0
 71
3
 72
20
 73
16
 74
0
 42
0.0000001
 43
0.0000001
 44
0.0000000001
 40
0.0
 40
0.0
 40
0.0
 40
0.0
 40
0.0306195461
 40
0.0625888724
 40
0.0971030822
 40
0.1351164467
 40
0.1773373152
 40
0.2242767895
 40
0.2763011559
 40
0.3336740291
 40
0.3965869495
 40
0.4651806045
 40
0.6197782645
 40
0.7979943404
 40
1.0
 40
1.0
 40
1.0
 40
1.0
 10
36.706592301
 20
4.7184263168
 30
0.0
 10
36.7064473059
 20
4.718426357
 30
0.0
 10
36.7061500226
 20
4.7183938717
 30
0.0
 10
36.7057104991
 20
4.7182495039
 30
0.0
 10
36.7052741705
 20
4.7180111896
 30
0.0
 10
36.7048408977
 20
4.7176805062
 30
0.0
 10
36.7044097764
 20
4.717258296
 30
0.0
 10
36.7039802532
 20
4.7167448189
 30
0.0
 10
36.7035520154
 20
4.7161401448
 30
0.0
 10
36.7031249724
 20
4.7154443016
 30
0.0
 10
36.7026991108
 20
4.7146573569
 30
0.0
 10
36.7021092796
 20
4.7134372577
 30
0.0
 10
36.701384679
 20
4.7116782227
 30
0.0
 10
36.7005522636
 20
4.7092854687
 30
0.0
 10
36.700034505
 20
4.707560462
 30
0.0
 10
36.6997742973
 20
4.7066399602
 30
0.0
  0
SPLINE
  5
4CE
100
AcDbEntity
  8
0
100
AcDbSpline
 62
7
  6
CONTINUOUS
 70
0
 71
3
 72
21
 73
17
 74
0
 42
0.0000001
 43
0.0000001
 44
0.0000000001
 40
0.0
 40
0.0
 40
0.0
 40
0.0
 40
0.1249717227
 40
0.187468436
 40
0.2499692878
 40
0.3124732585
 40
0.374980562
 40
0.437489661
 40
0.5
 40
0.562510339
 40
0.625019438
 40
0.6875267415
 40
0.7500307122
 40
0.812531564
 40
0.8750282773
 40
1.0
 40
1.0
 40
1.0
 40
1.0
 10
36.6039051303
 20
4.5790776867
 30
0.0
 10
36.6009564246
 20
4.5688240523
 30
0.0
 10
36.5969045902
 20
4.5533298417
 30
0.0
 10
36.592439988
 20
4.5324585581
 30
0.0
 10
36.5896102526
 20
4.5166997342
 30
0.0
 10
36.5873474211
 20
4.5008483156
 30
0.0
 10
36.5856954928
 20
4.4849203928
 30
0.0
 10
36.5846895426
 20
4.4689377833
 30
0.0
 10
36.584350868
 20
4.4529266529
 30
0.0
 10
36.5846895426
 20
4.4369155225
 30
0.0
 10
36.5856954928
 20
4.4209329129
 30
0.0
 10
36.5873474211
 20
4.4050049902
 30
0.0
 10
36.5896102526
 20
4.3891535716
 30
0.0
 10
36.592439988
 20
4.3733947476
 30
0.0
 10
36.5969045902
 20
4.3525234641
 30
0.0
 10
36.6009564246
 20
4.3370292535
 30
0.0
 10
36.6039051303
 20
4.3267756191
 30
0.0
  0
SPLINE
  5
4CF
100
AcDbEntity
  8
0
100
AcDbSpline
 62
7
  6
CONTINUOUS
 70
0
 71
3
 72
42
 73
38
 74
0
 42
0.0000001
 43
0.0000001
 44
0.0000000001
 40
0.0
 40
0.0
 40
0.0
 40
0.0
 40
0.077614825
 40
0.1595348133
 40
0.2443471298
 40
0.3306295274
 40
0.4169103591
 40
0.5017268
 40
0.5836388193
 40
0.6612581663
 40
0.6980451563
 40
0.7332733039
 40
0.7667963765
 40
0.7984715501
 40
0.828168723
 40
0.8557642405
 40
0.8811448331
 40
0.9042108068
 40
0.9248697731
 40
0.9342738814
 40
0.9430501459
 40
0.9511910719
 40
0.9586907798
 40
0.9655463895
 40
0.9717566068
 40
0.9773220716
 40
0.9822464339
 40
0.9865394395
 40
0.9902203496
 40
0.991841579
 40
0.9933239352
 40
0.9946755586
 40
0.995907346
 40
0.9970338548
 40
0.9980743177
 40
0.9990532643
 40
1.0
 40
1.0
 40
1.0
 40
1.0
 10
36.7266319987
 20
4.5856766529
 30
0.0
 10
36.7271542297
 20
4.5752983283
 30
0.0
 10
36.7280617866
 20
4.5539574569
 30
0.0
 10
36.7290203871
 20
4.5212563086
 30
0.0
 10
36.7296023055
 20
4.4873856501
 30
0.0
 10
36.7297975786
 20
4.4529267569
 30
0.0
 10
36.7296023715
 20
4.418467308
 30
0.0
 10
36.7290203668
 20
4.3845973826
 30
0.0
 10
36.7280618297
 20
4.3518961174
 30
0.0
 10
36.7269450416
 20
4.325634806
 30
0.0
 10
36.725864266
 20
4.3056299919
 30
0.0
 10
36.7249861434
 20
4.2915271517
 30
0.0
 10
36.7240303363
 20
4.2781153876
 30
0.0
 10
36.7230005911
 20
4.2654518833
 30
0.0
 10
36.7219018274
 20
4.2535909255
 30
0.0
 10
36.7207388893
 20
4.2425831291
 30
0.0
 10
36.7195169298
 20
4.232475368
 30
0.0
 10
36.7182419799
 20
4.2233108937
 30
0.0
 10
36.7171074467
 20
4.216287922
 30
0.0
 10
36.7161677297
 20
4.2111733493
 30
0.0
 10
36.7154752889
 20
4.2077178444
 30
0.0
 10
36.7147737214
 20
4.2045247371
 30
0.0
 10
36.7140637154
 20
4.2015974263
 30
0.0
 10
36.7133462461
 20
4.1989387626
 30
0.0
 10
36.7126222063
 20
4.1965511982
 30
0.0
 10
36.7118925216
 20
4.1944370568
 30
0.0
 10
36.7111579836
 20
4.1925981189
 30
0.0
 10
36.7104192689
 20
4.1910358689
 30
0.0
 10
36.7097761642
 20
4.189921034
 30
0.0
 10
36.7092538321
 20
4.1891771904
 30
0.0
 10
36.708877885
 20
4.188713369
 30
0.0
 10
36.7085009479
 20
4.1883196283
 30
0.0
 10
36.7081227556
 20
4.1879961126
 30
0.0
 10
36.7077429693
 20
4.187743123
 30
0.0
 10
36.7073611607
 20
4.1875612948
 30
0.0
 10
36.7069774925
 20
4.1874515345
 30
0.0
 10
36.7067190547
 20
4.1874269538
 30
0.0
 10
36.706592301
 20
4.187426989
 30
0.0
  0
SPLINE
  5
4D0
100
AcDbEntity
  8
0
100
AcDbSpline
 62
7
  6
CONTINUOUS
 70
0
 71
3
 72
34
 73
30
 74
0
 42
0.0000001
 43
0.0000001
 44
0.0000000001
 40
0.0
 40
0.0
 40
0.0
 40
0.0
 40
0.1085505324
 40
0.2125818615
 40
0.3115689151
 40
0.4050758281
 40
0.4927360904
 40
0.574196765
 40
0.6491293493
 40
0.7172195936
 40
0.7782099254
 40
0.80597267
 40
0.8318784732
 40
0.8559089633
 40
0.8780503486
 40
0.898291573
 40
0.9166254997
 40
0.9330524512
 40
0.9475880557
 40
0.960263284
 40
0.9711320199
 40
0.975918455
 40
0.9802940236
 40
0.9842829696
 40
0.9879181647
 40
0.9912431404
 40
0.9943147592
 40
0.9972049963
 40
1.0
 40
1.0
 40
1.0
 40
1.0
 10
36.7266319987
 20
4.5856766529
 30
0.0
 10
36.7263845883
 20
4.5905934528
 30
0.0
 10
36.7258642284
 20
4.6002206013
 30
0.0
 10
36.7249863506
 20
4.61432385
 30
0.0
 10
36.7240303273
 20
4.6277381441
 30
0.0
 10
36.7230005641
 20
4.640402231
 30
0.0
 10
36.7219018684
 20
4.6522625254
 30
0.0
 10
36.7207387534
 20
4.6632699911
 30
0.0
 10
36.7195170988
 20
4.6733777531
 30
0.0
 10
36.71824186
 20
4.6825424756
 30
0.0
 10
36.7171074414
 20
4.6895654965
 30
0.0
 10
36.7161678021
 20
4.6946801315
 30
0.0
 10
36.7154752992
 20
4.698135429
 30
0.0
 10
36.7147736451
 20
4.7013283492
 30
0.0
 10
36.7140636838
 20
4.7042557536
 30
0.0
 10
36.7133462822
 20
4.7069146648
 30
0.0
 10
36.7126223134
 20
4.7093022793
 30
0.0
 10
36.7118925057
 20
4.7114161977
 30
0.0
 10
36.7111578719
 20
4.7132549611
 30
0.0
 10
36.7104192341
 20
4.7148173648
 30
0.0
 10
36.7097762037
 20
4.7159324802
 30
0.0
 10
36.7092538766
 20
4.7166764509
 30
0.0
 10
36.7088779297
 20
4.7171402005
 30
0.0
 10
36.7085009603
 20
4.7175337344
 30
0.0
 10
36.7081227331
 20
4.7178570039
 30
0.0
 10
36.7077429308
 20
4.71810982
 30
0.0
 10
36.7073611466
 20
4.7182916533
 30
0.0
 10
36.7069775024
 20
4.7184015549
 30
0.0
 10
36.706719061
 20
4.7184262816
 30
0.0
 10
36.706592301
 20
4.7184263168
 30
0.0
  0
SPLINE
  5
4D1
100
AcDbEntity
  8
0
100
AcDbSpline
 62
7
  6
CONTINUOUS
 70
0
 71
3
 72
15
 73
11
 74
0
 42
0.0000001
 43
0.0000001
 44
0.0000000001
 40
0.0
 40
0.0
 40
0.0
 40
0.0
 40
0.1305892218
 40
0.2591248575
 40
0.3856048389
 40
0.5102478894
 40
0.6334863092
 40
0.755866504
 40
0.8779076124
 40
1.0
 40
1.0
 40
1.0
 40
1.0
 10
36.7221129125
 20
4.3267756191
 30
0.0
 10
36.7199450846
 20
4.3215880348
 30
0.0
 10
36.7158583724
 20
4.3112021803
 30
0.0
 10
36.7105936186
 20
4.2954480494
 30
0.0
 10
36.7063932272
 20
4.2796383769
 30
0.0
 10
36.7033764162
 20
4.2637904182
 30
0.0
 10
36.7015935521
 20
4.2479337408
 30
0.0
 10
36.7010081219
 20
4.2321015812
 30
0.0
 10
36.7015086668
 20
4.2163193214
 30
0.0
 10
36.7024638371
 20
4.2058460934
 30
0.0
 10
36.7030693827
 20
4.2006245853
 30
0.0
  0
SPLINE
  5
4D2
100
AcDbEntity
  8
0
100
AcDbSpline
 62
7
  6
CONTINUOUS
 70
0
 71
3
 72
47
 73
43
 74
0
 42
0.0000001
 43
0.0000001
 44
0.0000000001
 40
0.0
 40
0.0
 40
0.0
 40
0.0
 40
0.0036573321
 40
0.0052444637
 40
0.0066822179
 40
0.0079838659
 40
0.0091673996
 40
0.0102568249
 40
0.0112829292
 40
0.0122825285
 40
0.0132954562
 40
0.0155015805
 40
0.0167615209
 40
0.0181521521
 40
0.019688175
 40
0.0213804127
 40
0.0252621174
 40
0.0298405932
 40
0.0351368323
 40
0.0411617986
 40
0.0479207436
 40
0.0554144832
 40
0.063639059
 40
0.0725885691
 40
0.0822560593
 40
0.0926334092
 40
0.1154715708
 40
0.1410041531
 40
0.1691169731
 40
0.1996771624
 40
0.2325420898
 40
0.2675523542
 40
0.3045414845
 40
0.3433285552
 40
0.3837270455
 40
0.4685613002
 40
0.5573927566
 40
0.6484879129
 40
0.7400687446
 40
0.8303443242
 40
0.9175572543
 40
1.0
 40
1.0
 40
1.0
 40
1.0
 10
36.5622536674
 20
4.6684094656
 30
0.0
 10
36.5624547807
 20
4.6687632087
 30
0.0
 10
36.5627662158
 20
4.6692589997
 30
0.0
 10
36.563229532
 20
4.6698413232
 30
0.0
 10
36.5635614972
 20
4.670190955
 30
0.0
 10
36.563894706
 20
4.6704744063
 30
0.0
 10
36.5642296172
 20
4.6706913918
 30
0.0
 10
36.564566642
 20
4.670841191
 30
0.0
 10
36.5649057552
 20
4.6709225868
 30
0.0
 10
36.5652460136
 20
4.6709342587
 30
0.0
 10
36.5657115946
 20
4.67085457
 30
0.0
 10
36.5661670264
 20
4.6706266524
 30
0.0
 10
36.5665925312
 20
4.6702930291
 30
0.0
 10
36.5669251099
 20
4.6699653823
 30
0.0
 10
36.5672562998
 20
4.6695717373
 30
0.0
 10
36.5677181037
 20
4.6689286738
 30
0.0
 10
36.568285361
 20
4.6679490313
 30
0.0
 10
36.568934853
 20
4.6665618362
 30
0.0
 10
36.5695806492
 20
4.6649138701
 30
0.0
 10
36.5702219221
 20
4.6630065849
 30
0.0
 10
36.5708576876
 20
4.6608414423
 30
0.0
 10
36.571486945
 20
4.6584207357
 30
0.0
 10
36.5721089458
 20
4.6557473374
 30
0.0
 10
36.5727228063
 20
4.6528245054
 30
0.0
 10
36.5733277111
 20
4.6496556433
 30
0.0
 10
36.5741474548
 20
4.6449552453
 30
0.0
 10
36.5751331973
 20
4.6384929081
 30
0.0
 10
36.5762350777
 20
4.6300544727
 30
0.0
 10
36.5772840942
 20
4.6207442229
 30
0.0
 10
36.5782750849
 20
4.6106076953
 30
0.0
 10
36.5792024424
 20
4.5996948144
 30
0.0
 10
36.5800617671
 20
4.5880590486
 30
0.0
 10
36.5808482601
 20
4.5757578436
 30
0.0
 10
36.5815583299
 20
4.5628515627
 30
0.0
 10
36.5824117619
 20
4.5446224562
 30
0.0
 10
36.5832524518
 20
4.5208195362
 30
0.0
 10
36.5838975349
 20
4.4913684289
 30
0.0
 10
36.5841808024
 20
4.4611609646
 30
0.0
 10
36.5840964173
 20
4.4307916483
 30
0.0
 10
36.5836462085
 20
4.4008574774
 30
0.0
 10
36.5828393809
 20
4.3719478939
 30
0.0
 10
36.5820480719
 20
4.353087673
 30
0.0
 10
36.5815870949
 20
4.3439266529
 30
0.0
  0
SPLINE
  5
4D3
100
AcDbEntity
  8
0
100
AcDbSpline
 62
7
  6
CONTINUOUS
 70
0
 71
3
 72
25
 73
21
 74
0
 42
0.0000001
 43
0.0000001
 44
0.0000000001
 40
0.0
 40
0.0
 40
0.0
 40
0.0
 40
0.069872469
 40
0.1383857583
 40
0.2054633413
 40
0.2710670067
 40
0.3352068402
 40
0.3979571844
 40
0.4288597397
 40
0.4594761175
 40
0.5199616156
 40
0.5797011882
 40
0.6093944072
 40
0.6390173222
 40
0.698193401
 40
0.757519814
 40
0.817224503
 40
0.8774745938
 40
0.9383809441
 40
1.0
 40
1.0
 40
1.0
 40
1.0
 10
36.6039051303
 20
4.3267756191
 30
0.0
 10
36.6020609751
 20
4.3242358503
 30
0.0
 10
36.5984936282
 20
4.3191430131
 30
0.0
 10
36.5935023829
 20
4.3113763906
 30
0.0
 10
36.5889690603
 20
4.3035536541
 30
0.0
 10
36.5849445473
 20
4.295676194
 30
0.0
 10
36.5814775247
 20
4.2877486639
 30
0.0
 10
36.5790792556
 20
4.2810717066
 30
0.0
 10
36.5774872366
 20
4.2757200656
 30
0.0
 10
36.5761277993
 20
4.2704096954
 30
0.0
 10
36.574836103
 20
4.2637501189
 30
0.0
 10
36.5741054702
 20
4.2570471308
 30
0.0
 10
36.5738588035
 20
4.2517034795
 30
0.0
 10
36.5738338955
 20
4.2463795216
 30
0.0
 10
36.5742091989
 20
4.2397285712
 30
0.0
 10
36.5752791812
 20
4.2317879873
 30
0.0
 10
36.5769239002
 20
4.2238979484
 30
0.0
 10
36.5790955461
 20
4.2160639599
 30
0.0
 10
36.581742956
 20
4.2082880861
 30
0.0
 10
36.5837806846
 20
4.2031727426
 30
0.0
 10
36.5848616005
 20
4.2006245853
 30
0.0
  0
SPLINE
  5
4D4
100
AcDbEntity
  8
0
100
AcDbSpline
 62
7
  6
CONTINUOUS
 70
0
 71
3
 72
15
 73
11
 74
0
 42
0.0000001
 43
0.0000001
 44
0.0000000001
 40
0.0
 40
0.0
 40
0.0
 40
0.0
 40
0.1220923863
 40
0.2441335045
 40
0.3665137054
 40
0.4897521289
 40
0.6143951879
 40
0.7408751845
 40
0.8694108149
 40
1.0
 40
1.0
 40
1.0
 40
1.0
 10
36.7030693827
 20
4.7052287205
 30
0.0
 10
36.7024638371
 20
4.7000072124
 30
0.0
 10
36.7015086667
 20
4.6895339841
 30
0.0
 10
36.7010081217
 20
4.6737517237
 30
0.0
 10
36.701593552
 20
4.6579195632
 30
0.0
 10
36.7033764165
 20
4.6420628851
 30
0.0
 10
36.7063932283
 20
4.6262149254
 30
0.0
 10
36.7105936202
 20
4.6104052522
 30
0.0
 10
36.7158583746
 20
4.5946511227
 30
0.0
 10
36.7199450852
 20
4.5842652695
 30
0.0
 10
36.7221129125
 20
4.5790776867
 30
0.0
  0
SPLINE
  5
4D5
100
AcDbEntity
  8
0
100
AcDbSpline
 62
7
  6
CONTINUOUS
 70
0
 71
3
 72
25
 73
21
 74
0
 42
0.0000001
 43
0.0000001
 44
0.0000000001
 40
0.0
 40
0.0
 40
0.0
 40
0.0
 40
0.0616190559
 40
0.1225254062
 40
0.182775497
 40
0.242480186
 40
0.301806599
 40
0.3609826778
 40
0.3906055928
 40
0.4202988118
 40
0.4800383844
 40
0.5405238825
 40
0.5711402603
 40
0.6020428156
 40
0.6647931598
 40
0.7289329933
 40
0.7945366587
 40
0.8616142417
 40
0.930127531
 40
1.0
 40
1.0
 40
1.0
 40
1.0
 10
36.5848616005
 20
4.7052287205
 30
0.0
 10
36.5837806846
 20
4.7026805632
 30
0.0
 10
36.581742956
 20
4.6975652197
 30
0.0
 10
36.5790955461
 20
4.6897893459
 30
0.0
 10
36.5769239002
 20
4.6819553574
 30
0.0
 10
36.5752791812
 20
4.6740653185
 30
0.0
 10
36.5742091989
 20
4.6661247346
 30
0.0
 10
36.5738338955
 20
4.6594737842
 30
0.0
 10
36.5738588035
 20
4.6541498263
 30
0.0
 10
36.5741054702
 20
4.648806175
 30
0.0
 10
36.574836103
 20
4.6421031868
 30
0.0
 10
36.5761277993
 20
4.6354436103
 30
0.0
 10
36.5774872366
 20
4.6301332402
 30
0.0
 10
36.5790792556
 20
4.6247815992
 30
0.0
 10
36.5814775247
 20
4.6181046419
 30
0.0
 10
36.5849445473
 20
4.6101771118
 30
0.0
 10
36.5889690603
 20
4.6022996517
 30
0.0
 10
36.5935023829
 20
4.5944769151
 30
0.0
 10
36.5984936282
 20
4.5867102927
 30
0.0
 10
36.6020609751
 20
4.5816174555
 30
0.0
 10
36.6039051303
 20
4.5790776867
 30
0.0
  0
SPLINE
  5
4D6
100
AcDbEntity
  8
0
100
AcDbSpline
 62
7
  6
CONTINUOUS
 70
0
 71
3
 72
41
 73
37
 74
0
 42
0.0000001
 43
0.0000001
 44
0.0000000001
 40
0.0
 40
0.0
 40
0.0
 40
0.0
 40
0.1196887876
 40
0.2335462827
 40
0.3408403901
 40
0.4409962107
 40
0.5334876718
 40
0.6178222152
 40
0.6935400246
 40
0.7280490197
 40
0.7602660641
 40
0.7901515855
 40
0.8176764694
 40
0.8428162844
 40
0.8655506337
 40
0.8858677545
 40
0.9037741849
 40
0.919293273
 40
0.9261729565
 40
0.9324775667
 40
0.9382212344
 40
0.9434245121
 40
0.9481157057
 40
0.9523338723
 40
0.9561331656
 40
0.9595880232
 40
0.9627975124
 40
0.9658850093
 40
0.9689890094
 40
0.9722458088
 40
0.9757735341
 40
0.9796652514
 40
0.9839901729
 40
0.9887984629
 40
0.99412631
 40
1.0
 40
1.0
 40
1.0
 40
1.0
 10
36.5815870949
 20
4.3439266529
 30
0.0
 10
36.5813551063
 20
4.3393163307
 30
0.0
 10
36.5808642545
 20
4.330322162
 30
0.0
 10
36.580023762
 20
4.3172033222
 30
0.0
 10
36.5791005188
 20
4.3048453185
 30
0.0
 10
36.57810048
 20
4.2933201762
 30
0.0
 10
36.5770292568
 20
4.2826909745
 30
0.0
 10
36.5758936138
 20
4.2730168182
 30
0.0
 10
36.5748700525
 20
4.2655823771
 30
0.0
 10
36.5740145902
 20
4.2601554578
 30
0.0
 10
36.5733808542
 20
4.2564834783
 30
0.0
 10
36.5727358432
 20
4.2530872484
 30
0.0
 10
36.5720806133
 20
4.2499713634
 30
0.0
 10
36.5714162357
 20
4.2471399623
 30
0.0
 10
36.5707437627
 20
4.2445969666
 30
0.0
 10
36.5700641666
 20
4.2423456639
 30
0.0
 10
36.569378646
 20
4.2403887883
 30
0.0
 10
36.5687819289
 20
4.2389519214
 30
0.0
 10
36.5682961748
 20
4.237956796
 30
0.0
 10
36.5679455663
 20
4.2373161302
 30
0.0
 10
36.5675939516
 20
4.236750786
 30
0.0
 10
36.5672413385
 20
4.2362607894
 30
0.0
 10
36.5668876403
 20
4.2358460926
 30
0.0
 10
36.5665325857
 20
4.2355066849
 30
0.0
 10
36.5661756771
 20
4.2352427487
 30
0.0
 10
36.5658162698
 20
4.2350549575
 30
0.0
 10
36.5654540513
 20
4.2349447621
 30
0.0
 10
36.5650899028
 20
4.2349140219
 30
0.0
 10
36.5647260432
 20
4.2349635465
 30
0.0
 10
36.5643644627
 20
4.235092114
 30
0.0
 10
36.5640056948
 20
4.2352978694
 30
0.0
 10
36.5636492774
 20
4.2355795483
 30
0.0
 10
36.5632945773
 20
4.2359366246
 30
0.0
 10
36.5629411489
 20
4.2363689871
 30
0.0
 10
36.562588779
 20
4.2368766451
 30
0.0
 10
36.5623656301
 20
4.2372469061
 30
0.0
 10
36.5622536674
 20
4.2374438404
 30
0.0
  0
SPLINE
  5
4D7
100
AcDbEntity
  8
0
100
AcDbSpline
 62
7
  6
CONTINUOUS
 70
0
 71
3
 72
15
 73
11
 74
0
 42
0.0000001
 43
0.0000001
 44
0.0000000001
 40
0.0
 40
0.0
 40
0.0
 40
0.0
 40
0.1249964674
 40
0.2499956899
 40
0.3749971618
 40
0.4999999975
 40
0.6250028277
 40
0.7500042899
 40
0.8750035088
 40
1.0
 40
1.0
 40
1.0
 40
1.0
 10
36.7221129125
 20
4.5790776867
 30
0.0
 10
36.7207176889
 20
4.568623816
 30
0.0
 10
36.7181823844
 20
4.5476804301
 30
0.0
 10
36.7153035778
 20
4.516166121
 30
0.0
 10
36.7135002478
 20
4.4845697374
 30
0.0
 10
36.7128850869
 20
4.452926654
 30
0.0
 10
36.7135002475
 20
4.4212835714
 30
0.0
 10
36.7153035773
 20
4.3896871894
 30
0.0
 10
36.7181823831
 20
4.3581728792
 30
0.0
 10
36.7207176886
 20
4.3372294918
 30
0.0
 10
36.7221129125
 20
4.3267756191
 30
0.0
  0
SPLINE
  5
4D8
100
AcDbEntity
  8
0
100
AcDbSpline
 62
7
  6
CONTINUOUS
 70
0
 71
3
 72
15
 73
11
 74
0
 42
0.0000001
 43
0.0000001
 44
0.0000000001
 40
0.0
 40
0.0
 40
0.0
 40
0.0
 40
0.1453524083
 40
0.2868079831
 40
0.4230969843
 40
0.5529474777
 40
0.6754525845
 40
0.7903911539
 40
0.8982555593
 40
1.0
 40
1.0
 40
1.0
 40
1.0
 10
40.0106696128
 20
-7.1930796981
 30
0.0
 10
40.003561997
 20
-7.1887271901
 30
0.0
 10
39.9896224544
 20
-7.1799982401
 30
0.0
 10
39.9694023169
 20
-7.1665868207
 30
0.0
 10
39.9503631435
 20
-7.1530229917
 30
0.0
 10
39.9327536246
 20
-7.1393539775
 30
0.0
 10
39.9167478177
 20
-7.1256524066
 30
0.0
 10
39.9023914861
 20
-7.1120033056
 30
0.0
 10
39.8895946146
 20
-7.0984812132
 30
0.0
 10
39.8817768142
 20
-7.0893454917
 30
0.0
 10
39.8780870913
 20
-7.0848265226
 30
0.0
  0
SPLINE
  5
4D9
100
AcDbEntity
  8
0
100
AcDbSpline
 62
7
  6
CONTINUOUS
 70
0
 71
3
 72
19
 73
15
 74
0
 42
0.0000001
 43
0.0000001
 44
0.0000000001
 40
0.0
 40
0.0
 40
0.0
 40
0.0
 40
0.1239135187
 40
0.2486584689
 40
0.3113153546
 40
0.3741210923
 40
0.4370327446
 40
0.5
 40
0.5629672554
 40
0.6258789077
 40
0.6886846454
 40
0.7513415311
 40
0.8760864813
 40
1.0
 40
1.0
 40
1.0
 40
1.0
 10
39.8780870913
 20
-7.0848265226
 30
0.0
 10
39.8762848702
 20
-7.0759974784
 30
0.0
 10
39.8729859028
 20
-7.0582130218
 30
0.0
 10
39.8698340916
 20
-7.0357848457
 30
0.0
 10
39.8680004038
 20
-7.0176801976
 30
0.0
 10
39.8669948993
 20
-7.0040165305
 30
0.0
 10
39.8663826849
 20
-6.9903069197
 30
0.0
 10
39.8661765744
 20
-6.9765733471
 30
0.0
 10
39.8663826849
 20
-6.9628397745
 30
0.0
 10
39.8669948993
 20
-6.9491301637
 30
0.0
 10
39.8680004038
 20
-6.9354664966
 30
0.0
 10
39.8698340916
 20
-6.9173618485
 30
0.0
 10
39.8729859028
 20
-6.8949336725
 30
0.0
 10
39.8762848702
 20
-6.8771492158
 30
0.0
 10
39.8780870913
 20
-6.8683201716
 30
0.0
  0
SPLINE
  5
4DA
100
AcDbEntity
  8
0
100
AcDbSpline
 62
7
  6
CONTINUOUS
 70
0
 71
3
 72
15
 73
11
 74
0
 42
0.0000001
 43
0.0000001
 44
0.0000000001
 40
0.0
 40
0.0
 40
0.0
 40
0.0
 40
0.1017444407
 40
0.2096088461
 40
0.3245474155
 40
0.4470525223
 40
0.5769030157
 40
0.7131920169
 40
0.8546475917
 40
1.0
 40
1.0
 40
1.0
 40
1.0
 10
39.8780870913
 20
-6.8683201716
 30
0.0
 10
39.8817768142
 20
-6.8638012025
 30
0.0
 10
39.8895946146
 20
-6.854665481
 30
0.0
 10
39.9023914861
 20
-6.8411433886
 30
0.0
 10
39.9167478177
 20
-6.8274942876
 30
0.0
 10
39.9327536246
 20
-6.8137927168
 30
0.0
 10
39.9503631435
 20
-6.8001237025
 30
0.0
 10
39.9694023169
 20
-6.7865598735
 30
0.0
 10
39.9896224544
 20
-6.7731484541
 30
0.0
 10
40.003561997
 20
-6.7644195042
 30
0.0
 10
40.0106696128
 20
-6.7600669962
 30
0.0
  0
SPLINE
  5
4DB
100
AcDbEntity
  8
0
100
AcDbSpline
 62
7
  6
CONTINUOUS
 70
0
 71
3
 72
18
 73
14
 74
0
 42
0.0000001
 43
0.0000001
 44
0.0000000001
 40
0.0
 40
0.0
 40
0.0
 40
0.0
 40
0.1219730971
 40
0.1839754588
 40
0.2465198403
 40
0.3095102951
 40
0.3728376439
 40
0.436389733
 40
0.5000543644
 40
0.6272420788
 40
0.7535297939
 40
0.8780497529
 40
1.0
 40
1.0
 40
1.0
 40
1.0
 10
40.3316210995
 20
-6.8571104602
 30
0.0
 10
40.3350235439
 20
-6.8664127694
 30
0.0
 10
40.3394905982
 20
-6.8806984384
 30
0.0
 10
40.3441731607
 20
-6.9001663263
 30
0.0
 10
40.3470803323
 20
-6.9151210091
 30
0.0
 10
40.3493515169
 20
-6.9302934481
 30
0.0
 10
40.3509804257
 20
-6.9456305401
 30
0.0
 10
40.3519592846
 20
-6.9610778483
 30
0.0
 10
40.3523948246
 20
-6.9817376001
 30
0.0
 10
40.3513096251
 20
-7.0075018769
 30
0.0
 10
40.3474219539
 20
-7.0379878735
 30
0.0
 10
40.3410038176
 20
-7.0676079749
 30
0.0
 10
40.3350210829
 20
-7.0867430151
 30
0.0
 10
40.3316186681
 20
-7.0960433593
 30
0.0
  0
SPLINE
  5
4DC
100
AcDbEntity
  8
0
100
AcDbSpline
 62
7
  6
CONTINUOUS
 70
0
 71
3
 72
21
 73
17
 74
0
 42
0.0000001
 43
0.0000001
 44
0.0000000001
 40
0.0
 40
0.0
 40
0.0
 40
0.0
 40
0.1440774648
 40
0.2141490211
 40
0.2827733814
 40
0.4153959364
 40
0.4794238866
 40
0.5419244177
 40
0.6029513683
 40
0.6625894253
 40
0.7209576385
 40
0.7782059614
 40
0.834516051
 40
0.890095485
 40
0.9451749392
 40
1.0
 40
1.0
 40
1.0
 40
1.0
 10
40.3316186681
 20
-7.0960433593
 30
0.0
 10
40.3278362672
 20
-7.1063823783
 30
0.0
 10
40.3213916967
 20
-7.1214721801
 30
0.0
 10
40.3111961551
 20
-7.1405344782
 30
0.0
 10
40.3003306313
 20
-7.1582017189
 30
0.0
 10
40.2881090267
 20
-7.1744608864
 30
0.0
 10
40.2746134232
 20
-7.1889707594
 30
0.0
 10
40.2641086173
 20
-7.1987396024
 30
0.0
 10
40.2531542184
 20
-7.207473466
 30
0.0
 10
40.2417993888
 20
-7.2151306122
 30
0.0
 10
40.2300974826
 20
-7.2216751239
 30
0.0
 10
40.2181021765
 20
-7.2270742236
 30
0.0
 10
40.2058702792
 20
-7.2313025039
 30
0.0
 10
40.1934585884
 20
-7.2343377141
 30
0.0
 10
40.1809279583
 20
-7.23616573
 30
0.0
 10
40.1725243801
 20
-7.2365730673
 30
0.0
 10
40.1683351161
 20
-7.2365731603
 30
0.0
  0
SPLINE
  5
4DD
100
AcDbEntity
  8
0
100
AcDbSpline
 62
7
  6
CONTINUOUS
 70
0
 71
3
 72
23
 73
19
 74
0
 42
0.0000001
 43
0.0000001
 44
0.0000000001
 40
0.0
 40
0.0
 40
0.0
 40
0.0
 40
0.0723863627
 40
0.1435277136
 40
0.2132914826
 40
0.2816143877
 40
0.3484651727
 40
0.4138258032
 40
0.4776964214
 40
0.5401091272
 40
0.6011236465
 40
0.6608295149
 40
0.7193435624
 40
0.7768121274
 40
0.8334073264
 40
0.8893251129
 40
0.9447799417
 40
1.0
 40
1.0
 40
1.0
 40
1.0
 10
40.3275461562
 20
-6.8465733471
 30
0.0
 10
40.3255581205
 20
-6.8417036739
 30
0.0
 10
40.321361621
 20
-6.8321495461
 30
0.0
 10
40.3143609828
 20
-6.8183136464
 30
0.0
 10
40.3067333254
 20
-6.8051523819
 30
0.0
 10
40.2985138789
 20
-6.7927239676
 30
0.0
 10
40.2897357782
 20
-6.7810811283
 30
0.0
 10
40.2804372548
 20
-6.7702719831
 30
0.0
 10
40.2706560369
 20
-6.7603444089
 30
0.0
 10
40.2604346835
 20
-6.7513404217
 30
0.0
 10
40.2498155227
 20
-6.7432998407
 30
0.0
 10
40.2388441801
 20
-6.7362568953
 30
0.0
 10
40.227566785
 20
-6.7302432562
 30
0.0
 10
40.2160317745
 20
-6.7252853189
 30
0.0
 10
40.2042887113
 20
-6.7214054952
 30
0.0
 10
40.1923880377
 20
-6.7186216592
 30
0.0
 10
40.1803830032
 20
-6.7169460406
 30
0.0
 10
40.1723360139
 20
-6.7165734448
 30
0.0
 10
40.1683235298
 20
-6.7165735339
 30
0.0
  0
SPLINE
  5
4DE
100
AcDbEntity
  8
0
100
AcDbSpline
 62
7
  6
CONTINUOUS
 70
0
 71
3
 72
11
 73
7
 74
0
 42
0.0000001
 43
0.0000001
 44
0.0000000001
 40
0.0
 40
0.0
 40
0.0
 40
0.0
 40
0.2401732686
 40
0.4850365616
 40
0.7374846583
 40
1.0
 40
1.0
 40
1.0
 40
1.0
 10
40.1174883454
 20
-7.1930796981
 30
0.0
 10
40.1180932152
 20
-7.1930796981
 30
0.0
 10
40.1193176092
 20
-7.1931995659
 30
0.0
 10
40.1211102496
 20
-7.1937216489
 30
0.0
 10
40.1228331353
 20
-7.1945744242
 30
0.0
 10
40.1238958865
 20
-7.1953271571
 30
0.0
 10
40.1244082561
 20
-7.1957449854
 30
0.0
  0
SPLINE
  5
4DF
100
AcDbEntity
  8
0
100
AcDbSpline
 62
7
  6
CONTINUOUS
 70
0
 71
3
 72
11
 73
7
 74
0
 42
0.0000001
 43
0.0000001
 44
0.0000000001
 40
0.0
 40
0.0
 40
0.0
 40
0.0
 40
0.2401732686
 40
0.4850365616
 40
0.7374846583
 40
1.0
 40
1.0
 40
1.0
 40
1.0
 10
40.1174883454
 20
-6.7600669962
 30
0.0
 10
40.1180932152
 20
-6.7600669962
 30
0.0
 10
40.1193176092
 20
-6.7599471283
 30
0.0
 10
40.1211102496
 20
-6.7594250453
 30
0.0
 10
40.1228331353
 20
-6.75857227
 30
0.0
 10
40.1238958865
 20
-6.7578195371
 30
0.0
 10
40.1244082561
 20
-6.7574017088
 30
0.0
  0
SPLINE
  5
4E0
100
AcDbEntity
  8
0
100
AcDbSpline
 62
7
  6
CONTINUOUS
 70
0
 71
3
 72
15
 73
11
 74
0
 42
0.0000001
 43
0.0000001
 44
0.0000000001
 40
0.0
 40
0.0
 40
0.0
 40
0.0
 40
0.119057511
 40
0.2387427078
 40
0.3596605012
 40
0.482372663
 40
0.6073780386
 40
0.7351040355
 40
0.8658915427
 40
1.0
 40
1.0
 40
1.0
 40
1.0
 10
40.132979777
 20
-7.2365731603
 30
0.0
 10
40.1285082857
 20
-7.2365732596
 30
0.0
 10
40.1195348629
 20
-7.2361100327
 30
0.0
 10
40.106165799
 20
-7.2340277087
 30
0.0
 10
40.0929416602
 20
-7.2305718433
 30
0.0
 10
40.0799365744
 20
-7.225760147
 30
0.0
 10
40.0672189855
 20
-7.2196224304
 30
0.0
 10
40.05485763
 20
-7.2121906302
 30
0.0
 10
40.0429172048
 20
-7.2035088756
 30
0.0
 10
40.0353758536
 20
-7.197000227
 30
0.0
 10
40.0316939657
 20
-7.1935632644
 30
0.0
  0
SPLINE
  5
4E1
100
AcDbEntity
  8
0
100
AcDbSpline
 62
7
  6
CONTINUOUS
 70
0
 71
3
 72
17
 73
13
 74
0
 42
0.0000001
 43
0.0000001
 44
0.0000000001
 40
0.0
 40
0.0
 40
0.0
 40
0.0
 40
0.1189994808
 40
0.2386330948
 40
0.2988987019
 40
0.3595485145
 40
0.4822355288
 40
0.5444348928
 40
0.6072696525
 40
0.7350094912
 40
0.8658344983
 40
1.0
 40
1.0
 40
1.0
 40
1.0
 10
40.1329681908
 20
-6.7165735339
 30
0.0
 10
40.1284756212
 20
-6.7165736337
 30
0.0
 10
40.1194600204
 20
-6.7170423465
 30
0.0
 10
40.1082914932
 20
-6.7187912304
 30
0.0
 10
40.0994485014
 20
-6.7208735536
 30
0.0
 10
40.0906107247
 20
-6.7234290334
 30
0.0
 10
40.0819058766
 20
-6.7266657447
 30
0.0
 10
40.0733928293
 20
-6.7305439869
 30
0.0
 10
40.0649009864
 20
-6.7349047281
 30
0.0
 10
40.0545009423
 20
-6.7411900345
 30
0.0
 10
40.0425197021
 20
-6.7499524955
 30
0.0
 10
40.0349550684
 20
-6.7565191653
 30
0.0
 10
40.0312630043
 20
-6.759986759
 30
0.0
  0
SPLINE
  5
4E2
100
AcDbEntity
  8
0
100
AcDbSpline
 62
7
  6
CONTINUOUS
 70
0
 71
3
 72
19
 73
15
 74
0
 42
0.0000001
 43
0.0000001
 44
0.0000000001
 40
0.0
 40
0.0
 40
0.0
 40
0.0
 40
0.1239135187
 40
0.2486584689
 40
0.3113153546
 40
0.3741210923
 40
0.4370327446
 40
0.5
 40
0.5629672554
 40
0.6258789077
 40
0.6886846454
 40
0.7513415311
 40
0.8760864813
 40
1.0
 40
1.0
 40
1.0
 40
1.0
 10
40.1432521343
 20
-6.8683201716
 30
0.0
 10
40.1414499132
 20
-6.8771492158
 30
0.0
 10
40.1381509458
 20
-6.8949336725
 30
0.0
 10
40.1349991346
 20
-6.9173618485
 30
0.0
 10
40.1331654467
 20
-6.9354664966
 30
0.0
 10
40.1321599422
 20
-6.9491301637
 30
0.0
 10
40.1315477279
 20
-6.9628397745
 30
0.0
 10
40.1313416174
 20
-6.9765733471
 30
0.0
 10
40.1315477279
 20
-6.9903069197
 30
0.0
 10
40.1321599422
 20
-7.0040165305
 30
0.0
 10
40.1331654467
 20
-7.0176801976
 30
0.0
 10
40.1349991346
 20
-7.0357848457
 30
0.0
 10
40.1381509458
 20
-7.0582130218
 30
0.0
 10
40.1414499132
 20
-7.0759974784
 30
0.0
 10
40.1432521343
 20
-7.0848265226
 30
0.0
  0
SPLINE
  5
4E3
100
AcDbEntity
  8
0
100
AcDbSpline
 62
7
  6
CONTINUOUS
 70
0
 71
3
 72
17
 73
13
 74
0
 42
0.0000001
 43
0.0000001
 44
0.0000000001
 40
0.0
 40
0.0
 40
0.0
 40
0.0
 40
0.0507521541
 40
0.1062279752
 40
0.1656818145
 40
0.2283685672
 40
0.3603916239
 40
0.4965882669
 40
0.6320482742
 40
0.7629485808
 40
0.8864675634
 40
1.0
 40
1.0
 40
1.0
 40
1.0
 10
40.2500708669
 20
-7.0848265226
 30
0.0
 10
40.2506451702
 20
-7.0848265226
 30
0.0
 10
40.2518474563
 20
-7.0848811197
 30
0.0
 10
40.2537111432
 20
-7.0850952683
 30
0.0
 10
40.2556918016
 20
-7.0854430125
 30
0.0
 10
40.2584964326
 20
-7.0860844771
 30
0.0
 10
40.2620859183
 20
-7.0871669955
 30
0.0
 10
40.2663536378
 20
-7.0888054338
 30
0.0
 10
40.2704907247
 20
-7.0907197692
 30
0.0
 10
40.2743699127
 20
-7.0928278942
 30
0.0
 10
40.277889762
 20
-7.0950577356
 30
0.0
 10
40.2800470078
 20
-7.0966579683
 30
0.0
 10
40.2810421439
 20
-7.0974704935
 30
0.0
  0
SPLINE
  5
4E4
100
AcDbEntity
  8
0
100
AcDbSpline
 62
7
  6
CONTINUOUS
 70
0
 71
3
 72
17
 73
13
 74
0
 42
0.0000001
 43
0.0000001
 44
0.0000000001
 40
0.0
 40
0.0
 40
0.0
 40
0.0
 40
0.0507521541
 40
0.1062279752
 40
0.1656818145
 40
0.2283685672
 40
0.3603916239
 40
0.4965882669
 40
0.6320482742
 40
0.7629485808
 40
0.8864675634
 40
1.0
 40
1.0
 40
1.0
 40
1.0
 10
40.2500708669
 20
-6.8683201716
 30
0.0
 10
40.2506451702
 20
-6.8683201716
 30
0.0
 10
40.2518474563
 20
-6.8682655745
 30
0.0
 10
40.2537111432
 20
-6.8680514259
 30
0.0
 10
40.2556918016
 20
-6.8677036817
 30
0.0
 10
40.2584964326
 20
-6.8670622171
 30
0.0
 10
40.2620859183
 20
-6.8659796987
 30
0.0
 10
40.2663536378
 20
-6.8643412604
 30
0.0
 10
40.2704907247
 20
-6.862426925
 30
0.0
 10
40.2743699127
 20
-6.8603188
 30
0.0
 10
40.277889762
 20
-6.8580889586
 30
0.0
 10
40.2800470078
 20
-6.8564887259
 30
0.0
 10
40.2810421439
 20
-6.8556762007
 30
0.0
  0
SPLINE
  5
4E5
100
AcDbEntity
  8
0
100
AcDbSpline
 62
7
  6
CONTINUOUS
 70
0
 71
3
 72
15
 73
11
 74
0
 42
0.0000001
 43
0.0000001
 44
0.0000000001
 40
0.0
 40
0.0
 40
0.0
 40
0.0
 40
0.1453524083
 40
0.2868079831
 40
0.4230969843
 40
0.5529474777
 40
0.6754525845
 40
0.7903911539
 40
0.8982555593
 40
1.0
 40
1.0
 40
1.0
 40
1.0
 10
40.1432521343
 20
-7.0848265226
 30
0.0
 10
40.1361445185
 20
-7.0891790306
 30
0.0
 10
40.1222049759
 20
-7.0979079805
 30
0.0
 10
40.1019848384
 20
-7.1113194
 30
0.0
 10
40.082945665
 20
-7.1248832289
 30
0.0
 10
40.0653361461
 20
-7.1385522432
 30
0.0
 10
40.0493303391
 20
-7.152253814
 30
0.0
 10
40.0349740076
 20
-7.165902915
 30
0.0
 10
40.0221771361
 20
-7.1794250075
 30
0.0
 10
40.0143593357
 20
-7.1885607289
 30
0.0
 10
40.0106696128
 20
-7.1930796981
 30
0.0
  0
SPLINE
  5
4E6
100
AcDbEntity
  8
0
100
AcDbSpline
 62
7
  6
CONTINUOUS
 70
0
 71
3
 72
21
 73
17
 74
0
 42
0.0000001
 43
0.0000001
 44
0.0000000001
 40
0.0
 40
0.0
 40
0.0
 40
0.0
 40
0.1409036607
 40
0.2094604769
 40
0.2767185847
 40
0.4072912582
 40
0.4707165708
 40
0.5329471585
 40
0.5940558339
 40
0.654131383
 40
0.7132818607
 40
0.7716318841
 40
0.8293207125
 40
0.8865018045
 40
0.9433379216
 40
1.0
 40
1.0
 40
1.0
 40
1.0
 10
40.2757798721
 20
-6.8128266135
 30
0.0
 10
40.2715647693
 20
-6.8054744964
 30
0.0
 10
40.2647656069
 20
-6.7948346821
 30
0.0
 10
40.2547118875
 20
-6.7815627664
 30
0.0
 10
40.2443513196
 20
-6.7693335193
 30
0.0
 10
40.2331880412
 20
-6.7582128291
 30
0.0
 10
40.2213006154
 20
-6.7483923021
 30
0.0
 10
40.2121941588
 20
-6.7418014085
 30
0.0
 10
40.2028418183
 20
-6.735935229
 30
0.0
 10
40.1932712135
 20
-6.7308128691
 30
0.0
 10
40.1835121839
 20
-6.7264505964
 30
0.0
 10
40.1735951771
 20
-6.722861457
 30
0.0
 10
40.1635505233
 20
-6.7200587183
 30
0.0
 10
40.1534099302
 20
-6.7180495018
 30
0.0
 10
40.1432055865
 20
-6.7168419469
 30
0.0
 10
40.1363761555
 20
-6.7165734582
 30
0.0
 10
40.1329681908
 20
-6.7165735339
 30
0.0
  0
SPLINE
  5
4E7
100
AcDbEntity
  8
0
100
AcDbSpline
 62
7
  6
CONTINUOUS
 70
0
 71
3
 72
19
 73
15
 74
0
 42
0.0000001
 43
0.0000001
 44
0.0000000001
 40
0.0
 40
0.0
 40
0.0
 40
0.0
 40
0.0607989248
 40
0.1226154924
 40
0.1852677686
 40
0.2486094177
 40
0.3124837272
 40
0.3767140996
 40
0.5054804394
 40
0.6335156521
 40
0.7594201646
 40
0.8211935997
 40
0.8819717771
 40
1.0
 40
1.0
 40
1.0
 40
1.0
 10
40.2921908172
 20
-6.8465733471
 30
0.0
 10
40.2945076291
 20
-6.8522483541
 30
0.0
 10
40.298830859
 20
-6.8638390006
 30
0.0
 10
40.304330019
 20
-6.8816999067
 30
0.0
 10
40.308867883
 20
-6.9000934424
 30
0.0
 10
40.3124199409
 20
-6.9189129583
 30
0.0
 10
40.314966824
 20
-6.9380555686
 30
0.0
 10
40.3170046727
 20
-6.9638828587
 30
0.0
 10
40.3169777604
 20
-6.9963155503
 30
0.0
 10
40.3128631071
 20
-7.0347495964
 30
0.0
 10
40.3060605872
 20
-7.0659172193
 30
0.0
 10
40.2986442459
 20
-7.0898572551
 30
0.0
 10
40.2901213048
 20
-7.1125749323
 30
0.0
 10
40.2822731099
 20
-7.1288736691
 30
0.0
 10
40.2764040099
 20
-7.1392251159
 30
0.0
  0
SPLINE
  5
4E8
100
AcDbEntity
  8
0
100
AcDbSpline
 62
7
  6
CONTINUOUS
 70
0
 71
3
 72
20
 73
16
 74
0
 42
0.0000001
 43
0.0000001
 44
0.0000000001
 40
0.0
 40
0.0
 40
0.0
 40
0.0
 40
0.141015485
 40
0.2768702674
 40
0.407502578
 40
0.4709449652
 40
0.5331837383
 40
0.5942895951
 40
0.6543536632
 40
0.713483101
 40
0.7718039065
 40
0.8294567009
 40
0.8865956693
 40
0.9433860732
 40
1.0
 40
1.0
 40
1.0
 40
1.0
 10
40.2764040099
 20
-7.1392251159
 30
0.0
 10
40.2721920678
 20
-7.1466538007
 30
0.0
 10
40.2632103304
 20
-7.1608525621
 30
0.0
 10
40.2478694324
 20
-7.1802405363
 30
0.0
 10
40.2337344111
 20
-7.1944356121
 30
0.0
 10
40.2217967246
 20
-7.2043702089
 30
0.0
 10
40.2126498556
 20
-7.211039067
 30
0.0
 10
40.2032515713
 20
-7.2169740352
 30
0.0
 10
40.193631902
 20
-7.2221581242
 30
0.0
 10
40.1838200445
 20
-7.2265731013
 30
0.0
 10
40.1738472078
 20
-7.2302055092
 30
0.0
 10
40.1637447595
 20
-7.2330436854
 30
0.0
 10
40.1535441398
 20
-7.2350770717
 30
0.0
 10
40.1432788932
 20
-7.2363008472
 30
0.0
 10
40.1364082215
 20
-7.2365730842
 30
0.0
 10
40.132979777
 20
-7.2365731603
 30
0.0
  0
SPLINE
  5
4E9
100
AcDbEntity
  8
0
100
AcDbSpline
 62
7
  6
CONTINUOUS
 70
0
 71
3
 72
45
 73
41
 74
0
 42
0.0000001
 43
0.0000001
 44
0.0000000001
 40
0.0
 40
0.0
 40
0.0
 40
0.0
 40
0.0128513267
 40
0.0257402646
 40
0.038691441
 40
0.051730823
 40
0.0648871307
 40
0.0781878531
 40
0.1053036192
 40
0.1332505709
 40
0.1621439873
 40
0.1920543393
 40
0.2230077703
 40
0.2549895349
 40
0.287948694
 40
0.3218028922
 40
0.3564428168
 40
0.3917370601
 40
0.4275370898
 40
0.4636814477
 40
0.5
 40
0.5363185523
 40
0.5724629102
 40
0.6082629399
 40
0.6435571832
 40
0.6781971078
 40
0.712051306
 40
0.7450104651
 40
0.7769922297
 40
0.8079456607
 40
0.8378560127
 40
0.8667494291
 40
0.8946963808
 40
0.9218121469
 40
0.9351128693
 40
0.948269177
 40
0.961308559
 40
0.9742597354
 40
0.9871486733
 40
1.0
 40
1.0
 40
1.0
 40
1.0
 10
39.9986236955
 20
-6.7895733471
 30
0.0
 10
40.0007869284
 20
-6.7895733471
 30
0.0
 10
40.0051212147
 20
-6.7897243478
 30
0.0
 10
40.0116037125
 20
-6.7904012595
 30
0.0
 10
40.0180558629
 20
-6.7915274334
 30
0.0
 10
40.0244598212
 20
-6.7931009749
 30
0.0
 10
40.0308004555
 20
-6.7951168782
 30
0.0
 10
40.0392017845
 20
-6.7984086211
 30
0.0
 10
40.0494901133
 20
-6.8036365692
 30
0.0
 10
40.0612477348
 20
-6.8115338331
 30
0.0
 10
40.0723916261
 20
-6.8210160346
 30
0.0
 10
40.0828160598
 20
-6.8319885895
 30
0.0
 10
40.0924239717
 20
-6.8443450135
 30
0.0
 10
40.101125988
 20
-6.8579657072
 30
0.0
 10
40.108840995
 20
-6.8727199589
 30
0.0
 10
40.1154964083
 20
-6.8884667885
 30
0.0
 10
40.1210294889
 20
-6.9050557434
 30
0.0
 10
40.1253884028
 20
-6.9223282047
 30
0.0
 10
40.1285319042
 20
-6.9401191894
 30
0.0
 10
40.130429828
 20
-6.9582587239
 30
0.0
 10
40.1310644088
 20
-6.9765733471
 30
0.0
 10
40.130429828
 20
-6.9948879703
 30
0.0
 10
40.1285319042
 20
-7.0130275048
 30
0.0
 10
40.1253884028
 20
-7.0308184895
 30
0.0
 10
40.1210294889
 20
-7.0480909508
 30
0.0
 10
40.1154964083
 20
-7.0646799057
 30
0.0
 10
40.108840995
 20
-7.0804267353
 30
0.0
 10
40.101125988
 20
-7.095180987
 30
0.0
 10
40.0924239717
 20
-7.1088016807
 30
0.0
 10
40.0828160598
 20
-7.1211581047
 30
0.0
 10
40.0723916261
 20
-7.1321306596
 30
0.0
 10
40.0612477348
 20
-7.1416128611
 30
0.0
 10
40.0494901133
 20
-7.149510125
 30
0.0
 10
40.0392017845
 20
-7.1547380731
 30
0.0
 10
40.0308004555
 20
-7.158029816
 30
0.0
 10
40.0244598212
 20
-7.1600457193
 30
0.0
 10
40.0180558629
 20
-7.1616192608
 30
0.0
 10
40.0116037125
 20
-7.1627454347
 30
0.0
 10
40.0051212147
 20
-7.1634223464
 30
0.0
 10
40.0007869284
 20
-7.1635733471
 30
0.0
 10
39.9986236955
 20
-7.1635733471
 30
0.0
  0
SPLINE
  5
4EA
100
AcDbEntity
  8
0
100
AcDbSpline
 62
7
  6
CONTINUOUS
 70
0
 71
3
 72
15
 73
11
 74
0
 42
0.0000001
 43
0.0000001
 44
0.0000000001
 40
0.0
 40
0.0
 40
0.0
 40
0.0
 40
0.1093848924
 40
0.2247529651
 40
0.3455303054
 40
0.4709316038
 40
0.5999829275
 40
0.7318632405
 40
0.865594525
 40
1.0
 40
1.0
 40
1.0
 40
1.0
 10
40.1244082561
 20
-7.1957449854
 30
0.0
 10
40.1251121367
 20
-7.1963189875
 30
0.0
 10
40.1264494453
 20
-7.1976355827
 30
0.0
 10
40.1281705897
 20
-7.1999417158
 30
0.0
 10
40.1296425518
 20
-7.2025666855
 30
0.0
 10
40.1308548939
 20
-7.2054429576
 30
0.0
 10
40.1318010669
 20
-7.2085131525
 30
0.0
 10
40.1324776919
 20
-7.211723901
 30
0.0
 10
40.1328835019
 20
-7.2150241572
 30
0.0
 10
40.1329739839
 20
-7.2172516321
 30
0.0
 10
40.1329739839
 20
-7.2183676398
 30
0.0
  0
SPLINE
  5
4EB
100
AcDbEntity
  8
0
100
AcDbSpline
 62
7
  6
CONTINUOUS
 70
0
 71
3
 72
15
 73
11
 74
0
 42
0.0000001
 43
0.0000001
 44
0.0000000001
 40
0.0
 40
0.0
 40
0.0
 40
0.0
 40
0.1017444407
 40
0.2096088461
 40
0.3245474155
 40
0.4470525223
 40
0.5769030157
 40
0.7131920169
 40
0.8546475917
 40
1.0
 40
1.0
 40
1.0
 40
1.0
 10
40.0106696128
 20
-6.7600669962
 30
0.0
 10
40.0143593357
 20
-6.7645859653
 30
0.0
 10
40.0221771361
 20
-6.7737216868
 30
0.0
 10
40.0349740076
 20
-6.7872437792
 30
0.0
 10
40.0493303391
 20
-6.8008928802
 30
0.0
 10
40.0653361461
 20
-6.814594451
 30
0.0
 10
40.082945665
 20
-6.8282634653
 30
0.0
 10
40.1019848384
 20
-6.8418272942
 30
0.0
 10
40.1222049759
 20
-6.8552387137
 30
0.0
 10
40.1361445185
 20
-6.8639676636
 30
0.0
 10
40.1432521343
 20
-6.8683201716
 30
0.0
  0
SPLINE
  5
4EC
100
AcDbEntity
  8
0
100
AcDbSpline
 62
7
  6
CONTINUOUS
 70
0
 71
3
 72
15
 73
11
 74
0
 42
0.0000001
 43
0.0000001
 44
0.0000000001
 40
0.0
 40
0.0
 40
0.0
 40
0.0
 40
0.1093848924
 40
0.2247529651
 40
0.3455303054
 40
0.4709316038
 40
0.5999829275
 40
0.7318632405
 40
0.865594525
 40
1.0
 40
1.0
 40
1.0
 40
1.0
 10
40.1244082561
 20
-6.7574017088
 30
0.0
 10
40.1251121367
 20
-6.7568277067
 30
0.0
 10
40.1264494453
 20
-6.7555111115
 30
0.0
 10
40.1281705897
 20
-6.7532049784
 30
0.0
 10
40.1296425518
 20
-6.7505800087
 30
0.0
 10
40.1308548939
 20
-6.7477037366
 30
0.0
 10
40.1318010669
 20
-6.7446335417
 30
0.0
 10
40.1324776919
 20
-6.7414227932
 30
0.0
 10
40.1328835019
 20
-6.738122537
 30
0.0
 10
40.1329739839
 20
-6.7358950621
 30
0.0
 10
40.1329739839
 20
-6.7347790544
 30
0.0
  0
SPLINE
  5
4ED
100
AcDbEntity
  8
0
100
AcDbSpline
 62
7
  6
CONTINUOUS
 70
0
 71
3
 72
45
 73
41
 74
0
 42
0.0000001
 43
0.0000001
 44
0.0000000001
 40
0.0
 40
0.0
 40
0.0
 40
0.0
 40
0.0128513267
 40
0.0257402646
 40
0.038691441
 40
0.051730823
 40
0.0648871307
 40
0.0781878531
 40
0.1053036192
 40
0.1332505709
 40
0.1621439873
 40
0.1920543393
 40
0.2230077703
 40
0.2549895349
 40
0.287948694
 40
0.3218028922
 40
0.3564428168
 40
0.3917370601
 40
0.4275370898
 40
0.4636814477
 40
0.5
 40
0.5363185523
 40
0.5724629102
 40
0.6082629399
 40
0.6435571832
 40
0.6781971078
 40
0.712051306
 40
0.7450104651
 40
0.7769922297
 40
0.8079456607
 40
0.8378560127
 40
0.8667494291
 40
0.8946963808
 40
0.9218121469
 40
0.9351128693
 40
0.948269177
 40
0.961308559
 40
0.9742597354
 40
0.9871486733
 40
1.0
 40
1.0
 40
1.0
 40
1.0
 10
39.9986236955
 20
-7.1635733471
 30
0.0
 10
39.9964604625
 20
-7.1635733471
 30
0.0
 10
39.9921261762
 20
-7.1634223464
 30
0.0
 10
39.9856436784
 20
-7.1627454347
 30
0.0
 10
39.979191528
 20
-7.1616192608
 30
0.0
 10
39.9727875697
 20
-7.1600457193
 30
0.0
 10
39.9664469354
 20
-7.158029816
 30
0.0
 10
39.9580456065
 20
-7.1547380731
 30
0.0
 10
39.9477572777
 20
-7.149510125
 30
0.0
 10
39.9359996561
 20
-7.1416128611
 30
0.0
 10
39.9248557649
 20
-7.1321306596
 30
0.0
 10
39.9144313312
 20
-7.1211581047
 30
0.0
 10
39.9048234192
 20
-7.1088016807
 30
0.0
 10
39.8961214029
 20
-7.095180987
 30
0.0
 10
39.8884063959
 20
-7.0804267353
 30
0.0
 10
39.8817509826
 20
-7.0646799057
 30
0.0
 10
39.8762179021
 20
-7.0480909508
 30
0.0
 10
39.8718589881
 20
-7.0308184895
 30
0.0
 10
39.8687154868
 20
-7.0130275048
 30
0.0
 10
39.8668175629
 20
-6.9948879703
 30
0.0
 10
39.8661829822
 20
-6.9765733471
 30
0.0
 10
39.8668175629
 20
-6.9582587239
 30
0.0
 10
39.8687154868
 20
-6.9401191894
 30
0.0
 10
39.8718589881
 20
-6.9223282047
 30
0.0
 10
39.8762179021
 20
-6.9050557434
 30
0.0
 10
39.8817509826
 20
-6.8884667885
 30
0.0
 10
39.8884063959
 20
-6.8727199589
 30
0.0
 10
39.8961214029
 20
-6.8579657072
 30
0.0
 10
39.9048234192
 20
-6.8443450135
 30
0.0
 10
39.9144313312
 20
-6.8319885895
 30
0.0
 10
39.9248557649
 20
-6.8210160346
 30
0.0
 10
39.9359996561
 20
-6.8115338331
 30
0.0
 10
39.9477572777
 20
-6.8036365692
 30
0.0
 10
39.9580456065
 20
-6.7984086211
 30
0.0
 10
39.9664469354
 20
-6.7951168782
 30
0.0
 10
39.9727875697
 20
-6.7931009749
 30
0.0
 10
39.979191528
 20
-6.7915274334
 30
0.0
 10
39.9856436784
 20
-6.7904012595
 30
0.0
 10
39.9921261762
 20
-6.7897243478
 30
0.0
 10
39.9964604625
 20
-6.7895733471
 30
0.0
 10
39.9986236955
 20
-6.7895733471
 30
0.0
  0
SPLINE
  5
4EE
100
AcDbEntity
  8
0
100
AcDbSpline
 62
7
  6
CONTINUOUS
 70
0
 71
3
 72
15
 73
11
 74
0
 42
0.0000001
 43
0.0000001
 44
0.0000000001
 40
0.0
 40
0.0
 40
0.0
 40
0.0
 40
0.1453524083
 40
0.2868079831
 40
0.4230969843
 40
0.5529474777
 40
0.6754525845
 40
0.7903911539
 40
0.8982555593
 40
1.0
 40
1.0
 40
1.0
 40
1.0
 10
54.7509673693
 20
-6.7600669962
 30
0.0
 10
54.7580749851
 20
-6.7644195042
 30
0.0
 10
54.7720145277
 20
-6.7731484541
 30
0.0
 10
54.7922346652
 20
-6.7865598735
 30
0.0
 10
54.8112738386
 20
-6.8001237025
 30
0.0
 10
54.8288833575
 20
-6.8137927168
 30
0.0
 10
54.8448891645
 20
-6.8274942876
 30
0.0
 10
54.859245496
 20
-6.8411433886
 30
0.0
 10
54.8720423675
 20
-6.854665481
 30
0.0
 10
54.8798601679
 20
-6.8638012025
 30
0.0
 10
54.8835498908
 20
-6.8683201716
 30
0.0
  0
SPLINE
  5
4EF
100
AcDbEntity
  8
0
100
AcDbSpline
 62
7
  6
CONTINUOUS
 70
0
 71
3
 72
19
 73
15
 74
0
 42
0.0000001
 43
0.0000001
 44
0.0000000001
 40
0.0
 40
0.0
 40
0.0
 40
0.0
 40
0.1239135187
 40
0.2486584689
 40
0.3113153546
 40
0.3741210923
 40
0.4370327446
 40
0.5
 40
0.5629672554
 40
0.6258789077
 40
0.6886846454
 40
0.7513415311
 40
0.8760864813
 40
1.0
 40
1.0
 40
1.0
 40
1.0
 10
54.8835498908
 20
-6.8683201716
 30
0.0
 10
54.8853521119
 20
-6.8771492158
 30
0.0
 10
54.8886510793
 20
-6.8949336725
 30
0.0
 10
54.8918028905
 20
-6.9173618485
 30
0.0
 10
54.8936365784
 20
-6.9354664966
 30
0.0
 10
54.8946420828
 20
-6.9491301637
 30
0.0
 10
54.8952542972
 20
-6.9628397745
 30
0.0
 10
54.8954604077
 20
-6.9765733471
 30
0.0
 10
54.8952542972
 20
-6.9903069197
 30
0.0
 10
54.8946420828
 20
-7.0040165305
 30
0.0
 10
54.8936365784
 20
-7.0176801976
 30
0.0
 10
54.8918028905
 20
-7.0357848457
 30
0.0
 10
54.8886510793
 20
-7.0582130218
 30
0.0
 10
54.8853521119
 20
-7.0759974784
 30
0.0
 10
54.8835498908
 20
-7.0848265226
 30
0.0
  0
SPLINE
  5
4F0
100
AcDbEntity
  8
0
100
AcDbSpline
 62
7
  6
CONTINUOUS
 70
0
 71
3
 72
15
 73
11
 74
0
 42
0.0000001
 43
0.0000001
 44
0.0000000001
 40
0.0
 40
0.0
 40
0.0
 40
0.0
 40
0.1017444407
 40
0.2096088461
 40
0.3245474155
 40
0.4470525223
 40
0.5769030157
 40
0.7131920169
 40
0.8546475917
 40
1.0
 40
1.0
 40
1.0
 40
1.0
 10
54.8835498908
 20
-7.0848265226
 30
0.0
 10
54.8798601679
 20
-7.0893454917
 30
0.0
 10
54.8720423675
 20
-7.0984812132
 30
0.0
 10
54.859245496
 20
-7.1120033056
 30
0.0
 10
54.8448891645
 20
-7.1256524066
 30
0.0
 10
54.8288833575
 20
-7.1393539775
 30
0.0
 10
54.8112738386
 20
-7.1530229917
 30
0.0
 10
54.7922346652
 20
-7.1665868207
 30
0.0
 10
54.7720145277
 20
-7.1799982401
 30
0.0
 10
54.7580749851
 20
-7.1887271901
 30
0.0
 10
54.7509673693
 20
-7.1930796981
 30
0.0
  0
SPLINE
  5
4F1
100
AcDbEntity
  8
0
100
AcDbSpline
 62
7
  6
CONTINUOUS
 70
0
 71
3
 72
15
 73
11
 74
0
 42
0.0000001
 43
0.0000001
 44
0.0000000001
 40
0.0
 40
0.0
 40
0.0
 40
0.0
 40
0.1341084573
 40
0.2648959645
 40
0.3926219614
 40
0.517627337
 40
0.6403394988
 40
0.7612572922
 40
0.880942489
 40
1.0
 40
1.0
 40
1.0
 40
1.0
 10
54.7299430164
 20
-6.7595834298
 30
0.0
 10
54.7262611285
 20
-6.7561464672
 30
0.0
 10
54.7187197773
 20
-6.7496378186
 30
0.0
 10
54.7067793521
 20
-6.740956064
 30
0.0
 10
54.6944179966
 20
-6.7335242638
 30
0.0
 10
54.6817004077
 20
-6.7273865472
 30
0.0
 10
54.6686953219
 20
-6.7225748509
 30
0.0
 10
54.6554711831
 20
-6.7191189856
 30
0.0
 10
54.6421021192
 20
-6.7170366615
 30
0.0
 10
54.6331286964
 20
-6.7165734346
 30
0.0
 10
54.6286572051
 20
-6.7165735339
 30
0.0
  0
SPLINE
  5
4F2
100
AcDbEntity
  8
0
100
AcDbSpline
 62
7
  6
CONTINUOUS
 70
0
 71
3
 72
17
 73
13
 74
0
 42
0.0000001
 43
0.0000001
 44
0.0000000001
 40
0.0
 40
0.0
 40
0.0
 40
0.0
 40
0.1341655017
 40
0.2649905088
 40
0.3927303475
 40
0.4555651072
 40
0.5177644712
 40
0.6404514855
 40
0.7011012981
 40
0.7613669052
 40
0.8810005192
 40
1.0
 40
1.0
 40
1.0
 40
1.0
 10
54.7303739778
 20
-7.1931599353
 30
0.0
 10
54.7266819137
 20
-7.1966275289
 30
0.0
 10
54.7191172801
 20
-7.2031941987
 30
0.0
 10
54.7071360398
 20
-7.2119566597
 30
0.0
 10
54.6967359958
 20
-7.2182419662
 30
0.0
 10
54.6882441528
 20
-7.2226027073
 30
0.0
 10
54.6797311055
 20
-7.2264809495
 30
0.0
 10
54.6710262574
 20
-7.2297176608
 30
0.0
 10
54.6621884807
 20
-7.2322731406
 30
0.0
 10
54.6533454889
 20
-7.2343554638
 30
0.0
 10
54.6421769617
 20
-7.2361043477
 30
0.0
 10
54.6331613609
 20
-7.2365730605
 30
0.0
 10
54.6286687914
 20
-7.2365731603
 30
0.0
  0
SPLINE
  5
4F3
100
AcDbEntity
  8
0
100
AcDbSpline
 62
7
  6
CONTINUOUS
 70
0
 71
3
 72
11
 73
7
 74
0
 42
0.0000001
 43
0.0000001
 44
0.0000000001
 40
0.0
 40
0.0
 40
0.0
 40
0.0
 40
0.2401732686
 40
0.4850365616
 40
0.7374846583
 40
1.0
 40
1.0
 40
1.0
 40
1.0
 10
54.6441486367
 20
-7.1930796981
 30
0.0
 10
54.6435437669
 20
-7.1930796981
 30
0.0
 10
54.6423193729
 20
-7.1931995659
 30
0.0
 10
54.6405267325
 20
-7.1937216489
 30
0.0
 10
54.6388038468
 20
-7.1945744242
 30
0.0
 10
54.6377410956
 20
-7.1953271571
 30
0.0
 10
54.637228726
 20
-7.1957449854
 30
0.0
  0
SPLINE
  5
4F4
100
AcDbEntity
  8
0
100
AcDbSpline
 62
7
  6
CONTINUOUS
 70
0
 71
3
 72
11
 73
7
 74
0
 42
0.0000001
 43
0.0000001
 44
0.0000000001
 40
0.0
 40
0.0
 40
0.0
 40
0.0
 40
0.2401732686
 40
0.4850365616
 40
0.7374846583
 40
1.0
 40
1.0
 40
1.0
 40
1.0
 10
54.6441486367
 20
-6.7600669962
 30
0.0
 10
54.6435437669
 20
-6.7600669962
 30
0.0
 10
54.6423193729
 20
-6.7599471283
 30
0.0
 10
54.6405267325
 20
-6.7594250453
 30
0.0
 10
54.6388038468
 20
-6.75857227
 30
0.0
 10
54.6377410956
 20
-6.7578195371
 30
0.0
 10
54.637228726
 20
-6.7574017088
 30
0.0
  0
SPLINE
  5
4F5
100
AcDbEntity
  8
0
100
AcDbSpline
 62
7
  6
CONTINUOUS
 70
0
 71
3
 72
23
 73
19
 74
0
 42
0.0000001
 43
0.0000001
 44
0.0000000001
 40
0.0
 40
0.0
 40
0.0
 40
0.0
 40
0.0552200583
 40
0.1106748871
 40
0.1665926736
 40
0.2231878726
 40
0.2806564376
 40
0.3391704851
 40
0.3988763535
 40
0.4598908728
 40
0.5223035786
 40
0.5861741968
 40
0.6515348273
 40
0.7183856123
 40
0.7867085174
 40
0.8564722864
 40
0.9276136373
 40
1.0
 40
1.0
 40
1.0
 40
1.0
 10
54.5933134523
 20
-7.2365731603
 30
0.0
 10
54.5893009683
 20
-7.2365732494
 30
0.0
 10
54.5812539789
 20
-7.2362006536
 30
0.0
 10
54.5692489444
 20
-7.234525035
 30
0.0
 10
54.5573482708
 20
-7.231741199
 30
0.0
 10
54.5456052077
 20
-7.2278613753
 30
0.0
 10
54.5340701971
 20
-7.2229034381
 30
0.0
 10
54.522792802
 20
-7.2168897989
 30
0.0
 10
54.5118214594
 20
-7.2098468535
 30
0.0
 10
54.5012022987
 20
-7.2018062725
 30
0.0
 10
54.4909809452
 20
-7.1928022853
 30
0.0
 10
54.4811997274
 20
-7.1828747111
 30
0.0
 10
54.4719012039
 20
-7.1720655659
 30
0.0
 10
54.4631231032
 20
-7.1604227267
 30
0.0
 10
54.4549036567
 20
-7.1479943123
 30
0.0
 10
54.4472759993
 20
-7.1348330478
 30
0.0
 10
54.4402753611
 20
-7.1209971481
 30
0.0
 10
54.4360788616
 20
-7.1114430203
 30
0.0
 10
54.4340908259
 20
-7.1065733471
 30
0.0
  0
SPLINE
  5
4F6
100
AcDbEntity
  8
0
100
AcDbSpline
 62
7
  6
CONTINUOUS
 70
0
 71
3
 72
33
 73
29
 74
0
 42
0.0000001
 43
0.0000001
 44
0.0000000001
 40
0.0
 40
0.0
 40
0.0
 40
0.0
 40
0.0248617031
 40
0.0498293083
 40
0.0750052916
 40
0.1004865152
 40
0.1263607673
 40
0.1527060222
 40
0.1795875392
 40
0.2070587667
 40
0.2351590604
 40
0.2639158084
 40
0.293342707
 40
0.3234424266
 40
0.3855854026
 40
0.4501825721
 40
0.5169033937
 40
0.585309275
 40
0.6548820701
 40
0.7250511664
 40
0.7601826356
 40
0.7952393726
 40
0.8301469022
 40
0.8648309296
 40
0.8992215798
 40
0.9332580601
 40
0.9668772299
 40
1.0
 40
1.0
 40
1.0
 40
1.0
 10
54.593301866
 20
-6.7165735339
 30
0.0
 10
54.589289563
 20
-6.716573623
 30
0.0
 10
54.5812429268
 20
-6.7169470766
 30
0.0
 10
54.5692385618
 20
-6.7186237414
 30
0.0
 10
54.5573384282
 20
-6.7214080511
 30
0.0
 10
54.5455962271
 20
-6.7252890433
 30
0.0
 10
54.5340616435
 20
-6.7302470012
 30
0.0
 10
54.5227853333
 20
-6.7362617336
 30
0.0
 10
54.5118142172
 20
-6.7433043524
 30
0.0
 10
54.5011963367
 20
-6.7513459145
 30
0.0
 10
54.4909750678
 20
-6.7603493951
 30
0.0
 10
54.4811953296
 20
-6.7702774663
 30
0.0
 10
54.4718964081
 20
-6.7810861378
 30
0.0
 10
54.4600701565
 20
-6.7967751235
 30
0.0
 10
54.4467489855
 20
-6.8183745745
 30
0.0
 10
54.4334420596
 20
-6.8466844081
 30
0.0
 10
54.4228555859
 20
-6.8771887108
 30
0.0
 10
54.415166238
 20
-6.9093704916
 30
0.0
 10
54.410500935
 20
-6.9426857245
 30
0.0
 10
54.4091980141
 20
-6.9709215799
 30
0.0
 10
54.4097221037
 20
-6.9935736376
 30
0.0
 10
54.4108994793
 20
-7.0105000135
 30
0.0
 10
54.4128569747
 20
-7.0272809773
 30
0.0
 10
54.4155845279
 20
-7.0438453992
 30
0.0
 10
54.4190723437
 20
-7.0601229359
 30
0.0
 10
54.4233048927
 20
-7.0760455035
 30
0.0
 10
54.4282648575
 20
-7.0915417292
 30
0.0
 10
54.4320704114
 20
-7.1016243625
 30
0.0
 10
54.4340908259
 20
-7.1065733471
 30
0.0
  0
SPLINE
  5
4F7
100
AcDbEntity
  8
0
100
AcDbSpline
 62
7
  6
CONTINUOUS
 70
0
 71
3
 72
17
 73
13
 74
0
 42
0.0000001
 43
0.0000001
 44
0.0000000001
 40
0.0
 40
0.0
 40
0.0
 40
0.0
 40
0.0507521541
 40
0.1062279752
 40
0.1656818145
 40
0.2283685672
 40
0.3603916239
 40
0.4965882669
 40
0.6320482742
 40
0.7629485808
 40
0.8864675634
 40
1.0
 40
1.0
 40
1.0
 40
1.0
 10
54.5115661153
 20
-7.0848265226
 30
0.0
 10
54.5109918119
 20
-7.0848265226
 30
0.0
 10
54.5097895258
 20
-7.0848811197
 30
0.0
 10
54.5079258389
 20
-7.0850952683
 30
0.0
 10
54.5059451805
 20
-7.0854430125
 30
0.0
 10
54.5031405495
 20
-7.0860844771
 30
0.0
 10
54.4995510638
 20
-7.0871669955
 30
0.0
 10
54.4952833443
 20
-7.0888054338
 30
0.0
 10
54.4911462574
 20
-7.0907197692
 30
0.0
 10
54.4872670694
 20
-7.0928278942
 30
0.0
 10
54.4837472201
 20
-7.0950577356
 30
0.0
 10
54.4815899743
 20
-7.0966579683
 30
0.0
 10
54.4805948382
 20
-7.0974704935
 30
0.0
  0
SPLINE
  5
4F8
100
AcDbEntity
  8
0
100
AcDbSpline
 62
7
  6
CONTINUOUS
 70
0
 71
3
 72
45
 73
41
 74
0
 42
0.0000001
 43
0.0000001
 44
0.0000000001
 40
0.0
 40
0.0
 40
0.0
 40
0.0
 40
0.0128513267
 40
0.0257402646
 40
0.038691441
 40
0.051730823
 40
0.0648871307
 40
0.0781878531
 40
0.1053036192
 40
0.1332505709
 40
0.1621439873
 40
0.1920543393
 40
0.2230077703
 40
0.2549895349
 40
0.287948694
 40
0.3218028922
 40
0.3564428168
 40
0.3917370601
 40
0.4275370898
 40
0.4636814477
 40
0.5
 40
0.5363185523
 40
0.5724629102
 40
0.6082629399
 40
0.6435571832
 40
0.6781971078
 40
0.712051306
 40
0.7450104651
 40
0.7769922297
 40
0.8079456607
 40
0.8378560127
 40
0.8667494291
 40
0.8946963808
 40
0.9218121469
 40
0.9351128693
 40
0.948269177
 40
0.961308559
 40
0.9742597354
 40
0.9871486733
 40
1.0
 40
1.0
 40
1.0
 40
1.0
 10
54.7630132866
 20
-6.7895733471
 30
0.0
 10
54.7651765196
 20
-6.7895733471
 30
0.0
 10
54.7695108059
 20
-6.7897243478
 30
0.0
 10
54.7759933037
 20
-6.7904012595
 30
0.0
 10
54.7824454541
 20
-6.7915274334
 30
0.0
 10
54.7888494124
 20
-6.7931009749
 30
0.0
 10
54.7951900467
 20
-6.7951168782
 30
0.0
 10
54.8035913757
 20
-6.7984086211
 30
0.0
 10
54.8138797045
 20
-6.8036365692
 30
0.0
 10
54.825637326
 20
-6.8115338331
 30
0.0
 10
54.8367812173
 20
-6.8210160346
 30
0.0
 10
54.8472056509
 20
-6.8319885895
 30
0.0
 10
54.8568135629
 20
-6.8443450135
 30
0.0
 10
54.8655155792
 20
-6.8579657072
 30
0.0
 10
54.8732305862
 20
-6.8727199589
 30
0.0
 10
54.8798859995
 20
-6.8884667885
 30
0.0
 10
54.88541908
 20
-6.9050557434
 30
0.0
 10
54.889777994
 20
-6.9223282047
 30
0.0
 10
54.8929214953
 20
-6.9401191894
 30
0.0
 10
54.8948194192
 20
-6.9582587239
 30
0.0
 10
54.8954539999
 20
-6.9765733471
 30
0.0
 10
54.8948194192
 20
-6.9948879703
 30
0.0
 10
54.8929214953
 20
-7.0130275048
 30
0.0
 10
54.889777994
 20
-7.0308184895
 30
0.0
 10
54.88541908
 20
-7.0480909508
 30
0.0
 10
54.8798859995
 20
-7.0646799057
 30
0.0
 10
54.8732305862
 20
-7.0804267353
 30
0.0
 10
54.8655155792
 20
-7.095180987
 30
0.0
 10
54.8568135629
 20
-7.1088016807
 30
0.0
 10
54.8472056509
 20
-7.1211581047
 30
0.0
 10
54.8367812173
 20
-7.1321306596
 30
0.0
 10
54.825637326
 20
-7.1416128611
 30
0.0
 10
54.8138797045
 20
-7.149510125
 30
0.0
 10
54.8035913757
 20
-7.1547380731
 30
0.0
 10
54.7951900467
 20
-7.158029816
 30
0.0
 10
54.7888494124
 20
-7.1600457193
 30
0.0
 10
54.7824454541
 20
-7.1616192608
 30
0.0
 10
54.7759933037
 20
-7.1627454347
 30
0.0
 10
54.7695108059
 20
-7.1634223464
 30
0.0
 10
54.7651765196
 20
-7.1635733471
 30
0.0
 10
54.7630132866
 20
-7.1635733471
 30
0.0
  0
SPLINE
  5
4F9
100
AcDbEntity
  8
0
100
AcDbSpline
 62
7
  6
CONTINUOUS
 70
0
 71
3
 72
17
 73
13
 74
0
 42
0.0000001
 43
0.0000001
 44
0.0000000001
 40
0.0
 40
0.0
 40
0.0
 40
0.0
 40
0.0507521541
 40
0.1062279752
 40
0.1656818145
 40
0.2283685672
 40
0.3603916239
 40
0.4965882669
 40
0.6320482742
 40
0.7629485808
 40
0.8864675634
 40
1.0
 40
1.0
 40
1.0
 40
1.0
 10
54.5115661153
 20
-6.8683201716
 30
0.0
 10
54.5109918119
 20
-6.8683201716
 30
0.0
 10
54.5097895258
 20
-6.8682655745
 30
0.0
 10
54.5079258389
 20
-6.8680514259
 30
0.0
 10
54.5059451805
 20
-6.8677036817
 30
0.0
 10
54.5031405495
 20
-6.8670622171
 30
0.0
 10
54.4995510638
 20
-6.8659796987
 30
0.0
 10
54.4952833443
 20
-6.8643412604
 30
0.0
 10
54.4911462574
 20
-6.862426925
 30
0.0
 10
54.4872670694
 20
-6.8603188
 30
0.0
 10
54.4837472201
 20
-6.8580889586
 30
0.0
 10
54.4815899743
 20
-6.8564887259
 30
0.0
 10
54.4805948382
 20
-6.8556762007
 30
0.0
  0
SPLINE
  5
4FA
100
AcDbEntity
  8
0
100
AcDbSpline
 62
7
  6
CONTINUOUS
 70
0
 71
3
 72
15
 73
11
 74
0
 42
0.0000001
 43
0.0000001
 44
0.0000000001
 40
0.0
 40
0.0
 40
0.0
 40
0.0
 40
0.1017444407
 40
0.2096088461
 40
0.3245474155
 40
0.4470525223
 40
0.5769030157
 40
0.7131920169
 40
0.8546475917
 40
1.0
 40
1.0
 40
1.0
 40
1.0
 10
54.7509673693
 20
-7.1930796981
 30
0.0
 10
54.7472776465
 20
-7.1885607289
 30
0.0
 10
54.739459846
 20
-7.1794250075
 30
0.0
 10
54.7266629745
 20
-7.165902915
 30
0.0
 10
54.712306643
 20
-7.152253814
 30
0.0
 10
54.696300836
 20
-7.1385522432
 30
0.0
 10
54.6786913171
 20
-7.1248832289
 30
0.0
 10
54.6596521437
 20
-7.1113194
 30
0.0
 10
54.6394320062
 20
-7.0979079805
 30
0.0
 10
54.6254924636
 20
-7.0891790306
 30
0.0
 10
54.6183848478
 20
-7.0848265226
 30
0.0
  0
SPLINE
  5
4FB
100
AcDbEntity
  8
0
100
AcDbSpline
 62
7
  6
CONTINUOUS
 70
0
 71
3
 72
45
 73
41
 74
0
 42
0.0000001
 43
0.0000001
 44
0.0000000001
 40
0.0
 40
0.0
 40
0.0
 40
0.0
 40
0.0128513267
 40
0.0257402646
 40
0.038691441
 40
0.051730823
 40
0.0648871307
 40
0.0781878531
 40
0.1053036192
 40
0.1332505709
 40
0.1621439873
 40
0.1920543393
 40
0.2230077703
 40
0.2549895349
 40
0.287948694
 40
0.3218028922
 40
0.3564428168
 40
0.3917370601
 40
0.4275370898
 40
0.4636814477
 40
0.5
 40
0.5363185523
 40
0.5724629102
 40
0.6082629399
 40
0.6435571832
 40
0.6781971078
 40
0.712051306
 40
0.7450104651
 40
0.7769922297
 40
0.8079456607
 40
0.8378560127
 40
0.8667494291
 40
0.8946963808
 40
0.9218121469
 40
0.9351128693
 40
0.948269177
 40
0.961308559
 40
0.9742597354
 40
0.9871486733
 40
1.0
 40
1.0
 40
1.0
 40
1.0
 10
54.7630132866
 20
-7.1635733471
 30
0.0
 10
54.7608500537
 20
-7.1635733471
 30
0.0
 10
54.7565157674
 20
-7.1634223464
 30
0.0
 10
54.7500332696
 20
-7.1627454347
 30
0.0
 10
54.7435811192
 20
-7.1616192608
 30
0.0
 10
54.7371771609
 20
-7.1600457193
 30
0.0
 10
54.7308365266
 20
-7.158029816
 30
0.0
 10
54.7224351976
 20
-7.1547380731
 30
0.0
 10
54.7121468688
 20
-7.149510125
 30
0.0
 10
54.7003892473
 20
-7.1416128611
 30
0.0
 10
54.689245356
 20
-7.1321306596
 30
0.0
 10
54.6788209224
 20
-7.1211581047
 30
0.0
 10
54.6692130104
 20
-7.1088016807
 30
0.0
 10
54.6605109941
 20
-7.095180987
 30
0.0
 10
54.6527959871
 20
-7.0804267353
 30
0.0
 10
54.6461405738
 20
-7.0646799057
 30
0.0
 10
54.6406074933
 20
-7.0480909508
 30
0.0
 10
54.6362485793
 20
-7.0308184895
 30
0.0
 10
54.6331050779
 20
-7.0130275048
 30
0.0
 10
54.6312071541
 20
-6.9948879703
 30
0.0
 10
54.6305725734
 20
-6.9765733471
 30
0.0
 10
54.6312071541
 20
-6.9582587239
 30
0.0
 10
54.6331050779
 20
-6.9401191894
 30
0.0
 10
54.6362485793
 20
-6.9223282047
 30
0.0
 10
54.6406074933
 20
-6.9050557434
 30
0.0
 10
54.6461405738
 20
-6.8884667885
 30
0.0
 10
54.6527959871
 20
-6.8727199589
 30
0.0
 10
54.6605109941
 20
-6.8579657072
 30
0.0
 10
54.6692130104
 20
-6.8443450135
 30
0.0
 10
54.6788209224
 20
-6.8319885895
 30
0.0
 10
54.689245356
 20
-6.8210160346
 30
0.0
 10
54.7003892473
 20
-6.8115338331
 30
0.0
 10
54.7121468688
 20
-6.8036365692
 30
0.0
 10
54.7224351976
 20
-6.7984086211
 30
0.0
 10
54.7308365266
 20
-6.7951168782
 30
0.0
 10
54.7371771609
 20
-6.7931009749
 30
0.0
 10
54.7435811192
 20
-6.7915274334
 30
0.0
 10
54.7500332696
 20
-6.7904012595
 30
0.0
 10
54.7565157674
 20
-6.7897243478
 30
0.0
 10
54.7608500537
 20
-6.7895733471
 30
0.0
 10
54.7630132866
 20
-6.7895733471
 30
0.0
  0
SPLINE
  5
4FC
100
AcDbEntity
  8
0
100
AcDbSpline
 62
7
  6
CONTINUOUS
 70
0
 71
3
 72
19
 73
15
 74
0
 42
0.0000001
 43
0.0000001
 44
0.0000000001
 40
0.0
 40
0.0
 40
0.0
 40
0.0
 40
0.1239135187
 40
0.2486584689
 40
0.3113153546
 40
0.3741210923
 40
0.4370327446
 40
0.5
 40
0.5629672554
 40
0.6258789077
 40
0.6886846454
 40
0.7513415311
 40
0.8760864813
 40
1.0
 40
1.0
 40
1.0
 40
1.0
 10
54.6183848478
 20
-7.0848265226
 30
0.0
 10
54.6201870689
 20
-7.0759974784
 30
0.0
 10
54.6234860363
 20
-7.0582130218
 30
0.0
 10
54.6266378476
 20
-7.0357848457
 30
0.0
 10
54.6284715354
 20
-7.0176801976
 30
0.0
 10
54.6294770399
 20
-7.0040165305
 30
0.0
 10
54.6300892542
 20
-6.9903069197
 30
0.0
 10
54.6302953648
 20
-6.9765733471
 30
0.0
 10
54.6300892542
 20
-6.9628397745
 30
0.0
 10
54.6294770399
 20
-6.9491301637
 30
0.0
 10
54.6284715354
 20
-6.9354664966
 30
0.0
 10
54.6266378476
 20
-6.9173618485
 30
0.0
 10
54.6234860363
 20
-6.8949336725
 30
0.0
 10
54.6201870689
 20
-6.8771492158
 30
0.0
 10
54.6183848478
 20
-6.8683201716
 30
0.0
  0
SPLINE
  5
4FD
100
AcDbEntity
  8
0
100
AcDbSpline
 62
7
  6
CONTINUOUS
 70
0
 71
3
 72
23
 73
19
 74
0
 42
0.0000001
 43
0.0000001
 44
0.0000000001
 40
0.0
 40
0.0
 40
0.0
 40
0.0
 40
0.0552200583
 40
0.1106748871
 40
0.1665926736
 40
0.2231878726
 40
0.2806564376
 40
0.3391704851
 40
0.3988763535
 40
0.4598908728
 40
0.5223035786
 40
0.5861741968
 40
0.6515348273
 40
0.7183856123
 40
0.7867085174
 40
0.8564722864
 40
0.9276136373
 40
1.0
 40
1.0
 40
1.0
 40
1.0
 10
54.6286687914
 20
-7.2365731603
 30
0.0
 10
54.6246563073
 20
-7.2365732494
 30
0.0
 10
54.616609318
 20
-7.2362006536
 30
0.0
 10
54.6046042835
 20
-7.234525035
 30
0.0
 10
54.5927036099
 20
-7.231741199
 30
0.0
 10
54.5809605467
 20
-7.2278613753
 30
0.0
 10
54.5694255362
 20
-7.2229034381
 30
0.0
 10
54.5581481411
 20
-7.2168897989
 30
0.0
 10
54.5471767985
 20
-7.2098468535
 30
0.0
 10
54.5365576377
 20
-7.2018062725
 30
0.0
 10
54.5263362843
 20
-7.1928022853
 30
0.0
 10
54.5165550664
 20
-7.1828747111
 30
0.0
 10
54.5072565429
 20
-7.1720655659
 30
0.0
 10
54.4984784423
 20
-7.1604227267
 30
0.0
 10
54.4902589958
 20
-7.1479943123
 30
0.0
 10
54.4826313383
 20
-7.1348330478
 30
0.0
 10
54.4756307001
 20
-7.1209971481
 30
0.0
 10
54.4714342007
 20
-7.1114430203
 30
0.0
 10
54.4694461649
 20
-7.1065733471
 30
0.0
  0
SPLINE
  5
4FE
100
AcDbEntity
  8
0
100
AcDbSpline
 62
7
  6
CONTINUOUS
 70
0
 71
3
 72
15
 73
11
 74
0
 42
0.0000001
 43
0.0000001
 44
0.0000000001
 40
0.0
 40
0.0
 40
0.0
 40
0.0
 40
0.1453524083
 40
0.2868079831
 40
0.4230969843
 40
0.5529474777
 40
0.6754525845
 40
0.7903911539
 40
0.8982555593
 40
1.0
 40
1.0
 40
1.0
 40
1.0
 10
54.6183848478
 20
-6.8683201716
 30
0.0
 10
54.6254924636
 20
-6.8639676636
 30
0.0
 10
54.6394320062
 20
-6.8552387137
 30
0.0
 10
54.6596521437
 20
-6.8418272942
 30
0.0
 10
54.6786913171
 20
-6.8282634653
 30
0.0
 10
54.696300836
 20
-6.814594451
 30
0.0
 10
54.712306643
 20
-6.8008928802
 30
0.0
 10
54.7266629745
 20
-6.7872437792
 30
0.0
 10
54.739459846
 20
-6.7737216868
 30
0.0
 10
54.7472776465
 20
-6.7645859653
 30
0.0
 10
54.7509673693
 20
-6.7600669962
 30
0.0
  0
SPLINE
  5
4FF
100
AcDbEntity
  8
0
100
AcDbSpline
 62
7
  6
CONTINUOUS
 70
0
 71
3
 72
33
 73
29
 74
0
 42
0.0000001
 43
0.0000001
 44
0.0000000001
 40
0.0
 40
0.0
 40
0.0
 40
0.0
 40
0.0248617031
 40
0.0498293083
 40
0.0750052916
 40
0.1004865152
 40
0.1263607673
 40
0.1527060222
 40
0.1795875392
 40
0.2070587667
 40
0.2351590604
 40
0.2639158084
 40
0.293342707
 40
0.3234424266
 40
0.3855854026
 40
0.4501825721
 40
0.5169033937
 40
0.585309275
 40
0.6548820701
 40
0.7250511664
 40
0.7601826356
 40
0.7952393726
 40
0.8301469022
 40
0.8648309296
 40
0.8992215798
 40
0.9332580601
 40
0.9668772299
 40
1.0
 40
1.0
 40
1.0
 40
1.0
 10
54.6286572051
 20
-6.7165735339
 30
0.0
 10
54.6246449021
 20
-6.716573623
 30
0.0
 10
54.6165982658
 20
-6.7169470766
 30
0.0
 10
54.6045939009
 20
-6.7186237414
 30
0.0
 10
54.5926937672
 20
-6.7214080511
 30
0.0
 10
54.5809515662
 20
-6.7252890433
 30
0.0
 10
54.5694169825
 20
-6.7302470012
 30
0.0
 10
54.5581406724
 20
-6.7362617336
 30
0.0
 10
54.5471695563
 20
-6.7433043524
 30
0.0
 10
54.5365516757
 20
-6.7513459145
 30
0.0
 10
54.5263304068
 20
-6.7603493951
 30
0.0
 10
54.5165506686
 20
-6.7702774663
 30
0.0
 10
54.5072517471
 20
-6.7810861378
 30
0.0
 10
54.4954254956
 20
-6.7967751235
 30
0.0
 10
54.4821043245
 20
-6.8183745745
 30
0.0
 10
54.4687973987
 20
-6.8466844081
 30
0.0
 10
54.458210925
 20
-6.8771887108
 30
0.0
 10
54.4505215771
 20
-6.9093704916
 30
0.0
 10
54.4458562741
 20
-6.9426857245
 30
0.0
 10
54.4445533532
 20
-6.9709215799
 30
0.0
 10
54.4450774427
 20
-6.9935736376
 30
0.0
 10
54.4462548184
 20
-7.0105000135
 30
0.0
 10
54.4482123138
 20
-7.0272809773
 30
0.0
 10
54.450939867
 20
-7.0438453992
 30
0.0
 10
54.4544276827
 20
-7.0601229359
 30
0.0
 10
54.4586602318
 20
-7.0760455035
 30
0.0
 10
54.4636201966
 20
-7.0915417292
 30
0.0
 10
54.4674257504
 20
-7.1016243625
 30
0.0
 10
54.4694461649
 20
-7.1065733471
 30
0.0
  0
SPLINE
  5
500
100
AcDbEntity
  8
0
100
AcDbSpline
 62
7
  6
CONTINUOUS
 70
0
 71
3
 72
15
 73
11
 74
0
 42
0.0000001
 43
0.0000001
 44
0.0000000001
 40
0.0
 40
0.0
 40
0.0
 40
0.0
 40
0.1093848924
 40
0.2247529651
 40
0.3455303054
 40
0.4709316038
 40
0.5999829275
 40
0.7318632405
 40
0.865594525
 40
1.0
 40
1.0
 40
1.0
 40
1.0
 10
54.637228726
 20
-7.1957449854
 30
0.0
 10
54.6365248454
 20
-7.1963189875
 30
0.0
 10
54.6351875369
 20
-7.1976355827
 30
0.0
 10
54.6334663924
 20
-7.1999417158
 30
0.0
 10
54.6319944303
 20
-7.2025666855
 30
0.0
 10
54.6307820882
 20
-7.2054429576
 30
0.0
 10
54.6298359153
 20
-7.2085131525
 30
0.0
 10
54.6291592902
 20
-7.211723901
 30
0.0
 10
54.6287534802
 20
-7.2150241572
 30
0.0
 10
54.6286629982
 20
-7.2172516321
 30
0.0
 10
54.6286629982
 20
-7.2183676398
 30
0.0
  0
SPLINE
  5
501
100
AcDbEntity
  8
0
100
AcDbSpline
 62
7
  6
CONTINUOUS
 70
0
 71
3
 72
15
 73
11
 74
0
 42
0.0000001
 43
0.0000001
 44
0.0000000001
 40
0.0
 40
0.0
 40
0.0
 40
0.0
 40
0.1093848924
 40
0.2247529651
 40
0.3455303054
 40
0.4709316038
 40
0.5999829275
 40
0.7318632405
 40
0.865594525
 40
1.0
 40
1.0
 40
1.0
 40
1.0
 10
54.637228726
 20
-6.7574017088
 30
0.0
 10
54.6365248454
 20
-6.7568277067
 30
0.0
 10
54.6351875369
 20
-6.7555111115
 30
0.0
 10
54.6334663924
 20
-6.7532049784
 30
0.0
 10
54.6319944303
 20
-6.7505800087
 30
0.0
 10
54.6307820882
 20
-6.7477037366
 30
0.0
 10
54.6298359153
 20
-6.7446335417
 30
0.0
 10
54.6291592902
 20
-6.7414227932
 30
0.0
 10
54.6287534802
 20
-6.738122537
 30
0.0
 10
54.6286629982
 20
-6.7358950621
 30
0.0
 10
54.6286629982
 20
-6.7347790544
 30
0.0
  0
SPLINE
  5
502
100
AcDbEntity
  8
0
100
AcDbSpline
 62
7
  6
CONTINUOUS
 70
0
 71
3
 72
35
 73
31
 74
0
 42
0.0000001
 43
0.0000001
 44
0.0000000001
 40
0.0
 40
0.0
 40
0.0
 40
0.0
 40
0.0625961662
 40
0.0939150299
 40
0.1252262965
 40
0.187813484
 40
0.2503913256
 40
0.2816841774
 40
0.3129721426
 40
0.344255045
 40
0.3755327096
 40
0.4068051403
 40
0.4380720506
 40
0.4693331449
 40
0.5005884668
 40
0.5318379348
 40
0.5630815115
 40
0.5943194349
 40
0.6255517515
 40
0.6567785977
 40
0.6880003636
 40
0.7192172369
 40
0.7504295337
 40
0.7816377737
 40
0.8128422591
 40
0.8440434548
 40
0.8752419698
 40
0.9064381901
 40
0.9376326914
 40
1.0
 40
1.0
 40
1.0
 40
1.0
 10
48.6756886671
 20
4.4529266529
 30
0.0
 10
48.6756886671
 20
4.4409885296
 30
0.0
 10
48.6748098658
 20
4.4230613448
 30
0.0
 10
48.6718981057
 20
4.39934998
 30
0.0
 10
48.6678287694
 20
4.3758093586
 30
0.0
 10
48.6605924353
 20
4.3468054475
 30
0.0
 10
48.6505557177
 20
4.3186509373
 30
0.0
 10
48.6409109697
 20
4.2968077
 30
0.0
 10
48.6328828935
 20
4.280799055
 30
0.0
 10
48.6240831253
 20
4.2652050842
 30
0.0
 10
48.6145314858
 20
4.2500633153
 30
0.0
 10
48.6042505282
 20
4.2354107407
 30
0.0
 10
48.5932666439
 20
4.221281432
 30
0.0
 10
48.5816049688
 20
4.2077104026
 30
0.0
 10
48.5692934899
 20
4.1947306058
 30
0.0
 10
48.5563631907
 20
4.182371981
 30
0.0
 10
48.5428438912
 20
4.1706656052
 30
0.0
 10
48.5287684
 20
4.159639578
 30
0.0
 10
48.5141715598
 20
4.1493191469
 30
0.0
 10
48.4990873184
 20
4.139730846
 30
0.0
 10
48.4835524823
 20
4.1308972541
 30
0.0
 10
48.4676050423
 20
4.1228384625
 30
0.0
 10
48.4512824257
 20
4.1155758387
 30
0.0
 10
48.4346245048
 20
4.109125897
 30
0.0
 10
48.4176716767
 20
4.1035032308
 30
0.0
 10
48.400464021
 20
4.0987235164
 30
0.0
 10
48.3830437704
 20
4.0947968496
 30
0.0
 10
48.3654518586
 20
4.0917320475
 30
0.0
 10
48.3418322994
 20
4.0888081934
 30
0.0
 10
48.3239720787
 20
4.0879266529
 30
0.0
 10
48.3120776023
 20
4.0879266529
 30
0.0
  0
SPLINE
  5
503
100
AcDbEntity
  8
0
100
AcDbSpline
 62
7
  6
CONTINUOUS
 70
0
 71
3
 72
35
 73
31
 74
0
 42
0.0000001
 43
0.0000001
 44
0.0000000001
 40
0.0
 40
0.0
 40
0.0
 40
0.0
 40
0.0623673086
 40
0.0935618099
 40
0.1247580302
 40
0.1559565452
 40
0.1871577409
 40
0.2183622263
 40
0.2495704663
 40
0.2807827631
 40
0.3119996364
 40
0.3432214023
 40
0.3744482485
 40
0.4056805651
 40
0.4369184885
 40
0.4681620652
 40
0.4994115332
 40
0.5306668551
 40
0.5619279494
 40
0.5931948597
 40
0.6244672904
 40
0.655744955
 40
0.6870278574
 40
0.7183158226
 40
0.7496086744
 40
0.812186516
 40
0.8747737035
 40
0.9060849701
 40
0.9374038338
 40
1.0
 40
1.0
 40
1.0
 40
1.0
 10
48.3120776023
 20
4.8179266529
 30
0.0
 10
48.3239720787
 20
4.8179266529
 30
0.0
 10
48.3418322994
 20
4.8170451124
 30
0.0
 10
48.3654518586
 20
4.8141212583
 30
0.0
 10
48.3830437704
 20
4.8110564562
 30
0.0
 10
48.400464021
 20
4.8071297894
 30
0.0
 10
48.4176716767
 20
4.802350075
 30
0.0
 10
48.4346245048
 20
4.7967274088
 30
0.0
 10
48.4512824257
 20
4.7902774671
 30
0.0
 10
48.4676050423
 20
4.7830148433
 30
0.0
 10
48.4835524823
 20
4.7749560517
 30
0.0
 10
48.4990873184
 20
4.7661224598
 30
0.0
 10
48.5141715598
 20
4.7565341589
 30
0.0
 10
48.5287684
 20
4.7462137278
 30
0.0
 10
48.5428438912
 20
4.7351877006
 30
0.0
 10
48.5563631907
 20
4.7234813248
 30
0.0
 10
48.5692934899
 20
4.7111227
 30
0.0
 10
48.5816049688
 20
4.6981429031
 30
0.0
 10
48.5932666439
 20
4.6845718738
 30
0.0
 10
48.6042505282
 20
4.6704425651
 30
0.0
 10
48.6145314858
 20
4.6557899905
 30
0.0
 10
48.6240831253
 20
4.6406482216
 30
0.0
 10
48.6328828935
 20
4.6250542507
 30
0.0
 10
48.6409109697
 20
4.6090456058
 30
0.0
 10
48.6505557177
 20
4.5872023685
 30
0.0
 10
48.6605924353
 20
4.5590478583
 30
0.0
 10
48.6678287694
 20
4.5300439472
 30
0.0
 10
48.6718981057
 20
4.5065033258
 30
0.0
 10
48.6748098658
 20
4.482791961
 30
0.0
 10
48.6756886671
 20
4.4648647762
 30
0.0
 10
48.6756886671
 20
4.4529266529
 30
0.0
  0
SPLINE
  5
504
100
AcDbEntity
  8
0
100
AcDbSpline
 62
7
  6
CONTINUOUS
 70
0
 71
3
 72
35
 73
31
 74
0
 42
0.0000001
 43
0.0000001
 44
0.0000000001
 40
0.0
 40
0.0
 40
0.0
 40
0.0
 40
0.0625961662
 40
0.0939150299
 40
0.1252262965
 40
0.187813484
 40
0.2503913256
 40
0.2816841774
 40
0.3129721426
 40
0.344255045
 40
0.3755327096
 40
0.4068051403
 40
0.4380720506
 40
0.4693331449
 40
0.5005884668
 40
0.5318379348
 40
0.5630815115
 40
0.5943194349
 40
0.6255517515
 40
0.6567785977
 40
0.6880003636
 40
0.7192172369
 40
0.7504295337
 40
0.7816377737
 40
0.8128422591
 40
0.8440434548
 40
0.8752419698
 40
0.9064381901
 40
0.9376326914
 40
1.0
 40
1.0
 40
1.0
 40
1.0
 10
47.9484665375
 20
4.4529266529
 30
0.0
 10
47.9484665375
 20
4.4648647762
 30
0.0
 10
47.9493453388
 20
4.482791961
 30
0.0
 10
47.9522570989
 20
4.5065033258
 30
0.0
 10
47.9563264353
 20
4.5300439472
 30
0.0
 10
47.9635627694
 20
4.5590478583
 30
0.0
 10
47.973599487
 20
4.5872023685
 30
0.0
 10
47.9832442349
 20
4.6090456058
 30
0.0
 10
47.9912723111
 20
4.6250542507
 30
0.0
 10
48.0000720794
 20
4.6406482216
 30
0.0
 10
48.0096237188
 20
4.6557899905
 30
0.0
 10
48.0199046765
 20
4.6704425651
 30
0.0
 10
48.0308885607
 20
4.6845718738
 30
0.0
 10
48.0425502358
 20
4.6981429031
 30
0.0
 10
48.0548617147
 20
4.7111227
 30
0.0
 10
48.0677920139
 20
4.7234813248
 30
0.0
 10
48.0813113135
 20
4.7351877006
 30
0.0
 10
48.0953868046
 20
4.7462137278
 30
0.0
 10
48.1099836449
 20
4.7565341589
 30
0.0
 10
48.1250678863
 20
4.7661224598
 30
0.0
 10
48.1406027223
 20
4.7749560517
 30
0.0
 10
48.1565501624
 20
4.7830148433
 30
0.0
 10
48.172872779
 20
4.7902774671
 30
0.0
 10
48.1895306998
 20
4.7967274088
 30
0.0
 10
48.206483528
 20
4.802350075
 30
0.0
 10
48.2236911837
 20
4.8071297894
 30
0.0
 10
48.2411114343
 20
4.8110564562
 30
0.0
 10
48.258703346
 20
4.8141212583
 30
0.0
 10
48.2823229053
 20
4.8170451124
 30
0.0
 10
48.300183126
 20
4.8179266529
 30
0.0
 10
48.3120776023
 20
4.8179266529
 30
0.0
  0
SPLINE
  5
505
100
AcDbEntity
  8
0
100
AcDbSpline
 62
7
  6
CONTINUOUS
 70
0
 71
3
 72
35
 73
31
 74
0
 42
0.0000001
 43
0.0000001
 44
0.0000000001
 40
0.0
 40
0.0
 40
0.0
 40
0.0
 40
0.0623673086
 40
0.0935618099
 40
0.1247580302
 40
0.1559565452
 40
0.1871577409
 40
0.2183622263
 40
0.2495704663
 40
0.2807827631
 40
0.3119996364
 40
0.3432214023
 40
0.3744482485
 40
0.4056805651
 40
0.4369184885
 40
0.4681620652
 40
0.4994115332
 40
0.5306668551
 40
0.5619279494
 40
0.5931948597
 40
0.6244672904
 40
0.655744955
 40
0.6870278574
 40
0.7183158226
 40
0.7496086744
 40
0.812186516
 40
0.8747737035
 40
0.9060849701
 40
0.9374038338
 40
1.0
 40
1.0
 40
1.0
 40
1.0
 10
48.3120776023
 20
4.0879266529
 30
0.0
 10
48.300183126
 20
4.0879266529
 30
0.0
 10
48.2823229053
 20
4.0888081934
 30
0.0
 10
48.258703346
 20
4.0917320475
 30
0.0
 10
48.2411114343
 20
4.0947968496
 30
0.0
 10
48.2236911837
 20
4.0987235164
 30
0.0
 10
48.206483528
 20
4.1035032308
 30
0.0
 10
48.1895306998
 20
4.109125897
 30
0.0
 10
48.172872779
 20
4.1155758387
 30
0.0
 10
48.1565501624
 20
4.1228384625
 30
0.0
 10
48.1406027223
 20
4.1308972541
 30
0.0
 10
48.1250678863
 20
4.139730846
 30
0.0
 10
48.1099836449
 20
4.1493191469
 30
0.0
 10
48.0953868046
 20
4.159639578
 30
0.0
 10
48.0813113135
 20
4.1706656052
 30
0.0
 10
48.0677920139
 20
4.182371981
 30
0.0
 10
48.0548617147
 20
4.1947306058
 30
0.0
 10
48.0425502358
 20
4.2077104026
 30
0.0
 10
48.0308885607
 20
4.221281432
 30
0.0
 10
48.0199046765
 20
4.2354107407
 30
0.0
 10
48.0096237188
 20
4.2500633153
 30
0.0
 10
48.0000720794
 20
4.2652050842
 30
0.0
 10
47.9912723111
 20
4.280799055
 30
0.0
 10
47.9832442349
 20
4.2968077
 30
0.0
 10
47.973599487
 20
4.3186509373
 30
0.0
 10
47.9635627694
 20
4.3468054475
 30
0.0
 10
47.9563264353
 20
4.3758093586
 30
0.0
 10
47.9522570989
 20
4.39934998
 30
0.0
 10
47.9493453388
 20
4.4230613448
 30
0.0
 10
47.9484665375
 20
4.4409885296
 30
0.0
 10
47.9484665375
 20
4.4529266529
 30
0.0
  0
SPLINE
  5
506
100
AcDbEntity
  8
0
100
AcDbSpline
 62
7
  6
CONTINUOUS
 70
0
 71
3
 72
15
 73
11
 74
0
 42
0.0000001
 43
0.0000001
 44
0.0000000001
 40
0.0
 40
0.0
 40
0.0
 40
0.0
 40
0.1252329505
 40
0.2504328687
 40
0.37556308
 40
0.5006107027
 40
0.62556535
 40
0.7504307989
 40
0.8752344591
 40
1.0
 40
1.0
 40
1.0
 40
1.0
 10
57.5158486541
 20
3.1129266529
 30
0.0
 10
57.5158486541
 20
3.1083527103
 30
0.0
 10
57.5167473778
 20
3.0991808652
 30
0.0
 10
57.520740173
 20
3.0859704558
 30
0.0
 10
57.5272244974
 20
3.0737898017
 30
0.0
 10
57.5359517101
 20
3.0631138373
 30
0.0
 10
57.5465863745
 20
3.0543512211
 30
0.0
 10
57.5587218743
 20
3.0478395487
 30
0.0
 10
57.5718848389
 20
3.0438294229
 30
0.0
 10
57.5810254118
 20
3.0429266529
 30
0.0
 10
57.585582283
 20
3.0429266529
 30
0.0
  0
SPLINE
  5
507
100
AcDbEntity
  8
0
100
AcDbSpline
 62
7
  6
CONTINUOUS
 70
0
 71
3
 72
15
 73
11
 74
0
 42
0.0000001
 43
0.0000001
 44
0.0000000001
 40
0.0
 40
0.0
 40
0.0
 40
0.0
 40
0.1252329505
 40
0.2504328687
 40
0.37556308
 40
0.5006107027
 40
0.62556535
 40
0.7504307989
 40
0.8752344591
 40
1.0
 40
1.0
 40
1.0
 40
1.0
 10
37.245788328
 20
3.1129266529
 30
0.0
 10
37.245788328
 20
3.1083527103
 30
0.0
 10
37.2448896044
 20
3.0991808652
 30
0.0
 10
37.2408968091
 20
3.0859704558
 30
0.0
 10
37.2344124848
 20
3.0737898017
 30
0.0
 10
37.225685272
 20
3.0631138373
 30
0.0
 10
37.2150506077
 20
3.0543512211
 30
0.0
 10
37.2029151079
 20
3.0478395487
 30
0.0
 10
37.1897521432
 20
3.0438294229
 30
0.0
 10
37.1806115703
 20
3.0429266529
 30
0.0
 10
37.1760546992
 20
3.0429266529
 30
0.0
  0
SPLINE
  5
508
100
AcDbEntity
  8
0
100
AcDbSpline
 62
7
  6
CONTINUOUS
 70
0
 71
3
 72
15
 73
11
 74
0
 42
0.0000001
 43
0.0000001
 44
0.0000000001
 40
0.0
 40
0.0
 40
0.0
 40
0.0
 40
0.1247655409
 40
0.2495692011
 40
0.37443465
 40
0.4993892973
 40
0.62443692
 40
0.7495671313
 40
0.8747670495
 40
1.0
 40
1.0
 40
1.0
 40
1.0
 10
37.2632104419
 20
3.0429266529
 30
0.0
 10
37.2677673131
 20
3.0429266529
 30
0.0
 10
37.276907886
 20
3.0438294229
 30
0.0
 10
37.2900708506
 20
3.0478395487
 30
0.0
 10
37.3022063504
 20
3.0543512211
 30
0.0
 10
37.3128410147
 20
3.0631138373
 30
0.0
 10
37.3215682275
 20
3.0737898017
 30
0.0
 10
37.3280525518
 20
3.0859704558
 30
0.0
 10
37.3320453471
 20
3.0991808652
 30
0.0
 10
37.3329440708
 20
3.1083527103
 30
0.0
 10
37.3329440708
 20
3.1129266529
 30
0.0
  0
SPLINE
  5
509
100
AcDbEntity
  8
0
100
AcDbSpline
 62
7
  6
CONTINUOUS
 70
0
 71
3
 72
28
 73
24
 74
0
 42
0.0000001
 43
0.0000001
 44
0.0000000001
 40
0.0
 40
0.0
 40
0.0
 40
0.0
 40
0.0021305426
 40
0.0044214873
 40
0.0070014036
 40
0.0099605939
 40
0.0172256425
 40
0.0264982361
 40
0.0378928926
 40
0.0514488124
 40
0.0671722808
 40
0.0850543774
 40
0.1050744273
 40
0.1271929998
 40
0.1775366568
 40
0.2356686756
 40
0.301049768
 40
0.3730845067
 40
0.451087418
 40
0.5343299542
 40
0.6220067751
 40
0.807332104
 40
1.0
 40
1.0
 40
1.0
 40
1.0
 10
48.7679044161
 20
3.0429266529
 30
0.0
 10
48.7678540768
 20
3.0429266529
 30
0.0
 10
48.767749121
 20
3.0429420913
 30
0.0
 10
48.7675962609
 20
3.0430091922
 30
0.0
 10
48.767445551
 20
3.0431183493
 30
0.0
 10
48.7672319748
 20
3.0433339907
 30
0.0
 10
48.7669735747
 20
3.0437193133
 30
0.0
 10
48.7666840199
 20
3.0443132635
 30
0.0
 10
48.7663965215
 20
3.0450699983
 30
0.0
 10
48.766111649
 20
3.0459882208
 30
0.0
 10
48.7658302632
 20
3.0470667325
 30
0.0
 10
48.7655532683
 20
3.0483033167
 30
0.0
 10
48.7652815143
 20
3.0496953216
 30
0.0
 10
48.7649108991
 20
3.0518489275
 30
0.0
 10
48.7644744425
 20
3.0549041131
 30
0.0
 10
48.7640010932
 20
3.0589848578
 30
0.0
 10
48.763563258
 20
3.0635846407
 30
0.0
 10
48.7631659095
 20
3.0686590961
 30
0.0
 10
48.7628128623
 20
3.0741597519
 30
0.0
 10
48.7625080732
 20
3.0800333806
 30
0.0
 10
48.7621634158
 20
3.0884436144
 30
0.0
 10
48.7618788265
 20
3.0994432129
 30
0.0
 10
48.7618035141
 20
3.108374401
 30
0.0
 10
48.7618035141
 20
3.1129266529
 30
0.0
  0
SPLINE
  5
50A
100
AcDbEntity
  8
0
100
AcDbSpline
 62
7
  6
CONTINUOUS
 70
0
 71
3
 72
28
 73
24
 74
0
 42
0.0000001
 43
0.0000001
 44
0.0000000001
 40
0.0
 40
0.0
 40
0.0
 40
0.0
 40
0.192667896
 40
0.3779932249
 40
0.4656700458
 40
0.548912582
 40
0.6269154933
 40
0.698950232
 40
0.7643313244
 40
0.8224633432
 40
0.8728070002
 40
0.8949255727
 40
0.9149456226
 40
0.9328277192
 40
0.9485511876
 40
0.9621071074
 40
0.9735017639
 40
0.9827743575
 40
0.9900394061
 40
0.9929985964
 40
0.9955785127
 40
0.9978694574
 40
1.0
 40
1.0
 40
1.0
 40
1.0
 10
47.765608816
 20
3.1129266529
 30
0.0
 10
47.765608816
 20
3.108374401
 30
0.0
 10
47.7656841284
 20
3.0994432129
 30
0.0
 10
47.7659687177
 20
3.0884436144
 30
0.0
 10
47.7663133752
 20
3.0800333806
 30
0.0
 10
47.7666181642
 20
3.0741597519
 30
0.0
 10
47.7669712114
 20
3.0686590961
 30
0.0
 10
47.76736856
 20
3.0635846407
 30
0.0
 10
47.7678063951
 20
3.0589848578
 30
0.0
 10
47.7682797444
 20
3.0549041131
 30
0.0
 10
47.768716201
 20
3.0518489275
 30
0.0
 10
47.7690868163
 20
3.0496953216
 30
0.0
 10
47.7693585702
 20
3.0483033167
 30
0.0
 10
47.7696355651
 20
3.0470667325
 30
0.0
 10
47.7699169509
 20
3.0459882208
 30
0.0
 10
47.7702018234
 20
3.0450699983
 30
0.0
 10
47.7704893218
 20
3.0443132635
 30
0.0
 10
47.7707788766
 20
3.0437193133
 30
0.0
 10
47.7710372767
 20
3.0433339907
 30
0.0
 10
47.7712508529
 20
3.0431183493
 30
0.0
 10
47.7714015628
 20
3.0430091922
 30
0.0
 10
47.7715544229
 20
3.0429420913
 30
0.0
 10
47.7716593787
 20
3.0429266529
 30
0.0
 10
47.771709718
 20
3.0429266529
 30
0.0
  0
SPLINE
  5
50B
100
AcDbEntity
  8
0
100
AcDbSpline
 62
3
  6
CONTINUOUS
 70
0
 71
3
 72
15
 73
11
 74
0
 42
0.0000001
 43
0.0000001
 44
0.0000000001
 40
0.0
 40
0.0
 40
0.0
 40
0.0
 40
0.1252329505
 40
0.2504328687
 40
0.37556308
 40
0.5006107027
 40
0.62556535
 40
0.7504307989
 40
0.8752344591
 40
1.0
 40
1.0
 40
1.0
 40
1.0
 10
57.4461150252
 20
3.1129266529
 30
0.0
 10
57.4461150252
 20
3.1037787677
 30
0.0
 10
57.4479124726
 20
3.0854350774
 30
0.0
 10
57.4558980631
 20
3.0590142587
 30
0.0
 10
57.4688667118
 20
3.0346529505
 30
0.0
 10
57.4863211373
 20
3.0133010218
 30
0.0
 10
57.5075904659
 20
2.9957757893
 30
0.0
 10
57.5318614655
 20
2.9827524445
 30
0.0
 10
57.5581873948
 20
2.974732193
 30
0.0
 10
57.5764685406
 20
2.9729266529
 30
0.0
 10
57.585582283
 20
2.9729266529
 30
0.0
  0
SPLINE
  5
50C
100
AcDbEntity
  8
0
100
AcDbSpline
 62
3
  6
CONTINUOUS
 70
0
 71
3
 72
15
 73
11
 74
0
 42
0.0000001
 43
0.0000001
 44
0.0000000001
 40
0.0
 40
0.0
 40
0.0
 40
0.0
 40
0.1247655409
 40
0.2495692011
 40
0.37443465
 40
0.4993892973
 40
0.62443692
 40
0.7495671313
 40
0.8747670495
 40
1.0
 40
1.0
 40
1.0
 40
1.0
 10
37.2632104419
 20
2.9729266529
 30
0.0
 10
37.2723241843
 20
2.9729266529
 30
0.0
 10
37.29060533
 20
2.974732193
 30
0.0
 10
37.3169312593
 20
2.9827524445
 30
0.0
 10
37.3412022589
 20
2.9957757893
 30
0.0
 10
37.3624715876
 20
3.0133010218
 30
0.0
 10
37.3799260131
 20
3.0346529505
 30
0.0
 10
37.3928946618
 20
3.0590142587
 30
0.0
 10
37.4008802523
 20
3.0854350774
 30
0.0
 10
37.4026776996
 20
3.1037787677
 30
0.0
 10
37.4026776996
 20
3.1129266529
 30
0.0
  0
SPLINE
  5
50D
100
AcDbEntity
  8
0
100
AcDbSpline
 62
3
  6
CONTINUOUS
 70
0
 71
3
 72
31
 73
27
 74
0
 42
0.0000001
 43
0.0000001
 44
0.0000000001
 40
0.0
 40
0.0
 40
0.0
 40
0.0
 40
0.192665234
 40
0.3779880023
 40
0.4656636119
 40
0.548904998
 40
0.6269068315
 40
0.698940575
 40
0.7643207641
 40
0.8224519797
 40
0.8486260807
 40
0.8727965254
 40
0.8949147923
 40
0.9149345655
 40
0.9328164152
 40
0.9485396663
 40
0.9620953988
 40
0.9734898979
 40
0.9783881466
 40
0.9827663539
 40
0.9866416585
 40
0.9900395437
 40
0.9929986931
 40
0.9955785738
 40
0.9978694868
 40
1.0
 40
1.0
 40
1.0
 40
1.0
 10
47.7595079141
 20
3.1129266529
 30
0.0
 10
47.7595079141
 20
3.103822149
 30
0.0
 10
47.7596585391
 20
3.0859597731
 30
0.0
 10
47.7602277166
 20
3.0639605756
 30
0.0
 10
47.7609170335
 20
3.0471401091
 30
0.0
 10
47.761526606
 20
3.0353928486
 30
0.0
 10
47.7622327195
 20
3.0243915471
 30
0.0
 10
47.7630273531
 20
3.0142426033
 30
0.0
 10
47.7639032284
 20
3.0050431435
 30
0.0
 10
47.7647177674
 20
2.9980159615
 30
0.0
 10
47.7654138927
 20
2.9929371923
 30
0.0
 10
47.7659323078
 20
2.9895522227
 30
0.0
 10
47.7664639496
 20
2.9864639956
 30
0.0
 10
47.7670074113
 20
2.9836799774
 30
0.0
 10
47.7675614244
 20
2.9812068188
 30
0.0
 10
47.7681241512
 20
2.979049769
 30
0.0
 10
47.768694024
 20
2.977213402
 30
0.0
 10
47.7691952071
 20
2.9758931826
 30
0.0
 10
47.7696071179
 20
2.975006992
 30
0.0
 10
47.7699015147
 20
2.9744591601
 30
0.0
 10
47.7701969717
 20
2.9739938351
 30
0.0
 10
47.7704936516
 20
2.9736108712
 30
0.0
 10
47.7707920296
 20
2.9733100893
 30
0.0
 10
47.7710933982
 20
2.9730917219
 30
0.0
 10
47.77139913
 20
2.9729575322
 30
0.0
 10
47.7716090394
 20
2.9729266529
 30
0.0
 10
47.771709718
 20
2.9729266529
 30
0.0
  0
LINE
  5
50E
100
AcDbEntity
  8
0
100
AcDbLine
 62
7
  6
CONTINUOUS
 10
8.0351436609
 20
-32.449295358
 11
8.0132436609
 21
-32.4366513871
  0
LINE
  5
50F
100
AcDbEntity
  8
0
100
AcDbLine
 62
7
  6
CONTINUOUS
 10
8.2226436609
 20
-32.3410421826
 11
8.2226436609
 21
-32.3157542408
  0
LINE
  5
510
100
AcDbEntity
  8
0
100
AcDbLine
 62
7
  6
CONTINUOUS
 10
8.0351436609
 20
-32.665801709
 11
8.0132436609
 21
-32.6784456799
  0
LINE
  5
511
100
AcDbEntity
  8
0
100
AcDbLine
 62
7
  6
CONTINUOUS
 10
8.2226436609
 20
-32.7740548845
 11
8.2226436609
 21
-32.7993428262
  0
LINE
  5
512
100
AcDbEntity
  8
0
100
AcDbLine
 62
7
  6
CONTINUOUS
 10
8.4101436609
 20
-32.665801709
 11
8.4320436609
 21
-32.6784456799
  0
LINE
  5
513
100
AcDbEntity
  8
0
100
AcDbLine
 62
7
  6
CONTINUOUS
 10
8.4101436609
 20
-32.449295358
 11
8.4320436609
 21
-32.4366513871
  0
LINE
  5
514
100
AcDbEntity
  8
0
100
AcDbLine
 62
7
  6
CONTINUOUS
 10
8.0351436609
 20
-45.1772174194
 11
8.0132436609
 21
-45.1645734485
  0
LINE
  5
515
100
AcDbEntity
  8
0
100
AcDbLine
 62
7
  6
CONTINUOUS
 10
8.2226436609
 20
-45.0689642439
 11
8.2226436609
 21
-45.0436763021
  0
LINE
  5
516
100
AcDbEntity
  8
0
100
AcDbLine
 62
7
  6
CONTINUOUS
 10
8.0351436609
 20
-45.3937237703
 11
8.0132436609
 21
-45.4063677412
  0
LINE
  5
517
100
AcDbEntity
  8
0
100
AcDbLine
 62
7
  6
CONTINUOUS
 10
8.2226436609
 20
-45.5019769458
 11
8.2226436609
 21
-45.5272648876
  0
LINE
  5
518
100
AcDbEntity
  8
0
100
AcDbLine
 62
7
  6
CONTINUOUS
 10
8.4101436609
 20
-45.3937237703
 11
8.4320436609
 21
-45.4063677412
  0
LINE
  5
519
100
AcDbEntity
  8
0
100
AcDbLine
 62
7
  6
CONTINUOUS
 10
8.4101436609
 20
-45.1772174194
 11
8.4320436609
 21
-45.1645734485
  0
LINE
  5
51A
100
AcDbEntity
  8
0
100
AcDbLine
 62
7
  6
CONTINUOUS
 10
6.9744834891
 20
-33.5099555298
 11
6.9525834891
 21
-33.4973115589
  0
LINE
  5
51B
100
AcDbEntity
  8
0
100
AcDbLine
 62
7
  6
CONTINUOUS
 10
7.1619834891
 20
-33.4017023543
 11
7.1619834891
 21
-33.3764144126
  0
LINE
  5
51C
100
AcDbEntity
  8
0
100
AcDbLine
 62
7
  6
CONTINUOUS
 10
6.9744834891
 20
-33.7264618808
 11
6.9525834891
 21
-33.7391058517
  0
LINE
  5
51D
100
AcDbEntity
  8
0
100
AcDbLine
 62
7
  6
CONTINUOUS
 10
7.1619834891
 20
-33.8347150562
 11
7.1619834891
 21
-33.860002998
  0
LINE
  5
51E
100
AcDbEntity
  8
0
100
AcDbLine
 62
7
  6
CONTINUOUS
 10
7.3494834891
 20
-33.7264618808
 11
7.3713834891
 21
-33.7391058517
  0
LINE
  5
51F
100
AcDbEntity
  8
0
100
AcDbLine
 62
7
  6
CONTINUOUS
 10
7.3494834891
 20
-33.5099555298
 11
7.3713834891
 21
-33.4973115589
  0
LINE
  5
520
100
AcDbEntity
  8
0
100
AcDbLine
 62
7
  6
CONTINUOUS
 10
6.9744834891
 20
-44.1165572476
 11
6.9525834891
 21
-44.1039132767
  0
LINE
  5
521
100
AcDbEntity
  8
0
100
AcDbLine
 62
7
  6
CONTINUOUS
 10
7.1619834891
 20
-44.0083040721
 11
7.1619834891
 21
-43.9830161303
  0
LINE
  5
522
100
AcDbEntity
  8
0
100
AcDbLine
 62
7
  6
CONTINUOUS
 10
6.9744834891
 20
-44.3330635986
 11
6.9525834891
 21
-44.3457075695
  0
LINE
  5
523
100
AcDbEntity
  8
0
100
AcDbLine
 62
7
  6
CONTINUOUS
 10
7.1619834891
 20
-44.441316774
 11
7.1619834891
 21
-44.4666047158
  0
LINE
  5
524
100
AcDbEntity
  8
0
100
AcDbLine
 62
7
  6
CONTINUOUS
 10
7.3494834891
 20
-44.3330635986
 11
7.3713834891
 21
-44.3457075695
  0
LINE
  5
525
100
AcDbEntity
  8
0
100
AcDbLine
 62
7
  6
CONTINUOUS
 10
7.3494834891
 20
-44.1165572476
 11
7.3713834891
 21
-44.1039132767
  0
LINE
  5
526
100
AcDbEntity
  8
0
100
AcDbLine
 62
7
  6
CONTINUOUS
 10
-3.6321182287
 20
-44.1165572476
 11
-3.6540182287
 21
-44.1039132767
  0
LINE
  5
527
100
AcDbEntity
  8
0
100
AcDbLine
 62
7
  6
CONTINUOUS
 10
-3.4446182287
 20
-44.0083040721
 11
-3.4446182287
 21
-43.9830161303
  0
LINE
  5
528
100
AcDbEntity
  8
0
100
AcDbLine
 62
7
  6
CONTINUOUS
 10
-3.6321182287
 20
-44.3330635986
 11
-3.6540182287
 21
-44.3457075695
  0
LINE
  5
529
100
AcDbEntity
  8
0
100
AcDbLine
 62
7
  6
CONTINUOUS
 10
-3.4446182287
 20
-44.441316774
 11
-3.4446182287
 21
-44.4666047158
  0
LINE
  5
52A
100
AcDbEntity
  8
0
100
AcDbLine
 62
7
  6
CONTINUOUS
 10
-3.2571182287
 20
-44.3330635986
 11
-3.2352182287
 21
-44.3457075695
  0
LINE
  5
52B
100
AcDbEntity
  8
0
100
AcDbLine
 62
7
  6
CONTINUOUS
 10
-3.2571182287
 20
-44.1165572476
 11
-3.2352182287
 21
-44.1039132767
  0
LINE
  5
52C
100
AcDbEntity
  8
0
100
AcDbLine
 62
7
  6
CONTINUOUS
 10
-3.6321182287
 20
-33.5099555298
 11
-3.6540182287
 21
-33.4973115589
  0
LINE
  5
52D
100
AcDbEntity
  8
0
100
AcDbLine
 62
7
  6
CONTINUOUS
 10
-3.4446182287
 20
-33.4017023543
 11
-3.4446182287
 21
-33.3764144126
  0
LINE
  5
52E
100
AcDbEntity
  8
0
100
AcDbLine
 62
7
  6
CONTINUOUS
 10
-3.6321182287
 20
-33.7264618808
 11
-3.6540182287
 21
-33.7391058517
  0
LINE
  5
52F
100
AcDbEntity
  8
0
100
AcDbLine
 62
7
  6
CONTINUOUS
 10
-3.4446182287
 20
-33.8347150562
 11
-3.4446182287
 21
-33.860002998
  0
LINE
  5
530
100
AcDbEntity
  8
0
100
AcDbLine
 62
7
  6
CONTINUOUS
 10
-3.2571182287
 20
-33.7264618808
 11
-3.2352182287
 21
-33.7391058517
  0
LINE
  5
531
100
AcDbEntity
  8
0
100
AcDbLine
 62
7
  6
CONTINUOUS
 10
-3.2571182287
 20
-33.5099555298
 11
-3.2352182287
 21
-33.4973115589
  0
LINE
  5
532
100
AcDbEntity
  8
0
100
AcDbLine
 62
7
  6
CONTINUOUS
 10
-4.6927784005
 20
-32.449295358
 11
-4.7146784005
 21
-32.4366513871
  0
LINE
  5
533
100
AcDbEntity
  8
0
100
AcDbLine
 62
7
  6
CONTINUOUS
 10
-4.5052784005
 20
-32.3410421826
 11
-4.5052784005
 21
-32.3157542408
  0
LINE
  5
534
100
AcDbEntity
  8
0
100
AcDbLine
 62
7
  6
CONTINUOUS
 10
-4.6927784005
 20
-32.665801709
 11
-4.7146784005
 21
-32.6784456799
  0
LINE
  5
535
100
AcDbEntity
  8
0
100
AcDbLine
 62
7
  6
CONTINUOUS
 10
-4.5052784005
 20
-32.7740548845
 11
-4.5052784005
 21
-32.7993428262
  0
LINE
  5
536
100
AcDbEntity
  8
0
100
AcDbLine
 62
7
  6
CONTINUOUS
 10
-4.3177784005
 20
-32.665801709
 11
-4.2958784005
 21
-32.6784456799
  0
LINE
  5
537
100
AcDbEntity
  8
0
100
AcDbLine
 62
7
  6
CONTINUOUS
 10
-4.3177784005
 20
-32.449295358
 11
-4.2958784005
 21
-32.4366513871
  0
LINE
  5
538
100
AcDbEntity
  8
0
100
AcDbLine
 62
7
  6
CONTINUOUS
 10
-4.6927784005
 20
-45.1772174194
 11
-4.7146784005
 21
-45.1645734485
  0
LINE
  5
539
100
AcDbEntity
  8
0
100
AcDbLine
 62
7
  6
CONTINUOUS
 10
-4.5052784005
 20
-45.0689642439
 11
-4.5052784005
 21
-45.0436763021
  0
LINE
  5
53A
100
AcDbEntity
  8
0
100
AcDbLine
 62
7
  6
CONTINUOUS
 10
-4.6927784005
 20
-45.3937237703
 11
-4.7146784005
 21
-45.4063677412
  0
LINE
  5
53B
100
AcDbEntity
  8
0
100
AcDbLine
 62
7
  6
CONTINUOUS
 10
-4.5052784005
 20
-45.5019769458
 11
-4.5052784005
 21
-45.5272648876
  0
LINE
  5
53C
100
AcDbEntity
  8
0
100
AcDbLine
 62
7
  6
CONTINUOUS
 10
-4.3177784005
 20
-45.3937237703
 11
-4.2958784005
 21
-45.4063677412
  0
LINE
  5
53D
100
AcDbEntity
  8
0
100
AcDbLine
 62
7
  6
CONTINUOUS
 10
-4.3177784005
 20
-45.1772174194
 11
-4.2958784005
 21
-45.1645734485
  0
SPLINE
  5
53E
100
AcDbEntity
  8
0
100
AcDbSpline
 62
7
  6
CONTINUOUS
 70
0
 71
3
 72
15
 73
11
 74
0
 42
0.0000001
 43
0.0000001
 44
0.0000000001
 40
0.0
 40
0.0
 40
0.0
 40
0.0
 40
0.1261099833
 40
0.2512738785
 40
0.3757984041
 40
0.5
 40
0.6242015959
 40
0.7487261215
 40
0.8738900167
 40
1.0
 40
1.0
 40
1.0
 40
1.0
 10
3.2472479246
 20
-38.9215095642
 30
0.0
 10
3.2498728743
 20
-38.9125455202
 30
0.0
 10
3.2544879149
 20
-38.8944974131
 30
0.0
 10
3.2594674006
 20
-38.8670897861
 30
0.0
 10
3.2624608186
 20
-38.8395352278
 30
0.0
 10
3.263459464
 20
-38.8119080131
 30
0.0
 10
3.2624608186
 20
-38.7842807984
 30
0.0
 10
3.2594674006
 20
-38.7567262401
 30
0.0
 10
3.2544879149
 20
-38.7293186131
 30
0.0
 10
3.2498728743
 20
-38.711270506
 30
0.0
 10
3.2472479246
 20
-38.702306462
 30
0.0
  0
SPLINE
  5
53F
100
AcDbEntity
  8
0
100
AcDbSpline
 62
7
  6
CONTINUOUS
 70
0
 71
3
 72
15
 73
11
 74
0
 42
0.0000001
 43
0.0000001
 44
0.0000000001
 40
0.0
 40
0.0
 40
0.0
 40
0.0
 40
0.1252146822
 40
0.2499116931
 40
0.3743170529
 40
0.498661262
 40
0.6231754954
 40
0.7480888588
 40
0.8736249174
 40
1.0
 40
1.0
 40
1.0
 40
1.0
 10
3.2555684691
 20
-39.1069360095
 30
0.0
 10
3.2571052531
 20
-39.0992658959
 30
0.0
 10
3.2597164056
 20
-39.0838617502
 30
0.0
 10
3.2622261004
 20
-39.0605983034
 30
0.0
 10
3.2633142938
 20
-39.037278675
 30
0.0
 10
3.2629786897
 20
-39.0139476938
 30
0.0
 10
3.2612200181
 20
-38.9906489002
 30
0.0
 10
3.2580415431
 20
-38.9674258082
 30
0.0
 10
3.2534496602
 20
-38.9443229104
 30
0.0
 10
3.2494666668
 20
-38.9290864343
 30
0.0
 10
3.2472479246
 20
-38.9215095642
 30
0.0
  0
SPLINE
  5
540
100
AcDbEntity
  8
0
100
AcDbSpline
 62
7
  6
CONTINUOUS
 70
0
 71
3
 72
15
 73
11
 74
0
 42
0.0000001
 43
0.0000001
 44
0.0000000001
 40
0.0
 40
0.0
 40
0.0
 40
0.0
 40
0.1261099833
 40
0.2512738785
 40
0.3757984041
 40
0.5
 40
0.6242015959
 40
0.7487261215
 40
0.8738900167
 40
1.0
 40
1.0
 40
1.0
 40
1.0
 10
1.8586826302
 20
-40.3100748586
 30
0.0
 10
1.8676466742
 20
-40.3126998083
 30
0.0
 10
1.8856947813
 20
-40.3173148488
 30
0.0
 10
1.9131024083
 20
-40.3222943346
 30
0.0
 10
1.9406569666
 20
-40.3252877526
 30
0.0
 10
1.9682841813
 20
-40.326286398
 30
0.0
 10
1.9959113959
 20
-40.3252877526
 30
0.0
 10
2.0234659543
 20
-40.3222943346
 30
0.0
 10
2.0508735812
 20
-40.3173148488
 30
0.0
 10
2.0689216884
 20
-40.3126998083
 30
0.0
 10
2.0778857324
 20
-40.3100748586
 30
0.0
  0
SPLINE
  5
541
100
AcDbEntity
  8
0
100
AcDbSpline
 62
7
  6
CONTINUOUS
 70
0
 71
3
 72
15
 73
11
 74
0
 42
0.0000001
 43
0.0000001
 44
0.0000000001
 40
0.0
 40
0.0
 40
0.0
 40
0.0
 40
0.1252146822
 40
0.2499116931
 40
0.3743170529
 40
0.498661262
 40
0.6231754954
 40
0.7480888588
 40
0.8736249174
 40
1.0
 40
1.0
 40
1.0
 40
1.0
 10
1.6732561849
 20
-40.3183954031
 30
0.0
 10
1.6809262985
 20
-40.3199321871
 30
0.0
 10
1.6963304441
 20
-40.3225433396
 30
0.0
 10
1.719593891
 20
-40.3250530344
 30
0.0
 10
1.7429135194
 20
-40.3261412278
 30
0.0
 10
1.7662445006
 20
-40.3258056237
 30
0.0
 10
1.7895432941
 20
-40.3240469521
 30
0.0
 10
1.8127663862
 20
-40.3208684771
 30
0.0
 10
1.835869284
 20
-40.3162765942
 30
0.0
 10
1.8511057601
 20
-40.3122936008
 30
0.0
 10
1.8586826302
 20
-40.3100748586
 30
0.0
  0
LINE
  5
542
100
AcDbEntity
  8
0
100
AcDbLine
 62
7
  6
CONTINUOUS
 10
2.3556398302
 20
-38.3548969836
 11
3.3019977214
 21
-37.3620658193
  0
LINE
  5
543
100
AcDbEntity
  8
0
100
AcDbLine
 62
7
  6
CONTINUOUS
 10
3.3019977214
 20
-37.3620658193
 11
3.5472929889
 21
-37.1047220952
  0
LINE
  5
544
100
AcDbEntity
  8
0
100
AcDbLine
 62
7
  6
CONTINUOUS
 10
2.4252952107
 20
-38.4245523642
 11
3.418126375
 21
-37.4781944729
  0
LINE
  5
545
100
AcDbEntity
  8
0
100
AcDbLine
 62
7
  6
CONTINUOUS
 10
3.418126375
 20
-37.4781944729
 11
3.6754700991
 21
-37.2328992054
  0
LINE
  5
546
100
AcDbEntity
  8
0
100
AcDbLine
 62
7
  6
CONTINUOUS
 10
1.2920700496
 20
-38.4245523642
 11
0.2992388853
 21
-37.4781944729
  0
LINE
  5
547
100
AcDbEntity
  8
0
100
AcDbLine
 62
7
  6
CONTINUOUS
 10
0.2992388853
 20
-37.4781944729
 11
0.0418951612
 21
-37.2328992054
  0
LINE
  5
548
100
AcDbEntity
  8
0
100
AcDbLine
 62
7
  6
CONTINUOUS
 10
1.3617254302
 20
-38.3548969836
 11
0.4153675389
 21
-37.3620658193
  0
LINE
  5
549
100
AcDbEntity
  8
0
100
AcDbLine
 62
7
  6
CONTINUOUS
 10
0.4153675389
 20
-37.3620658193
 11
0.1700722714
 21
-37.1047220952
  0
LINE
  5
54A
100
AcDbEntity
  8
0
100
AcDbLine
 62
7
  6
CONTINUOUS
 10
1.3617254302
 20
-39.4881221447
 11
0.4153675389
 21
-40.480953309
  0
LINE
  5
54B
100
AcDbEntity
  8
0
100
AcDbLine
 62
7
  6
CONTINUOUS
 10
0.4153675389
 20
-40.480953309
 11
0.1700722714
 21
-40.7382970331
  0
LINE
  5
54C
100
AcDbEntity
  8
0
100
AcDbLine
 62
7
  6
CONTINUOUS
 10
1.2920700496
 20
-39.4184667641
 11
0.2992388853
 21
-40.3648246554
  0
LINE
  5
54D
100
AcDbEntity
  8
0
100
AcDbLine
 62
7
  6
CONTINUOUS
 10
0.2992388853
 20
-40.3648246554
 11
0.0418951612
 21
-40.6101199229
  0
LINE
  5
54E
100
AcDbEntity
  8
0
100
AcDbLine
 62
7
  6
CONTINUOUS
 10
2.4252952107
 20
-39.4184667641
 11
3.418126375
 21
-40.3648246554
  0
LINE
  5
54F
100
AcDbEntity
  8
0
100
AcDbLine
 62
7
  6
CONTINUOUS
 10
3.418126375
 20
-40.3648246554
 11
3.6754700991
 21
-40.6101199229
  0
LINE
  5
550
100
AcDbEntity
  8
0
100
AcDbLine
 62
7
  6
CONTINUOUS
 10
2.3556398302
 20
-39.4881221447
 11
3.3019977214
 21
-40.480953309
  0
LINE
  5
551
100
AcDbEntity
  8
0
100
AcDbLine
 62
7
  6
CONTINUOUS
 10
3.3019977214
 20
-40.480953309
 11
3.5472929889
 21
-40.7382970331
  0
ELLIPSE
  5
552
100
AcDbEntity
  8
0
100
AcDbEllipse
 62
7
  6
CONTINUOUS
 10
2.8201272978
 20
-38.9215095642
 30
0.0
 11
-0.0
 21
0.155
 31
0.0
 40
0.0524077793
 41
-0.0
 42
3.1415926536
  0
ELLIPSE
  5
553
100
AcDbEntity
  8
0
100
AcDbEllipse
 62
7
  6
CONTINUOUS
 10
1.8586826302
 20
-39.8829542318
 30
0.0
 11
0.156
 21
0.0
 31
0.0
 40
0.0524077793
 41
6.2341744837
 42
9.4737887843
  0
ENDSEC
  0
SECTION
  2
OBJECTS
  0
DICTIONARY
  5
C
100
AcDbDictionary
280
0
281
1
  3
ACAD_GROUP
350
D
  3
ACAD_MLINESTYLE
350
17
  3
ACAD_LAYOUT
350
1A
  3
ACAD_PLOTSETTINGS
350
19
  3
ACAD_PLOTSTYLENAME
350
E
  0
DICTIONARY
  5
D
102
{ACAD_REACTORS
330
C
102
}
100
AcDbDictionary
280
0
281
1
  0
ACDBDICTIONARYWDFLT
  5
E
102
{ACAD_REACTORS
330
C
102
}
100
AcDbDictionary
281
1
  3
Normal
350
F
100
AcDbDictionaryWithDefault
340
F
  0
DICTIONARY
  5
17
102
{ACAD_REACTORS
330
C
102
}
100
AcDbDictionary
280
0
281
1
  3
Standard
350
18
  0
DICTIONARY
  5
19
102
{ACAD_REACTORS
330
C
102
}
100
AcDbDictionary
281
1
  0
DICTIONARY
  5
1A
102
{ACAD_REACTORS
330
C
102
}
100
AcDbDictionary
281
1
  3
Model
350
554
  3
Layout1
350
555
  0
ACDBPLACEHOLDER
  5
F
102
{ACAD_REACTORS
330
E
102
}
  0
MLINESTYLE
  5
18
102
{ACAD_REACTORS
330
17
102
}
100
AcDbMlineStyle
  2
STANDARD
 70
0
  3

 62
256
 51
90.0
 52
90.0
 71
2
 49
0.5
 62
256
  6
BYLAYER
 49
-0.5
 62
256
  6
BYLAYER
  0
LAYOUT
  5
554
102
{ACAD_REACTORS
330
1A
102
}
100
AcDbPlotSettings
  1

  2
none_device
  4

  6

 40
0.0
 41
0.0
 42
0.0
 43
0.0
 44
431.8
 45
279.4
 46
0.0
 47
0.0
 48
0.0
 49
0.0
140
0.0
141
0.0
142
1.0
143
1.0
 70
1024
 72
0
 73
0
 74
0
  7

 75
0
147
1.0
148
0.0
149
0.0
100
AcDbLayout
  1
Model
 70
0
 71
0
 10
0.0
 20
0.0
 11
17.0
 21
11.0
 12
0.0
 22
0.0
 32
0.0
 14
0.0
 24
0.0
 34
0.0
 15
0.0
 25
0.0
 35
0.0
146
0.0
 13
0.0
 23
0.0
 33
0.0
 16
1.0
 26
0.0
 36
0.0
 17
0.0
 27
1.0
 37
0.0
 76
0
330
23D
345
0
346
0
  0
LAYOUT
  5
555
102
{ACAD_REACTORS
330
1A
102
}
100
AcDbPlotSettings
  1

  2
none_device
  4

  6

 40
0.0
 41
0.0
 42
0.0
 43
0.0
 44
431.8
 45
279.4
 46
0.0
 47
0.0
 48
0.0
 49
0.0
140
0.0
141
0.0
142
1.0
143
1.0
 70
0
 72
0
 73
0
 74
0
  7

 75
0
147
1.0
148
0.0
149
0.0
100
AcDbLayout
  1
Layout1
 70
0
 71
1
 10
0.0
 20
0.0
 11
17.0
 21
11.0
 12
0.0
 22
0.0
 32
0.0
 14
0.0
 24
0.0
 34
0.0
 15
0.0
 25
0.0
 35
0.0
146
0.0
 13
0.0
 23
0.0
 33
0.0
 16
1.0
 26
0.0
 36
0.0
 17
0.0
 27
1.0
 37
0.0
 76
0
330
23E
345
0
346
0
  0
ENDSEC
  0
EOF
