999
DXF file: N:\Master\master\M3_ProE_files\Lenexa\MADAM DXF\46905.dxf
999
Pro/ENGINEER 2010280 by Parametric Technology Corporation
  0
SECTION
  2
HEADER
  9
$ACADVER
  1
AC1021
  9
$DWGCODEPAGE
  3
ANSI_1252
  9
$EXTMAX
 10
17.0
 20
11.0
 30
0.0
  9
$EXTMIN
 10
0.0
 20
-0.0
 30
0.0
  9
$LIMMIN
 10
0.0
 20
-0.0
  9
$LIMMAX
 10
17.0
 20
11.0
  9
$VIEWCTR
 10
8.5
 20
5.5
  9
$VIEWSIZE
 40
11.0
  9
$CLAYER
  8
0
  9
$LTSCALE
 40
0.935
  9
$CELTYPE
  6
BYLAYER
  9
$DIMSCALE
 40
1.0
  9
$DIMASZ
 40
0.125
  9
$DIMEXO
 40
0.10625
  9
$DIMDLI
 40
0.646
  9
$DIMEXE
 40
0.306
  9
$DIMCEN
 40
0.153
  9
$DIMLFAC
 40
1.0
  9
$DIMBLK
  1
_FILLED
  9
$DIMTXT
 40
0.125
  9
$DIMTOL
 70
1
  9
$DIMLIM
 70
0
  9
$DIMTFAC
 40
1.0
  9
$DIMTP
 40
0.01
  9
$DIMTM
 40
0.01
  9
$PDMODE
 70
3
  9
$PDSIZE
 40
0.3125
  9
$HANDSEED
  5
4D7
  9
$TILEMODE
 70
1
  9
$MEASUREMENT
 70
0
  9
$INSUNITS
 70
1
  0
ENDSEC
  0
SECTION
  2
CLASSES
  0
CLASS
  1
ACDBDICTIONARYWDFLT
  2
AcDbDictionaryWithDefault
  3
AutoCAD 2000
 90
0
 91
1
280
0
281
0
  0
CLASS
  1
ACDBPLACEHOLDER
  2
AcDbPlaceHolder
  3
AutoCAD 2000
 90
0
 91
1
280
0
281
0
  0
CLASS
  1
LAYOUT
  2
AcDbLayout
  3
AutoCAD 2000
 90
0
 91
0
280
0
281
0
  0
ENDSEC
  0
SECTION
  2
TABLES
  0
TABLE
  2
VPORT
  5
8
100
AcDbSymbolTable
 70
2
  0
VPORT
  5
1F4
100
AcDbSymbolTableRecord
100
AcDbViewportTableRecord
  2
*ACTIVE
 70
0
 10
0.0
 20
0.0
 11
1.0
 21
1.0
 12
8.5
 22
5.5
 13
0.0
 23
0.0
 14
1.0
 24
1.0
 15
0.0
 25
0.0
 16
0.0
 26
0.0
 36
1.0
 17
0.0
 27
0.0
 37
0.0
 40
11.0
 41
1.5454545455
 42
50.0
 43
0.0
 44
0.0
 50
0.0
 51
0.0
 71
0
 72
100
 73
1
 74
1
 75
0
 76
0
 77
0
 78
0
  0
ENDTAB
  0
TABLE
  2
LTYPE
  5
5
100
AcDbSymbolTable
 70
6
  0
LTYPE
  5
14
100
AcDbSymbolTableRecord
100
AcDbLinetypeTableRecord
  2
BYBLOCK
 70
0
  3

 72
65
 73
0
 40
0.0
  0
LTYPE
  5
15
100
AcDbSymbolTableRecord
100
AcDbLinetypeTableRecord
  2
BYLAYER
 70
0
  3

 72
65
 73
0
 40
0.0
  0
LTYPE
  5
16
100
AcDbSymbolTableRecord
100
AcDbLinetypeTableRecord
  2
CONTINUOUS
 70
64
  3
Solid line
 72
65
 73
0
 40
0.0
  0
LTYPE
  5
1F5
100
AcDbSymbolTableRecord
100
AcDbLinetypeTableRecord
  2
CENTER
 70
64
  3
____ _ ____ _ ____ _ ____ _ ____ _ ____ _ ____
 72
65
 73
4
 40
0.6
 49
0.375
 74
0
 49
-0.075
 74
0
 49
0.075
 74
0
 49
-0.075
 74
0
  0
LTYPE
  5
1F6
100
AcDbSymbolTableRecord
100
AcDbLinetypeTableRecord
  2
HIDDEN
 70
64
  3
- - - - - - - - - - - - - - - - - - - -
 72
65
 73
2
 40
0.2
 49
0.1
 74
0
 49
-0.1
 74
0
  0
LTYPE
  5
1F7
100
AcDbSymbolTableRecord
100
AcDbLinetypeTableRecord
  2
PHANTOM
 70
64
  3
_____ _ _ _____ _ _ _____ _ _ _____
 72
65
 73
6
 40
0.8
 49
0.45
 74
0
 49
-0.05
 74
0
 49
0.1
 74
0
 49
-0.05
 74
0
 49
0.1
 74
0
 49
-0.05
 74
0
  0
LTYPE
  5
1F8
100
AcDbSymbolTableRecord
100
AcDbLinetypeTableRecord
  2
DOT
 70
64
  3
. . . . . . . . . . . . . . . . . . . .
 72
65
 73
2
 40
0.2
 49
0.1
 74
0
 49
-0.1
 74
0
  0
LTYPE
  5
1F9
100
AcDbSymbolTableRecord
100
AcDbLinetypeTableRecord
  2
DASHED
 70
64
  3
- - - - - - - - - - - - - - - - - - - -
 72
65
 73
2
 40
0.2
 49
0.1
 74
0
 49
-0.1
 74
0
  0
ENDTAB
  0
TABLE
  2
LAYER
  5
2
100
AcDbSymbolTable
 70
36
  0
LAYER
  5
10
100
AcDbSymbolTableRecord
100
AcDbLayerTableRecord
  2
0
 70
0
 62
7
  6
CONTINUOUS
370
-3
390
F
  0
LAYER
  5
1FA
100
AcDbSymbolTableRecord
100
AcDbLayerTableRecord
  2
DEFAULT_1
 70
0
 62
7
  6
CENTER
370
-3
390
F
  0
LAYER
  5
1FB
100
AcDbSymbolTableRecord
100
AcDbLayerTableRecord
  2
DEFAULT_2
 70
0
 62
8
  6
HIDDEN
370
-3
390
F
  0
LAYER
  5
1FC
100
AcDbSymbolTableRecord
100
AcDbLayerTableRecord
  2
DEFAULT_3
 70
0
 62
7
  6
PHANTOM
370
-3
390
F
  0
LAYER
  5
1FD
100
AcDbSymbolTableRecord
100
AcDbLayerTableRecord
  2
01_ALL_DTM_PLN
 70
0
 62
7
  6
CONTINUOUS
370
-3
390
F
  0
LAYER
  5
1FE
100
AcDbSymbolTableRecord
100
AcDbLayerTableRecord
  2
01__ASM_ALL_DTM_PLN
 70
0
 62
7
  6
CONTINUOUS
370
-3
390
F
  0
LAYER
  5
1FF
100
AcDbSymbolTableRecord
100
AcDbLayerTableRecord
  2
01__ASM_DEF_DTM_PLN
 70
0
 62
7
  6
CONTINUOUS
370
-3
390
F
  0
LAYER
  5
200
100
AcDbSymbolTableRecord
100
AcDbLayerTableRecord
  2
01___PRT_ALL_DTM_PLN
 70
0
 62
7
  6
CONTINUOUS
370
-3
390
F
  0
LAYER
  5
201
100
AcDbSymbolTableRecord
100
AcDbLayerTableRecord
  2
01___PRT_DEF_DTM_PLN
 70
0
 62
7
  6
CONTINUOUS
370
-3
390
F
  0
LAYER
  5
202
100
AcDbSymbolTableRecord
100
AcDbLayerTableRecord
  2
02_ALL_AXES
 70
0
 62
7
  6
CONTINUOUS
370
-3
390
F
  0
LAYER
  5
203
100
AcDbSymbolTableRecord
100
AcDbLayerTableRecord
  2
02__ASM_ALL_AXES
 70
0
 62
7
  6
CONTINUOUS
370
-3
390
F
  0
LAYER
  5
204
100
AcDbSymbolTableRecord
100
AcDbLayerTableRecord
  2
02___PRT_ALL_AXES
 70
0
 62
7
  6
CONTINUOUS
370
-3
390
F
  0
LAYER
  5
205
100
AcDbSymbolTableRecord
100
AcDbLayerTableRecord
  2
03_ALL_CURVES
 70
0
 62
7
  6
CONTINUOUS
370
-3
390
F
  0
LAYER
  5
206
100
AcDbSymbolTableRecord
100
AcDbLayerTableRecord
  2
03__ASM_ALL_CURVES
 70
0
 62
7
  6
CONTINUOUS
370
-3
390
F
  0
LAYER
  5
207
100
AcDbSymbolTableRecord
100
AcDbLayerTableRecord
  2
03___PRT_ALL_CURVES
 70
0
 62
7
  6
CONTINUOUS
370
-3
390
F
  0
LAYER
  5
208
100
AcDbSymbolTableRecord
100
AcDbLayerTableRecord
  2
04_ALL_DTM_PNT
 70
0
 62
7
  6
CONTINUOUS
370
-3
390
F
  0
LAYER
  5
209
100
AcDbSymbolTableRecord
100
AcDbLayerTableRecord
  2
04__ASM_ALL_DTM_PNT
 70
0
 62
7
  6
CONTINUOUS
370
-3
390
F
  0
LAYER
  5
20A
100
AcDbSymbolTableRecord
100
AcDbLayerTableRecord
  2
04___PRT_ALL_DTM_PNT
 70
0
 62
7
  6
CONTINUOUS
370
-3
390
F
  0
LAYER
  5
20B
100
AcDbSymbolTableRecord
100
AcDbLayerTableRecord
  2
05_ALL_DTM_CSYS
 70
0
 62
7
  6
CONTINUOUS
370
-3
390
F
  0
LAYER
  5
20C
100
AcDbSymbolTableRecord
100
AcDbLayerTableRecord
  2
05__ASM_ALL_DTM_CSYS
 70
0
 62
7
  6
CONTINUOUS
370
-3
390
F
  0
LAYER
  5
20D
100
AcDbSymbolTableRecord
100
AcDbLayerTableRecord
  2
05__ASM_DEF_DTM_CSYS
 70
0
 62
7
  6
CONTINUOUS
370
-3
390
F
  0
LAYER
  5
20E
100
AcDbSymbolTableRecord
100
AcDbLayerTableRecord
  2
05___PRT_ALL_DTM_CSYS
 70
0
 62
7
  6
CONTINUOUS
370
-3
390
F
  0
LAYER
  5
20F
100
AcDbSymbolTableRecord
100
AcDbLayerTableRecord
  2
05___PRT_DEF_DTM_CSYS
 70
0
 62
7
  6
CONTINUOUS
370
-3
390
F
  0
LAYER
  5
210
100
AcDbSymbolTableRecord
100
AcDbLayerTableRecord
  2
06_ALL_SURFS
 70
0
 62
7
  6
CONTINUOUS
370
-3
390
F
  0
LAYER
  5
211
100
AcDbSymbolTableRecord
100
AcDbLayerTableRecord
  2
06__ASM_ALL_SURFS
 70
0
 62
7
  6
CONTINUOUS
370
-3
390
F
  0
LAYER
  5
212
100
AcDbSymbolTableRecord
100
AcDbLayerTableRecord
  2
06___PRT_ALL_SURFS
 70
0
 62
7
  6
CONTINUOUS
370
-3
390
F
  0
LAYER
  5
213
100
AcDbSymbolTableRecord
100
AcDbLayerTableRecord
  2
07__ASM_ALL_SKELETONS
 70
0
 62
7
  6
CONTINUOUS
370
-3
390
F
  0
LAYER
  5
214
100
AcDbSymbolTableRecord
100
AcDbLayerTableRecord
  2
904PLANES
 70
0
 62
7
  6
CONTINUOUS
370
-3
390
F
  0
LAYER
  5
215
100
AcDbSymbolTableRecord
100
AcDbLayerTableRecord
  2
90517DTMS
 70
0
 62
7
  6
CONTINUOUS
370
-3
390
F
  0
LAYER
  5
216
100
AcDbSymbolTableRecord
100
AcDbLayerTableRecord
  2
AXIS
 70
0
 62
7
  6
CONTINUOUS
370
-3
390
F
  0
LAYER
  5
217
100
AcDbSymbolTableRecord
100
AcDbLayerTableRecord
  2
BAFFLE_DTMS
 70
0
 62
7
  6
CONTINUOUS
370
-3
390
F
  0
LAYER
  5
218
100
AcDbSymbolTableRecord
100
AcDbLayerTableRecord
  2
BD_ANGLE
 70
0
 62
7
  6
CONTINUOUS
370
-3
390
F
  0
LAYER
  5
219
100
AcDbSymbolTableRecord
100
AcDbLayerTableRecord
  2
CONDUIT_DTMS
 70
0
 62
7
  6
CONTINUOUS
370
-3
390
F
  0
LAYER
  5
21A
100
AcDbSymbolTableRecord
100
AcDbLayerTableRecord
  2
CS
 70
0
 62
7
  6
CONTINUOUS
370
-3
390
F
  0
LAYER
  5
21B
100
AcDbSymbolTableRecord
100
AcDbLayerTableRecord
  2
CSYS
 70
0
 62
7
  6
CONTINUOUS
370
-3
390
F
  0
LAYER
  5
21C
100
AcDbSymbolTableRecord
100
AcDbLayerTableRecord
  2
CURVE
 70
0
 62
7
  6
CONTINUOUS
370
-3
390
F
  0
LAYER
  5
21D
100
AcDbSymbolTableRecord
100
AcDbLayerTableRecord
  2
CURVES
 70
0
 62
7
  6
CONTINUOUS
370
-3
390
F
  0
LAYER
  5
21E
100
AcDbSymbolTableRecord
100
AcDbLayerTableRecord
  2
DEFAULT_DTM
 70
0
 62
7
  6
CONTINUOUS
370
-3
390
F
  0
LAYER
  5
21F
100
AcDbSymbolTableRecord
100
AcDbLayerTableRecord
  2
DEF_DTMS
 70
0
 62
7
  6
CONTINUOUS
370
-3
390
F
  0
LAYER
  5
220
100
AcDbSymbolTableRecord
100
AcDbLayerTableRecord
  2
G90581DTMS
 70
0
 62
7
  6
CONTINUOUS
370
-3
390
F
  0
LAYER
  5
221
100
AcDbSymbolTableRecord
100
AcDbLayerTableRecord
  2
GENPLANES
 70
0
 62
7
  6
CONTINUOUS
370
-3
390
F
  0
LAYER
  5
222
100
AcDbSymbolTableRecord
100
AcDbLayerTableRecord
  2
HEAD
 70
0
 62
7
  6
CONTINUOUS
370
-3
390
F
  0
LAYER
  5
223
100
AcDbSymbolTableRecord
100
AcDbLayerTableRecord
  2
HOOD_LOC_DTM
 70
0
 62
7
  6
CONTINUOUS
370
-3
390
F
  0
LAYER
  5
224
100
AcDbSymbolTableRecord
100
AcDbLayerTableRecord
  2
HUB_DTMS
 70
0
 62
7
  6
CONTINUOUS
370
-3
390
F
  0
LAYER
  5
225
100
AcDbSymbolTableRecord
100
AcDbLayerTableRecord
  2
IGES_ITEMS
 70
0
 62
7
  6
CONTINUOUS
370
-3
390
F
  0
LAYER
  5
226
100
AcDbSymbolTableRecord
100
AcDbLayerTableRecord
  2
IGS_ITEMS
 70
0
 62
7
  6
CONTINUOUS
370
-3
390
F
  0
LAYER
  5
227
100
AcDbSymbolTableRecord
100
AcDbLayerTableRecord
  2
INTF_1
 70
0
 62
7
  6
CONTINUOUS
370
-3
390
F
  0
LAYER
  5
228
100
AcDbSymbolTableRecord
100
AcDbLayerTableRecord
  2
J_BOX_ANGLE
 70
0
 62
7
  6
CONTINUOUS
370
-3
390
F
  0
LAYER
  5
229
100
AcDbSymbolTableRecord
100
AcDbLayerTableRecord
  2
LAY0001
 70
0
 62
7
  6
CONTINUOUS
370
-3
390
F
  0
LAYER
  5
22A
100
AcDbSymbolTableRecord
100
AcDbLayerTableRecord
  2
LAY0002
 70
0
 62
7
  6
CONTINUOUS
370
-3
390
F
  0
LAYER
  5
22B
100
AcDbSymbolTableRecord
100
AcDbLayerTableRecord
  2
MTR_HOLE_ANG_DTM
 70
0
 62
7
  6
CONTINUOUS
370
-3
390
F
  0
LAYER
  5
22C
100
AcDbSymbolTableRecord
100
AcDbLayerTableRecord
  2
PARTDTMS
 70
0
 62
7
  6
CONTINUOUS
370
-3
390
F
  0
LAYER
  5
22D
100
AcDbSymbolTableRecord
100
AcDbLayerTableRecord
  2
PLANE
 70
0
 62
7
  6
CONTINUOUS
370
-3
390
F
  0
LAYER
  5
22E
100
AcDbSymbolTableRecord
100
AcDbLayerTableRecord
  2
PLANES
 70
0
 62
7
  6
CONTINUOUS
370
-3
390
F
  0
LAYER
  5
22F
100
AcDbSymbolTableRecord
100
AcDbLayerTableRecord
  2
POINT
 70
0
 62
7
  6
CONTINUOUS
370
-3
390
F
  0
LAYER
  5
230
100
AcDbSymbolTableRecord
100
AcDbLayerTableRecord
  2
P_ROUNDS
 70
0
 62
7
  6
CONTINUOUS
370
-3
390
F
  0
LAYER
  5
231
100
AcDbSymbolTableRecord
100
AcDbLayerTableRecord
  2
P_SURFACES
 70
0
 62
7
  6
CONTINUOUS
370
-3
390
F
  0
LAYER
  5
232
100
AcDbSymbolTableRecord
100
AcDbLayerTableRecord
  2
ROUND
 70
0
 62
7
  6
CONTINUOUS
370
-3
390
F
  0
LAYER
  5
233
100
AcDbSymbolTableRecord
100
AcDbLayerTableRecord
  2
STANDOFF_DTMS
 70
0
 62
7
  6
CONTINUOUS
370
-3
390
F
  0
LAYER
  5
234
100
AcDbSymbolTableRecord
100
AcDbLayerTableRecord
  2
STIFF_ANGLE
 70
0
 62
7
  6
CONTINUOUS
370
-3
390
F
  0
LAYER
  5
235
100
AcDbSymbolTableRecord
100
AcDbLayerTableRecord
  2
SURFACE
 70
0
 62
7
  6
CONTINUOUS
370
-3
390
F
  0
LAYER
  5
236
100
AcDbSymbolTableRecord
100
AcDbLayerTableRecord
  2
TOP_SURFACE
 70
0
 62
7
  6
CONTINUOUS
370
-3
390
F
  0
LAYER
  5
237
100
AcDbSymbolTableRecord
100
AcDbLayerTableRecord
  2
WITNESS
 70
0
 62
7
  6
CONTINUOUS
370
-3
390
F
  0
LAYER
  5
238
100
AcDbSymbolTableRecord
100
AcDbLayerTableRecord
  2
XSEC_DATUMS
 70
0
 62
7
  6
CONTINUOUS
370
-3
390
F
  0
ENDTAB
  0
TABLE
  2
STYLE
  5
3
100
AcDbSymbolTable
 70
1
  0
STYLE
  5
11
100
AcDbSymbolTableRecord
100
AcDbTextStyleTableRecord
  2
STANDARD
 70
0
 40
0.0
 41
0.8
 50
0.0
 71
0
 42
0.2
  3
txt
  4

  0
STYLE
  5
239
100
AcDbSymbolTableRecord
100
AcDbTextStyleTableRecord
  2
TEXTSTYLE_1
 70
0
 40
0.0
 41
0.8
 50
0.0
 71
0
 42
0.2
  3
gdt
  4

  0
ENDTAB
  0
TABLE
  2
VIEW
  5
6
100
AcDbSymbolTable
 70
0
  0
ENDTAB
  0
TABLE
  2
UCS
  5
7
100
AcDbSymbolTable
 70
0
  0
ENDTAB
  0
TABLE
  2
APPID
  5
9
100
AcDbSymbolTable
 70
1
  0
APPID
  5
23A
100
AcDbSymbolTableRecord
100
AcDbRegAppTableRecord
  2
ACAD
 70
0
  0
ENDTAB
  0
TABLE
  2
BLOCK_RECORD
  5
1
100
AcDbSymbolTable
 70
0
  0
BLOCK_RECORD
  5
23B
100
AcDbSymbolTableRecord
100
AcDbBlockTableRecord
  2
*Model_Space
  0
BLOCK_RECORD
  5
23C
100
AcDbSymbolTableRecord
100
AcDbBlockTableRecord
  2
*Paper_Space
  0
ENDTAB
  0
TABLE
  2
DIMSTYLE
  5
A
100
AcDbSymbolTable
 70
1
100
AcDbDimStyleTable
 71
0
  0
DIMSTYLE
105
23D
100
AcDbSymbolTableRecord
100
AcDbDimStyleTableRecord
  2
STANDARD
 70
0
  3

  4

 40
1.0
 41
0.125
 42
0.0625
 43
0.38
 44
0.18
 45
0.0
 46
0.0
 47
0.01
 48
0.01
140
0.125
141
0.09
142
0.0
143
25.4
144
1.0
145
0.0
146
1.0
147
0.09
 71
1.0
 72
0.0
 73
1
 74
1
 75
0
 76
0
 77
0
 78
4
170
0
171
2
172
0
173
0
174
0
175
0
176
0
177
0
178
0
270
2
271
2
272
2
273
2
274
2
275
0
280
0
281
0
282
0
283
1
284
4
285
0
286
0
287
3
288
0
340
11
  0
ENDTAB
  0
ENDSEC
  0
SECTION
  2
BLOCKS
  0
BLOCK
  5
20
100
AcDbEntity
  8
0
100
AcDbBlockBegin
  2
*Model_Space
 70
0
 10
0.0
 20
0.0
 30
0.0
  3
*Model_Space
  1

  0
ENDBLK
  5
21
100
AcDbEntity
  8
0
100
AcDbBlockEnd
  0
BLOCK
  5
1C
100
AcDbEntity
  8
0
100
AcDbBlockBegin
  2
*Paper_Space
 70
0
 10
0.0
 20
0.0
 30
0.0
  3
*Paper_Space
  1

  0
ENDBLK
  5
1D
100
AcDbEntity
  8
0
100
AcDbBlockEnd
  0
ENDSEC
  0
SECTION
  2
ENTITIES
  0
MTEXT
  5
23E
100
AcDbEntity
  8
0
100
AcDbMText
 62
2
  6
CONTINUOUS
  7
STANDARD
 71
1
 72
1
 10
38.2351408636
 20
-31.7683635709
 30
0.0
 11
1.0
 21
0.0
 31
0.0
 44
0.9
  1
46905
 40
5.0
 41
20.0
  0
LINE
  5
23F
100
AcDbEntity
  8
0
100
AcDbLine
 62
3
  6
CONTINUOUS
 10
-10.4178122219
 20
0.7380698216
 11
-10.5195186295
 21
-2.1744206282
  0
LINE
  5
240
100
AcDbEntity
  8
0
100
AcDbLine
 62
7
  6
CONTINUOUS
 10
15.0417511781
 20
-7.4294206282
 11
14.9617511781
 21
-7.4294206282
  0
LINE
  5
241
100
AcDbEntity
  8
0
100
AcDbLine
 62
7
  6
CONTINUOUS
 10
-7.2782488219
 20
-7.4294206282
 11
-7.1982488219
 21
-7.4294206282
  0
LINE
  5
242
100
AcDbEntity
  8
0
100
AcDbLine
 62
3
  6
CONTINUOUS
 10
14.8817511781
 20
-7.4294206282
 11
-7.1182488219
 21
-7.4294206282
  0
LINE
  5
243
100
AcDbEntity
  8
0
100
AcDbLine
 62
3
  6
CONTINUOUS
 10
-7.2782488219
 20
-6.0894206282
 11
-7.2782488219
 21
-7.4294206282
  0
LINE
  5
244
100
AcDbEntity
  8
0
100
AcDbLine
 62
7
  6
CONTINUOUS
 10
-7.1982488219
 20
-6.0894206282
 11
-7.1982488219
 21
-7.4294206282
  0
LINE
  5
245
100
AcDbEntity
  8
0
100
AcDbLine
 62
3
  6
CONTINUOUS
 10
-7.1182488219
 20
-5.9294206282
 11
-7.1182488219
 21
-7.4294206282
  0
LINE
  5
246
100
AcDbEntity
  8
0
100
AcDbLine
 62
7
  6
CONTINUOUS
 10
-6.4117574373
 20
3.9700793718
 11
-6.4117574373
 21
3.9000793718
  0
LINE
  5
247
100
AcDbEntity
  8
0
100
AcDbLine
 62
3
  6
CONTINUOUS
 10
-7.1182488219
 20
-5.9294206282
 11
14.8817511781
 21
-5.9294206282
  0
LINE
  5
248
100
AcDbEntity
  8
0
100
AcDbLine
 62
7
  6
CONTINUOUS
 10
-7.0282488219
 20
-5.9244206282
 11
-3.0282488219
 21
-5.9244206282
  0
LINE
  5
249
100
AcDbEntity
  8
0
100
AcDbLine
 62
7
  6
CONTINUOUS
 10
11.1717511781
 20
-5.9244206282
 11
13.1717511781
 21
-5.9244206282
  0
LINE
  5
24A
100
AcDbEntity
  8
0
100
AcDbLine
 62
7
  6
CONTINUOUS
 10
13.1717511781
 20
-5.8794206282
 11
14.7917511781
 21
-5.8794206282
  0
LINE
  5
24B
100
AcDbEntity
  8
0
100
AcDbLine
 62
7
  6
CONTINUOUS
 10
10.5992655994
 20
-5.4094206282
 11
10.5639102603
 21
-5.4094206282
  0
LINE
  5
24C
100
AcDbEntity
  8
0
100
AcDbLine
 62
7
  6
CONTINUOUS
 10
-2.8357632432
 20
-5.4094206282
 11
-2.8004079041
 21
-5.4094206282
  0
LINE
  5
24D
100
AcDbEntity
  8
0
100
AcDbLine
 62
7
  6
CONTINUOUS
 10
10.7215699705
 20
-5.3659269792
 11
10.6147512379
 21
-5.3659269792
  0
LINE
  5
24E
100
AcDbEntity
  8
0
100
AcDbLine
 62
7
  6
CONTINUOUS
 10
-2.9580676143
 20
-5.3659269792
 11
-2.8512488817
 21
-5.3659269792
  0
LINE
  5
24F
100
AcDbEntity
  8
0
100
AcDbLine
 62
7
  6
CONTINUOUS
 10
10.588987449
 20
-5.2576738037
 11
10.4821687164
 21
-5.2576738037
  0
LINE
  5
250
100
AcDbEntity
  8
0
100
AcDbLine
 62
7
  6
CONTINUOUS
 10
-2.8254850928
 20
-5.2576738037
 11
-2.7186663602
 21
-5.2576738037
  0
LINE
  5
251
100
AcDbEntity
  8
0
100
AcDbLine
 62
7
  6
CONTINUOUS
 10
10.588987449
 20
-5.0411674528
 11
10.4821687164
 21
-5.0411674528
  0
LINE
  5
252
100
AcDbEntity
  8
0
100
AcDbLine
 62
7
  6
CONTINUOUS
 10
-2.8254850928
 20
-5.0411674528
 11
-2.7186663602
 21
-5.0411674528
  0
LINE
  5
253
100
AcDbEntity
  8
0
100
AcDbLine
 62
7
  6
CONTINUOUS
 10
-2.6340937976
 20
-5.0399206282
 11
-2.6284035144
 21
-5.0399206282
  0
LINE
  5
254
100
AcDbEntity
  8
0
100
AcDbLine
 62
7
  6
CONTINUOUS
 10
10.7215699705
 20
-4.9329142773
 11
10.6147512379
 21
-4.9329142773
  0
LINE
  5
255
100
AcDbEntity
  8
0
100
AcDbLine
 62
7
  6
CONTINUOUS
 10
-2.9580676143
 20
-4.9329142773
 11
-2.8512488817
 21
-4.9329142773
  0
LINE
  5
256
100
AcDbEntity
  8
0
100
AcDbLine
 62
7
  6
CONTINUOUS
 10
10.5992655994
 20
-4.8894206282
 11
10.5639102603
 21
-4.8894206282
  0
LINE
  5
257
100
AcDbEntity
  8
0
100
AcDbLine
 62
7
  6
CONTINUOUS
 10
-2.8357632432
 20
-4.8894206282
 11
-2.8004079041
 21
-4.8894206282
  0
LINE
  5
258
100
AcDbEntity
  8
0
100
AcDbLine
 62
7
  6
CONTINUOUS
 10
-5.5061334788
 20
4.1155793718
 11
-5.5061334788
 21
4.0400793718
  0
LINE
  5
259
100
AcDbEntity
  8
0
100
AcDbLine
 62
3
  6
CONTINUOUS
 10
-5.4799645506
 20
-2.6744206282
 11
-5.4799645506
 21
-5.9244206282
  0
LINE
  5
25A
100
AcDbEntity
  8
0
100
AcDbLine
 62
7
  6
CONTINUOUS
 10
-5.4189793499
 20
4.1900794952
 11
-5.4189793499
 21
4.0400793718
  0
LINE
  5
25B
100
AcDbEntity
  8
0
100
AcDbLine
 62
3
  6
CONTINUOUS
 10
-5.3492457112
 20
4.1900794952
 11
-5.3492457112
 21
4.0400793718
  0
LINE
  5
25C
100
AcDbEntity
  8
0
100
AcDbLine
 62
7
  6
CONTINUOUS
 10
-6.0549789295
 20
4.5700794952
 11
-6.0355036929
 21
5.1277773041
  0
LINE
  5
25D
100
AcDbEntity
  8
0
100
AcDbLine
 62
7
  6
CONTINUOUS
 10
-6.0174277008
 20
5.6454059914
 11
-5.6359367149
 21
16.5698784886
  0
LINE
  5
25E
100
AcDbEntity
  8
0
100
AcDbLine
 62
7
  6
CONTINUOUS
 10
-6.166731378
 20
5.1645967584
 11
-6.1572653646
 21
5.1479462418
  0
LINE
  5
25F
100
AcDbEntity
  8
0
100
AcDbLine
 62
7
  6
CONTINUOUS
 10
-6.166731378
 20
5.5955619852
 11
-6.1572653646
 21
5.6122125018
  0
LINE
  5
260
100
AcDbEntity
  8
0
100
AcDbLine
 62
3
  6
CONTINUOUS
 10
-10.7153173749
 20
-2.6744206282
 11
18.4788197311
 21
-2.6744206282
  0
LINE
  5
261
100
AcDbEntity
  8
0
100
AcDbLine
 62
3
  6
CONTINUOUS
 10
-10.7153173749
 20
-2.1744206282
 11
18.4788197311
 21
-2.1744206282
  0
LINE
  5
262
100
AcDbEntity
  8
0
100
AcDbLine
 62
3
  6
CONTINUOUS
 10
15.1031899344
 20
3.7105793718
 11
-7.3396875782
 21
3.7105793718
  0
LINE
  5
263
100
AcDbEntity
  8
0
100
AcDbLine
 62
3
  6
CONTINUOUS
 10
4.2072602766
 20
3.9000793718
 11
5.2575676991
 21
3.9000793718
  0
LINE
  5
264
100
AcDbEntity
  8
0
100
AcDbLine
 62
3
  6
CONTINUOUS
 10
-5.4887129887
 20
3.9000793718
 11
-6.4117547117
 21
3.9000793718
  0
LINE
  5
265
100
AcDbEntity
  8
0
100
AcDbLine
 62
3
  6
CONTINUOUS
 10
13.2522153449
 20
3.9000793718
 11
14.1752570679
 21
3.9000793718
  0
LINE
  5
266
100
AcDbEntity
  8
0
100
AcDbLine
 62
7
  6
CONTINUOUS
 10
4.2072602766
 20
3.9700793718
 11
5.2575676991
 21
3.9700793718
  0
LINE
  5
267
100
AcDbEntity
  8
0
100
AcDbLine
 62
7
  6
CONTINUOUS
 10
-5.4887129887
 20
3.9700793718
 11
-6.4117547117
 21
3.9700793718
  0
LINE
  5
268
100
AcDbEntity
  8
0
100
AcDbLine
 62
7
  6
CONTINUOUS
 10
13.3393694738
 20
3.9700793718
 11
14.1752570679
 21
3.9700793718
  0
LINE
  5
269
100
AcDbEntity
  8
0
100
AcDbLine
 62
7
  6
CONTINUOUS
 10
-5.4625564144
 20
4.1155793718
 11
-5.5273090789
 21
4.1155793718
  0
LINE
  5
26A
100
AcDbEntity
  8
0
100
AcDbLine
 62
7
  6
CONTINUOUS
 10
13.269635835
 20
4.1155793718
 11
13.2908114351
 21
4.1155793718
  0
LINE
  5
26B
100
AcDbEntity
  8
0
100
AcDbLine
 62
7
  6
CONTINUOUS
 10
-7.3082488219
 20
4.1900794952
 11
15.0717511781
 21
4.1900794952
  0
LINE
  5
26C
100
AcDbEntity
  8
0
100
AcDbLine
 62
3
  6
CONTINUOUS
 10
4.1950586986
 20
4.1900794952
 11
4.1950586986
 21
4.0400793718
  0
LINE
  5
26D
100
AcDbEntity
  8
0
100
AcDbLine
 62
7
  6
CONTINUOUS
 10
4.2011594876
 20
4.1900794952
 11
4.2011594876
 21
4.0400793718
  0
LINE
  5
26E
100
AcDbEntity
  8
0
100
AcDbLine
 62
7
  6
CONTINUOUS
 10
-7.3082488219
 20
4.5700794952
 11
15.0717511781
 21
4.5700794952
  0
LINE
  5
26F
100
AcDbEntity
  8
0
100
AcDbLine
 62
7
  6
CONTINUOUS
 10
-6.0223926637
 20
5.1145793718
 11
-5.9925068185
 21
5.1145793718
  0
LINE
  5
270
100
AcDbEntity
  8
0
100
AcDbLine
 62
7
  6
CONTINUOUS
 10
13.9076257377
 20
5.1277773041
 11
13.7990060491
 21
5.1277773041
  0
LINE
  5
271
100
AcDbEntity
  8
0
100
AcDbLine
 62
7
  6
CONTINUOUS
 10
-6.1441233815
 20
5.1277773041
 11
-6.0259155826
 21
5.1277773041
  0
LINE
  5
272
100
AcDbEntity
  8
0
100
AcDbLine
 62
7
  6
CONTINUOUS
 10
4.7588851777
 20
5.1277773041
 11
4.7485435283
 21
5.1277773041
  0
LINE
  5
273
100
AcDbEntity
  8
0
100
AcDbLine
 62
7
  6
CONTINUOUS
 10
13.9266689148
 20
5.2539283379
 11
13.8084611159
 21
5.2539283379
  0
LINE
  5
274
100
AcDbEntity
  8
0
100
AcDbLine
 62
7
  6
CONTINUOUS
 10
-6.1250802043
 20
5.2539283379
 11
-6.0068724054
 21
5.2539283379
  0
LINE
  5
275
100
AcDbEntity
  8
0
100
AcDbLine
 62
7
  6
CONTINUOUS
 10
4.5412166053
 20
5.2539283379
 11
4.5308749559
 21
5.2539283379
  0
LINE
  5
276
100
AcDbEntity
  8
0
100
AcDbLine
 62
7
  6
CONTINUOUS
 10
13.9266689148
 20
5.5062304056
 11
13.8084611159
 21
5.5062304056
  0
LINE
  5
277
100
AcDbEntity
  8
0
100
AcDbLine
 62
7
  6
CONTINUOUS
 10
-6.1250802043
 20
5.5062304056
 11
-6.0068724054
 21
5.5062304056
  0
LINE
  5
278
100
AcDbEntity
  8
0
100
AcDbLine
 62
7
  6
CONTINUOUS
 10
4.5412166053
 20
5.5062304056
 11
4.5308749559
 21
5.5062304056
  0
LINE
  5
279
100
AcDbEntity
  8
0
100
AcDbLine
 62
7
  6
CONTINUOUS
 10
13.9076257377
 20
5.6323814394
 11
13.793025868
 21
5.6323814394
  0
LINE
  5
27A
100
AcDbEntity
  8
0
100
AcDbLine
 62
7
  6
CONTINUOUS
 10
-6.1441233815
 20
5.6323814394
 11
-6.0259155826
 21
5.6323814394
  0
LINE
  5
27B
100
AcDbEntity
  8
0
100
AcDbLine
 62
7
  6
CONTINUOUS
 10
4.7588851777
 20
5.6323814394
 11
4.7485435283
 21
5.6323814394
  0
LINE
  5
27C
100
AcDbEntity
  8
0
100
AcDbLine
 62
7
  6
CONTINUOUS
 10
13.7858950199
 20
5.6455793718
 11
13.7809240024
 21
5.6455793718
  0
LINE
  5
27D
100
AcDbEntity
  8
0
100
AcDbLine
 62
7
  6
CONTINUOUS
 10
-6.0223926637
 20
5.6455793718
 11
-5.9925068185
 21
5.6455793718
  0
LINE
  5
27E
100
AcDbEntity
  8
0
100
AcDbLine
 62
7
  6
CONTINUOUS
 10
5.1973543269
 20
4.1900794952
 11
5.1973543269
 21
4.0400793718
  0
LINE
  5
27F
100
AcDbEntity
  8
0
100
AcDbLine
 62
7
  6
CONTINUOUS
 10
5.2575704247
 20
3.9700793718
 11
5.2575704247
 21
3.9000793718
  0
LINE
  5
280
100
AcDbEntity
  8
0
100
AcDbLine
 62
3
  6
CONTINUOUS
 10
10.8881653606
 20
-5.9294206282
 11
10.8881653606
 21
-2.6744206282
  0
LINE
  5
281
100
AcDbEntity
  8
0
100
AcDbLine
 62
7
  6
CONTINUOUS
 10
13.1717511781
 20
-5.9294206282
 11
13.1717511781
 21
-5.8794206282
  0
LINE
  5
282
100
AcDbEntity
  8
0
100
AcDbLine
 62
3
  6
CONTINUOUS
 10
13.1917511781
 20
4.1900794952
 11
13.1917511781
 21
3.9605793718
  0
LINE
  5
283
100
AcDbEntity
  8
0
100
AcDbLine
 62
3
  6
CONTINUOUS
 10
13.1999021963
 20
4.1900794952
 11
13.1999021963
 21
4.0400793718
  0
LINE
  5
284
100
AcDbEntity
  8
0
100
AcDbLine
 62
3
  6
CONTINUOUS
 10
13.2434669069
 20
-2.6744206282
 11
13.2434669069
 21
-5.8794206282
  0
LINE
  5
285
100
AcDbEntity
  8
0
100
AcDbLine
 62
7
  6
CONTINUOUS
 10
13.269635835
 20
4.1900794952
 11
13.269635835
 21
4.0400793718
  0
LINE
  5
286
100
AcDbEntity
  8
0
100
AcDbLine
 62
7
  6
CONTINUOUS
 10
13.9302337342
 20
5.1645967584
 11
13.9207677208
 21
5.1479462418
  0
LINE
  5
287
100
AcDbEntity
  8
0
100
AcDbLine
 62
7
  6
CONTINUOUS
 10
13.9302337342
 20
5.5955619852
 11
13.9207677208
 21
5.6122125018
  0
LINE
  5
288
100
AcDbEntity
  8
0
100
AcDbLine
 62
7
  6
CONTINUOUS
 10
13.8035700542
 20
5.5909182857
 11
13.7934501808
 21
5.6310286744
  0
LINE
  5
289
100
AcDbEntity
  8
0
100
AcDbLine
 62
7
  6
CONTINUOUS
 10
13.8184812857
 20
4.5700794952
 11
13.3994390711
 21
16.5698784886
  0
LINE
  5
28A
100
AcDbEntity
  8
0
100
AcDbLine
 62
7
  6
CONTINUOUS
 10
14.1752597935
 20
3.9700793718
 11
14.1752597935
 21
3.9000793718
  0
LINE
  5
28B
100
AcDbEntity
  8
0
100
AcDbLine
 62
7
  6
CONTINUOUS
 10
14.7917511781
 20
-5.9294206282
 11
14.7917511781
 21
-5.8794206282
  0
LINE
  5
28C
100
AcDbEntity
  8
0
100
AcDbLine
 62
7
  6
CONTINUOUS
 10
13.8035696166
 20
5.1692387233
 11
13.7982890627
 21
5.1483091069
  0
LINE
  5
28D
100
AcDbEntity
  8
0
100
AcDbLine
 62
3
  6
CONTINUOUS
 10
14.8817511781
 20
-5.9294206282
 11
14.8817511781
 21
-7.4294206282
  0
LINE
  5
28E
100
AcDbEntity
  8
0
100
AcDbLine
 62
7
  6
CONTINUOUS
 10
14.9617511781
 20
-6.0894206282
 11
14.9617511781
 21
-7.4294206282
  0
LINE
  5
28F
100
AcDbEntity
  8
0
100
AcDbLine
 62
3
  6
CONTINUOUS
 10
15.0417511781
 20
-6.0894206282
 11
15.0417511781
 21
-7.4294206282
  0
LINE
  5
290
100
AcDbEntity
  8
0
100
AcDbLine
 62
7
  6
CONTINUOUS
 10
-3.6371550609
 20
18.5000794952
 11
11.4006574171
 21
18.5000794952
  0
LINE
  5
291
100
AcDbEntity
  8
0
100
AcDbLine
 62
3
  6
CONTINUOUS
 10
18.1813145781
 20
0.7380698216
 11
18.2830209857
 21
-2.1744206282
  0
LINE
  5
292
100
AcDbEntity
  8
0
100
AcDbLine
 62
3
  6
CONTINUOUS
 10
33.2145891588
 20
0.7380698216
 11
33.1128827512
 21
-2.1744206282
  0
LINE
  5
293
100
AcDbEntity
  8
0
100
AcDbLine
 62
7
  6
CONTINUOUS
 10
58.6741525588
 20
-7.4294206282
 11
58.5941525588
 21
-7.4294206282
  0
LINE
  5
294
100
AcDbEntity
  8
0
100
AcDbLine
 62
3
  6
CONTINUOUS
 10
58.5141525588
 20
-7.4294206282
 11
36.5141525588
 21
-7.4294206282
  0
LINE
  5
295
100
AcDbEntity
  8
0
100
AcDbLine
 62
7
  6
CONTINUOUS
 10
36.3541525588
 20
-7.4294206282
 11
36.4341525588
 21
-7.4294206282
  0
LINE
  5
296
100
AcDbEntity
  8
0
100
AcDbLine
 62
3
  6
CONTINUOUS
 10
58.5141525588
 20
-5.9294206282
 11
36.5141525588
 21
-5.9294206282
  0
LINE
  5
297
100
AcDbEntity
  8
0
100
AcDbLine
 62
7
  6
CONTINUOUS
 10
36.6041525588
 20
-5.8794206282
 11
39.3541525588
 21
-5.8794206282
  0
LINE
  5
298
100
AcDbEntity
  8
0
100
AcDbLine
 62
7
  6
CONTINUOUS
 10
54.2316669801
 20
-5.4094206282
 11
54.196311641
 21
-5.4094206282
  0
LINE
  5
299
100
AcDbEntity
  8
0
100
AcDbLine
 62
7
  6
CONTINUOUS
 10
40.7966381375
 20
-5.4094206282
 11
40.8319934766
 21
-5.4094206282
  0
LINE
  5
29A
100
AcDbEntity
  8
0
100
AcDbLine
 62
7
  6
CONTINUOUS
 10
54.3539713512
 20
-5.3659269792
 11
54.2471526186
 21
-5.3659269792
  0
LINE
  5
29B
100
AcDbEntity
  8
0
100
AcDbLine
 62
7
  6
CONTINUOUS
 10
40.6743337664
 20
-5.3659269792
 11
40.781152499
 21
-5.3659269792
  0
LINE
  5
29C
100
AcDbEntity
  8
0
100
AcDbLine
 62
7
  6
CONTINUOUS
 10
54.2213888297
 20
-5.2576738037
 11
54.1145700971
 21
-5.2576738037
  0
LINE
  5
29D
100
AcDbEntity
  8
0
100
AcDbLine
 62
7
  6
CONTINUOUS
 10
40.8069162879
 20
-5.2576738037
 11
40.9137350205
 21
-5.2576738037
  0
LINE
  5
29E
100
AcDbEntity
  8
0
100
AcDbLine
 62
3
  6
CONTINUOUS
 10
36.3541525588
 20
-6.0894206282
 11
36.3541525588
 21
-7.4294206282
  0
LINE
  5
29F
100
AcDbEntity
  8
0
100
AcDbLine
 62
7
  6
CONTINUOUS
 10
36.4341525588
 20
-6.0894206282
 11
36.4341525588
 21
-7.4294206282
  0
LINE
  5
2A0
100
AcDbEntity
  8
0
100
AcDbLine
 62
3
  6
CONTINUOUS
 10
36.5141525588
 20
-5.9294206282
 11
36.5141525588
 21
-7.4294206282
  0
LINE
  5
2A1
100
AcDbEntity
  8
0
100
AcDbLine
 62
7
  6
CONTINUOUS
 10
36.6041525588
 20
-5.9294206282
 11
36.6041525588
 21
-5.8794206282
  0
LINE
  5
2A2
100
AcDbEntity
  8
0
100
AcDbLine
 62
7
  6
CONTINUOUS
 10
54.2213888297
 20
-5.0411674528
 11
54.1145700971
 21
-5.0411674528
  0
LINE
  5
2A3
100
AcDbEntity
  8
0
100
AcDbLine
 62
7
  6
CONTINUOUS
 10
40.8069162879
 20
-5.0411674528
 11
40.9137350205
 21
-5.0411674528
  0
LINE
  5
2A4
100
AcDbEntity
  8
0
100
AcDbLine
 62
7
  6
CONTINUOUS
 10
54.3539713512
 20
-4.9329142773
 11
54.2471526186
 21
-4.9329142773
  0
LINE
  5
2A5
100
AcDbEntity
  8
0
100
AcDbLine
 62
7
  6
CONTINUOUS
 10
40.6743337664
 20
-4.9329142773
 11
40.781152499
 21
-4.9329142773
  0
LINE
  5
2A6
100
AcDbEntity
  8
0
100
AcDbLine
 62
7
  6
CONTINUOUS
 10
54.2316669801
 20
-4.8894206282
 11
54.196311641
 21
-4.8894206282
  0
LINE
  5
2A7
100
AcDbEntity
  8
0
100
AcDbLine
 62
7
  6
CONTINUOUS
 10
40.7966381375
 20
-4.8894206282
 11
40.8319934766
 21
-4.8894206282
  0
LINE
  5
2A8
100
AcDbEntity
  8
0
100
AcDbLine
 62
7
  6
CONTINUOUS
 10
37.2206439434
 20
3.9700793718
 11
37.2206439434
 21
3.9000793718
  0
LINE
  5
2A9
100
AcDbEntity
  8
0
100
AcDbLine
 62
3
  6
CONTINUOUS
 10
38.0958682876
 20
-2.6744206282
 11
38.0958682876
 21
-5.8794206282
  0
LINE
  5
2AA
100
AcDbEntity
  8
0
100
AcDbLine
 62
7
  6
CONTINUOUS
 10
38.1262679019
 20
4.1155793718
 11
38.1262679019
 21
4.0400793718
  0
LINE
  5
2AB
100
AcDbEntity
  8
0
100
AcDbLine
 62
7
  6
CONTINUOUS
 10
38.2134220308
 20
4.1900794952
 11
38.2134220308
 21
4.0400793718
  0
LINE
  5
2AC
100
AcDbEntity
  8
0
100
AcDbLine
 62
3
  6
CONTINUOUS
 10
38.2831556695
 20
4.1900794952
 11
38.2831556695
 21
4.0400793718
  0
LINE
  5
2AD
100
AcDbEntity
  8
0
100
AcDbLine
 62
7
  6
CONTINUOUS
 10
37.5774224512
 20
4.5700794952
 11
37.5968976878
 21
5.1277773041
  0
LINE
  5
2AE
100
AcDbEntity
  8
0
100
AcDbLine
 62
7
  6
CONTINUOUS
 10
37.6149736799
 20
5.6454059914
 11
37.9964646658
 21
16.5698784886
  0
LINE
  5
2AF
100
AcDbEntity
  8
0
100
AcDbLine
 62
3
  6
CONTINUOUS
 10
32.9170840058
 20
-2.6744206282
 11
62.1112211118
 21
-2.6744206282
  0
LINE
  5
2B0
100
AcDbEntity
  8
0
100
AcDbLine
 62
7
  6
CONTINUOUS
 10
39.3541525588
 20
-5.9294206282
 11
39.3541525588
 21
-5.8794206282
  0
LINE
  5
2B1
100
AcDbEntity
  8
0
100
AcDbLine
 62
7
  6
CONTINUOUS
 10
37.4656700027
 20
5.5955619852
 11
37.4751360161
 21
5.6122125018
  0
LINE
  5
2B2
100
AcDbEntity
  8
0
100
AcDbLine
 62
3
  6
CONTINUOUS
 10
32.9170840058
 20
-2.1744206282
 11
62.1112211118
 21
-2.1744206282
  0
LINE
  5
2B3
100
AcDbEntity
  8
0
100
AcDbLine
 62
7
  6
CONTINUOUS
 10
37.4656700027
 20
5.1645967584
 11
37.4751360161
 21
5.1479462418
  0
LINE
  5
2B4
100
AcDbEntity
  8
0
100
AcDbLine
 62
3
  6
CONTINUOUS
 10
41.2027318939
 20
-5.9294206282
 11
41.2027318939
 21
-2.6744206282
  0
LINE
  5
2B5
100
AcDbEntity
  8
0
100
AcDbLine
 62
7
  6
CONTINUOUS
 10
41.2361884242
 20
-5.9294206282
 11
41.2361884242
 21
-2.6744206282
  0
LINE
  5
2B6
100
AcDbEntity
  8
0
100
AcDbLine
 62
3
  6
CONTINUOUS
 10
58.7355922011
 20
3.7105793718
 11
36.2927129165
 21
3.7105793718
  0
LINE
  5
2B7
100
AcDbEntity
  8
0
100
AcDbLine
 62
3
  6
CONTINUOUS
 10
38.143688392
 20
3.9000793718
 11
37.220646669
 21
3.9000793718
  0
LINE
  5
2B8
100
AcDbEntity
  8
0
100
AcDbLine
 62
3
  6
CONTINUOUS
 10
47.8396616573
 20
3.9000793718
 11
48.8899690798
 21
3.9000793718
  0
LINE
  5
2B9
100
AcDbEntity
  8
0
100
AcDbLine
 62
3
  6
CONTINUOUS
 10
56.8846167256
 20
3.9000793718
 11
57.8076584486
 21
3.9000793718
  0
LINE
  5
2BA
100
AcDbEntity
  8
0
100
AcDbLine
 62
7
  6
CONTINUOUS
 10
38.143688392
 20
3.9700793718
 11
37.220646669
 21
3.9700793718
  0
LINE
  5
2BB
100
AcDbEntity
  8
0
100
AcDbLine
 62
7
  6
CONTINUOUS
 10
47.8396616573
 20
3.9700793718
 11
48.8899690798
 21
3.9700793718
  0
LINE
  5
2BC
100
AcDbEntity
  8
0
100
AcDbLine
 62
7
  6
CONTINUOUS
 10
56.9717708545
 20
3.9700793718
 11
57.8076584486
 21
3.9700793718
  0
LINE
  5
2BD
100
AcDbEntity
  8
0
100
AcDbLine
 62
7
  6
CONTINUOUS
 10
38.1698449663
 20
4.1155793718
 11
38.1050923018
 21
4.1155793718
  0
LINE
  5
2BE
100
AcDbEntity
  8
0
100
AcDbLine
 62
7
  6
CONTINUOUS
 10
56.9020372157
 20
4.1155793718
 11
56.9232128158
 21
4.1155793718
  0
LINE
  5
2BF
100
AcDbEntity
  8
0
100
AcDbLine
 62
7
  6
CONTINUOUS
 10
36.324153564
 20
4.1900794952
 11
58.7041525588
 21
4.1900794952
  0
LINE
  5
2C0
100
AcDbEntity
  8
0
100
AcDbLine
 62
7
  6
CONTINUOUS
 10
36.3241525588
 20
4.5700794952
 11
58.7041525588
 21
4.5700794952
  0
LINE
  5
2C1
100
AcDbEntity
  8
0
100
AcDbLine
 62
7
  6
CONTINUOUS
 10
37.610008717
 20
5.1145793718
 11
37.6398945622
 21
5.1145793718
  0
LINE
  5
2C2
100
AcDbEntity
  8
0
100
AcDbLine
 62
7
  6
CONTINUOUS
 10
57.5400271184
 20
5.1277773041
 11
57.4314074298
 21
5.1277773041
  0
LINE
  5
2C3
100
AcDbEntity
  8
0
100
AcDbLine
 62
7
  6
CONTINUOUS
 10
48.3912865584
 20
5.1277773041
 11
48.380944909
 21
5.1277773041
  0
LINE
  5
2C4
100
AcDbEntity
  8
0
100
AcDbLine
 62
7
  6
CONTINUOUS
 10
37.4882779992
 20
5.1277773041
 11
37.6064857982
 21
5.1277773041
  0
LINE
  5
2C5
100
AcDbEntity
  8
0
100
AcDbLine
 62
7
  6
CONTINUOUS
 10
57.5590702956
 20
5.2539283379
 11
57.4408624966
 21
5.2539283379
  0
LINE
  5
2C6
100
AcDbEntity
  8
0
100
AcDbLine
 62
7
  6
CONTINUOUS
 10
48.173617986
 20
5.2539283379
 11
48.1632763366
 21
5.2539283379
  0
LINE
  5
2C7
100
AcDbEntity
  8
0
100
AcDbLine
 62
7
  6
CONTINUOUS
 10
37.5073211764
 20
5.2539283379
 11
37.6255289753
 21
5.2539283379
  0
LINE
  5
2C8
100
AcDbEntity
  8
0
100
AcDbLine
 62
7
  6
CONTINUOUS
 10
57.5590702956
 20
5.5062304056
 11
57.4408624966
 21
5.5062304056
  0
LINE
  5
2C9
100
AcDbEntity
  8
0
100
AcDbLine
 62
7
  6
CONTINUOUS
 10
48.173617986
 20
5.5062304056
 11
48.1632763366
 21
5.5062304056
  0
LINE
  5
2CA
100
AcDbEntity
  8
0
100
AcDbLine
 62
7
  6
CONTINUOUS
 10
37.5073211764
 20
5.5062304056
 11
37.6255289753
 21
5.5062304056
  0
LINE
  5
2CB
100
AcDbEntity
  8
0
100
AcDbLine
 62
7
  6
CONTINUOUS
 10
57.5400271184
 20
5.6323814394
 11
57.4254272487
 21
5.6323814394
  0
LINE
  5
2CC
100
AcDbEntity
  8
0
100
AcDbLine
 62
7
  6
CONTINUOUS
 10
48.3912865584
 20
5.6323814394
 11
48.380944909
 21
5.6323814394
  0
LINE
  5
2CD
100
AcDbEntity
  8
0
100
AcDbLine
 62
7
  6
CONTINUOUS
 10
37.4882779992
 20
5.6323814394
 11
37.6064857982
 21
5.6323814394
  0
LINE
  5
2CE
100
AcDbEntity
  8
0
100
AcDbLine
 62
7
  6
CONTINUOUS
 10
57.4182964006
 20
5.6455793718
 11
57.4133253831
 21
5.6455793718
  0
LINE
  5
2CF
100
AcDbEntity
  8
0
100
AcDbLine
 62
7
  6
CONTINUOUS
 10
37.610008717
 20
5.6455793718
 11
37.6398945622
 21
5.6455793718
  0
LINE
  5
2D0
100
AcDbEntity
  8
0
100
AcDbLine
 62
3
  6
CONTINUOUS
 10
47.8274600793
 20
4.1900794952
 11
47.8274600793
 21
4.0400793718
  0
LINE
  5
2D1
100
AcDbEntity
  8
0
100
AcDbLine
 62
7
  6
CONTINUOUS
 10
47.8335608683
 20
4.1900794952
 11
47.8335608683
 21
4.0400793718
  0
LINE
  5
2D2
100
AcDbEntity
  8
0
100
AcDbLine
 62
7
  6
CONTINUOUS
 10
48.8297557076
 20
4.1900794952
 11
48.8297557076
 21
4.0400793718
  0
LINE
  5
2D3
100
AcDbEntity
  8
0
100
AcDbLine
 62
7
  6
CONTINUOUS
 10
48.8899718054
 20
3.9700793718
 11
48.8899718054
 21
3.9000793718
  0
LINE
  5
2D4
100
AcDbEntity
  8
0
100
AcDbLine
 62
7
  6
CONTINUOUS
 10
57.5626351149
 20
5.5955619852
 11
57.5531691015
 21
5.6122125018
  0
LINE
  5
2D5
100
AcDbEntity
  8
0
100
AcDbLine
 62
7
  6
CONTINUOUS
 10
57.4508826664
 20
4.5700794952
 11
57.0318404518
 21
16.5698784886
  0
LINE
  5
2D6
100
AcDbEntity
  8
0
100
AcDbLine
 62
3
  6
CONTINUOUS
 10
56.8241525588
 20
4.1900794952
 11
56.8241525588
 21
3.9605793718
  0
LINE
  5
2D7
100
AcDbEntity
  8
0
100
AcDbLine
 62
3
  6
CONTINUOUS
 10
56.832303577
 20
4.1900794952
 11
56.832303577
 21
4.0400793718
  0
LINE
  5
2D8
100
AcDbEntity
  8
0
100
AcDbLine
 62
7
  6
CONTINUOUS
 10
56.9020372157
 20
4.1900794952
 11
56.9020372157
 21
4.0400793718
  0
LINE
  5
2D9
100
AcDbEntity
  8
0
100
AcDbLine
 62
3
  6
CONTINUOUS
 10
56.9324368301
 20
-2.6744206282
 11
56.9324368301
 21
-5.9294206282
  0
LINE
  5
2DA
100
AcDbEntity
  8
0
100
AcDbLine
 62
7
  6
CONTINUOUS
 10
57.4359709973
 20
5.1692387233
 11
57.4306904434
 21
5.1483091069
  0
LINE
  5
2DB
100
AcDbEntity
  8
0
100
AcDbLine
 62
7
  6
CONTINUOUS
 10
57.5626351149
 20
5.1645967584
 11
57.5531691015
 21
5.1479462418
  0
LINE
  5
2DC
100
AcDbEntity
  8
0
100
AcDbLine
 62
7
  6
CONTINUOUS
 10
57.4359714349
 20
5.5909182857
 11
57.4258515615
 21
5.6310286744
  0
LINE
  5
2DD
100
AcDbEntity
  8
0
100
AcDbLine
 62
7
  6
CONTINUOUS
 10
57.8076611742
 20
3.9700793718
 11
57.8076611742
 21
3.9000793718
  0
LINE
  5
2DE
100
AcDbEntity
  8
0
100
AcDbLine
 62
3
  6
CONTINUOUS
 10
58.5141525588
 20
-5.9294206282
 11
58.5141525588
 21
-7.4294206282
  0
LINE
  5
2DF
100
AcDbEntity
  8
0
100
AcDbLine
 62
7
  6
CONTINUOUS
 10
58.5941525588
 20
-6.0894206282
 11
58.5941525588
 21
-7.4294206282
  0
LINE
  5
2E0
100
AcDbEntity
  8
0
100
AcDbLine
 62
3
  6
CONTINUOUS
 10
58.6741525588
 20
-6.0894206282
 11
58.6741525588
 21
-7.4294206282
  0
LINE
  5
2E1
100
AcDbEntity
  8
0
100
AcDbLine
 62
7
  6
CONTINUOUS
 10
39.9952463198
 20
18.5000794952
 11
55.0330587978
 21
18.5000794952
  0
LINE
  5
2E2
100
AcDbEntity
  8
0
100
AcDbLine
 62
3
  6
CONTINUOUS
 10
61.8137159588
 20
0.7380698216
 11
61.9154223664
 21
-2.1744206282
  0
LINE
  5
2E3
100
AcDbEntity
  8
0
100
AcDbLine
 62
3
  6
CONTINUOUS
 10
-7.1182488219
 20
-45.3004306832
 11
14.8817511781
 21
-45.3004306832
  0
LINE
  5
2E4
100
AcDbEntity
  8
0
100
AcDbLine
 62
7
  6
CONTINUOUS
 10
-7.1182488219
 20
-45.2204306832
 11
14.8817511781
 21
-45.2204306832
  0
LINE
  5
2E5
100
AcDbEntity
  8
0
100
AcDbLine
 62
7
  6
CONTINUOUS
 10
-7.1182488219
 20
-45.1404306832
 11
-7.2782488219
 21
-45.1404306832
  0
LINE
  5
2E6
100
AcDbEntity
  8
0
100
AcDbLine
 62
7
  6
CONTINUOUS
 10
14.8817511781
 20
-45.1404306832
 11
15.0417511781
 21
-45.1404306832
  0
LINE
  5
2E7
100
AcDbEntity
  8
0
100
AcDbLine
 62
3
  6
CONTINUOUS
 10
-7.2782488219
 20
-23.1404306832
 11
-7.2782488219
 21
-45.1404306832
  0
LINE
  5
2E8
100
AcDbEntity
  8
0
100
AcDbLine
 62
7
  6
CONTINUOUS
 10
-7.1982488219
 20
-23.1404306832
 11
-7.1982488219
 21
-45.1404306832
  0
LINE
  5
2E9
100
AcDbEntity
  8
0
100
AcDbLine
 62
7
  6
CONTINUOUS
 10
-7.1182488219
 20
-22.9804306832
 11
-7.1182488219
 21
-23.1404306832
  0
LINE
  5
2EA
100
AcDbEntity
  8
0
100
AcDbLine
 62
7
  6
CONTINUOUS
 10
-7.1182488219
 20
-45.1404306832
 11
-7.1182488219
 21
-45.3004306832
  0
LINE
  5
2EB
100
AcDbEntity
  8
0
100
AcDbLine
 62
7
  6
CONTINUOUS
 10
-1.9518797667
 20
-40.1905679789
 11
-2.1393797667
 21
-40.0823148034
  0
LINE
  5
2EC
100
AcDbEntity
  8
0
100
AcDbLine
 62
7
  6
CONTINUOUS
 10
-1.9518797667
 20
-39.757555277
 11
-1.7643797667
 21
-39.8658084525
  0
LINE
  5
2ED
100
AcDbEntity
  8
0
100
AcDbLine
 62
7
  6
CONTINUOUS
 10
-2.1393797667
 20
-28.1985465629
 11
-1.9518797667
 21
-28.0902933875
  0
LINE
  5
2EE
100
AcDbEntity
  8
0
100
AcDbLine
 62
7
  6
CONTINUOUS
 10
-0.8912195949
 20
-39.1299078071
 11
-1.0787195949
 21
-39.0216546317
  0
LINE
  5
2EF
100
AcDbEntity
  8
0
100
AcDbLine
 62
7
  6
CONTINUOUS
 10
-0.8912195949
 20
-38.6968951052
 11
-0.7037195949
 21
-38.8051482807
  0
LINE
  5
2F0
100
AcDbEntity
  8
0
100
AcDbLine
 62
7
  6
CONTINUOUS
 10
-2.1393797667
 20
-40.0823148034
 11
-2.1393797667
 21
-39.8658084525
  0
LINE
  5
2F1
100
AcDbEntity
  8
0
100
AcDbLine
 62
7
  6
CONTINUOUS
 10
-2.1393797667
 20
-28.4150529139
 11
-2.1393797667
 21
-28.1985465629
  0
LINE
  5
2F2
100
AcDbEntity
  8
0
100
AcDbLine
 62
7
  6
CONTINUOUS
 10
-1.7643797667
 20
-28.1985465629
 11
-1.7643797667
 21
-28.4150529139
  0
LINE
  5
2F3
100
AcDbEntity
  8
0
100
AcDbLine
 62
7
  6
CONTINUOUS
 10
-1.7643797667
 20
-39.8658084525
 11
-1.7643797667
 21
-40.0823148034
  0
LINE
  5
2F4
100
AcDbEntity
  8
0
100
AcDbLine
 62
7
  6
CONTINUOUS
 10
-1.7643797667
 20
-28.4150529139
 11
-1.9518797667
 21
-28.5233060893
  0
LINE
  5
2F5
100
AcDbEntity
  8
0
100
AcDbLine
 62
7
  6
CONTINUOUS
 10
-1.0787195949
 20
-29.2592067347
 11
-0.8912195949
 21
-29.1509535592
  0
LINE
  5
2F6
100
AcDbEntity
  8
0
100
AcDbLine
 62
7
  6
CONTINUOUS
 10
-1.0787195949
 20
-39.0216546317
 11
-1.0787195949
 21
-38.8051482807
  0
LINE
  5
2F7
100
AcDbEntity
  8
0
100
AcDbLine
 62
7
  6
CONTINUOUS
 10
-1.0787195949
 20
-29.4757130856
 11
-1.0787195949
 21
-29.2592067347
  0
LINE
  5
2F8
100
AcDbEntity
  8
0
100
AcDbLine
 62
7
  6
CONTINUOUS
 10
-0.7037195949
 20
-29.2592067347
 11
-0.7037195949
 21
-29.4757130856
  0
LINE
  5
2F9
100
AcDbEntity
  8
0
100
AcDbLine
 62
7
  6
CONTINUOUS
 10
-0.7037195949
 20
-38.8051482807
 11
-0.7037195949
 21
-39.0216546317
  0
LINE
  5
2FA
100
AcDbEntity
  8
0
100
AcDbLine
 62
7
  6
CONTINUOUS
 10
-0.7037195949
 20
-29.4757130856
 11
-0.8912195949
 21
-29.5839662611
  0
LINE
  5
2FB
100
AcDbEntity
  8
0
100
AcDbLine
 62
7
  6
CONTINUOUS
 10
9.7153821229
 20
-40.1905679789
 11
9.5278821229
 21
-40.0823148034
  0
LINE
  5
2FC
100
AcDbEntity
  8
0
100
AcDbLine
 62
7
  6
CONTINUOUS
 10
9.7153821229
 20
-39.757555277
 11
9.9028821229
 21
-39.8658084525
  0
LINE
  5
2FD
100
AcDbEntity
  8
0
100
AcDbLine
 62
7
  6
CONTINUOUS
 10
8.6547219511
 20
-39.1299078071
 11
8.4672219511
 21
-39.0216546317
  0
LINE
  5
2FE
100
AcDbEntity
  8
0
100
AcDbLine
 62
7
  6
CONTINUOUS
 10
2.7972257743
 20
-34.766581717
 11
2.7972257743
 21
-34.5142796494
  0
LINE
  5
2FF
100
AcDbEntity
  8
0
100
AcDbLine
 62
7
  6
CONTINUOUS
 10
9.5278821229
 20
-28.1985465629
 11
9.7153821229
 21
-28.0902933875
  0
LINE
  5
300
100
AcDbEntity
  8
0
100
AcDbLine
 62
7
  6
CONTINUOUS
 10
8.6547219511
 20
-38.6968951052
 11
8.8422219511
 21
-38.8051482807
  0
LINE
  5
301
100
AcDbEntity
  8
0
100
AcDbLine
 62
7
  6
CONTINUOUS
 10
3.0157257743
 20
-34.8927327508
 11
2.7972257743
 21
-34.766581717
  0
LINE
  5
302
100
AcDbEntity
  8
0
100
AcDbLine
 62
7
  6
CONTINUOUS
 10
3.0157257743
 20
-34.3881286155
 11
3.2342257743
 21
-34.5142796494
  0
LINE
  5
303
100
AcDbEntity
  8
0
100
AcDbLine
 62
7
  6
CONTINUOUS
 10
3.0639308551
 20
-33.9569370341
 11
3.2483267697
 21
-34.0633980651
  0
LINE
  5
304
100
AcDbEntity
  8
0
100
AcDbLine
 62
7
  6
CONTINUOUS
 10
2.7502396506
 20
-33.7402661383
 11
2.5696168072
 21
-33.635983491
  0
LINE
  5
305
100
AcDbEntity
  8
0
100
AcDbLine
 62
7
  6
CONTINUOUS
 10
4.7477765819
 20
-34.8927327508
 11
4.5292765819
 21
-34.766581717
  0
LINE
  5
306
100
AcDbEntity
  8
0
100
AcDbLine
 62
7
  6
CONTINUOUS
 10
3.1176236235
 20
-33.9425501002
 11
3.2668212007
 21
-34.0286893616
  0
LINE
  5
307
100
AcDbEntity
  8
0
100
AcDbLine
 62
7
  6
CONTINUOUS
 10
3.2342257743
 20
-34.5142796494
 11
3.2342257743
 21
-34.766581717
  0
LINE
  5
308
100
AcDbEntity
  8
0
100
AcDbLine
 62
7
  6
CONTINUOUS
 10
3.6632511781
 20
-33.266581717
 11
3.6632511781
 21
-33.0142796494
  0
LINE
  5
309
100
AcDbEntity
  8
0
100
AcDbLine
 62
7
  6
CONTINUOUS
 10
4.1002511781
 20
-33.0142796494
 11
4.1002511781
 21
-33.266581717
  0
LINE
  5
30A
100
AcDbEntity
  8
0
100
AcDbLine
 62
7
  6
CONTINUOUS
 10
2.7502396506
 20
-33.7402661383
 11
2.9694427527
 21
-33.3605952281
  0
LINE
  5
30B
100
AcDbEntity
  8
0
100
AcDbLine
 62
7
  6
CONTINUOUS
 10
3.0639308551
 20
-33.9569370341
 11
3.1114308551
 21
-33.8746646208
  0
LINE
  5
30C
100
AcDbEntity
  8
0
100
AcDbLine
 62
7
  6
CONTINUOUS
 10
3.2664308551
 20
-33.6061967456
 11
3.3139308551
 21
-33.5239243322
  0
LINE
  5
30D
100
AcDbEntity
  8
0
100
AcDbLine
 62
7
  6
CONTINUOUS
 10
3.328317789
 20
-33.5776171006
 11
3.1176236235
 21
-33.9425501002
  0
LINE
  5
30E
100
AcDbEntity
  8
0
100
AcDbLine
 62
7
  6
CONTINUOUS
 10
9.9028821229
 20
-28.4150529139
 11
9.7153821229
 21
-28.5233060893
  0
LINE
  5
30F
100
AcDbEntity
  8
0
100
AcDbLine
 62
7
  6
CONTINUOUS
 10
8.4672219511
 20
-29.2592067347
 11
8.6547219511
 21
-29.1509535592
  0
LINE
  5
310
100
AcDbEntity
  8
0
100
AcDbLine
 62
7
  6
CONTINUOUS
 10
8.8422219511
 20
-29.4757130856
 11
8.6547219511
 21
-29.5839662611
  0
LINE
  5
311
100
AcDbEntity
  8
0
100
AcDbLine
 62
7
  6
CONTINUOUS
 10
3.6632511781
 20
-33.0142796494
 11
3.8817511781
 21
-32.8881286155
  0
LINE
  5
312
100
AcDbEntity
  8
0
100
AcDbLine
 62
7
  6
CONTINUOUS
 10
3.1176236235
 20
-33.9425501002
 11
3.0639308551
 21
-33.9569370341
  0
LINE
  5
313
100
AcDbEntity
  8
0
100
AcDbLine
 62
7
  6
CONTINUOUS
 10
3.6980562884
 20
-33.8879306832
 11
4.0654460678
 21
-33.8879306832
  0
LINE
  5
314
100
AcDbEntity
  8
0
100
AcDbLine
 62
7
  6
CONTINUOUS
 10
3.1284507807
 20
-33.8844910794
 11
2.7823412016
 21
-33.6846646208
  0
LINE
  5
315
100
AcDbEntity
  8
0
100
AcDbLine
 62
7
  6
CONTINUOUS
 10
2.8598412016
 20
-33.5504306832
 11
2.6792183583
 21
-33.446148036
  0
LINE
  5
316
100
AcDbEntity
  8
0
100
AcDbLine
 62
7
  6
CONTINUOUS
 10
3.2834507807
 20
-33.6160232042
 11
2.9373412016
 21
-33.4161967456
  0
LINE
  5
317
100
AcDbEntity
  8
0
100
AcDbLine
 62
7
  6
CONTINUOUS
 10
3.328317789
 20
-33.5776171006
 11
3.4775153663
 21
-33.663756362
  0
LINE
  5
318
100
AcDbEntity
  8
0
100
AcDbLine
 62
7
  6
CONTINUOUS
 10
4.7477765819
 20
-34.3881286155
 11
4.9662765819
 21
-34.5142796494
  0
LINE
  5
319
100
AcDbEntity
  8
0
100
AcDbLine
 62
7
  6
CONTINUOUS
 10
2.9694427527
 20
-33.3605952281
 11
2.7888199094
 21
-33.2563125809
  0
LINE
  5
31A
100
AcDbEntity
  8
0
100
AcDbLine
 62
7
  6
CONTINUOUS
 10
3.3139308551
 20
-33.5239243322
 11
3.4983267697
 21
-33.6303853632
  0
LINE
  5
31B
100
AcDbEntity
  8
0
100
AcDbLine
 62
7
  6
CONTINUOUS
 10
3.8817511781
 20
-33.3927327508
 11
3.6632511781
 21
-33.266581717
  0
LINE
  5
31C
100
AcDbEntity
  8
0
100
AcDbLine
 62
7
  6
CONTINUOUS
 10
3.8817511781
 20
-32.8881286155
 11
4.1002511781
 21
-33.0142796494
  0
LINE
  5
31D
100
AcDbEntity
  8
0
100
AcDbLine
 62
7
  6
CONTINUOUS
 10
3.3139308551
 20
-33.5239243322
 11
3.328317789
 21
-33.5776171006
  0
LINE
  5
31E
100
AcDbEntity
  8
0
100
AcDbLine
 62
7
  6
CONTINUOUS
 10
4.5292765819
 20
-34.766581717
 11
4.5292765819
 21
-34.5142796494
  0
LINE
  5
31F
100
AcDbEntity
  8
0
100
AcDbLine
 62
7
  6
CONTINUOUS
 10
4.9662765819
 20
-34.5142796494
 11
4.9662765819
 21
-34.766581717
  0
LINE
  5
320
100
AcDbEntity
  8
0
100
AcDbLine
 62
7
  6
CONTINUOUS
 10
4.1002511781
 20
-33.266581717
 11
3.8817511781
 21
-33.3927327508
  0
LINE
  5
321
100
AcDbEntity
  8
0
100
AcDbLine
 62
7
  6
CONTINUOUS
 10
2.7972257743
 20
-34.5142796494
 11
3.0157257743
 21
-34.3881286155
  0
LINE
  5
322
100
AcDbEntity
  8
0
100
AcDbLine
 62
7
  6
CONTINUOUS
 10
3.2342257743
 20
-34.766581717
 11
3.0157257743
 21
-34.8927327508
  0
LINE
  5
323
100
AcDbEntity
  8
0
100
AcDbLine
 62
7
  6
CONTINUOUS
 10
4.5292765819
 20
-34.5142796494
 11
4.7477765819
 21
-34.3881286155
  0
LINE
  5
324
100
AcDbEntity
  8
0
100
AcDbLine
 62
7
  6
CONTINUOUS
 10
-0.8912195949
 20
-29.5839662611
 11
-1.0787195949
 21
-29.4757130856
  0
LINE
  5
325
100
AcDbEntity
  8
0
100
AcDbLine
 62
7
  6
CONTINUOUS
 10
-0.8912195949
 20
-29.1509535592
 11
-0.7037195949
 21
-29.2592067347
  0
LINE
  5
326
100
AcDbEntity
  8
0
100
AcDbLine
 62
7
  6
CONTINUOUS
 10
-1.9518797667
 20
-28.5233060893
 11
-2.1393797667
 21
-28.4150529139
  0
LINE
  5
327
100
AcDbEntity
  8
0
100
AcDbLine
 62
7
  6
CONTINUOUS
 10
-1.9518797667
 20
-28.0902933875
 11
-1.7643797667
 21
-28.1985465629
  0
LINE
  5
328
100
AcDbEntity
  8
0
100
AcDbLine
 62
7
  6
CONTINUOUS
 10
4.9662765819
 20
-34.766581717
 11
4.7477765819
 21
-34.8927327508
  0
LINE
  5
329
100
AcDbEntity
  8
0
100
AcDbLine
 62
7
  6
CONTINUOUS
 10
-1.0787195949
 20
-38.8051482807
 11
-0.8912195949
 21
-38.6968951052
  0
LINE
  5
32A
100
AcDbEntity
  8
0
100
AcDbLine
 62
7
  6
CONTINUOUS
 10
-0.7037195949
 20
-39.0216546317
 11
-0.8912195949
 21
-39.1299078071
  0
LINE
  5
32B
100
AcDbEntity
  8
0
100
AcDbLine
 62
7
  6
CONTINUOUS
 10
-2.1393797667
 20
-39.8658084525
 11
-1.9518797667
 21
-39.757555277
  0
LINE
  5
32C
100
AcDbEntity
  8
0
100
AcDbLine
 62
7
  6
CONTINUOUS
 10
8.4672219511
 20
-39.0216546317
 11
8.4672219511
 21
-38.8051482807
  0
LINE
  5
32D
100
AcDbEntity
  8
0
100
AcDbLine
 62
7
  6
CONTINUOUS
 10
8.4672219511
 20
-29.4757130856
 11
8.4672219511
 21
-29.2592067347
  0
LINE
  5
32E
100
AcDbEntity
  8
0
100
AcDbLine
 62
7
  6
CONTINUOUS
 10
-1.7643797667
 20
-40.0823148034
 11
-1.9518797667
 21
-40.1905679789
  0
LINE
  5
32F
100
AcDbEntity
  8
0
100
AcDbLine
 62
7
  6
CONTINUOUS
 10
8.8422219511
 20
-29.2592067347
 11
8.8422219511
 21
-29.4757130856
  0
LINE
  5
330
100
AcDbEntity
  8
0
100
AcDbLine
 62
7
  6
CONTINUOUS
 10
8.8422219511
 20
-38.8051482807
 11
8.8422219511
 21
-39.0216546317
  0
LINE
  5
331
100
AcDbEntity
  8
0
100
AcDbLine
 62
7
  6
CONTINUOUS
 10
9.5278821229
 20
-40.0823148034
 11
9.5278821229
 21
-39.8658084525
  0
LINE
  5
332
100
AcDbEntity
  8
0
100
AcDbLine
 62
7
  6
CONTINUOUS
 10
9.5278821229
 20
-28.4150529139
 11
9.5278821229
 21
-28.1985465629
  0
LINE
  5
333
100
AcDbEntity
  8
0
100
AcDbLine
 62
7
  6
CONTINUOUS
 10
9.9028821229
 20
-28.1985465629
 11
9.9028821229
 21
-28.4150529139
  0
LINE
  5
334
100
AcDbEntity
  8
0
100
AcDbLine
 62
7
  6
CONTINUOUS
 10
9.9028821229
 20
-39.8658084525
 11
9.9028821229
 21
-40.0823148034
  0
LINE
  5
335
100
AcDbEntity
  8
0
100
AcDbLine
 62
7
  6
CONTINUOUS
 10
8.6547219511
 20
-29.5839662611
 11
8.4672219511
 21
-29.4757130856
  0
LINE
  5
336
100
AcDbEntity
  8
0
100
AcDbLine
 62
7
  6
CONTINUOUS
 10
8.6547219511
 20
-29.1509535592
 11
8.8422219511
 21
-29.2592067347
  0
LINE
  5
337
100
AcDbEntity
  8
0
100
AcDbLine
 62
7
  6
CONTINUOUS
 10
8.4672219511
 20
-38.8051482807
 11
8.6547219511
 21
-38.6968951052
  0
LINE
  5
338
100
AcDbEntity
  8
0
100
AcDbLine
 62
7
  6
CONTINUOUS
 10
9.7153821229
 20
-28.5233060893
 11
9.5278821229
 21
-28.4150529139
  0
LINE
  5
339
100
AcDbEntity
  8
0
100
AcDbLine
 62
7
  6
CONTINUOUS
 10
9.7153821229
 20
-28.0902933875
 11
9.9028821229
 21
-28.1985465629
  0
LINE
  5
33A
100
AcDbEntity
  8
0
100
AcDbLine
 62
7
  6
CONTINUOUS
 10
8.8422219511
 20
-39.0216546317
 11
8.6547219511
 21
-39.1299078071
  0
LINE
  5
33B
100
AcDbEntity
  8
0
100
AcDbLine
 62
7
  6
CONTINUOUS
 10
9.5278821229
 20
-39.8658084525
 11
9.7153821229
 21
-39.757555277
  0
LINE
  5
33C
100
AcDbEntity
  8
0
100
AcDbLine
 62
7
  6
CONTINUOUS
 10
9.9028821229
 20
-40.0823148034
 11
9.7153821229
 21
-40.1905679789
  0
LINE
  5
33D
100
AcDbEntity
  8
0
100
AcDbLine
 62
7
  6
CONTINUOUS
 10
-7.1182488219
 20
-23.1404306832
 11
-7.2782488219
 21
-23.1404306832
  0
LINE
  5
33E
100
AcDbEntity
  8
0
100
AcDbLine
 62
7
  6
CONTINUOUS
 10
14.8817511781
 20
-23.1404306832
 11
15.0417511781
 21
-23.1404306832
  0
LINE
  5
33F
100
AcDbEntity
  8
0
100
AcDbLine
 62
7
  6
CONTINUOUS
 10
14.8817511781
 20
-23.0604306832
 11
-7.1182488219
 21
-23.0604306832
  0
LINE
  5
340
100
AcDbEntity
  8
0
100
AcDbLine
 62
3
  6
CONTINUOUS
 10
14.8817511781
 20
-22.9804306832
 11
-7.1182488219
 21
-22.9804306832
  0
LINE
  5
341
100
AcDbEntity
  8
0
100
AcDbLine
 62
7
  6
CONTINUOUS
 10
14.8817511781
 20
-22.9804306832
 11
14.8817511781
 21
-23.1404306832
  0
LINE
  5
342
100
AcDbEntity
  8
0
100
AcDbLine
 62
7
  6
CONTINUOUS
 10
14.8817511781
 20
-45.1404306832
 11
14.8817511781
 21
-45.3004306832
  0
LINE
  5
343
100
AcDbEntity
  8
0
100
AcDbLine
 62
7
  6
CONTINUOUS
 10
14.9617511781
 20
-45.1404306832
 11
14.9617511781
 21
-23.1404306832
  0
LINE
  5
344
100
AcDbEntity
  8
0
100
AcDbLine
 62
3
  6
CONTINUOUS
 10
15.0417511781
 20
-45.1404306832
 11
15.0417511781
 21
-23.1404306832
  0
ARC
  5
345
100
AcDbEntity
  8
0
100
AcDbCircle
 62
7
  6
CONTINUOUS
 10
-5.3825573691
 20
-12.1023671843
 40
19.9879218764
100
AcDbArc
 50
59.5450254831
 51
60.2661960907
  0
ARC
  5
346
100
AcDbEntity
  8
0
100
AcDbCircle
 62
3
  6
CONTINUOUS
 10
-7.3396884747
 20
0.6305793718
 40
3.08
100
AcDbArc
 50
90.0
 51
178.0
  0
ARC
  5
347
100
AcDbEntity
  8
0
100
AcDbCircle
 62
7
  6
CONTINUOUS
 10
-2.9234299011
 20
-5.1346249425
 40
0.3048455204
100
AcDbArc
 50
20.0964013016
 51
22.2043123461
  0
ARC
  5
348
100
AcDbEntity
  8
0
100
AcDbCircle
 62
3
  6
CONTINUOUS
 10
-10.7153628067
 20
-2.4244206282
 40
0.25
100
AcDbArc
 50
90.0
 51
270.0
  0
ARC
  5
349
100
AcDbEntity
  8
0
100
AcDbCircle
 62
3
  6
CONTINUOUS
 10
-5.6782488219
 20
3.9605793718
 40
0.25
100
AcDbArc
 50
270.0
 51
348.7096999765
  0
ARC
  5
34A
100
AcDbEntity
  8
0
100
AcDbCircle
 62
7
  6
CONTINUOUS
 10
-7.3082488219
 20
4.3800794952
 40
0.19
100
AcDbArc
 50
90.0
 51
270.0
  0
ARC
  5
34B
100
AcDbEntity
  8
0
100
AcDbCircle
 62
3
  6
CONTINUOUS
 10
-7.1182488219
 20
-6.0894206282
 40
0.16
100
AcDbArc
 50
90.0
 51
180.0
  0
CIRCLE
  5
34C
100
AcDbEntity
  8
0
100
AcDbCircle
 62
3
  6
CONTINUOUS
 10
-1.6182488219
 20
-6.6794206282
 40
0.155
  0
ARC
  5
34D
100
AcDbEntity
  8
0
100
AcDbCircle
 62
7
  6
CONTINUOUS
 10
-5.9364518516
 20
5.1525410685
 40
0.0963811747
100
AcDbArc
 50
194.9602517105
 51
195.5750591841
  0
ARC
  5
34E
100
AcDbEntity
  8
0
100
AcDbCircle
 62
7
  6
CONTINUOUS
 10
-7.1182488219
 20
-6.0894206282
 40
0.08
100
AcDbArc
 50
90.0
 51
180.0
  0
ARC
  5
34F
100
AcDbEntity
  8
0
100
AcDbCircle
 62
7
  6
CONTINUOUS
 10
-5.3825573573
 20
22.8625259056
 40
19.9879218513
100
AcDbArc
 50
299.7338039116
 51
300.4549745201
  0
ARC
  5
350
100
AcDbEntity
  8
0
100
AcDbCircle
 62
7
  6
CONTINUOUS
 10
-5.5489066308
 20
5.3800793718
 40
10.0805667869
100
AcDbArc
 50
359.2829661617
 51
0.7170338383
  0
ARC
  5
351
100
AcDbEntity
  8
0
100
AcDbCircle
 62
7
  6
CONTINUOUS
 10
-8.9910834926
 20
5.3801248459
 40
3.0217160726
100
AcDbArc
 50
359.9990884414
 51
0.7625500021
  0
ARC
  5
352
100
AcDbEntity
  8
0
100
AcDbCircle
 62
7
  6
CONTINUOUS
 10
-3.6371550609
 20
16.5000794952
 40
2.0
100
AcDbArc
 50
90.0
 51
178.0
  0
ARC
  5
353
100
AcDbEntity
  8
0
100
AcDbCircle
 62
7
  6
CONTINUOUS
 10
-7.6918705914
 20
5.4271851102
 40
1.7215347681
100
AcDbArc
 50
2.8515724382
 51
3.8138396058
  0
ARC
  5
354
100
AcDbEntity
  8
0
100
AcDbCircle
 62
7
  6
CONTINUOUS
 10
-7.2452226605
 20
5.4576041398
 40
1.2738528131
100
AcDbArc
 50
3.7849223236
 51
5.1062138842
  0
ARC
  5
355
100
AcDbEntity
  8
0
100
AcDbCircle
 62
7
  6
CONTINUOUS
 10
-5.9384784486
 20
5.6081651686
 40
0.0942819278
100
AcDbArc
 50
164.2276072164
 51
164.9596111369
  0
ARC
  5
356
100
AcDbEntity
  8
0
100
AcDbCircle
 62
3
  6
CONTINUOUS
 10
15.1031908309
 20
0.6305793718
 40
3.08
100
AcDbArc
 50
2.0
 51
90.0
  0
ARC
  5
357
100
AcDbEntity
  8
0
100
AcDbCircle
 62
7
  6
CONTINUOUS
 10
4.6993366892
 20
4.4782811491
 40
0.3627056928
100
AcDbArc
 50
232.8081385357
 51
269.9873968928
  0
ARC
  5
358
100
AcDbEntity
  8
0
100
AcDbCircle
 62
7
  6
CONTINUOUS
 10
4.7048421444
 20
4.4782811522
 40
0.3627056928
100
AcDbArc
 50
270.0126029936
 51
307.191861079
  0
ARC
  5
359
100
AcDbEntity
  8
0
100
AcDbCircle
 62
7
  6
CONTINUOUS
 10
4.7050017076
 20
4.4782811491
 40
0.3627056928
100
AcDbArc
 50
232.8081385375
 51
269.9873968946
  0
ARC
  5
35A
100
AcDbEntity
  8
0
100
AcDbCircle
 62
7
  6
CONTINUOUS
 10
4.7463384523
 20
5.3800792216
 40
0.2663883298
100
AcDbArc
 50
331.2816230954
 51
28.6782744837
  0
ARC
  5
35B
100
AcDbEntity
  8
0
100
AcDbCircle
 62
3
  6
CONTINUOUS
 10
18.4788651629
 20
-2.4244206282
 40
0.25
100
AcDbArc
 50
270.0
 51
90.0
  0
ARC
  5
35C
100
AcDbEntity
  8
0
100
AcDbCircle
 62
3
  6
CONTINUOUS
 10
13.4417511781
 20
3.9605793718
 40
0.25
100
AcDbArc
 50
180.0
 51
270.0
  0
ARC
  5
35D
100
AcDbEntity
  8
0
100
AcDbCircle
 62
7
  6
CONTINUOUS
 10
15.0717511781
 20
4.3800794952
 40
0.19
100
AcDbArc
 50
270.0
 51
90.0
  0
ARC
  5
35E
100
AcDbEntity
  8
0
100
AcDbCircle
 62
3
  6
CONTINUOUS
 10
14.8817511781
 20
-6.0894206282
 40
0.16
100
AcDbArc
 50
0.0
 51
90.0
  0
CIRCLE
  5
35F
100
AcDbEntity
  8
0
100
AcDbCircle
 62
3
  6
CONTINUOUS
 10
9.3817511781
 20
-6.6794206282
 40
0.155
  0
ARC
  5
360
100
AcDbEntity
  8
0
100
AcDbCircle
 62
3
  6
CONTINUOUS
 10
13.2522205659
 20
4.0390859279
 40
0.1390061661
100
AcDbArc
 50
246.5643410353
 51
269.9978480081
  0
ARC
  5
361
100
AcDbEntity
  8
0
100
AcDbCircle
 62
7
  6
CONTINUOUS
 10
14.8817511781
 20
-6.0894206282
 40
0.08
100
AcDbArc
 50
0.0
 51
90.0
  0
ARC
  5
362
100
AcDbEntity
  8
0
100
AcDbCircle
 62
7
  6
CONTINUOUS
 10
10.5146184318
 20
5.4016223192
 40
3.2729132405
100
AcDbArc
 50
1.9557540097
 51
2.3422918558
  0
ARC
  5
363
100
AcDbEntity
  8
0
100
AcDbCircle
 62
7
  6
CONTINUOUS
 10
11.4006574171
 20
16.5000794952
 40
2.0
100
AcDbArc
 50
2.0
 51
90.0
  0
ARC
  5
364
100
AcDbEntity
  8
0
100
AcDbCircle
 62
7
  6
CONTINUOUS
 10
4.7474546045
 20
5.3806411109
 40
0.2651379101
100
AcDbArc
 50
28.6874953659
 51
29.9050513266
  0
ARC
  5
365
100
AcDbEntity
  8
0
100
AcDbCircle
 62
7
  6
CONTINUOUS
 10
13.6877637186
 20
5.6043720679
 40
0.1089962935
100
AcDbArc
 50
14.1559894724
 51
15.0266315293
  0
ARC
  5
366
100
AcDbEntity
  8
0
100
AcDbCircle
 62
7
  6
CONTINUOUS
 10
13.7019808049
 20
5.6081651687
 40
0.0942819277
100
AcDbArc
 50
15.0403888628
 51
15.7723927838
  0
ARC
  5
367
100
AcDbEntity
  8
0
100
AcDbCircle
 62
7
  6
CONTINUOUS
 10
38.2498440116
 20
-12.1023671844
 40
19.9879218765
100
AcDbArc
 50
59.5450254831
 51
60.2661960907
  0
ARC
  5
368
100
AcDbEntity
  8
0
100
AcDbCircle
 62
3
  6
CONTINUOUS
 10
36.292712906
 20
0.6305793718
 40
3.08
100
AcDbArc
 50
90.0
 51
178.0
  0
ARC
  5
369
100
AcDbEntity
  8
0
100
AcDbCircle
 62
3
  6
CONTINUOUS
 10
32.917038574
 20
-2.4244206282
 40
0.25
100
AcDbArc
 50
90.0
 51
270.0
  0
ARC
  5
36A
100
AcDbEntity
  8
0
100
AcDbCircle
 62
3
  6
CONTINUOUS
 10
37.9541525588
 20
3.9605793718
 40
0.25
100
AcDbArc
 50
270.0
 51
348.7096999765
  0
ARC
  5
36B
100
AcDbEntity
  8
0
100
AcDbCircle
 62
7
  6
CONTINUOUS
 10
36.3241525588
 20
4.3800794952
 40
0.19
100
AcDbArc
 50
90.0
 51
270.0
  0
ARC
  5
36C
100
AcDbEntity
  8
0
100
AcDbCircle
 62
3
  6
CONTINUOUS
 10
36.5141525588
 20
-6.0894206282
 40
0.16
100
AcDbArc
 50
90.0
 51
180.0
  0
CIRCLE
  5
36D
100
AcDbEntity
  8
0
100
AcDbCircle
 62
3
  6
CONTINUOUS
 10
42.0141525588
 20
-6.6794206282
 40
0.155
  0
ARC
  5
36E
100
AcDbEntity
  8
0
100
AcDbCircle
 62
7
  6
CONTINUOUS
 10
37.6959495286
 20
5.1525410684
 40
0.0963811741
100
AcDbArc
 50
194.9602517094
 51
195.5750591863
  0
ARC
  5
36F
100
AcDbEntity
  8
0
100
AcDbCircle
 62
7
  6
CONTINUOUS
 10
36.5141525588
 20
-6.0894206282
 40
0.08
100
AcDbArc
 50
90.0
 51
180.0
  0
ARC
  5
370
100
AcDbEntity
  8
0
100
AcDbCircle
 62
7
  6
CONTINUOUS
 10
38.2498440235
 20
22.8625259054
 40
19.9879218511
100
AcDbArc
 50
299.7338039116
 51
300.4549745201
  0
ARC
  5
371
100
AcDbEntity
  8
0
100
AcDbCircle
 62
7
  6
CONTINUOUS
 10
38.0834947499
 20
5.3800793718
 40
10.080566787
100
AcDbArc
 50
359.2829661617
 51
0.7170338383
  0
ARC
  5
372
100
AcDbEntity
  8
0
100
AcDbCircle
 62
7
  6
CONTINUOUS
 10
34.6412703473
 20
5.3801247299
 40
3.0217636133
100
AcDbArc
 50
359.9990906553
 51
0.7616807665
  0
ARC
  5
373
100
AcDbEntity
  8
0
100
AcDbCircle
 62
7
  6
CONTINUOUS
 10
39.9952463198
 20
16.5000794952
 40
2.0
100
AcDbArc
 50
90.0
 51
178.0
  0
ARC
  5
374
100
AcDbEntity
  8
0
100
AcDbCircle
 62
7
  6
CONTINUOUS
 10
35.9404385292
 20
5.4271798463
 40
1.7216271759
100
AcDbArc
 50
2.851594654
 51
3.8134987842
  0
ARC
  5
375
100
AcDbEntity
  8
0
100
AcDbCircle
 62
7
  6
CONTINUOUS
 10
36.3871066555
 20
5.4575982526
 40
1.2739251157
100
AcDbArc
 50
3.7845517537
 51
5.1061891448
  0
ARC
  5
376
100
AcDbEntity
  8
0
100
AcDbCircle
 62
7
  6
CONTINUOUS
 10
37.6939229322
 20
5.6081651686
 40
0.0942819278
100
AcDbArc
 50
164.2276072165
 51
164.9596111364
  0
ARC
  5
377
100
AcDbEntity
  8
0
100
AcDbCircle
 62
3
  6
CONTINUOUS
 10
58.7355922116
 20
0.6305793718
 40
3.08
100
AcDbArc
 50
2.0
 51
90.0
  0
ARC
  5
378
100
AcDbEntity
  8
0
100
AcDbCircle
 62
7
  6
CONTINUOUS
 10
48.3317380699
 20
4.4782811491
 40
0.3627056928
100
AcDbArc
 50
232.8081385367
 51
269.9873968939
  0
ARC
  5
379
100
AcDbEntity
  8
0
100
AcDbCircle
 62
7
  6
CONTINUOUS
 10
48.3372435251
 20
4.4782811522
 40
0.3627056928
100
AcDbArc
 50
270.0126029936
 51
307.191861079
  0
ARC
  5
37A
100
AcDbEntity
  8
0
100
AcDbCircle
 62
7
  6
CONTINUOUS
 10
48.3374030883
 20
4.4782811491
 40
0.3627056928
100
AcDbArc
 50
232.8081385367
 51
269.9873968939
  0
ARC
  5
37B
100
AcDbEntity
  8
0
100
AcDbCircle
 62
7
  6
CONTINUOUS
 10
48.378739833
 20
5.3800792216
 40
0.2663883298
100
AcDbArc
 50
331.2816230954
 51
28.6782744837
  0
ARC
  5
37C
100
AcDbEntity
  8
0
100
AcDbCircle
 62
3
  6
CONTINUOUS
 10
62.1112665436
 20
-2.4244206282
 40
0.25
100
AcDbArc
 50
270.0
 51
90.0
  0
ARC
  5
37D
100
AcDbEntity
  8
0
100
AcDbCircle
 62
3
  6
CONTINUOUS
 10
57.0741525588
 20
3.9605793718
 40
0.25
100
AcDbArc
 50
180.0
 51
270.0
  0
ARC
  5
37E
100
AcDbEntity
  8
0
100
AcDbCircle
 62
7
  6
CONTINUOUS
 10
58.7041525588
 20
4.3800794952
 40
0.19
100
AcDbArc
 50
270.0
 51
90.0
  0
ARC
  5
37F
100
AcDbEntity
  8
0
100
AcDbCircle
 62
3
  6
CONTINUOUS
 10
58.5141525588
 20
-6.0894206282
 40
0.16
100
AcDbArc
 50
0.0
 51
90.0
  0
CIRCLE
  5
380
100
AcDbEntity
  8
0
100
AcDbCircle
 62
3
  6
CONTINUOUS
 10
53.0141525588
 20
-6.6794206282
 40
0.155
  0
ARC
  5
381
100
AcDbEntity
  8
0
100
AcDbCircle
 62
3
  6
CONTINUOUS
 10
56.8846219466
 20
4.0390859279
 40
0.1390061661
100
AcDbArc
 50
246.5643410332
 51
269.997848006
  0
ARC
  5
382
100
AcDbEntity
  8
0
100
AcDbCircle
 62
7
  6
CONTINUOUS
 10
58.5141525588
 20
-6.0894206282
 40
0.08
100
AcDbArc
 50
0.0
 51
90.0
  0
ARC
  5
383
100
AcDbEntity
  8
0
100
AcDbCircle
 62
7
  6
CONTINUOUS
 10
54.1470198118
 20
5.4016223192
 40
3.2729132412
100
AcDbArc
 50
1.9557540098
 51
2.3422918557
  0
ARC
  5
384
100
AcDbEntity
  8
0
100
AcDbCircle
 62
7
  6
CONTINUOUS
 10
55.0330587978
 20
16.5000794952
 40
2.0
100
AcDbArc
 50
2.0
 51
90.0
  0
ARC
  5
385
100
AcDbEntity
  8
0
100
AcDbCircle
 62
7
  6
CONTINUOUS
 10
48.3798559853
 20
5.3806411109
 40
0.26513791
100
AcDbArc
 50
28.6874953656
 51
29.9050513268
  0
ARC
  5
386
100
AcDbEntity
  8
0
100
AcDbCircle
 62
7
  6
CONTINUOUS
 10
57.3201650993
 20
5.6043720679
 40
0.1089962936
100
AcDbArc
 50
14.1559894725
 51
15.0266315291
  0
ARC
  5
387
100
AcDbEntity
  8
0
100
AcDbCircle
 62
7
  6
CONTINUOUS
 10
57.3343821854
 20
5.6081651686
 40
0.0942819279
100
AcDbArc
 50
15.0403888637
 51
15.7723927834
  0
CIRCLE
  5
388
100
AcDbEntity
  8
0
100
AcDbCircle
 62
7
  6
CONTINUOUS
 10
-0.8912195949
 20
-38.9134014562
 40
0.625
  0
CIRCLE
  5
389
100
AcDbEntity
  8
0
100
AcDbCircle
 62
7
  6
CONTINUOUS
 10
-1.9518797667
 20
-39.974061628
 40
0.625
  0
CIRCLE
  5
38A
100
AcDbEntity
  8
0
100
AcDbCircle
 62
7
  6
CONTINUOUS
 10
3.0157257743
 20
-34.6404306832
 40
0.2655
  0
CIRCLE
  5
38B
100
AcDbEntity
  8
0
100
AcDbCircle
 62
7
  6
CONTINUOUS
 10
-0.8912195949
 20
-38.9134014562
 40
0.26
  0
CIRCLE
  5
38C
100
AcDbEntity
  8
0
100
AcDbCircle
 62
7
  6
CONTINUOUS
 10
-1.9518797667
 20
-39.974061628
 40
0.26
  0
CIRCLE
  5
38D
100
AcDbEntity
  8
0
100
AcDbCircle
 62
7
  6
CONTINUOUS
 10
3.0157257743
 20
-34.6404306832
 40
0.218
  0
CIRCLE
  5
38E
100
AcDbEntity
  8
0
100
AcDbCircle
 62
7
  6
CONTINUOUS
 10
-0.8912195949
 20
-38.9134014562
 40
0.187
  0
CIRCLE
  5
38F
100
AcDbEntity
  8
0
100
AcDbCircle
 62
7
  6
CONTINUOUS
 10
-1.9518797667
 20
-39.974061628
 40
0.187
  0
ARC
  5
390
100
AcDbEntity
  8
0
100
AcDbCircle
 62
7
  6
CONTINUOUS
 10
3.3274949197
 20
-33.8204306832
 40
0.78
100
AcDbArc
 50
133.6783348578
 51
166.3216651422
  0
CIRCLE
  5
391
100
AcDbEntity
  8
0
100
AcDbCircle
 62
7
  6
CONTINUOUS
 10
-0.8912195949
 20
-29.3674599102
 40
0.625
  0
CIRCLE
  5
392
100
AcDbEntity
  8
0
100
AcDbCircle
 62
7
  6
CONTINUOUS
 10
-1.9518797667
 20
-28.3067997384
 40
0.625
  0
ARC
  5
393
100
AcDbEntity
  8
0
100
AcDbCircle
 62
7
  6
CONTINUOUS
 10
2.9576415624
 20
-33.730322036
 40
0.3993281503
100
AcDbArc
 50
161.3423374087
 51
166.3350857521
  0
CIRCLE
  5
394
100
AcDbEntity
  8
0
100
AcDbCircle
 62
7
  6
CONTINUOUS
 10
-0.8912195949
 20
-29.3674599102
 40
0.26
  0
CIRCLE
  5
395
100
AcDbEntity
  8
0
100
AcDbCircle
 62
7
  6
CONTINUOUS
 10
-1.9518797667
 20
-28.3067997384
 40
0.26
  0
CIRCLE
  5
396
100
AcDbEntity
  8
0
100
AcDbCircle
 62
7
  6
CONTINUOUS
 10
-0.8912195949
 20
-29.3674599102
 40
0.187
  0
CIRCLE
  5
397
100
AcDbEntity
  8
0
100
AcDbCircle
 62
7
  6
CONTINUOUS
 10
-1.9518797667
 20
-28.3067997384
 40
0.187
  0
CIRCLE
  5
398
100
AcDbEntity
  8
0
100
AcDbCircle
 62
7
  6
CONTINUOUS
 10
8.6547219511
 20
-38.9134014562
 40
0.625
  0
CIRCLE
  5
399
100
AcDbEntity
  8
0
100
AcDbCircle
 62
7
  6
CONTINUOUS
 10
9.7153821229
 20
-39.974061628
 40
0.625
  0
CIRCLE
  5
39A
100
AcDbEntity
  8
0
100
AcDbCircle
 62
7
  6
CONTINUOUS
 10
7.8192511781
 20
-40.960380738
 40
0.55
  0
CIRCLE
  5
39B
100
AcDbEntity
  8
0
100
AcDbCircle
 62
7
  6
CONTINUOUS
 10
7.8192511781
 20
-40.960380738
 40
0.5
  0
CIRCLE
  5
39C
100
AcDbEntity
  8
AXIS
100
AcDbCircle
 62
7
  6
CONTINUOUS
 10
7.8192511781
 20
-40.960380738
 40
0.47
  0
CIRCLE
  5
39D
100
AcDbEntity
  8
0
100
AcDbCircle
 62
7
  6
CONTINUOUS
 10
7.8192511781
 20
-40.960380738
 40
0.46
  0
CIRCLE
  5
39E
100
AcDbEntity
  8
0
100
AcDbCircle
 62
7
  6
CONTINUOUS
 10
7.8192511781
 20
-40.960380738
 40
0.41
  0
CIRCLE
  5
39F
100
AcDbEntity
  8
0
100
AcDbCircle
 62
7
  6
CONTINUOUS
 10
4.7477765819
 20
-34.6404306832
 40
0.2655
  0
CIRCLE
  5
3A0
100
AcDbEntity
  8
0
100
AcDbCircle
 62
7
  6
CONTINUOUS
 10
9.7153821229
 20
-39.974061628
 40
0.26
  0
CIRCLE
  5
3A1
100
AcDbEntity
  8
0
100
AcDbCircle
 62
7
  6
CONTINUOUS
 10
8.6547219511
 20
-38.9134014562
 40
0.26
  0
CIRCLE
  5
3A2
100
AcDbEntity
  8
0
100
AcDbCircle
 62
7
  6
CONTINUOUS
 10
4.7477765819
 20
-34.6404306832
 40
0.218
  0
CIRCLE
  5
3A3
100
AcDbEntity
  8
0
100
AcDbCircle
 62
7
  6
CONTINUOUS
 10
9.7153821229
 20
-39.974061628
 40
0.187
  0
CIRCLE
  5
3A4
100
AcDbEntity
  8
0
100
AcDbCircle
 62
7
  6
CONTINUOUS
 10
8.6547219511
 20
-38.9134014562
 40
0.187
  0
ARC
  5
3A5
100
AcDbEntity
  8
0
100
AcDbCircle
 62
3
  6
CONTINUOUS
 10
3.8817511781
 20
-34.1404306832
 40
14.8471139848
100
AcDbArc
 50
228.7403930196
 51
311.2649803305
  0
ARC
  5
3A6
100
AcDbEntity
  8
0
100
AcDbCircle
 62
3
  6
CONTINUOUS
 10
3.8817511781
 20
-34.1404306832
 40
14.8471139848
100
AcDbArc
 50
318.7403930196
 51
41.2649803304
  0
ARC
  5
3A7
100
AcDbEntity
  8
0
100
AcDbCircle
 62
3
  6
CONTINUOUS
 10
3.8817511781
 20
-34.1404306832
 40
14.8471139848
100
AcDbArc
 50
48.7403930196
 51
131.2649803304
  0
ARC
  5
3A8
100
AcDbEntity
  8
0
100
AcDbCircle
 62
3
  6
CONTINUOUS
 10
3.8817511781
 20
-34.1404306832
 40
14.8471139848
100
AcDbArc
 50
138.7403930196
 51
221.2649803304
  0
ARC
  5
3A9
100
AcDbEntity
  8
0
100
AcDbCircle
 62
7
  6
CONTINUOUS
 10
3.8817511781
 20
-34.1404306832
 40
14.3470383779
100
AcDbArc
 50
321.0747396964
 51
38.9244992796
  0
ARC
  5
3AA
100
AcDbEntity
  8
0
100
AcDbCircle
 62
7
  6
CONTINUOUS
 10
3.8817511781
 20
-34.1404306832
 40
14.3470383779
100
AcDbArc
 50
51.0755027914
 51
128.9252579013
  0
ARC
  5
3AB
100
AcDbEntity
  8
0
100
AcDbCircle
 62
7
  6
CONTINUOUS
 10
3.8817511781
 20
-34.1404306832
 40
14.3470383779
100
AcDbArc
 50
141.0747396964
 51
218.9244992796
  0
ARC
  5
3AC
100
AcDbEntity
  8
0
100
AcDbCircle
 62
7
  6
CONTINUOUS
 10
3.8817511781
 20
-34.1404306832
 40
14.3470383779
100
AcDbArc
 50
231.0755027914
 51
308.9252579013
  0
CIRCLE
  5
3AD
100
AcDbEntity
  8
0
100
AcDbCircle
 62
7
  6
CONTINUOUS
 10
3.8817511781
 20
-34.1404306832
 40
5.4397239256
  0
CIRCLE
  5
3AE
100
AcDbEntity
  8
0
100
AcDbCircle
 62
7
  6
CONTINUOUS
 10
3.8817511781
 20
-34.1404306832
 40
5.1228209103
  0
CIRCLE
  5
3AF
100
AcDbEntity
  8
0
100
AcDbCircle
 62
7
  6
CONTINUOUS
 10
3.8817511781
 20
-34.1404306832
 40
4.4076486343
  0
ARC
  5
3B0
100
AcDbEntity
  8
0
100
AcDbCircle
 62
7
  6
CONTINUOUS
 10
3.8817511781
 20
-34.1404306832
 40
1.25
100
AcDbArc
 50
94.7539852488
 51
139.8964730224
  0
ARC
  5
3B1
100
AcDbEntity
  8
0
100
AcDbCircle
 62
7
  6
CONTINUOUS
 10
3.8817511781
 20
-34.1404306832
 40
1.25
100
AcDbArc
 50
160.1235393399
 51
205.1891239858
  0
ARC
  5
3B2
100
AcDbEntity
  8
0
100
AcDbCircle
 62
7
  6
CONTINUOUS
 10
3.8817511781
 20
-34.1404306832
 40
1.25
100
AcDbArc
 50
214.874742549
 51
325.1335038411
  0
ARC
  5
3B3
100
AcDbEntity
  8
0
100
AcDbCircle
 62
7
  6
CONTINUOUS
 10
3.8817511781
 20
-34.1404306832
 40
1.25
100
AcDbArc
 50
334.7353544735
 51
85.4991229413
  0
ARC
  5
3B4
100
AcDbEntity
  8
0
100
AcDbCircle
 62
7
  6
CONTINUOUS
 10
3.8817511781
 20
-34.1404306832
 40
1.2368456474
100
AcDbArc
 50
216.3295727514
 51
323.5754607678
  0
ARC
  5
3B5
100
AcDbEntity
  8
0
100
AcDbCircle
 62
7
  6
CONTINUOUS
 10
3.8817511781
 20
-34.1404306832
 40
1.2368456474
100
AcDbArc
 50
160.2322042645
 51
203.7760638916
  0
ARC
  5
3B6
100
AcDbEntity
  8
0
100
AcDbCircle
 62
7
  6
CONTINUOUS
 10
3.8817511781
 20
-34.1404306832
 40
1.2368456474
100
AcDbArc
 50
96.4195550169
 51
139.786641295
  0
ARC
  5
3B7
100
AcDbEntity
  8
0
100
AcDbCircle
 62
7
  6
CONTINUOUS
 10
3.8817511781
 20
-34.1404306832
 40
1.2368456474
100
AcDbArc
 50
336.1405136236
 51
83.6750871004
  0
ARC
  5
3B8
100
AcDbEntity
  8
0
100
AcDbCircle
 62
7
  6
CONTINUOUS
 10
3.8817511781
 20
-34.1404306832
 40
0.6380912987
100
AcDbArc
 50
173.0661400609
 51
126.9338599391
  0
ARC
  5
3B9
100
AcDbEntity
  8
0
100
AcDbCircle
 62
7
  6
CONTINUOUS
 10
3.8817511781
 20
-34.1404306832
 40
0.625
100
AcDbArc
 50
169.7009376039
 51
130.2990623961
  0
ARC
  5
3BA
100
AcDbEntity
  8
0
100
AcDbCircle
 62
7
  6
CONTINUOUS
 10
3.8817511781
 20
-34.1404306832
 40
0.313
100
AcDbArc
 50
54.1552426192
 51
126.0351812438
  0
ARC
  5
3BB
100
AcDbEntity
  8
0
100
AcDbCircle
 62
7
  6
CONTINUOUS
 10
3.8817511781
 20
-34.1404306832
 40
0.31225
100
AcDbArc
 50
126.0360585143
 51
125.9795240079
  0
ARC
  5
3BC
100
AcDbEntity
  8
0
100
AcDbCircle
 62
7
  6
CONTINUOUS
 10
3.8817511781
 20
-34.1404306832
 40
0.2822620834
100
AcDbArc
 50
116.5432889225
 51
63.4567110775
  0
CIRCLE
  5
3BD
100
AcDbEntity
  8
0
100
AcDbCircle
 62
7
  6
CONTINUOUS
 10
3.8817511781
 20
-33.1404306832
 40
0.2655
  0
CIRCLE
  5
3BE
100
AcDbEntity
  8
0
100
AcDbCircle
 62
7
  6
CONTINUOUS
 10
3.8817511781
 20
-33.1404306832
 40
0.218
  0
CIRCLE
  5
3BF
100
AcDbEntity
  8
0
100
AcDbCircle
 62
7
  6
CONTINUOUS
 10
8.6547219511
 20
-29.3674599102
 40
0.625
  0
CIRCLE
  5
3C0
100
AcDbEntity
  8
0
100
AcDbCircle
 62
7
  6
CONTINUOUS
 10
9.7153821229
 20
-28.3067997384
 40
0.625
  0
CIRCLE
  5
3C1
100
AcDbEntity
  8
0
100
AcDbCircle
 62
7
  6
CONTINUOUS
 10
8.6547219511
 20
-29.3674599102
 40
0.26
  0
CIRCLE
  5
3C2
100
AcDbEntity
  8
0
100
AcDbCircle
 62
7
  6
CONTINUOUS
 10
9.7153821229
 20
-28.3067997384
 40
0.26
  0
CIRCLE
  5
3C3
100
AcDbEntity
  8
0
100
AcDbCircle
 62
7
  6
CONTINUOUS
 10
8.6547219511
 20
-29.3674599102
 40
0.187
  0
CIRCLE
  5
3C4
100
AcDbEntity
  8
0
100
AcDbCircle
 62
7
  6
CONTINUOUS
 10
9.7153821229
 20
-28.3067997384
 40
0.187
  0
SPLINE
  5
3C5
100
AcDbEntity
  8
0
100
AcDbSpline
 62
7
  6
CONTINUOUS
 70
0
 71
3
 72
30
 73
26
 74
0
 42
0.0000001
 43
0.0000001
 44
0.0000000001
 40
0.0
 40
0.0
 40
0.0
 40
0.0
 40
0.1118199296
 40
0.2174484888
 40
0.3167210576
 40
0.4094996367
 40
0.4956539445
 40
0.5750601336
 40
0.6476224156
 40
0.7132712945
 40
0.7719525507
 40
0.7986722373
 40
0.8236469378
 40
0.8468838677
 40
0.868394104
 40
0.8881939303
 40
0.9063067795
 40
0.922766097
 40
0.9376205342
 40
0.9509422052
 40
0.9628333508
 40
0.9734391409
 40
0.9829653442
 40
0.9916962128
 40
1.0
 40
1.0
 40
1.0
 40
1.0
 10
13.309986265
 20
4.1893405378
 30
0.0
 10
13.309653192
 20
4.1864535668
 30
0.0
 10
13.3089794559
 20
4.1808424265
 30
0.0
 10
13.3079113624
 20
4.1726804925
 30
0.0
 10
13.306815664
 20
4.1650217781
 30
0.0
 10
13.305694426
 20
4.157878625
 30
0.0
 10
13.3045496642
 20
4.1512625635
 30
0.0
 10
13.3033831952
 20
4.1451844412
 30
0.0
 10
13.3021971742
 20
4.1396539168
 30
0.0
 10
13.3009938994
 20
4.1346796499
 30
0.0
 10
13.2999487697
 20
4.1308946122
 30
0.0
 10
13.299097968
 20
4.1281548736
 30
0.0
 10
13.2984767232
 20
4.1263089931
 30
0.0
 10
13.2978525415
 20
4.1246076011
 30
0.0
 10
13.2972256645
 20
4.1230512586
 30
0.0
 10
13.2965963588
 20
4.1216404871
 30
0.0
 10
13.2959648591
 20
4.1203757627
 30
0.0
 10
13.2953313423
 20
4.1192574735
 30
0.0
 10
13.2946958222
 20
4.1182858576
 30
0.0
 10
13.2940582563
 20
4.1174608678
 30
0.0
 10
13.2934181915
 20
4.116782361
 30
0.0
 10
13.2927746842
 20
4.1162504456
 30
0.0
 10
13.2921260488
 20
4.1158661448
 30
0.0
 10
13.2914714872
 20
4.1156323468
 30
0.0
 10
13.2910272447
 20
4.1155793718
 30
0.0
 10
13.2908114351
 20
4.1155793718
 30
0.0
  0
SPLINE
  5
3C6
100
AcDbEntity
  8
0
100
AcDbSpline
 62
7
  6
CONTINUOUS
 70
0
 71
3
 72
30
 73
26
 74
0
 42
0.0000001
 43
0.0000001
 44
0.0000000001
 40
0.0
 40
0.0
 40
0.0
 40
0.0
 40
0.1118199296
 40
0.2174484888
 40
0.3167210576
 40
0.4094996367
 40
0.4956539445
 40
0.5750601336
 40
0.6476224156
 40
0.7132712945
 40
0.7719525507
 40
0.7986722373
 40
0.8236469378
 40
0.8468838677
 40
0.868394104
 40
0.8881939303
 40
0.9063067795
 40
0.922766097
 40
0.9376205342
 40
0.9509422052
 40
0.9628333508
 40
0.9734391409
 40
0.9829653442
 40
0.9916962128
 40
1.0
 40
1.0
 40
1.0
 40
1.0
 10
-5.5464839088
 20
4.1893405378
 30
0.0
 10
-5.5461508357
 20
4.1864535668
 30
0.0
 10
-5.5454770997
 20
4.1808424265
 30
0.0
 10
-5.5444090062
 20
4.1726804925
 30
0.0
 10
-5.5433133078
 20
4.1650217781
 30
0.0
 10
-5.5421920698
 20
4.157878625
 30
0.0
 10
-5.541047308
 20
4.1512625635
 30
0.0
 10
-5.539880839
 20
4.1451844412
 30
0.0
 10
-5.538694818
 20
4.1396539168
 30
0.0
 10
-5.5374915432
 20
4.1346796499
 30
0.0
 10
-5.5364464135
 20
4.1308946122
 30
0.0
 10
-5.5355956118
 20
4.1281548736
 30
0.0
 10
-5.534974367
 20
4.1263089931
 30
0.0
 10
-5.5343501853
 20
4.1246076011
 30
0.0
 10
-5.5337233083
 20
4.1230512586
 30
0.0
 10
-5.5330940026
 20
4.1216404871
 30
0.0
 10
-5.5324625029
 20
4.1203757627
 30
0.0
 10
-5.5318289861
 20
4.1192574735
 30
0.0
 10
-5.531193466
 20
4.1182858576
 30
0.0
 10
-5.5305559001
 20
4.1174608678
 30
0.0
 10
-5.5299158353
 20
4.116782361
 30
0.0
 10
-5.529272328
 20
4.1162504456
 30
0.0
 10
-5.5286236926
 20
4.1158661448
 30
0.0
 10
-5.527969131
 20
4.1156323468
 30
0.0
 10
-5.5275248885
 20
4.1155793718
 30
0.0
 10
-5.5273090789
 20
4.1155793718
 30
0.0
  0
SPLINE
  5
3C7
100
AcDbEntity
  8
0
100
AcDbSpline
 62
7
  6
CONTINUOUS
 70
0
 71
3
 72
30
 73
26
 74
0
 42
0.0000001
 43
0.0000001
 44
0.0000000001
 40
0.0
 40
0.0
 40
0.0
 40
0.0
 40
0.0083037872
 40
0.0170346558
 40
0.0265608591
 40
0.0371666492
 40
0.0490577948
 40
0.0623794658
 40
0.077233903
 40
0.0936932205
 40
0.1118060697
 40
0.131605896
 40
0.1531161323
 40
0.1763530622
 40
0.2013277627
 40
0.2280474493
 40
0.2867287055
 40
0.3523775844
 40
0.4249398664
 40
0.5043460555
 40
0.5905003633
 40
0.6832789424
 40
0.7825515112
 40
0.8881800704
 40
1.0
 40
1.0
 40
1.0
 40
1.0
 10
-5.4625564144
 20
4.1155793718
 30
0.0
 10
-5.4623406048
 20
4.1155793718
 30
0.0
 10
-5.4618963623
 20
4.1156323468
 30
0.0
 10
-5.4612418007
 20
4.1158661448
 30
0.0
 10
-5.4605931653
 20
4.1162504456
 30
0.0
 10
-5.459949658
 20
4.116782361
 30
0.0
 10
-5.4593095932
 20
4.1174608678
 30
0.0
 10
-5.4586720273
 20
4.1182858576
 30
0.0
 10
-5.4580365072
 20
4.1192574735
 30
0.0
 10
-5.4574029904
 20
4.1203757627
 30
0.0
 10
-5.4567714907
 20
4.1216404871
 30
0.0
 10
-5.456142185
 20
4.1230512586
 30
0.0
 10
-5.455515308
 20
4.1246076011
 30
0.0
 10
-5.4548911263
 20
4.1263089931
 30
0.0
 10
-5.4542698815
 20
4.1281548736
 30
0.0
 10
-5.4534190798
 20
4.1308946122
 30
0.0
 10
-5.4523739501
 20
4.1346796499
 30
0.0
 10
-5.4511706753
 20
4.1396539168
 30
0.0
 10
-5.4499846543
 20
4.1451844412
 30
0.0
 10
-5.4488181853
 20
4.1512625635
 30
0.0
 10
-5.4476734236
 20
4.157878625
 30
0.0
 10
-5.4465521855
 20
4.1650217781
 30
0.0
 10
-5.4454564871
 20
4.1726804925
 30
0.0
 10
-5.4443883936
 20
4.1808424265
 30
0.0
 10
-5.4437146576
 20
4.1864535668
 30
0.0
 10
-5.4433815845
 20
4.1893405378
 30
0.0
  0
SPLINE
  5
3C8
100
AcDbEntity
  8
0
100
AcDbSpline
 62
7
  6
CONTINUOUS
 70
0
 71
3
 72
30
 73
26
 74
0
 42
0.0000001
 43
0.0000001
 44
0.0000000001
 40
0.0
 40
0.0
 40
0.0
 40
0.0
 40
0.0083037872
 40
0.0170346558
 40
0.0265608591
 40
0.0371666492
 40
0.0490577948
 40
0.0623794658
 40
0.077233903
 40
0.0936932205
 40
0.1118060697
 40
0.131605896
 40
0.1531161323
 40
0.1763530622
 40
0.2013277627
 40
0.2280474493
 40
0.2867287055
 40
0.3523775844
 40
0.4249398664
 40
0.5043460555
 40
0.5905003633
 40
0.6832789424
 40
0.7825515112
 40
0.8881800704
 40
1.0
 40
1.0
 40
1.0
 40
1.0
 10
-5.5273090789
 20
4.1155793718
 30
0.0
 10
-5.5270932694
 20
4.1155793718
 30
0.0
 10
-5.5266490268
 20
4.1156323468
 30
0.0
 10
-5.5259944653
 20
4.1158661448
 30
0.0
 10
-5.5253458298
 20
4.1162504456
 30
0.0
 10
-5.5247023225
 20
4.116782361
 30
0.0
 10
-5.5240622578
 20
4.1174608678
 30
0.0
 10
-5.5234246919
 20
4.1182858576
 30
0.0
 10
-5.5227891718
 20
4.1192574735
 30
0.0
 10
-5.5221556549
 20
4.1203757627
 30
0.0
 10
-5.5215241553
 20
4.1216404871
 30
0.0
 10
-5.5208948496
 20
4.1230512586
 30
0.0
 10
-5.5202679725
 20
4.1246076011
 30
0.0
 10
-5.5196437909
 20
4.1263089931
 30
0.0
 10
-5.5190225461
 20
4.1281548736
 30
0.0
 10
-5.5181717443
 20
4.1308946122
 30
0.0
 10
-5.5171266147
 20
4.1346796499
 30
0.0
 10
-5.5159233399
 20
4.1396539168
 30
0.0
 10
-5.5147373189
 20
4.1451844412
 30
0.0
 10
-5.5135708498
 20
4.1512625635
 30
0.0
 10
-5.5124260881
 20
4.157878625
 30
0.0
 10
-5.51130485
 20
4.1650217781
 30
0.0
 10
-5.5102091517
 20
4.1726804925
 30
0.0
 10
-5.5091410582
 20
4.1808424265
 30
0.0
 10
-5.5084673221
 20
4.1864535668
 30
0.0
 10
-5.5081342491
 20
4.1893405378
 30
0.0
  0
SPLINE
  5
3C9
100
AcDbEntity
  8
0
100
AcDbSpline
 62
7
  6
CONTINUOUS
 70
0
 71
3
 72
31
 73
27
 74
0
 42
0.0000001
 43
0.0000001
 44
0.0000000001
 40
0.0
 40
0.0
 40
0.0
 40
0.0
 40
0.111641578
 40
0.2173880933
 40
0.3170231375
 40
0.4103364836
 40
0.497131009
 40
0.5772420545
 40
0.6505153529
 40
0.7168146744
 40
0.7760463633
 40
0.8029904048
 40
0.8281437303
 40
0.8515039891
 40
0.8730759534
 40
0.8928693659
 40
0.9108999481
 40
0.9271919734
 40
0.9417822687
 40
0.9547276562
 40
0.9661172921
 40
0.9760852375
 40
0.984833365
 40
0.9926609861
 40
0.9963631019
 40
1.0
 40
1.0
 40
1.0
 40
1.0
 10
-6.014285506
 20
5.6461268868
 30
0.0
 10
-6.0139303654
 20
5.6499543888
 30
0.0
 10
-6.0132073967
 20
5.6574044251
 30
0.0
 10
-6.0120487464
 20
5.6682583944
 30
0.0
 10
-6.0108474185
 20
5.6784726099
 30
0.0
 10
-6.0096061711
 20
5.6880244251
 30
0.0
 10
-6.0083276532
 20
5.6968927001
 30
0.0
 10
-6.0070151924
 20
5.7050579303
 30
0.0
 10
-6.0056720252
 20
5.712502251
 30
0.0
 10
-6.004301007
 20
5.7192092792
 30
0.0
 10
-6.0031039558
 20
5.7243219435
 30
0.0
 10
-6.0021258025
 20
5.7280284587
 30
0.0
 10
-6.0014104185
 20
5.7305263441
 30
0.0
 10
-6.0006903062
 20
5.7328297968
 30
0.0
 10
-5.999965928
 20
5.7349377195
 30
0.0
 10
-5.9992377378
 20
5.7368492197
 30
0.0
 10
-5.9985061613
 20
5.7385634935
 30
0.0
 10
-5.9977715835
 20
5.7400798357
 30
0.0
 10
-5.9970342824
 20
5.7413977269
 30
0.0
 10
-5.9962941827
 20
5.7425169425
 30
0.0
 10
-5.9955510084
 20
5.7434377823
 30
0.0
 10
-5.9948032209
 20
5.7441605869
 30
0.0
 10
-5.9940485854
 20
5.7446847364
 30
0.0
 10
-5.993397956
 20
5.7449570933
 30
0.0
 10
-5.9928850652
 20
5.7450620722
 30
0.0
 10
-5.9926320409
 20
5.7450793718
 30
0.0
 10
-5.9925068185
 20
5.7450793718
 30
0.0
  0
SPLINE
  5
3CA
100
AcDbEntity
  8
0
100
AcDbSpline
 62
7
  6
CONTINUOUS
 70
0
 71
3
 72
31
 73
27
 74
0
 42
0.0000001
 43
0.0000001
 44
0.0000000001
 40
0.0
 40
0.0
 40
0.0
 40
0.0
 40
0.0036368981
 40
0.0073390139
 40
0.015166635
 40
0.0239147625
 40
0.0338827079
 40
0.0452723438
 40
0.0582177313
 40
0.0728080266
 40
0.0891000519
 40
0.1071306341
 40
0.1269240466
 40
0.1484960109
 40
0.1718562697
 40
0.1970095952
 40
0.2239536367
 40
0.2831853256
 40
0.3494846471
 40
0.4227579455
 40
0.502868991
 40
0.5896635164
 40
0.6829768625
 40
0.7826119067
 40
0.888358422
 40
1.0
 40
1.0
 40
1.0
 40
1.0
 10
-5.9925068185
 20
5.0150793718
 30
0.0
 10
-5.9926320409
 20
5.0150793718
 30
0.0
 10
-5.9928850652
 20
5.0150966713
 30
0.0
 10
-5.993397956
 20
5.0152016502
 30
0.0
 10
-5.9940485854
 20
5.0154740071
 30
0.0
 10
-5.9948032209
 20
5.0159981566
 30
0.0
 10
-5.9955510084
 20
5.0167209612
 30
0.0
 10
-5.9962941827
 20
5.0176418011
 30
0.0
 10
-5.9970342824
 20
5.0187610166
 30
0.0
 10
-5.9977715835
 20
5.0200789079
 30
0.0
 10
-5.9985061613
 20
5.02159525
 30
0.0
 10
-5.9992377378
 20
5.0233095239
 30
0.0
 10
-5.999965928
 20
5.0252210241
 30
0.0
 10
-6.0006903062
 20
5.0273289467
 30
0.0
 10
-6.0014104185
 20
5.0296323994
 30
0.0
 10
-6.0021258025
 20
5.0321302849
 30
0.0
 10
-6.0031039558
 20
5.0358368
 30
0.0
 10
-6.004301007
 20
5.0409494643
 30
0.0
 10
-6.0056720252
 20
5.0476564925
 30
0.0
 10
-6.0070151924
 20
5.0551008132
 30
0.0
 10
-6.0083276532
 20
5.0632660434
 30
0.0
 10
-6.0096061711
 20
5.0721343184
 30
0.0
 10
-6.0108474185
 20
5.0816861336
 30
0.0
 10
-6.0120487464
 20
5.0919003491
 30
0.0
 10
-6.0132073967
 20
5.1027543185
 30
0.0
 10
-6.0139303654
 20
5.1102043547
 30
0.0
 10
-6.014285506
 20
5.1140318567
 30
0.0
  0
SPLINE
  5
3CB
100
AcDbEntity
  8
0
100
AcDbSpline
 62
7
  6
CONTINUOUS
 70
0
 71
3
 72
43
 73
39
 74
0
 42
0.0000001
 43
0.0000001
 44
0.0000000001
 40
0.0
 40
0.0
 40
0.0
 40
0.0
 40
0.0967818639
 40
0.1926694648
 40
0.2866923273
 40
0.3779817862
 40
0.465663021
 40
0.548899173
 40
0.5886014298
 40
0.6269012241
 40
0.6637066348
 40
0.6989309058
 40
0.7324931119
 40
0.764313323
 40
0.7943183756
 40
0.8224412918
 40
0.8486166944
 40
0.8727880323
 40
0.8949056659
 40
0.9149232432
 40
0.924133631
 40
0.9328072092
 40
0.940941159
 40
0.9485331819
 40
0.9555817501
 40
0.9620873162
 40
0.9680523008
 40
0.9734808491
 40
0.9783795636
 40
0.9806335124
 40
0.9827592652
 40
0.9866346869
 40
0.99003195
 40
0.9929903403
 40
0.9955699911
 40
0.9978618572
 40
0.9989412144
 40
1.0
 40
1.0
 40
1.0
 40
1.0
 10
-5.9606955615
 20
5.3800793718
 30
0.0
 10
-5.9606955615
 20
5.3681554186
 30
0.0
 10
-5.9607968252
 20
5.3444175631
 30
0.0
 10
-5.9612510414
 20
5.3090982967
 30
0.0
 10
-5.9620034579
 20
5.274460919
 30
0.0
 10
-5.9630462154
 20
5.2408425532
 30
0.0
 10
-5.9643691314
 20
5.2085640568
 30
0.0
 10
-5.9657139633
 20
5.1826490087
 30
0.0
 10
-5.9669288798
 20
5.162820816
 30
0.0
 10
-5.9678868757
 20
5.1487083955
 30
0.0
 10
-5.968903819
 20
5.1351532868
 30
0.0
 10
-5.9699772878
 20
5.1221881225
 30
0.0
 10
-5.971104392
 20
5.1098441216
 30
0.0
 10
-5.9722825617
 20
5.0981509774
 30
0.0
 10
-5.9735088659
 20
5.0871367955
 30
0.0
 10
-5.9747799706
 20
5.0768280423
 30
0.0
 10
-5.976092954
 20
5.0672494676
 30
0.0
 10
-5.97744435
 20
5.0584239612
 30
0.0
 10
-5.9788304292
 20
5.050372627
 30
0.0
 10
-5.9800427504
 20
5.0441631083
 30
0.0
 10
-5.9810351362
 20
5.0395999783
 30
0.0
 10
-5.9817653218
 20
5.0364785753
 30
0.0
 10
-5.9825017334
 20
5.0335638549
 30
0.0
 10
-5.9832439133
 20
5.0308576391
 30
0.0
 10
-5.9839914433
 20
5.0283615992
 30
0.0
 10
-5.9847438248
 20
5.0260771241
 30
0.0
 10
-5.9855005079
 20
5.0240052725
 30
0.0
 10
-5.9862610159
 20
5.0221470515
 30
0.0
 10
-5.9869144708
 20
5.0207405921
 30
0.0
 10
-5.9874419377
 20
5.0197261991
 30
0.0
 10
-5.9879405369
 20
5.0188395907
 30
0.0
 10
-5.9885615991
 20
5.0178606934
 30
0.0
 10
-5.9893347089
 20
5.0168621769
 30
0.0
 10
-5.9901127375
 20
5.0160781784
 30
0.0
 10
-5.9908981836
 20
5.0155091041
 30
0.0
 10
-5.9915773172
 20
5.0152123609
 30
0.0
 10
-5.9921125683
 20
5.0150981706
 30
0.0
 10
-5.9923763715
 20
5.0150793718
 30
0.0
 10
-5.9925068185
 20
5.0150793718
 30
0.0
  0
SPLINE
  5
3CC
100
AcDbEntity
  8
0
100
AcDbSpline
 62
7
  6
CONTINUOUS
 70
0
 71
3
 72
43
 73
39
 74
0
 42
0.0000001
 43
0.0000001
 44
0.0000000001
 40
0.0
 40
0.0
 40
0.0
 40
0.0
 40
0.0010587856
 40
0.0021381428
 40
0.0044300089
 40
0.0070096597
 40
0.00996805
 40
0.0133653131
 40
0.0172407348
 40
0.0193664876
 40
0.0216204364
 40
0.0265191509
 40
0.0319476992
 40
0.0379126838
 40
0.0444182499
 40
0.0514668181
 40
0.059058841
 40
0.0671927908
 40
0.075866369
 40
0.0850767568
 40
0.1050943341
 40
0.1272119677
 40
0.1513833056
 40
0.1775587082
 40
0.2056816244
 40
0.235686677
 40
0.2675068881
 40
0.3010690942
 40
0.3362933652
 40
0.3730987759
 40
0.4113985702
 40
0.451100827
 40
0.534336979
 40
0.6220182138
 40
0.7133076727
 40
0.8073305352
 40
0.9032181361
 40
1.0
 40
1.0
 40
1.0
 40
1.0
 10
-5.9925068185
 20
5.7450793718
 30
0.0
 10
-5.9923763715
 20
5.7450793718
 30
0.0
 10
-5.9921125683
 20
5.7450605729
 30
0.0
 10
-5.9915773172
 20
5.7449463826
 30
0.0
 10
-5.9908981836
 20
5.7446496394
 30
0.0
 10
-5.9901127375
 20
5.7440805651
 30
0.0
 10
-5.9893347089
 20
5.7432965666
 30
0.0
 10
-5.9885615991
 20
5.7422980502
 30
0.0
 10
-5.9879405369
 20
5.7413191528
 30
0.0
 10
-5.9874419377
 20
5.7404325444
 30
0.0
 10
-5.9869144708
 20
5.7394181515
 30
0.0
 10
-5.9862610159
 20
5.7380116921
 30
0.0
 10
-5.9855005079
 20
5.736153471
 30
0.0
 10
-5.9847438248
 20
5.7340816194
 30
0.0
 10
-5.9839914433
 20
5.7317971443
 30
0.0
 10
-5.9832439133
 20
5.7293011044
 30
0.0
 10
-5.9825017334
 20
5.7265948886
 30
0.0
 10
-5.9817653218
 20
5.7236801682
 30
0.0
 10
-5.9810351362
 20
5.7205587652
 30
0.0
 10
-5.9800427504
 20
5.7159956352
 30
0.0
 10
-5.9788304292
 20
5.7097861166
 30
0.0
 10
-5.97744435
 20
5.7017347823
 30
0.0
 10
-5.976092954
 20
5.692909276
 30
0.0
 10
-5.9747799706
 20
5.6833307012
 30
0.0
 10
-5.9735088659
 20
5.673021948
 30
0.0
 10
-5.9722825617
 20
5.6620077661
 30
0.0
 10
-5.971104392
 20
5.650314622
 30
0.0
 10
-5.9699772878
 20
5.637970621
 30
0.0
 10
-5.968903819
 20
5.6250054567
 30
0.0
 10
-5.9678868757
 20
5.611450348
 30
0.0
 10
-5.9669288798
 20
5.5973379275
 30
0.0
 10
-5.9657139633
 20
5.5775097348
 30
0.0
 10
-5.9643691314
 20
5.5515946867
 30
0.0
 10
-5.9630462154
 20
5.5193161904
 30
0.0
 10
-5.9620034579
 20
5.4856978245
 30
0.0
 10
-5.9612510414
 20
5.4510604468
 30
0.0
 10
-5.9607968252
 20
5.4157411804
 30
0.0
 10
-5.9606955615
 20
5.392003325
 30
0.0
 10
-5.9606955615
 20
5.3800793718
 30
0.0
  0
SPLINE
  5
3CD
100
AcDbEntity
  8
0
100
AcDbSpline
 62
7
  6
CONTINUOUS
 70
0
 71
3
 72
13
 73
9
 74
0
 42
0.0000001
 43
0.0000001
 44
0.0000000001
 40
0.0
 40
0.0
 40
0.0
 40
0.0
 40
0.2515721043
 40
0.3786772753
 40
0.5058489261
 40
0.6322146208
 40
0.7569721283
 40
1.0
 40
1.0
 40
1.0
 40
1.0
 10
4.7588851777
 20
5.6323814394
 30
0.0
 10
4.7772683928
 20
5.6220292391
 30
0.0
 10
4.8049048774
 20
5.6063847232
 30
0.0
 10
4.8417230926
 20
5.5853119688
 30
0.0
 10
4.8693717815
 20
5.5693569465
 30
0.0
 10
4.8967906869
 20
5.5533980778
 30
0.0
 10
4.9325307872
 20
5.5324215245
 30
0.0
 10
4.9590537095
 20
5.5166773078
 30
0.0
 10
4.9765537501
 20
5.5062304056
 30
0.0
  0
SPLINE
  5
3CE
100
AcDbEntity
  8
0
100
AcDbSpline
 62
7
  6
CONTINUOUS
 70
0
 71
3
 72
13
 73
9
 74
0
 42
0.0000001
 43
0.0000001
 44
0.0000000001
 40
0.0
 40
0.0
 40
0.0
 40
0.0
 40
0.2473154933
 40
0.3732415121
 40
0.5
 40
0.6267584879
 40
0.7526845067
 40
1.0
 40
1.0
 40
1.0
 40
1.0
 10
4.9765537501
 20
5.5062304056
 30
0.0
 10
4.9770769413
 20
5.4854352059
 30
0.0
 10
4.9777197758
 20
5.4540474696
 30
0.0
 10
4.9781758912
 20
5.4119945126
 30
0.0
 10
4.9782941112
 20
5.3800793718
 30
0.0
 10
4.9781758912
 20
5.3481642309
 30
0.0
 10
4.9777197758
 20
5.3061112739
 30
0.0
 10
4.9770769413
 20
5.2747235377
 30
0.0
 10
4.9765537501
 20
5.2539283379
 30
0.0
  0
SPLINE
  5
3CF
100
AcDbEntity
  8
0
100
AcDbSpline
 62
7
  6
CONTINUOUS
 70
0
 71
3
 72
13
 73
9
 74
0
 42
0.0000001
 43
0.0000001
 44
0.0000000001
 40
0.0
 40
0.0
 40
0.0
 40
0.0
 40
0.2430278717
 40
0.3677853792
 40
0.4941510739
 40
0.6213227247
 40
0.7484278957
 40
1.0
 40
1.0
 40
1.0
 40
1.0
 10
4.9765537501
 20
5.2539283379
 30
0.0
 10
4.9590537095
 20
5.2434814358
 30
0.0
 10
4.9325307872
 20
5.227737219
 30
0.0
 10
4.8967906869
 20
5.2067606658
 30
0.0
 10
4.8693717815
 20
5.190801797
 30
0.0
 10
4.8417230926
 20
5.1748467747
 30
0.0
 10
4.8049048774
 20
5.1537740204
 30
0.0
 10
4.7772683928
 20
5.1381295044
 30
0.0
 10
4.7588851777
 20
5.1277773041
 30
0.0
  0
SPLINE
  5
3D0
100
AcDbEntity
  8
0
100
AcDbSpline
 62
7
  6
CONTINUOUS
 70
0
 71
3
 72
38
 73
34
 74
0
 42
0.0000001
 43
0.0000001
 44
0.0000000001
 40
0.0
 40
0.0
 40
0.0
 40
0.0
 40
0.0625123862
 40
0.0938030325
 40
0.1250905267
 40
0.1563799674
 40
0.1876746253
 40
0.2189724139
 40
0.2502708229
 40
0.2815688937
 40
0.3128657863
 40
0.3441609144
 40
0.3754530534
 40
0.4067412737
 40
0.4380248038
 40
0.4693027216
 40
0.5005746012
 40
0.5318396372
 40
0.5630975427
 40
0.5943479329
 40
0.6255905322
 40
0.6568254537
 40
0.6880525238
 40
0.7192721761
 40
0.7504845699
 40
0.7816902066
 40
0.8128897215
 40
0.8440836068
 40
0.87527287
 40
0.9064581249
 40
0.9376404568
 40
0.9688207707
 40
1.0
 40
1.0
 40
1.0
 40
1.0
 10
4.5165658697
 20
5.2473293718
 30
0.0
 10
4.510799038
 20
5.25735597
 30
0.0
 10
4.5031185904
 20
5.2729932443
 30
0.0
 10
4.4949884957
 20
5.2946757022
 30
0.0
 10
4.4899606873
 20
5.3113144739
 30
0.0
 10
4.486027929
 20
5.328244891
 30
0.0
 10
4.4832076905
 20
5.3453980112
 30
0.0
 10
4.4815087036
 20
5.3626997845
 30
0.0
 10
4.4809424837
 20
5.3800762431
 30
0.0
 10
4.481508727
 20
5.3974524748
 30
0.0
 10
4.4832058446
 20
5.4147543462
 30
0.0
 10
4.4860274928
 20
5.4319075795
 30
0.0
 10
4.4899589343
 20
5.4488393342
 30
0.0
 10
4.4949871126
 20
5.4654761472
 30
0.0
 10
4.5010867916
 20
5.4817478316
 30
0.0
 10
4.5082344968
 20
5.4975838985
 30
0.0
 10
4.5163986168
 20
5.5129167774
 30
0.0
 10
4.5255434065
 20
5.5276814745
 30
0.0
 10
4.535632023
 20
5.5418131574
 30
0.0
 10
4.5466181994
 20
5.5552535716
 30
0.0
 10
4.5584578848
 20
5.5679427939
 30
0.0
 10
4.5710982352
 20
5.5798282828
 30
0.0
 10
4.5844859742
 20
5.5908585497
 30
0.0
 10
4.5985642744
 20
5.6009854326
 30
0.0
 10
4.6132713523
 20
5.6101679144
 30
0.0
 10
4.6285462265
 20
5.618363365
 30
0.0
 10
4.6443216144
 20
5.6255400529
 30
0.0
 10
4.6605312523
 20
5.6316647749
 30
0.0
 10
4.6771051938
 20
5.636712177
 30
0.0
 10
4.6939722987
 20
5.6406616765
 30
0.0
 10
4.7110610937
 20
5.643493596
 30
0.0
 10
4.7282968422
 20
5.6451995312
 30
0.0
 10
4.7398388936
 20
5.6455788983
 30
0.0
 10
4.7456080131
 20
5.6455790356
 30
0.0
  0
SPLINE
  5
3D1
100
AcDbEntity
  8
0
100
AcDbSpline
 62
7
  6
CONTINUOUS
 70
0
 71
3
 72
22
 73
18
 74
0
 42
0.0000001
 43
0.0000001
 44
0.0000000001
 40
0.0
 40
0.0
 40
0.0
 40
0.0
 40
0.1251231256
 40
0.1877142671
 40
0.2502741568
 40
0.3128145723
 40
0.3753439957
 40
0.4378605951
 40
0.5003619734
 40
0.5628491587
 40
0.6253236289
 40
0.687787548
 40
0.750241932
 40
0.8126884438
 40
0.8751290629
 40
0.9375654169
 40
1.0
 40
1.0
 40
1.0
 40
1.0
 10
4.5165658697
 20
5.2473293718
 30
0.0
 10
4.522330616
 20
5.2373063992
 30
0.0
 10
4.5319791148
 20
5.2228123315
 30
0.0
 10
4.5466243347
 20
5.2048981744
 30
0.0
 10
4.5584661975
 20
5.1922069528
 30
0.0
 10
4.5711073621
 20
5.1803219728
 30
0.0
 10
4.5844970802
 20
5.169292909
 30
0.0
 10
4.5985758062
 20
5.1591644099
 30
0.0
 10
4.6132854826
 20
5.1499834811
 30
0.0
 10
4.6285612949
 20
5.1417873376
 30
0.0
 10
4.6443384763
 20
5.1346116828
 30
0.0
 10
4.6605497396
 20
5.1284881488
 30
0.0
 10
4.6771248659
 20
5.12344036
 30
0.0
 10
4.6939938479
 20
5.1194936978
 30
0.0
 10
4.7110837499
 20
5.1166613304
 30
0.0
 10
4.7283210049
 20
5.1149580468
 30
0.0
 10
4.7398638416
 20
5.1145795705
 30
0.0
 10
4.7456333763
 20
5.1145797079
 30
0.0
  0
SPLINE
  5
3D2
100
AcDbEntity
  8
0
100
AcDbSpline
 62
7
  6
CONTINUOUS
 70
0
 71
3
 72
22
 73
18
 74
0
 42
0.0000001
 43
0.0000001
 44
0.0000000001
 40
0.0
 40
0.0
 40
0.0
 40
0.0
 40
0.0624345802
 40
0.1248709325
 40
0.1873115514
 40
0.2497580634
 40
0.3122124485
 40
0.3746763688
 40
0.4371508404
 40
0.4996380274
 40
0.5621394073
 40
0.6246560074
 40
0.68718543
 40
0.7497258446
 40
0.8122857348
 40
0.8748768766
 40
1.0
 40
1.0
 40
1.0
 40
1.0
 10
4.7482353186
 20
5.6455790356
 30
0.0
 10
4.7540045894
 20
5.6455788955
 30
0.0
 10
4.7655468794
 20
5.6451998994
 30
0.0
 10
4.7827832706
 20
5.6434959403
 30
0.0
 10
4.7998722753
 20
5.64066301
 30
0.0
 10
4.8167403367
 20
5.6367158939
 30
0.0
 10
4.8333145299
 20
5.6316677628
 30
0.0
 10
4.8495248585
 20
5.6255439984
 30
0.0
 10
4.8653011128
 20
5.6183682206
 30
0.0
 10
4.8805760174
 20
5.610172063
 30
0.0
 10
4.8952848137
 20
5.6009912225
 30
0.0
 10
4.909362698
 20
5.5908629127
 30
0.0
 10
4.9227516214
 20
5.5798341332
 30
0.0
 10
4.9353920467
 20
5.5679495265
 30
0.0
 10
4.9472332345
 20
5.555258762
 30
0.0
 10
4.9618776497
 20
5.5373453147
 30
0.0
 10
4.971525661
 20
5.522851886
 30
0.0
 10
4.9772901437
 20
5.5128293718
 30
0.0
  0
SPLINE
  5
3D3
100
AcDbEntity
  8
0
100
AcDbSpline
 62
7
  6
CONTINUOUS
 70
0
 71
3
 72
23
 73
19
 74
0
 42
0.0000001
 43
0.0000001
 44
0.0000000001
 40
0.0
 40
0.0
 40
0.0
 40
0.0
 40
0.0624280805
 40
0.124858422
 40
0.1872929365
 40
0.2497335689
 40
0.3121824889
 40
0.3746410178
 40
0.4371112296
 40
0.4995940446
 40
0.5620909175
 40
0.6246026334
 40
0.6871296909
 40
0.7496727752
 40
0.8122314978
 40
0.8748061458
 40
0.9373958175
 40
1.0
 40
1.0
 40
1.0
 40
1.0
 10
4.7482353186
 20
5.1145797079
 30
0.0
 10
4.7541176723
 20
5.114579565
 30
0.0
 10
4.7658864393
 20
5.1149734341
 30
0.0
 10
4.7834576765
 20
5.116746042
 30
0.0
 10
4.8008732134
 20
5.1196889295
 30
0.0
 10
4.8180538128
 20
5.1237929771
 30
0.0
 10
4.8349239363
 20
5.1290365833
 30
0.0
 10
4.8514080109
 20
5.1353983012
 30
0.0
 10
4.8674325034
 20
5.1428496482
 30
0.0
 10
4.882927
 20
5.1513559104
 30
0.0
 10
4.8978208197
 20
5.1608820424
 30
0.0
 10
4.9120498837
 20
5.1713822226
 30
0.0
 10
4.9255485572
 20
5.1828129025
 30
0.0
 10
4.938258563
 20
5.1951208483
 30
0.0
 10
4.9501225196
 20
5.2082522861
 30
0.0
 10
4.9610871801
 20
5.2221492335
 30
0.0
 10
4.9711051943
 20
5.2367475949
 30
0.0
 10
4.9771215938
 20
5.2469065777
 30
0.0
 10
4.9799571892
 20
5.2520792923
 30
0.0
  0
SPLINE
  5
3D4
100
AcDbEntity
  8
0
100
AcDbSpline
 62
7
  6
CONTINUOUS
 70
0
 71
3
 72
13
 73
9
 74
0
 42
0.0000001
 43
0.0000001
 44
0.0000000001
 40
0.0
 40
0.0
 40
0.0
 40
0.0
 40
0.2473154933
 40
0.3732415121
 40
0.5
 40
0.6267584879
 40
0.7526845067
 40
1.0
 40
1.0
 40
1.0
 40
1.0
 10
4.5412166053
 20
5.2539283379
 30
0.0
 10
4.5417397965
 20
5.2747235377
 30
0.0
 10
4.542382631
 20
5.3061112739
 30
0.0
 10
4.5428387464
 20
5.3481642309
 30
0.0
 10
4.5429569664
 20
5.3800793718
 30
0.0
 10
4.5428387464
 20
5.4119945126
 30
0.0
 10
4.542382631
 20
5.4540474696
 30
0.0
 10
4.5417397965
 20
5.4854352059
 30
0.0
 10
4.5412166053
 20
5.5062304056
 30
0.0
  0
SPLINE
  5
3D5
100
AcDbEntity
  8
0
100
AcDbSpline
 62
7
  6
CONTINUOUS
 70
0
 71
3
 72
38
 73
34
 74
0
 42
0.0000001
 43
0.0000001
 44
0.0000000001
 40
0.0
 40
0.0
 40
0.0
 40
0.0
 40
0.062512389
 40
0.0938030368
 40
0.1250905326
 40
0.1563799754
 40
0.1876746356
 40
0.2189724262
 40
0.2502708369
 40
0.2815689092
 40
0.3128658032
 40
0.3441609324
 40
0.3754530722
 40
0.4067412929
 40
0.4380248231
 40
0.4693027407
 40
0.5005746197
 40
0.5318396548
 40
0.563097559
 40
0.5943479476
 40
0.6255905452
 40
0.6568254648
 40
0.6880525327
 40
0.7192721829
 40
0.7504845746
 40
0.7816902095
 40
0.8128897225
 40
0.8440836064
 40
0.8752728686
 40
0.9064581228
 40
0.9376404549
 40
0.9688207692
 40
1.0
 40
1.0
 40
1.0
 40
1.0
 10
4.5191804935
 20
5.2473293718
 30
0.0
 10
4.5134135299
 20
5.2573561994
 30
0.0
 10
4.5057329286
 20
5.2729938456
 30
0.0
 10
4.497602729
 20
5.2946768304
 30
0.0
 10
4.4925748922
 20
5.3113160098
 30
0.0
 10
4.4886421577
 20
5.3282468415
 30
0.0
 10
4.4858219952
 20
5.3454003782
 30
0.0
 10
4.4841231371
 20
5.3627025646
 30
0.0
 10
4.4835570991
 20
5.3800794278
 30
0.0
 10
4.4841235754
 20
5.3974560505
 30
0.0
 10
4.4858209778
 20
5.4147582942
 30
0.0
 10
4.488642959
 20
5.4319118761
 30
0.0
 10
4.4925747815
 20
5.4488439508
 30
0.0
 10
4.4976033856
 20
5.4654810504
 30
0.0
 10
4.5037035316
 20
5.4817529841
 30
0.0
 10
4.5108517442
 20
5.4975892577
 30
0.0
 10
4.5190164053
 20
5.5129222981
 30
0.0
 10
4.5281617688
 20
5.5276871062
 30
0.0
 10
4.5382509854
 20
5.5418188476
 30
0.0
 10
4.5492377845
 20
5.5552592644
 30
0.0
 10
4.5610781112
 20
5.5679484296
 30
0.0
 10
4.5737191142
 20
5.5798338021
 30
0.0
 10
4.5871075149
 20
5.5908638879
 30
0.0
 10
4.6011864773
 20
5.6009905272
 30
0.0
 10
4.6158942145
 20
5.6101726994
 30
0.0
 10
4.6311697387
 20
5.6183677745
 30
0.0
 10
4.6469457609
 20
5.6255440229
 30
0.0
 10
4.6631560132
 20
5.6316682376
 30
0.0
 10
4.6797305411
 20
5.6367150714
 30
0.0
 10
4.696598201
 20
5.6406639371
 30
0.0
 10
4.7136875122
 20
5.6434951638
 30
0.0
 10
4.7309237334
 20
5.645200348
 30
0.0
 10
4.7424660671
 20
5.6455791758
 30
0.0
 10
4.7482353186
 20
5.6455790356
 30
0.0
  0
SPLINE
  5
3D6
100
AcDbEntity
  8
0
100
AcDbSpline
 62
7
  6
CONTINUOUS
 70
0
 71
3
 72
22
 73
18
 74
0
 42
0.0000001
 43
0.0000001
 44
0.0000000001
 40
0.0
 40
0.0
 40
0.0
 40
0.0
 40
0.1251231234
 40
0.1877142652
 40
0.2502741554
 40
0.31281457
 40
0.3753439926
 40
0.4378605927
 40
0.5003619726
 40
0.5628491596
 40
0.6253236312
 40
0.6877875515
 40
0.7502419366
 40
0.8126884486
 40
0.8751290675
 40
0.9375654198
 40
1.0
 40
1.0
 40
1.0
 40
1.0
 10
4.5191804935
 20
5.2473293718
 30
0.0
 10
4.5249449762
 20
5.2373068575
 30
0.0
 10
4.5345929875
 20
5.2228134289
 30
0.0
 10
4.5492374027
 20
5.2048999815
 30
0.0
 10
4.5610785905
 20
5.192209217
 30
0.0
 10
4.5737190157
 20
5.1803246103
 30
0.0
 10
4.5871079392
 20
5.1692958308
 30
0.0
 10
4.6011858235
 20
5.159167521
 30
0.0
 10
4.6158946197
 20
5.1499866805
 30
0.0
 10
4.6311695244
 20
5.1417905229
 30
0.0
 10
4.6469457787
 20
5.1346147452
 30
0.0
 10
4.6631561073
 20
5.1284909807
 30
0.0
 10
4.6797303005
 20
5.1234428496
 30
0.0
 10
4.6965983619
 20
5.1194957336
 30
0.0
 10
4.7136873666
 20
5.1166628032
 30
0.0
 10
4.7309237577
 20
5.1149588441
 30
0.0
 10
4.7424660478
 20
5.114579848
 30
0.0
 10
4.7482353186
 20
5.1145797079
 30
0.0
  0
SPLINE
  5
3D7
100
AcDbEntity
  8
0
100
AcDbSpline
 62
7
  6
CONTINUOUS
 70
0
 71
3
 72
13
 73
9
 74
0
 42
0.0000001
 43
0.0000001
 44
0.0000000001
 40
0.0
 40
0.0
 40
0.0
 40
0.0
 40
0.2515721043
 40
0.3786772753
 40
0.5058489261
 40
0.6322146208
 40
0.7569721283
 40
1.0
 40
1.0
 40
1.0
 40
1.0
 10
4.5412166053
 20
5.5062304056
 30
0.0
 10
4.5595998204
 20
5.5165826059
 30
0.0
 10
4.587236305
 20
5.5322271218
 30
0.0
 10
4.6240545202
 20
5.5532998762
 30
0.0
 10
4.6517032092
 20
5.5692548984
 30
0.0
 10
4.6791221146
 20
5.5852137672
 30
0.0
 10
4.7148622148
 20
5.6061903205
 30
0.0
 10
4.7413851371
 20
5.6219345372
 30
0.0
 10
4.7588851777
 20
5.6323814394
 30
0.0
  0
SPLINE
  5
3D8
100
AcDbEntity
  8
0
100
AcDbSpline
 62
7
  6
CONTINUOUS
 70
0
 71
3
 72
47
 73
43
 74
0
 42
0.0000001
 43
0.0000001
 44
0.0000000001
 40
0.0
 40
0.0
 40
0.0
 40
0.0
 40
0.0312670784
 40
0.0469087572
 40
0.0625447422
 40
0.093792587
 40
0.1250300887
 40
0.1406498431
 40
0.1562666719
 40
0.187482807
 40
0.2186897021
 40
0.234294914
 40
0.2498983853
 40
0.2810917911
 40
0.3122813953
 40
0.327880226
 40
0.3434789273
 40
0.3746678189
 40
0.4058596836
 40
0.4370567058
 40
0.4682609193
 40
0.4994738589
 40
0.5306969184
 40
0.5619311076
 40
0.5931768056
 40
0.6244341662
 40
0.655702857
 40
0.6713458381
 40
0.6869913345
 40
0.7182796914
 40
0.7495757788
 40
0.7652307854
 40
0.7808870313
 40
0.8121926258
 40
0.8434997058
 40
0.8591579575
 40
0.874815919
 40
0.9061188237
 40
0.937415259
 40
0.9530686138
 40
0.9687228166
 40
1.0
 40
1.0
 40
1.0
 40
1.0
 10
4.5725360566
 20
5.4890793718
 30
0.0
 10
4.5760868939
 20
5.4952530944
 30
0.0
 10
4.58187428
 20
5.5042616785
 30
0.0
 10
4.59043483
 20
5.5156544113
 30
0.0
 10
4.5995425016
 20
5.5266105323
 30
0.0
 10
4.6119135185
 20
5.5394433567
 30
0.0
 10
4.6254816642
 20
5.5509976867
 30
0.0
 10
4.6369689281
 20
5.5594053602
 30
0.0
 10
4.648851928
 20
5.5672349262
 30
0.0
 10
4.6644016921
 20
5.5759109964
 30
0.0
 10
4.6807271251
 20
5.5830142684
 30
0.0
 10
4.694150834
 20
5.5877122928
 30
0.0
 10
4.7077867985
 20
5.5917422436
 30
0.0
 10
4.7251769023
 20
5.5955136433
 30
0.0
 10
4.7428528538
 20
5.5975537652
 30
0.0
 10
4.7570564725
 20
5.5981377716
 30
0.0
 10
4.7712713457
 20
5.5980208619
 30
0.0
 10
4.7890048928
 20
5.5965618347
 30
0.0
 10
4.810006212
 20
5.5927250446
 30
0.0
 10
4.8305329315
 20
5.5868411957
 30
0.0
 10
4.8503858236
 20
5.5789656761
 30
0.0
 10
4.8693738076
 20
5.5691743249
 30
0.0
 10
4.8873146133
 20
5.5575626106
 30
0.0
 10
4.9040347886
 20
5.5442413221
 30
0.0
 10
4.9193734366
 20
5.5293387047
 30
0.0
 10
4.9331832531
 20
5.5130002618
 30
0.0
 10
4.9433070073
 20
5.4983153466
 30
0.0
 10
4.9505144971
 20
5.4860176108
 30
0.0
 10
4.9571127155
 20
5.4733773369
 30
0.0
 10
4.9641904151
 20
5.4569910151
 30
0.0
 10
4.969631339
 20
5.4399887031
 30
0.0
 10
4.9729725112
 20
5.4261197843
 30
0.0
 10
4.9756311172
 20
5.4121017995
 30
0.0
 10
4.9776655814
 20
5.3943597115
 30
0.0
 10
4.9779556408
 20
5.3765032533
 30
0.0
 10
4.9771423494
 20
5.3622571084
 30
0.0
 10
4.975632694
 20
5.3480688173
 30
0.0
 10
4.9724494348
 20
5.3304991414
 30
0.0
 10
4.9675635962
 20
5.313326051
 30
0.0
 10
4.9626646586
 20
5.299928435
 30
0.0
 10
4.9571170823
 20
5.2867921884
 30
0.0
 10
4.952238338
 20
5.2772550896
 30
0.0
 10
4.9486863532
 20
5.2710793718
 30
0.0
  0
SPLINE
  5
3D9
100
AcDbEntity
  8
0
100
AcDbSpline
 62
7
  6
CONTINUOUS
 70
0
 71
3
 72
13
 73
9
 74
0
 42
0.0000001
 43
0.0000001
 44
0.0000000001
 40
0.0
 40
0.0
 40
0.0
 40
0.0
 40
0.2430278717
 40
0.3677853792
 40
0.4941510739
 40
0.6213227247
 40
0.7484278957
 40
1.0
 40
1.0
 40
1.0
 40
1.0
 10
4.7588851777
 20
5.1277773041
 30
0.0
 10
4.7413851371
 20
5.1382242063
 30
0.0
 10
4.7148622148
 20
5.153968423
 30
0.0
 10
4.6791221146
 20
5.1749449763
 30
0.0
 10
4.6517032092
 20
5.1909038451
 30
0.0
 10
4.6240545202
 20
5.2068588674
 30
0.0
 10
4.587236305
 20
5.2279316217
 30
0.0
 10
4.5595998204
 20
5.2435761377
 30
0.0
 10
4.5412166053
 20
5.2539283379
 30
0.0
  0
SPLINE
  5
3DA
100
AcDbEntity
  8
0
100
AcDbSpline
 62
7
  6
CONTINUOUS
 70
0
 71
3
 72
47
 73
43
 74
0
 42
0.0000001
 43
0.0000001
 44
0.0000000001
 40
0.0
 40
0.0
 40
0.0
 40
0.0
 40
0.0312670784
 40
0.0469087572
 40
0.0625447422
 40
0.093792587
 40
0.1250300887
 40
0.1406498431
 40
0.1562666719
 40
0.187482807
 40
0.2186897021
 40
0.234294914
 40
0.2498983853
 40
0.2810917911
 40
0.3122813953
 40
0.327880226
 40
0.3434789273
 40
0.3746678189
 40
0.4058596836
 40
0.4370567058
 40
0.4682609193
 40
0.4994738589
 40
0.5306969184
 40
0.5619311076
 40
0.5931768056
 40
0.6244341662
 40
0.655702857
 40
0.6713458381
 40
0.6869913345
 40
0.7182796914
 40
0.7495757788
 40
0.7652307854
 40
0.7808870313
 40
0.8121926258
 40
0.8434997058
 40
0.8591579575
 40
0.874815919
 40
0.9061188237
 40
0.937415259
 40
0.9530686138
 40
0.9687228166
 40
1.0
 40
1.0
 40
1.0
 40
1.0
 10
4.9486863532
 20
5.2710793718
 30
0.0
 10
4.9451355159
 20
5.2649056491
 30
0.0
 10
4.9393481298
 20
5.255897065
 30
0.0
 10
4.9307875798
 20
5.2445043322
 30
0.0
 10
4.9216799082
 20
5.2335482113
 30
0.0
 10
4.9093088913
 20
5.2207153869
 30
0.0
 10
4.8957407456
 20
5.2091610568
 30
0.0
 10
4.8842534817
 20
5.2007533833
 30
0.0
 10
4.8723704818
 20
5.1929238174
 30
0.0
 10
4.8568207177
 20
5.1842477471
 30
0.0
 10
4.8404952847
 20
5.1771444751
 30
0.0
 10
4.8270715758
 20
5.1724464507
 30
0.0
 10
4.8134356113
 20
5.1684165
 30
0.0
 10
4.7960455075
 20
5.1646451002
 30
0.0
 10
4.778369556
 20
5.1626049784
 30
0.0
 10
4.7641659373
 20
5.1620209719
 30
0.0
 10
4.7499510641
 20
5.1621378816
 30
0.0
 10
4.732217517
 20
5.1635969088
 30
0.0
 10
4.7112161978
 20
5.167433699
 30
0.0
 10
4.6906894783
 20
5.1733175478
 30
0.0
 10
4.6708365862
 20
5.1811930675
 30
0.0
 10
4.6518486022
 20
5.1909844186
 30
0.0
 10
4.6339077965
 20
5.2025961329
 30
0.0
 10
4.6171876212
 20
5.2159174214
 30
0.0
 10
4.6018489732
 20
5.2308200388
 30
0.0
 10
4.5880391567
 20
5.2471584817
 30
0.0
 10
4.5779154025
 20
5.2618433969
 30
0.0
 10
4.5707079127
 20
5.2741411327
 30
0.0
 10
4.5641096943
 20
5.2867814066
 30
0.0
 10
4.5570319947
 20
5.3031677284
 30
0.0
 10
4.5515910708
 20
5.3201700405
 30
0.0
 10
4.5482498986
 20
5.3340389593
 30
0.0
 10
4.5455912926
 20
5.348056944
 30
0.0
 10
4.5435568284
 20
5.3657990321
 30
0.0
 10
4.543266769
 20
5.3836554902
 30
0.0
 10
4.5440800604
 20
5.3979016351
 30
0.0
 10
4.5455897158
 20
5.4120899262
 30
0.0
 10
4.548772975
 20
5.4296596021
 30
0.0
 10
4.5536588136
 20
5.4468326925
 30
0.0
 10
4.5585577512
 20
5.4602303086
 30
0.0
 10
4.5641053275
 20
5.4733665552
 30
0.0
 10
4.5689840718
 20
5.4829036539
 30
0.0
 10
4.5725360566
 20
5.4890793718
 30
0.0
  0
SPLINE
  5
3DB
100
AcDbEntity
  8
0
100
AcDbSpline
 62
7
  6
CONTINUOUS
 70
0
 71
3
 72
24
 73
20
 74
0
 42
0.0000001
 43
0.0000001
 44
0.0000000001
 40
0.0
 40
0.0
 40
0.0
 40
0.0
 40
0.1896348566
 40
0.3644455398
 40
0.4455750699
 40
0.5222010633
 40
0.5940983048
 40
0.661050759
 40
0.7228526023
 40
0.7793336974
 40
0.8303378655
 40
0.8757327934
 40
0.9154253341
 40
0.9331117309
 40
0.9493514416
 40
0.9641478999
 40
0.9775095524
 40
0.9894516696
 40
1.0
 40
1.0
 40
1.0
 40
1.0
 10
13.9438088234
 20
5.4890793718
 30
0.0
 10
13.9434666111
 20
5.4958803031
 30
0.0
 10
13.9427276179
 20
5.5089466221
 30
0.0
 10
13.9415884167
 20
5.5249068056
 30
0.0
 10
13.9405752219
 20
5.5368059239
 30
0.0
 10
13.9397934176
 20
5.5450154632
 30
0.0
 10
13.938973323
 20
5.55270951
 30
0.0
 10
13.9381177398
 20
5.5598638905
 30
0.0
 10
13.9372292165
 20
5.5664561297
 30
0.0
 10
13.9363110418
 20
5.5724656322
 30
0.0
 10
13.9353664316
 20
5.5778740198
 30
0.0
 10
13.9343983824
 20
5.5826646853
 30
0.0
 10
13.9335462455
 20
5.5862565665
 30
0.0
 10
13.9328458226
 20
5.5888059027
 30
0.0
 10
13.9323368269
 20
5.5904800539
 30
0.0
 10
13.9318243054
 20
5.5919900282
 30
0.0
 10
13.9313086564
 20
5.5933349799
 30
0.0
 10
13.9307903659
 20
5.594514025
 30
0.0
 10
13.9304207725
 20
5.5952329981
 30
0.0
 10
13.9302335667
 20
5.5955622786
 30
0.0
  0
SPLINE
  5
3DC
100
AcDbEntity
  8
0
100
AcDbSpline
 62
7
  6
CONTINUOUS
 70
0
 71
3
 72
9
 73
5
 74
0
 42
0.0000001
 43
0.0000001
 44
0.0000000001
 40
0.0
 40
0.0
 40
0.0
 40
0.0
 40
0.5066195038
 40
1.0
 40
1.0
 40
1.0
 40
1.0
 10
13.9076257377
 20
5.1277773041
 30
0.0
 10
13.9100411943
 20
5.1311038811
 30
0.0
 10
13.9146638479
 20
5.1377772934
 30
0.0
 10
13.9189160139
 20
5.1446954241
 30
0.0
 10
13.920897358
 20
5.1481743707
 30
0.0
  0
SPLINE
  5
3DD
100
AcDbEntity
  8
0
100
AcDbSpline
 62
7
  6
CONTINUOUS
 70
0
 71
3
 72
34
 73
30
 74
0
 42
0.0000001
 43
0.0000001
 44
0.0000000001
 40
0.0
 40
0.0
 40
0.0
 40
0.0
 40
0.0038050564
 40
0.0081536181
 40
0.0130559092
 40
0.0185176785
 40
0.0245418428
 40
0.0311288065
 40
0.038276026
 40
0.0459797716
 40
0.0630382912
 40
0.0822601711
 40
0.1035828517
 40
0.1269377115
 40
0.1522439707
 40
0.1794125408
 40
0.2083488975
 40
0.2389475346
 40
0.2711001273
 40
0.3046897236
 40
0.37568804
 40
0.450911729
 40
0.5292654213
 40
0.6096061149
 40
0.6907603129
 40
0.771544276
 40
0.8507720382
 40
0.9273038776
 40
1.0
 40
1.0
 40
1.0
 40
1.0
 10
13.9302335667
 20
5.1645964651
 30
0.0
 10
13.9304378041
 20
5.1649557036
 30
0.0
 10
13.9308402006
 20
5.1657456351
 30
0.0
 10
13.931401593
 20
5.167048357
 30
0.0
 10
13.9319598713
 20
5.1685460715
 30
0.0
 10
13.9325144153
 20
5.1702376626
 30
0.0
 10
13.933064626
 20
5.1721220256
 30
0.0
 10
13.9336098656
 20
5.1741976247
 30
0.0
 10
13.9341497008
 20
5.1764625614
 30
0.0
 10
13.934886778
 20
5.1798488945
 30
0.0
 10
13.9357806313
 20
5.1845421232
 30
0.0
 10
13.9367912166
 20
5.1907162864
 30
0.0
 10
13.9377689695
 20
5.1975871113
 30
0.0
 10
13.9387096335
 20
5.2051293839
 30
0.0
 10
13.9396096062
 20
5.2133155836
 30
0.0
 10
13.9404654141
 20
5.2221157044
 30
0.0
 10
13.9412735262
 20
5.2314973308
 30
0.0
 10
13.9420311576
 20
5.2414260821
 30
0.0
 10
13.9427351729
 20
5.2518653223
 30
0.0
 10
13.9436152874
 20
5.2666896717
 30
0.0
 10
13.9445531452
 20
5.2861957703
 30
0.0
 10
13.9454113711
 20
5.3105706563
 30
0.0
 10
13.9460084824
 20
5.3359682048
 30
0.0
 10
13.9463353666
 20
5.3620147368
 30
0.0
 10
13.9463869867
 20
5.3883271926
 30
0.0
 10
13.9461624898
 20
5.4145178706
 30
0.0
 10
13.9456655404
 20
5.4402027505
 30
0.0
 10
13.9449034331
 20
5.4650023718
 30
0.0
 10
13.9442055837
 20
5.4811943883
 30
0.0
 10
13.9438088234
 20
5.4890793718
 30
0.0
  0
SPLINE
  5
3DE
100
AcDbEntity
  8
0
100
AcDbSpline
 62
7
  6
CONTINUOUS
 70
0
 71
3
 72
9
 73
5
 74
0
 42
0.0000001
 43
0.0000001
 44
0.0000000001
 40
0.0
 40
0.0
 40
0.0
 40
0.0
 40
0.4933804962
 40
1.0
 40
1.0
 40
1.0
 40
1.0
 10
13.920897358
 20
5.6119843728
 30
0.0
 10
13.9189160139
 20
5.6154633194
 30
0.0
 10
13.9146638479
 20
5.6223814501
 30
0.0
 10
13.9100411943
 20
5.6290548624
 30
0.0
 10
13.9076257377
 20
5.6323814394
 30
0.0
  0
SPLINE
  5
3DF
100
AcDbEntity
  8
0
100
AcDbSpline
 62
7
  6
CONTINUOUS
 70
0
 71
3
 72
20
 73
16
 74
0
 42
0.0000001
 43
0.0000001
 44
0.0000000001
 40
0.0
 40
0.0
 40
0.0
 40
0.0
 40
0.2020065414
 40
0.3802232924
 40
0.5348214024
 40
0.6034151897
 40
0.6663281764
 40
0.7237010459
 40
0.7757253342
 40
0.8226646511
 40
0.8648852788
 40
0.902898317
 40
0.9374121187
 40
0.9693809691
 40
1.0
 40
1.0
 40
1.0
 40
1.0
 10
13.7927129309
 20
5.6337925601
 30
0.0
 10
13.7924527269
 20
5.634713071
 30
0.0
 10
13.7919349757
 20
5.6364380945
 30
0.0
 10
13.7911025719
 20
5.6388308723
 30
0.0
 10
13.7903779811
 20
5.6405899252
 30
0.0
 10
13.7897881578
 20
5.6418100372
 30
0.0
 10
13.7893623021
 20
5.6425969898
 30
0.0
 10
13.7889352649
 20
5.64329284
 30
0.0
 10
13.7885070329
 20
5.6438975201
 30
0.0
 10
13.7880775157
 20
5.6444110024
 30
0.0
 10
13.7876464003
 20
5.644833217
 30
0.0
 10
13.7872131335
 20
5.6451639038
 30
0.0
 10
13.7867768106
 20
5.6454022207
 30
0.0
 10
13.7863372928
 20
5.6455465902
 30
0.0
 10
13.7860400131
 20
5.6455790759
 30
0.0
 10
13.7858950199
 20
5.6455790356
 30
0.0
  0
SPLINE
  5
3E0
100
AcDbEntity
  8
0
100
AcDbSpline
 62
7
  6
CONTINUOUS
 70
0
 71
3
 72
28
 73
24
 74
0
 42
0.0000001
 43
0.0000001
 44
0.0000000001
 40
0.0
 40
0.0
 40
0.0
 40
0.0
 40
0.0678455031
 40
0.1390463981
 40
0.2127060149
 40
0.2879646453
 40
0.3639128537
 40
0.4396362921
 40
0.5142265389
 40
0.5867864663
 40
0.6564458884
 40
0.7223705187
 40
0.7837712914
 40
0.8125456163
 40
0.8399193279
 40
0.8658139384
 40
0.890152581
 40
0.9128640079
 40
0.9338857806
 40
0.9531575261
 40
0.9706275262
 40
0.9862540354
 40
1.0
 40
1.0
 40
1.0
 40
1.0
 10
13.8059343465
 20
5.2473293718
 30
0.0
 10
13.806371439
 20
5.2560158952
 30
0.0
 10
13.8071509888
 20
5.2738245291
 30
0.0
 10
13.8080349863
 20
5.3010787255
 30
0.0
 10
13.808654378
 20
5.3292907885
 30
0.0
 10
13.809001704
 20
5.3581160991
 30
0.0
 10
13.8090725114
 20
5.3872079819
 30
0.0
 10
13.8088659765
 20
5.4162135336
 30
0.0
 10
13.8083846671
 20
5.4447814248
 30
0.0
 10
13.8076345255
 20
5.4725658984
 30
0.0
 10
13.8066251877
 20
5.4992305821
 30
0.0
 10
13.8053693511
 20
5.5244526078
 30
0.0
 10
13.8041050664
 20
5.544424779
 30
0.0
 10
13.8029708021
 20
5.5594514619
 30
0.0
 10
13.8020871392
 20
5.5699319548
 30
0.0
 10
13.801155163
 20
5.579837273
 30
0.0
 10
13.8001776396
 20
5.5891374591
 30
0.0
 10
13.7991574991
 20
5.597804413
 30
0.0
 10
13.7980983765
 20
5.6058119732
 30
0.0
 10
13.797003488
 20
5.6131360384
 30
0.0
 10
13.7958764115
 20
5.6197547434
 30
0.0
 10
13.7947214359
 20
5.625648306
 30
0.0
 10
13.7938813054
 20
5.6293198684
 30
0.0
 10
13.7934501753
 20
5.6310284909
 30
0.0
  0
SPLINE
  5
3E1
100
AcDbEntity
  8
0
100
AcDbSpline
 62
7
  6
CONTINUOUS
 70
0
 71
3
 72
15
 73
11
 74
0
 42
0.0000001
 43
0.0000001
 44
0.0000000001
 40
0.0
 40
0.0
 40
0.0
 40
0.0
 40
0.1490698013
 40
0.2923501365
 40
0.4291996026
 40
0.5590666057
 40
0.6815024651
 40
0.7960713691
 40
0.9023676538
 40
1.0
 40
1.0
 40
1.0
 40
1.0
 10
13.8059343465
 20
5.2473293718
 30
0.0
 10
13.8057013736
 20
5.2426994022
 30
0.0
 10
13.8052126409
 20
5.2336208394
 30
0.0
 10
13.8043932094
 20
5.2202984742
 30
0.0
 10
13.8035042189
 20
5.2075791081
 30
0.0
 10
13.8025491371
 20
5.1955146619
 30
0.0
 10
13.8015320724
 20
5.184150749
 30
0.0
 10
13.8004565911
 20
5.1735286702
 30
0.0
 10
13.7993272862
 20
5.1636881974
 30
0.0
 10
13.798505746
 20
5.1573994041
 30
0.0
 10
13.7980828299
 20
5.1543927961
 30
0.0
  0
SPLINE
  5
3E2
100
AcDbEntity
  8
0
100
AcDbSpline
 62
7
  6
CONTINUOUS
 70
0
 71
3
 72
21
 73
17
 74
0
 42
0.0000001
 43
0.0000001
 44
0.0000000001
 40
0.0
 40
0.0
 40
0.0
 40
0.0
 40
0.1249717233
 40
0.1874684367
 40
0.2499692886
 40
0.3124732591
 40
0.3749805625
 40
0.4374896612
 40
0.5
 40
0.5625103388
 40
0.6250194375
 40
0.6875267409
 40
0.7500307114
 40
0.8125315633
 40
0.8750282767
 40
1.0
 40
1.0
 40
1.0
 40
1.0
 10
13.9266689148
 20
5.2539283379
 30
0.0
 10
13.929617621
 20
5.2641819723
 30
0.0
 10
13.9336694559
 20
5.2796761829
 30
0.0
 10
13.9381340587
 20
5.3005474665
 30
0.0
 10
13.9409637945
 20
5.3163062904
 30
0.0
 10
13.9432266264
 20
5.3321577091
 30
0.0
 10
13.9448785549
 20
5.3480856318
 30
0.0
 10
13.9458845052
 20
5.3640682414
 30
0.0
 10
13.9462231799
 20
5.3800793718
 30
0.0
 10
13.9458845052
 20
5.3960905021
 30
0.0
 10
13.9448785549
 20
5.4120731117
 30
0.0
 10
13.9432266264
 20
5.4280010344
 30
0.0
 10
13.9409637945
 20
5.4438524531
 30
0.0
 10
13.9381340587
 20
5.459611277
 30
0.0
 10
13.9336694559
 20
5.4804825606
 30
0.0
 10
13.929617621
 20
5.4959767712
 30
0.0
 10
13.9266689148
 20
5.5062304056
 30
0.0
  0
SPLINE
  5
3E3
100
AcDbEntity
  8
0
100
AcDbSpline
 62
7
  6
CONTINUOUS
 70
0
 71
3
 72
9
 73
5
 74
0
 42
0.0000001
 43
0.0000001
 44
0.0000000001
 40
0.0
 40
0.0
 40
0.0
 40
0.0
 40
0.2545918989
 40
1.0
 40
1.0
 40
1.0
 40
1.0
 10
13.920897358
 20
5.1481743707
 30
0.0
 10
13.9216891148
 20
5.1495645782
 30
0.0
 10
13.9247255479
 20
5.1550661755
 30
0.0
 10
13.9274485845
 20
5.1607442893
 30
0.0
 10
13.9292446128
 20
5.1650704477
 30
0.0
  0
LINE
  5
3E4
100
AcDbEntity
  8
0
100
AcDbLine
 62
7
  6
CONTINUOUS
 10
13.9292446128
 20
5.1650704477
 11
13.9293877003
 21
5.1654165126
  0
SPLINE
  5
3E5
100
AcDbEntity
  8
0
100
AcDbSpline
 62
7
  6
CONTINUOUS
 70
0
 71
3
 72
19
 73
15
 74
0
 42
0.0000001
 43
0.0000001
 44
0.0000000001
 40
0.0
 40
0.0
 40
0.0
 40
0.0
 40
0.1296331746
 40
0.1931206136
 40
0.2558526181
 40
0.3179625945
 40
0.3796012857
 40
0.4409268894
 40
0.5020962281
 40
0.5632602961
 40
0.6245528286
 40
0.7479349191
 40
0.8729649692
 40
1.0
 40
1.0
 40
1.0
 40
1.0
 10
13.9293877003
 20
5.1654165126
 30
0.0
 10
13.9308879346
 20
5.1690597752
 30
0.0
 10
13.932878083
 20
5.174595404
 30
0.0
 10
13.9349193621
 20
5.1821020747
 30
0.0
 10
13.9361158762
 20
5.187702935
 30
0.0
 10
13.9369825514
 20
5.1933073084
 30
0.0
 10
13.9375178507
 20
5.1989101124
 30
0.0
 10
13.9377259164
 20
5.2045059349
 30
0.0
 10
13.9376110344
 20
5.2100898602
 30
0.0
 10
13.9371849888
 20
5.2156575733
 30
0.0
 10
13.9362146586
 20
5.2230693379
 30
0.0
 10
13.9342793012
 20
5.2322977616
 30
0.0
 10
13.9309523968
 20
5.2432256042
 30
0.0
 10
13.9281767296
 20
5.2503738309
 30
0.0
 10
13.9266689148
 20
5.2539283379
 30
0.0
  0
SPLINE
  5
3E6
100
AcDbEntity
  8
0
100
AcDbSpline
 62
7
  6
CONTINUOUS
 70
0
 71
3
 72
14
 73
10
 74
0
 42
0.0000001
 43
0.0000001
 44
0.0000000001
 40
0.0
 40
0.0
 40
0.0
 40
0.0
 40
0.2479351964
 40
0.3719122344
 40
0.4961186958
 40
0.6207839825
 40
0.7461604627
 40
0.8724959321
 40
1.0
 40
1.0
 40
1.0
 40
1.0
 10
13.8084611159
 20
5.5062304056
 30
0.0
 10
13.809269664
 20
5.5132021968
 30
0.0
 10
13.8101401643
 20
5.5237073165
 30
0.0
 10
13.8104219983
 20
5.5377522306
 30
0.0
 10
13.8101506338
 20
5.5483074392
 30
0.0
 10
13.809361196
 20
5.5588765108
 30
0.0
 10
13.8080315513
 20
5.5694523596
 30
0.0
 10
13.8061534656
 20
5.5800259644
 30
0.0
 10
13.8045516666
 20
5.587034073
 30
0.0
 10
13.8036670345
 20
5.5905333554
 30
0.0
  0
SPLINE
  5
3E7
100
AcDbEntity
  8
0
100
AcDbSpline
 62
7
  6
CONTINUOUS
 70
0
 71
3
 72
19
 73
15
 74
0
 42
0.0000001
 43
0.0000001
 44
0.0000000001
 40
0.0
 40
0.0
 40
0.0
 40
0.0
 40
0.1270350308
 40
0.2520650809
 40
0.3754471714
 40
0.4367397039
 40
0.4979037719
 40
0.5590731106
 40
0.6203987143
 40
0.6820374055
 40
0.7441473819
 40
0.8068793864
 40
0.8703668254
 40
1.0
 40
1.0
 40
1.0
 40
1.0
 10
13.9266689148
 20
5.5062304056
 30
0.0
 10
13.9281767296
 20
5.5097849127
 30
0.0
 10
13.9309523968
 20
5.5169331393
 30
0.0
 10
13.9342793012
 20
5.5278609819
 30
0.0
 10
13.9362146586
 20
5.5370894056
 30
0.0
 10
13.9371849888
 20
5.5445011703
 30
0.0
 10
13.9376110344
 20
5.5500688834
 30
0.0
 10
13.9377259164
 20
5.5556528087
 30
0.0
 10
13.9375178507
 20
5.5612486311
 30
0.0
 10
13.9369825514
 20
5.5668514351
 30
0.0
 10
13.9361158762
 20
5.5724558085
 30
0.0
 10
13.9349193621
 20
5.5780566688
 30
0.0
 10
13.932878083
 20
5.5855633395
 30
0.0
 10
13.9308879346
 20
5.5910989684
 30
0.0
 10
13.9293877003
 20
5.5947422309
 30
0.0
  0
LINE
  5
3E8
100
AcDbEntity
  8
0
100
AcDbLine
 62
7
  6
CONTINUOUS
 10
13.9293877003
 20
5.5947422309
 11
13.9292446128
 21
5.5950882958
  0
SPLINE
  5
3E9
100
AcDbEntity
  8
0
100
AcDbSpline
 62
7
  6
CONTINUOUS
 70
0
 71
3
 72
9
 73
5
 74
0
 42
0.0000001
 43
0.0000001
 44
0.0000000001
 40
0.0
 40
0.0
 40
0.0
 40
0.0
 40
0.2455498839
 40
1.0
 40
1.0
 40
1.0
 40
1.0
 10
13.9292446128
 20
5.5950882958
 30
0.0
 10
13.9286529539
 20
5.5965134461
 30
0.0
 10
13.926140475
 20
5.6022744947
 30
0.0
 10
13.9232436948
 20
5.6078645533
 30
0.0
 10
13.920897358
 20
5.6119843728
 30
0.0
  0
SPLINE
  5
3EA
100
AcDbEntity
  8
0
100
AcDbSpline
 62
7
  6
CONTINUOUS
 70
0
 71
3
 72
15
 73
11
 74
0
 42
0.0000001
 43
0.0000001
 44
0.0000000001
 40
0.0
 40
0.0
 40
0.0
 40
0.0
 40
0.1249964676
 40
0.2499956901
 40
0.3749971619
 40
0.4999999975
 40
0.6250028276
 40
0.7500042897
 40
0.8750035086
 40
1.0
 40
1.0
 40
1.0
 40
1.0
 10
13.8084611159
 20
5.2539283379
 30
0.0
 10
13.8098563397
 20
5.2643822086
 30
0.0
 10
13.8123916446
 20
5.2853255945
 30
0.0
 10
13.8152704516
 20
5.3168399037
 30
0.0
 10
13.8170737818
 20
5.3484362873
 30
0.0
 10
13.8176889428
 20
5.3800793707
 30
0.0
 10
13.8170737821
 20
5.4117224533
 30
0.0
 10
13.8152704521
 20
5.4433188353
 30
0.0
 10
13.8123916459
 20
5.4748331454
 30
0.0
 10
13.80985634
 20
5.4957765329
 30
0.0
 10
13.8084611159
 20
5.5062304056
 30
0.0
  0
SPLINE
  5
3EB
100
AcDbEntity
  8
0
100
AcDbSpline
 62
7
  6
CONTINUOUS
 70
0
 71
3
 72
14
 73
10
 74
0
 42
0.0000001
 43
0.0000001
 44
0.0000000001
 40
0.0
 40
0.0
 40
0.0
 40
0.0
 40
0.1275040503
 40
0.2538395089
 40
0.3792159868
 40
0.5038812922
 40
0.6280877791
 40
0.7520648318
 40
1.0
 40
1.0
 40
1.0
 40
1.0
 10
13.8036671242
 20
5.1696257473
 30
0.0
 10
13.8045517465
 20
5.1731250154
 30
0.0
 10
13.8061535309
 20
5.1801330943
 30
0.0
 10
13.8080315919
 20
5.1907066552
 30
0.0
 10
13.8093612148
 20
5.2012824599
 30
0.0
 10
13.8101506447
 20
5.211851487
 30
0.0
 10
13.8104219964
 20
5.2224066515
 30
0.0
 10
13.8101401593
 20
5.2364515046
 30
0.0
 10
13.8092696604
 20
5.2469565779
 30
0.0
 10
13.8084611159
 20
5.2539283379
 30
0.0
  0
SPLINE
  5
3EC
100
AcDbEntity
  8
0
100
AcDbSpline
 62
7
  6
CONTINUOUS
 70
0
 71
3
 72
24
 73
20
 74
0
 42
0.0000001
 43
0.0000001
 44
0.0000000001
 40
0.0
 40
0.0
 40
0.0
 40
0.0
 40
0.1896348566
 40
0.3644455398
 40
0.4455750699
 40
0.5222010633
 40
0.5940983048
 40
0.661050759
 40
0.7228526023
 40
0.7793336974
 40
0.8303378655
 40
0.8757327934
 40
0.9154253341
 40
0.9331117309
 40
0.9493514416
 40
0.9641478999
 40
0.9775095524
 40
0.9894516696
 40
1.0
 40
1.0
 40
1.0
 40
1.0
 10
-6.1803064672
 20
5.4890793718
 30
0.0
 10
-6.1799642548
 20
5.4958803031
 30
0.0
 10
-6.1792252617
 20
5.5089466221
 30
0.0
 10
-6.1780860605
 20
5.5249068056
 30
0.0
 10
-6.1770728656
 20
5.5368059239
 30
0.0
 10
-6.1762910614
 20
5.5450154632
 30
0.0
 10
-6.1754709668
 20
5.55270951
 30
0.0
 10
-6.1746153835
 20
5.5598638905
 30
0.0
 10
-6.1737268602
 20
5.5664561297
 30
0.0
 10
-6.1728086856
 20
5.5724656322
 30
0.0
 10
-6.1718640754
 20
5.5778740198
 30
0.0
 10
-6.1708960262
 20
5.5826646853
 30
0.0
 10
-6.1700438893
 20
5.5862565665
 30
0.0
 10
-6.1693434664
 20
5.5888059027
 30
0.0
 10
-6.1688344707
 20
5.5904800539
 30
0.0
 10
-6.1683219492
 20
5.5919900282
 30
0.0
 10
-6.1678063002
 20
5.5933349799
 30
0.0
 10
-6.1672880097
 20
5.594514025
 30
0.0
 10
-6.1669184162
 20
5.5952329981
 30
0.0
 10
-6.1667312105
 20
5.5955622786
 30
0.0
  0
SPLINE
  5
3ED
100
AcDbEntity
  8
0
100
AcDbSpline
 62
7
  6
CONTINUOUS
 70
0
 71
3
 72
9
 73
5
 74
0
 42
0.0000001
 43
0.0000001
 44
0.0000000001
 40
0.0
 40
0.0
 40
0.0
 40
0.0
 40
0.5066195038
 40
1.0
 40
1.0
 40
1.0
 40
1.0
 10
-6.1441233815
 20
5.1277773041
 30
0.0
 10
-6.1465388381
 20
5.1311038811
 30
0.0
 10
-6.1511614916
 20
5.1377772934
 30
0.0
 10
-6.1554136577
 20
5.1446954241
 30
0.0
 10
-6.1573950018
 20
5.1481743707
 30
0.0
  0
SPLINE
  5
3EE
100
AcDbEntity
  8
0
100
AcDbSpline
 62
7
  6
CONTINUOUS
 70
0
 71
3
 72
34
 73
30
 74
0
 42
0.0000001
 43
0.0000001
 44
0.0000000001
 40
0.0
 40
0.0
 40
0.0
 40
0.0
 40
0.0038050564
 40
0.0081536181
 40
0.0130559092
 40
0.0185176785
 40
0.0245418428
 40
0.0311288065
 40
0.038276026
 40
0.0459797716
 40
0.0630382912
 40
0.0822601711
 40
0.1035828517
 40
0.1269377115
 40
0.1522439707
 40
0.1794125408
 40
0.2083488975
 40
0.2389475346
 40
0.2711001273
 40
0.3046897236
 40
0.37568804
 40
0.450911729
 40
0.5292654213
 40
0.6096061149
 40
0.6907603129
 40
0.771544276
 40
0.8507720382
 40
0.9273038776
 40
1.0
 40
1.0
 40
1.0
 40
1.0
 10
-6.1667312105
 20
5.1645964651
 30
0.0
 10
-6.1669354479
 20
5.1649557036
 30
0.0
 10
-6.1673378444
 20
5.1657456351
 30
0.0
 10
-6.1678992368
 20
5.167048357
 30
0.0
 10
-6.1684575151
 20
5.1685460715
 30
0.0
 10
-6.1690120591
 20
5.1702376626
 30
0.0
 10
-6.1695622698
 20
5.1721220256
 30
0.0
 10
-6.1701075094
 20
5.1741976247
 30
0.0
 10
-6.1706473446
 20
5.1764625614
 30
0.0
 10
-6.1713844217
 20
5.1798488945
 30
0.0
 10
-6.1722782751
 20
5.1845421232
 30
0.0
 10
-6.1732888604
 20
5.1907162864
 30
0.0
 10
-6.1742666133
 20
5.1975871113
 30
0.0
 10
-6.1752072773
 20
5.2051293839
 30
0.0
 10
-6.17610725
 20
5.2133155836
 30
0.0
 10
-6.1769630579
 20
5.2221157044
 30
0.0
 10
-6.17777117
 20
5.2314973308
 30
0.0
 10
-6.1785288014
 20
5.2414260821
 30
0.0
 10
-6.1792328167
 20
5.2518653223
 30
0.0
 10
-6.1801129312
 20
5.2666896717
 30
0.0
 10
-6.181050789
 20
5.2861957703
 30
0.0
 10
-6.1819090149
 20
5.3105706563
 30
0.0
 10
-6.1825061262
 20
5.3359682048
 30
0.0
 10
-6.1828330104
 20
5.3620147368
 30
0.0
 10
-6.1828846305
 20
5.3883271926
 30
0.0
 10
-6.1826601336
 20
5.4145178706
 30
0.0
 10
-6.1821631842
 20
5.4402027505
 30
0.0
 10
-6.1814010769
 20
5.4650023718
 30
0.0
 10
-6.1807032275
 20
5.4811943883
 30
0.0
 10
-6.1803064672
 20
5.4890793718
 30
0.0
  0
SPLINE
  5
3EF
100
AcDbEntity
  8
0
100
AcDbSpline
 62
7
  6
CONTINUOUS
 70
0
 71
3
 72
9
 73
5
 74
0
 42
0.0000001
 43
0.0000001
 44
0.0000000001
 40
0.0
 40
0.0
 40
0.0
 40
0.0
 40
0.4933804962
 40
1.0
 40
1.0
 40
1.0
 40
1.0
 10
-6.1573950018
 20
5.6119843728
 30
0.0
 10
-6.1554136577
 20
5.6154633194
 30
0.0
 10
-6.1511614916
 20
5.6223814501
 30
0.0
 10
-6.1465388381
 20
5.6290548624
 30
0.0
 10
-6.1441233815
 20
5.6323814394
 30
0.0
  0
SPLINE
  5
3F0
100
AcDbEntity
  8
0
100
AcDbSpline
 62
7
  6
CONTINUOUS
 70
0
 71
3
 72
28
 73
24
 74
0
 42
0.0000001
 43
0.0000001
 44
0.0000000001
 40
0.0
 40
0.0
 40
0.0
 40
0.0
 40
0.0072117986
 40
0.0149369085
 40
0.0235974846
 40
0.0334959881
 40
0.0448353793
 40
0.0577467482
 40
0.0723140485
 40
0.0885925328
 40
0.1066189675
 40
0.1264178851
 40
0.1480054954
 40
0.1713906957
 40
0.2235477071
 40
0.2828546526
 40
0.3492424329
 40
0.4226072125
 40
0.5028027976
 40
0.5896720658
 40
0.6830434162
 40
0.7827051583
 40
1.0
 40
1.0
 40
1.0
 40
1.0
 10
-5.992507928
 20
5.6455790356
 30
0.0
 10
-5.9923209815
 20
5.6455790865
 30
0.0
 10
-5.9919320157
 20
5.6455236357
 30
0.0
 10
-5.9913644547
 20
5.6452812484
 30
0.0
 10
-5.9908048211
 20
5.6448857189
 30
0.0
 10
-5.9902508483
 20
5.6443400992
 30
0.0
 10
-5.9897002779
 20
5.6436447658
 30
0.0
 10
-5.9891520745
 20
5.6427996013
 30
0.0
 10
-5.9886058605
 20
5.6418045845
 30
0.0
 10
-5.9880617174
 20
5.640659882
 30
0.0
 10
-5.9875198745
 20
5.6393658221
 30
0.0
 10
-5.9869806459
 20
5.6379228412
 30
0.0
 10
-5.986444345
 20
5.6363314957
 30
0.0
 10
-5.9857066288
 20
5.6339238925
 30
0.0
 10
-5.9848046364
 20
5.630545493
 30
0.0
 10
-5.9837732626
 20
5.6260513281
 30
0.0
 10
-5.9827605031
 20
5.6209910302
 30
0.0
 10
-5.981769032
 20
5.6153759343
 30
0.0
 10
-5.9808011539
 20
5.6092187396
 30
0.0
 10
-5.9798594111
 20
5.6025333931
 30
0.0
 10
-5.9789463114
 20
5.5953351545
 30
0.0
 10
-5.9777345079
 20
5.5847675745
 30
0.0
 10
-5.9769310762
 20
5.5765900203
 30
0.0
 10
-5.9764252359
 20
5.5709799951
 30
0.0
  0
SPLINE
  5
3F1
100
AcDbEntity
  8
0
100
AcDbSpline
 62
7
  6
CONTINUOUS
 70
0
 71
3
 72
20
 73
16
 74
0
 42
0.0000001
 43
0.0000001
 44
0.0000000001
 40
0.0
 40
0.0
 40
0.0
 40
0.0
 40
0.2020065414
 40
0.3802232924
 40
0.5348214024
 40
0.6034151897
 40
0.6663281764
 40
0.7237010459
 40
0.7757253342
 40
0.8226646511
 40
0.8648852788
 40
0.902898317
 40
0.9374121187
 40
0.9693809691
 40
1.0
 40
1.0
 40
1.0
 40
1.0
 10
-6.0292105747
 20
5.6337925601
 30
0.0
 10
-6.0289503707
 20
5.634713071
 30
0.0
 10
-6.0284326195
 20
5.6364380945
 30
0.0
 10
-6.0276002157
 20
5.6388308723
 30
0.0
 10
-6.0268756249
 20
5.6405899252
 30
0.0
 10
-6.0262858016
 20
5.6418100372
 30
0.0
 10
-6.0258599459
 20
5.6425969898
 30
0.0
 10
-6.0254329087
 20
5.64329284
 30
0.0
 10
-6.0250046767
 20
5.6438975201
 30
0.0
 10
-6.0245751595
 20
5.6444110024
 30
0.0
 10
-6.0241440441
 20
5.644833217
 30
0.0
 10
-6.0237107773
 20
5.6451639038
 30
0.0
 10
-6.0232744544
 20
5.6454022207
 30
0.0
 10
-6.0228349366
 20
5.6455465902
 30
0.0
 10
-6.0225376569
 20
5.6455790759
 30
0.0
 10
-6.0223926637
 20
5.6455790356
 30
0.0
  0
SPLINE
  5
3F2
100
AcDbEntity
  8
0
100
AcDbSpline
 62
7
  6
CONTINUOUS
 70
0
 71
3
 72
11
 73
7
 74
0
 42
0.0000001
 43
0.0000001
 44
0.0000000001
 40
0.0
 40
0.0
 40
0.0
 40
0.0
 40
0.2610711159
 40
0.5162012836
 40
0.7632770482
 40
1.0
 40
1.0
 40
1.0
 40
1.0
 10
-5.969635034
 20
5.4203397028
 30
0.0
 10
-5.9697426816
 20
5.42839197
 30
0.0
 10
-5.9700207249
 20
5.4443124801
 30
0.0
 10
-5.9706332658
 20
5.4678488128
 30
0.0
 10
-5.9714325093
 20
5.4906280719
 30
0.0
 10
-5.9721005336
 20
5.5055366539
 30
0.0
 10
-5.9724674919
 20
5.5128293718
 30
0.0
  0
SPLINE
  5
3F3
100
AcDbEntity
  8
0
100
AcDbSpline
 62
7
  6
CONTINUOUS
 70
0
 71
3
 72
20
 73
16
 74
0
 42
0.0000001
 43
0.0000001
 44
0.0000000001
 40
0.0
 40
0.0
 40
0.0
 40
0.0
 40
0.2024590711
 40
0.3809921891
 40
0.5358185491
 40
0.6044957914
 40
0.6674617641
 40
0.7248491705
 40
0.7768418469
 40
0.8236969101
 40
0.8657827081
 40
0.9036188972
 40
0.9379209947
 40
0.9696465394
 40
1.0
 40
1.0
 40
1.0
 40
1.0
 10
-6.0292938649
 20
5.1266626719
 30
0.0
 10
-6.0290307323
 20
5.1257191853
 30
0.0
 10
-6.0285071839
 20
5.1239513018
 30
0.0
 10
-6.0276648337
 20
5.1214988009
 30
0.0
 10
-6.0269314767
 20
5.1196955547
 30
0.0
 10
-6.0263344631
 20
5.1184443777
 30
0.0
 10
-6.0259034299
 20
5.1176373774
 30
0.0
 10
-6.0254711826
 20
5.1169237918
 30
0.0
 10
-6.0250377145
 20
5.1163037731
 30
0.0
 10
-6.0246028937
 20
5.1157774194
 30
0.0
 10
-6.024166398
 20
5.1153447679
 30
0.0
 10
-6.0237276988
 20
5.1150059276
 30
0.0
 10
-6.023285897
 20
5.1147615549
 30
0.0
 10
-6.0228407619
 20
5.1146132731
 30
0.0
 10
-6.0225395131
 20
5.1145797487
 30
0.0
 10
-6.0223926637
 20
5.1145797079
 30
0.0
  0
SPLINE
  5
3F4
100
AcDbEntity
  8
0
100
AcDbSpline
 62
7
  6
CONTINUOUS
 70
0
 71
3
 72
15
 73
11
 74
0
 42
0.0000001
 43
0.0000001
 44
0.0000000001
 40
0.0
 40
0.0
 40
0.0
 40
0.0
 40
0.1220924646
 40
0.2441336407
 40
0.3665138762
 40
0.4897523094
 40
0.6143953533
 40
0.7408753124
 40
0.8694108864
 40
1.0
 40
1.0
 40
1.0
 40
1.0
 10
-6.0259155826
 20
5.6323814394
 30
0.0
 10
-6.0265211429
 20
5.6271599317
 30
0.0
 10
-6.0274763428
 20
5.6166867043
 30
0.0
 10
-6.0279769325
 20
5.6009044441
 30
0.0
 10
-6.0273915468
 20
5.5850722837
 30
0.0
 10
-6.0256087268
 20
5.5692156055
 30
0.0
 10
-6.0225919593
 20
5.5533676457
 30
0.0
 10
-6.0183916113
 20
5.5375579722
 30
0.0
 10
-6.0131269005
 20
5.5218038424
 30
0.0
 10
-6.0090402184
 20
5.5114179886
 30
0.0
 10
-6.0068724054
 20
5.5062304056
 30
0.0
  0
SPLINE
  5
3F5
100
AcDbEntity
  8
0
100
AcDbSpline
 62
7
  6
CONTINUOUS
 70
0
 71
3
 72
25
 73
21
 74
0
 42
0.0000001
 43
0.0000001
 44
0.0000000001
 40
0.0
 40
0.0
 40
0.0
 40
0.0
 40
0.0616191363
 40
0.1225255592
 40
0.1827757134
 40
0.2424804553
 40
0.3018069094
 40
0.3609830165
 40
0.3906059406
 40
0.4202991652
 40
0.4800387391
 40
0.5405242251
 40
0.5711405922
 40
0.602043134
 40
0.6647934434
 40
0.7289332327
 40
0.7945368463
 40
0.8616143713
 40
0.9301275978
 40
1.0
 40
1.0
 40
1.0
 40
1.0
 10
-6.1441233815
 20
5.6323814394
 30
0.0
 10
-6.1452043046
 20
5.6298332822
 30
0.0
 10
-6.1472420479
 20
5.624717939
 30
0.0
 10
-6.14988948
 20
5.6169420653
 30
0.0
 10
-6.1520611483
 20
5.6091080769
 30
0.0
 10
-6.1537058898
 20
5.6012180381
 30
0.0
 10
-6.1547758947
 20
5.5932774544
 30
0.0
 10
-6.155151217
 20
5.5866265036
 30
0.0
 10
-6.1551263239
 20
5.5813025454
 30
0.0
 10
-6.1548796723
 20
5.5759588944
 30
0.0
 10
-6.1541490583
 20
5.5692559066
 30
0.0
 10
-6.1528573805
 20
5.5625963297
 30
0.0
 10
-6.1514979579
 20
5.5572859592
 30
0.0
 10
-6.1499059539
 20
5.5519343184
 30
0.0
 10
-6.1475077033
 20
5.5452573613
 30
0.0
 10
-6.1440407026
 20
5.5373298311
 30
0.0
 10
-6.1400162112
 20
5.5294523708
 30
0.0
 10
-6.1354829099
 20
5.5216296342
 30
0.0
 10
-6.1304916858
 20
5.5138630118
 30
0.0
 10
-6.1269243527
 20
5.5087701744
 30
0.0
 10
-6.1250802043
 20
5.5062304056
 30
0.0
  0
SPLINE
  5
3F6
100
AcDbEntity
  8
0
100
AcDbSpline
 62
7
  6
CONTINUOUS
 70
0
 71
3
 72
41
 73
37
 74
0
 42
0.0000001
 43
0.0000001
 44
0.0000000001
 40
0.0
 40
0.0
 40
0.0
 40
0.0
 40
0.1196887454
 40
0.2335462139
 40
0.3408403133
 40
0.4409961463
 40
0.533487642
 40
0.6178222441
 40
0.6935401364
 40
0.728049182
 40
0.760266283
 40
0.7901518665
 40
0.8176768176
 40
0.8428167046
 40
0.86555113
 40
0.8858683295
 40
0.9037748394
 40
0.9192940054
 40
0.9261737259
 40
0.932478371
 40
0.9382220703
 40
0.9434253751
 40
0.9481165894
 40
0.9523347682
 40
0.9561340623
 40
0.9595889061
 40
0.9627983638
 40
0.96588581
 40
0.9689897409
 40
0.9722464558
 40
0.9757740855
 40
0.9796656998
 40
0.9839905132
 40
0.9887986918
 40
0.9941264253
 40
1.0
 40
1.0
 40
1.0
 40
1.0
 10
-6.1473981945
 20
5.2710793718
 30
0.0
 10
-6.1476301783
 20
5.2664690603
 30
0.0
 10
-6.1481210198
 20
5.257474912
 30
0.0
 10
-6.1489614944
 20
5.2443561007
 30
0.0
 10
-6.1498847179
 20
5.2319981215
 30
0.0
 10
-6.1508847352
 20
5.2204729993
 30
0.0
 10
-6.1519559354
 20
5.209843813
 30
0.0
 10
-6.1530915539
 20
5.2001696668
 30
0.0
 10
-6.154115093
 20
5.1927352306
 30
0.0
 10
-6.1549705368
 20
5.1873083122
 30
0.0
 10
-6.155604259
 20
5.1836363314
 30
0.0
 10
-6.1562492562
 20
5.1802400987
 30
0.0
 10
-6.156904472
 20
5.1771242094
 30
0.0
 10
-6.1575688353
 20
5.1742928024
 30
0.0
 10
-6.1582412939
 20
5.1717497995
 30
0.0
 10
-6.1589208754
 20
5.1694984879
 30
0.0
 10
-6.1596063815
 20
5.1675416021
 30
0.0
 10
-6.1602030857
 20
5.1661047252
 30
0.0
 10
-6.1606888294
 20
5.1651095908
 30
0.0
 10
-6.1610394304
 20
5.1644689181
 30
0.0
 10
-6.1613910376
 20
5.1639035666
 30
0.0
 10
-6.1617436431
 20
5.1634135623
 30
0.0
 10
-6.1620973338
 20
5.1629988575
 30
0.0
 10
-6.1624523807
 20
5.1626594415
 30
0.0
 10
-6.1628092815
 20
5.1623954964
 30
0.0
 10
-6.163168681
 20
5.1622076958
 30
0.0
 10
-6.1635308917
 20
5.1620974903
 30
0.0
 10
-6.1638950327
 20
5.1620667396
 30
0.0
 10
-6.1642588851
 20
5.1621162534
 30
0.0
 10
-6.1646204586
 20
5.16224481
 30
0.0
 10
-6.1649792194
 20
5.1624505544
 30
0.0
 10
-6.1653356295
 20
5.162732222
 30
0.0
 10
-6.1656903223
 20
5.1630892865
 30
0.0
 10
-6.1660437434
 20
5.163521637
 30
0.0
 10
-6.1663961061
 20
5.1640292825
 30
0.0
 10
-6.1666192502
 20
5.1643995351
 30
0.0
 10
-6.1667312105
 20
5.1645964651
 30
0.0
  0
SPLINE
  5
3F7
100
AcDbEntity
  8
0
100
AcDbSpline
 62
7
  6
CONTINUOUS
 70
0
 71
3
 72
47
 73
43
 74
0
 42
0.0000001
 43
0.0000001
 44
0.0000000001
 40
0.0
 40
0.0
 40
0.0
 40
0.0
 40
0.0036572566
 40
0.0052443511
 40
0.0066820691
 40
0.0079836822
 40
0.009167183
 40
0.0102565784
 40
0.0112826572
 40
0.0122822364
 40
0.0132951502
 40
0.0155012651
 40
0.016761208
 40
0.0181518454
 40
0.0196878774
 40
0.0213801263
 40
0.0252618581
 40
0.0298403648
 40
0.0351366368
 40
0.041161637
 40
0.0479206163
 40
0.0554143898
 40
0.0636389988
 40
0.0725885413
 40
0.0822560627
 40
0.0926334428
 40
0.1154716602
 40
0.1410042923
 40
0.1691171554
 40
0.1996773811
 40
0.232542338
 40
0.2675526252
 40
0.3045417717
 40
0.3433288521
 40
0.383727346
 40
0.4685615914
 40
0.5573930195
 40
0.6484881328
 40
0.7400689117
 40
0.8303444336
 40
0.9175573065
 40
1.0
 40
1.0
 40
1.0
 40
1.0
 10
-6.1667312105
 20
5.5955622786
 30
0.0
 10
-6.1665301014
 20
5.5959160141
 30
0.0
 10
-6.1662186728
 20
5.5964117939
 30
0.0
 10
-6.1657553652
 20
5.5969941024
 30
0.0
 10
-6.1654234064
 20
5.5973437233
 30
0.0
 10
-6.165090204
 20
5.597627164
 30
0.0
 10
-6.1647552992
 20
5.5978441388
 30
0.0
 10
-6.1644182807
 20
5.5979939275
 30
0.0
 10
-6.1640791737
 20
5.5980753127
 30
0.0
 10
-6.1637389218
 20
5.5980869741
 30
0.0
 10
-6.1632733485
 20
5.5980072707
 30
0.0
 10
-6.1628179269
 20
5.5977793393
 30
0.0
 10
-6.1623924317
 20
5.5974457047
 30
0.0
 10
-6.1620598599
 20
5.5971180487
 30
0.0
 10
-6.1617286766
 20
5.5967243947
 30
0.0
 10
-6.1612668821
 20
5.5960813187
 30
0.0
 10
-6.1606996364
 20
5.5951016617
 30
0.0
 10
-6.1600501576
 20
5.5937144505
 30
0.0
 10
-6.1594043745
 20
5.592066469
 30
0.0
 10
-6.1587631147
 20
5.5901591692
 30
0.0
 10
-6.1581273622
 20
5.5879940126
 30
0.0
 10
-6.1574981177
 20
5.5855732928
 30
0.0
 10
-6.1568761297
 20
5.5828998822
 30
0.0
 10
-6.1562622819
 20
5.5799770387
 30
0.0
 10
-6.1556573896
 20
5.576808166
 30
0.0
 10
-6.1548376632
 20
5.5721077551
 30
0.0
 10
-6.1538519413
 20
5.5656454043
 30
0.0
 10
-6.1527500841
 20
5.5572069553
 30
0.0
 10
-6.1517010898
 20
5.5478966952
 30
0.0
 10
-6.1507101201
 20
5.5377601606
 30
0.0
 10
-6.1497827825
 20
5.5268472759
 30
0.0
 10
-6.1489234765
 20
5.5152115095
 30
0.0
 10
-6.1481370006
 20
5.5029103067
 30
0.0
 10
-6.1474269463
 20
5.4900040309
 30
0.0
 10
-6.1465735333
 20
5.4717749361
 30
0.0
 10
-6.1457328624
 20
5.4479720361
 30
0.0
 10
-6.1450877945
 20
5.4185209584
 30
0.0
 10
-6.1448045347
 20
5.3883135293
 30
0.0
 10
-6.1448889198
 20
5.3579442517
 30
0.0
 10
-6.1453391208
 20
5.3280101206
 30
0.0
 10
-6.1461459332
 20
5.2991005759
 30
0.0
 10
-6.1469372267
 20
5.28024038
 30
0.0
 10
-6.1473981945
 20
5.2710793718
 30
0.0
  0
SPLINE
  5
3F8
100
AcDbEntity
  8
0
100
AcDbSpline
 62
7
  6
CONTINUOUS
 70
0
 71
3
 72
15
 73
11
 74
0
 42
0.0000001
 43
0.0000001
 44
0.0000000001
 40
0.0
 40
0.0
 40
0.0
 40
0.0
 40
0.1249964676
 40
0.2499956901
 40
0.3749971619
 40
0.4999999975
 40
0.6250028276
 40
0.7500042897
 40
0.8750035086
 40
1.0
 40
1.0
 40
1.0
 40
1.0
 10
-6.0068724054
 20
5.5062304056
 30
0.0
 10
-6.0082676292
 20
5.4957765349
 30
0.0
 10
-6.010802934
 20
5.474833149
 30
0.0
 10
-6.013681741
 20
5.4433188398
 30
0.0
 10
-6.0154850712
 20
5.4117224563
 30
0.0
 10
-6.0161002322
 20
5.3800793728
 30
0.0
 10
-6.0154850716
 20
5.3484362902
 30
0.0
 10
-6.0136817415
 20
5.3168399083
 30
0.0
 10
-6.0108029353
 20
5.2853255981
 30
0.0
 10
-6.0082676294
 20
5.2643822106
 30
0.0
 10
-6.0068724054
 20
5.2539283379
 30
0.0
  0
SPLINE
  5
3F9
100
AcDbEntity
  8
0
100
AcDbSpline
 62
7
  6
CONTINUOUS
 70
0
 71
3
 72
21
 73
17
 74
0
 42
0.0000001
 43
0.0000001
 44
0.0000000001
 40
0.0
 40
0.0
 40
0.0
 40
0.0
 40
0.1249717233
 40
0.1874684367
 40
0.2499692886
 40
0.3124732591
 40
0.3749805625
 40
0.4374896612
 40
0.5
 40
0.5625103388
 40
0.6250194375
 40
0.6875267409
 40
0.7500307114
 40
0.8125315633
 40
0.8750282767
 40
1.0
 40
1.0
 40
1.0
 40
1.0
 10
-6.1250802043
 20
5.5062304056
 30
0.0
 10
-6.1280289104
 20
5.4959767712
 30
0.0
 10
-6.1320807454
 20
5.4804825606
 30
0.0
 10
-6.1365453482
 20
5.459611277
 30
0.0
 10
-6.139375084
 20
5.4438524531
 30
0.0
 10
-6.1416379158
 20
5.4280010344
 30
0.0
 10
-6.1432898443
 20
5.4120731117
 30
0.0
 10
-6.1442957947
 20
5.3960905021
 30
0.0
 10
-6.1446344693
 20
5.3800793718
 30
0.0
 10
-6.1442957947
 20
5.3640682414
 30
0.0
 10
-6.1432898443
 20
5.3480856318
 30
0.0
 10
-6.1416379158
 20
5.3321577091
 30
0.0
 10
-6.139375084
 20
5.3163062904
 30
0.0
 10
-6.1365453482
 20
5.3005474665
 30
0.0
 10
-6.1320807454
 20
5.2796761829
 30
0.0
 10
-6.1280289104
 20
5.2641819723
 30
0.0
 10
-6.1250802043
 20
5.2539283379
 30
0.0
  0
SPLINE
  5
3FA
100
AcDbEntity
  8
0
100
AcDbSpline
 62
7
  6
CONTINUOUS
 70
0
 71
3
 72
15
 73
11
 74
0
 42
0.0000001
 43
0.0000001
 44
0.0000000001
 40
0.0
 40
0.0
 40
0.0
 40
0.0
 40
0.1305891503
 40
0.2591247296
 40
0.3856046735
 40
0.510247709
 40
0.6334861385
 40
0.7558663678
 40
0.8779075341
 40
1.0
 40
1.0
 40
1.0
 40
1.0
 10
-6.0068724054
 20
5.2539283379
 30
0.0
 10
-6.009040219
 20
5.2487407535
 30
0.0
 10
-6.0131269028
 20
5.2383548983
 30
0.0
 10
-6.0183916129
 20
5.2226007671
 30
0.0
 10
-6.0225919604
 20
5.2067910943
 30
0.0
 10
-6.0256087272
 20
5.1909431355
 30
0.0
 10
-6.0273915467
 20
5.175086458
 30
0.0
 10
-6.0279769323
 20
5.1592542985
 30
0.0
 10
-6.0274763428
 20
5.143472039
 30
0.0
 10
-6.0265211429
 20
5.1329988119
 30
0.0
 10
-6.0259155826
 20
5.1277773041
 30
0.0
  0
SPLINE
  5
3FB
100
AcDbEntity
  8
0
100
AcDbSpline
 62
7
  6
CONTINUOUS
 70
0
 71
3
 72
25
 73
21
 74
0
 42
0.0000001
 43
0.0000001
 44
0.0000000001
 40
0.0
 40
0.0
 40
0.0
 40
0.0
 40
0.0698724022
 40
0.1383856287
 40
0.2054631537
 40
0.2710667673
 40
0.3352065566
 40
0.397956866
 40
0.4288594078
 40
0.4594757749
 40
0.5199612609
 40
0.5797008348
 40
0.6093940594
 40
0.6390169835
 40
0.6981930906
 40
0.7575195447
 40
0.8172242866
 40
0.8774744408
 40
0.9383808637
 40
1.0
 40
1.0
 40
1.0
 40
1.0
 10
-6.1250802043
 20
5.2539283379
 30
0.0
 10
-6.1269243527
 20
5.2513885691
 30
0.0
 10
-6.1304916858
 20
5.2462957318
 30
0.0
 10
-6.1354829099
 20
5.2385291093
 30
0.0
 10
-6.1400162112
 20
5.2307063727
 30
0.0
 10
-6.1440407026
 20
5.2228289124
 30
0.0
 10
-6.1475077033
 20
5.2149013822
 30
0.0
 10
-6.1499059539
 20
5.2082244251
 30
0.0
 10
-6.1514979579
 20
5.2028727843
 30
0.0
 10
-6.1528573805
 20
5.1975624139
 30
0.0
 10
-6.1541490583
 20
5.1909028369
 30
0.0
 10
-6.1548796723
 20
5.1841998492
 30
0.0
 10
-6.1551263239
 20
5.1788561981
 30
0.0
 10
-6.155151217
 20
5.17353224
 30
0.0
 10
-6.1547758947
 20
5.1668812892
 30
0.0
 10
-6.1537058898
 20
5.1589407054
 30
0.0
 10
-6.1520611483
 20
5.1510506666
 30
0.0
 10
-6.14988948
 20
5.1432166782
 30
0.0
 10
-6.1472420479
 20
5.1354408045
 30
0.0
 10
-6.1452043046
 20
5.1303254613
 30
0.0
 10
-6.1441233815
 20
5.1277773041
 30
0.0
  0
SPLINE
  5
3FC
100
AcDbEntity
  8
0
100
AcDbSpline
 62
7
  6
CONTINUOUS
 70
0
 71
3
 72
34
 73
30
 74
0
 42
0.0000001
 43
0.0000001
 44
0.0000000001
 40
0.0
 40
0.0
 40
0.0
 40
0.0
 40
0.0027949545
 40
0.0056851443
 40
0.0087567188
 40
0.0120816541
 40
0.0157168127
 40
0.0197057262
 40
0.0240812657
 40
0.0288676749
 40
0.0397363675
 40
0.0524115617
 40
0.0669471397
 40
0.0833740709
 40
0.1017079827
 40
0.1219491969
 40
0.1440905762
 40
0.168121064
 40
0.1940268684
 40
0.2217896175
 40
0.2827799667
 40
0.3508702388
 40
0.4258028603
 40
0.5072635804
 40
0.5949238959
 40
0.6884308691
 40
0.7874179891
 40
0.8914493904
 40
1.0
 40
1.0
 40
1.0
 40
1.0
 10
-6.0223926637
 20
5.6455790356
 30
0.0
 10
-6.0222659061
 20
5.6455790004
 30
0.0
 10
-6.0220074692
 20
5.6455542737
 30
0.0
 10
-6.021623832
 20
5.645444372
 30
0.0
 10
-6.0212420548
 20
5.6452625386
 30
0.0
 10
-6.0208622595
 20
5.6450097225
 30
0.0
 10
-6.0204840395
 20
5.644686453
 30
0.0
 10
-6.0201070771
 20
5.6442929191
 30
0.0
 10
-6.0197311371
 20
5.6438291694
 30
0.0
 10
-6.0192088195
 20
5.6430851984
 30
0.0
 10
-6.018565801
 20
5.6419700828
 30
0.0
 10
-6.017827177
 20
5.6404076792
 30
0.0
 10
-6.0170925569
 20
5.638568916
 30
0.0
 10
-6.0163627628
 20
5.6364549977
 30
0.0
 10
-6.0156388074
 20
5.6340673833
 30
0.0
 10
-6.0149214191
 20
5.6314084721
 30
0.0
 10
-6.014211471
 20
5.6284810678
 30
0.0
 10
-6.01350983
 20
5.6252881477
 30
0.0
 10
-6.0128173399
 20
5.6218328501
 30
0.0
 10
-6.0118777179
 20
5.616718215
 30
0.0
 10
-6.0107433204
 20
5.6096951939
 30
0.0
 10
-6.0094681051
 20
5.6005304716
 30
0.0
 10
-6.0082464732
 20
5.5904227097
 30
0.0
 10
-6.0070833798
 20
5.579415244
 30
0.0
 10
-6.0059847044
 20
5.5675549497
 30
0.0
 10
-6.0049549603
 20
5.5548908628
 30
0.0
 10
-6.0039989547
 20
5.5414765687
 30
0.0
 10
-6.0031210932
 20
5.5273733201
 30
0.0
 10
-6.0026007429
 20
5.5177461717
 30
0.0
 10
-6.0023533371
 20
5.5128293718
 30
0.0
  0
SPLINE
  5
3FD
100
AcDbEntity
  8
0
100
AcDbSpline
 62
7
  6
CONTINUOUS
 70
0
 71
3
 72
42
 73
38
 74
0
 42
0.0000001
 43
0.0000001
 44
0.0000000001
 40
0.0
 40
0.0
 40
0.0
 40
0.0
 40
0.0009467186
 40
0.0019256487
 40
0.0029660961
 40
0.0040925906
 40
0.005324365
 40
0.0066759767
 40
0.0081583224
 40
0.0097795422
 40
0.0134604358
 40
0.0177534277
 40
0.0226777785
 40
0.0282432337
 40
0.0344534429
 40
0.0413090457
 40
0.0488087478
 40
0.056949669
 40
0.0657259296
 40
0.0751300347
 40
0.0957889966
 40
0.1188549683
 40
0.1442355609
 40
0.17183108
 40
0.2015282562
 40
0.2332034344
 40
0.2667265129
 40
0.3019546674
 40
0.3387416653
 40
0.4163610305
 40
0.4982730703
 40
0.5830895335
 40
0.6693703883
 40
0.755652809
 40
0.8404651478
 40
0.9223851568
 40
1.0
 40
1.0
 40
1.0
 40
1.0
 10
-6.0223926637
 20
5.1145797079
 30
0.0
 10
-6.0222659124
 20
5.1145796727
 30
0.0
 10
-6.0220074791
 20
5.1146042534
 30
0.0
 10
-6.0216238178
 20
5.1147140138
 30
0.0
 10
-6.0212420163
 20
5.1148958422
 30
0.0
 10
-6.0208622371
 20
5.1151488318
 30
0.0
 10
-6.0204840518
 20
5.1154723475
 30
0.0
 10
-6.0201071217
 20
5.1158660882
 30
0.0
 10
-6.0197311817
 20
5.1163299096
 30
0.0
 10
-6.019208859
 20
5.1170737535
 30
0.0
 10
-6.0185657663
 20
5.1181885886
 30
0.0
 10
-6.0178270654
 20
5.1197508385
 30
0.0
 10
-6.0170925411
 20
5.1215897763
 30
0.0
 10
-6.0163628699
 20
5.1237039175
 30
0.0
 10
-6.0156388436
 20
5.1260914819
 30
0.0
 10
-6.0149213876
 20
5.1287501455
 30
0.0
 10
-6.0142113948
 20
5.1316774563
 30
0.0
 10
-6.0135098403
 20
5.1348705635
 30
0.0
 10
-6.0128174122
 20
5.1383260684
 30
0.0
 10
-6.0118777126
 20
5.1434406413
 30
0.0
 10
-6.0107432005
 20
5.1504636131
 30
0.0
 10
-6.0094682742
 20
5.1596280872
 30
0.0
 10
-6.0082463373
 20
5.1697358483
 30
0.0
 10
-6.0070834208
 20
5.1807436446
 30
0.0
 10
-6.0059846775
 20
5.1926046024
 30
0.0
 10
-6.0049549513
 20
5.2052681067
 30
0.0
 10
-6.0039991619
 20
5.2186798707
 30
0.0
 10
-6.0031210556
 20
5.2327827109
 30
0.0
 10
-6.0020402999
 20
5.2527875251
 30
0.0
 10
-6.0009235326
 20
5.2790488365
 30
0.0
 10
-5.9999650132
 20
5.3117501017
 30
0.0
 10
-5.9993830193
 20
5.3456200269
 30
0.0
 10
-5.9991878158
 20
5.3800794758
 30
0.0
 10
-5.9993830853
 20
5.4145383689
 30
0.0
 10
-5.9999649929
 20
5.4484090273
 30
0.0
 10
-6.0009235757
 20
5.4811101755
 30
0.0
 10
-6.0018311158
 20
5.502451047
 30
0.0
 10
-6.0023533371
 20
5.5128293718
 30
0.0
  0
SPLINE
  5
3FE
100
AcDbEntity
  8
0
100
AcDbSpline
 62
7
  6
CONTINUOUS
 70
0
 71
3
 72
15
 73
11
 74
0
 42
0.0000001
 43
0.0000001
 44
0.0000000001
 40
0.0
 40
0.0
 40
0.0
 40
0.0
 40
0.1453524083
 40
0.2868079831
 40
0.4230969843
 40
0.5529474777
 40
0.6754525845
 40
0.7903911539
 40
0.8982555593
 40
1.0
 40
1.0
 40
1.0
 40
1.0
 10
-2.9580676143
 20
-5.3659269792
 30
0.0
 10
-2.9651752301
 20
-5.3615744712
 30
0.0
 10
-2.9791147726
 20
-5.3528455212
 30
0.0
 10
-2.9993349101
 20
-5.3394341018
 30
0.0
 10
-3.0183740835
 20
-5.3258702729
 30
0.0
 10
-3.0359836024
 20
-5.3122012586
 30
0.0
 10
-3.0519894094
 20
-5.2984996878
 30
0.0
 10
-3.0663457409
 20
-5.2848505867
 30
0.0
 10
-3.0791426124
 20
-5.2713284943
 30
0.0
 10
-3.0869604129
 20
-5.2621927728
 30
0.0
 10
-3.0906501357
 20
-5.2576738037
 30
0.0
  0
SPLINE
  5
3FF
100
AcDbEntity
  8
0
100
AcDbSpline
 62
7
  6
CONTINUOUS
 70
0
 71
3
 72
19
 73
15
 74
0
 42
0.0000001
 43
0.0000001
 44
0.0000000001
 40
0.0
 40
0.0
 40
0.0
 40
0.0
 40
0.1239135187
 40
0.2486584689
 40
0.3113153546
 40
0.3741210923
 40
0.4370327446
 40
0.5
 40
0.5629672554
 40
0.6258789077
 40
0.6886846454
 40
0.7513415311
 40
0.8760864813
 40
1.0
 40
1.0
 40
1.0
 40
1.0
 10
-3.0906501357
 20
-5.2576738037
 30
0.0
 10
-3.0924523568
 20
-5.2488447596
 30
0.0
 10
-3.0957513242
 20
-5.2310603029
 30
0.0
 10
-3.0989031354
 20
-5.2086321268
 30
0.0
 10
-3.1007368233
 20
-5.1905274787
 30
0.0
 10
-3.1017423278
 20
-5.1768638117
 30
0.0
 10
-3.1023545421
 20
-5.1631542008
 30
0.0
 10
-3.1025606527
 20
-5.1494206282
 30
0.0
 10
-3.1023545421
 20
-5.1356870556
 30
0.0
 10
-3.1017423278
 20
-5.1219774448
 30
0.0
 10
-3.1007368233
 20
-5.1083137778
 30
0.0
 10
-3.0989031354
 20
-5.0902091297
 30
0.0
 10
-3.0957513242
 20
-5.0677809536
 30
0.0
 10
-3.0924523568
 20
-5.0499964969
 30
0.0
 10
-3.0906501357
 20
-5.0411674528
 30
0.0
  0
SPLINE
  5
400
100
AcDbEntity
  8
0
100
AcDbSpline
 62
7
  6
CONTINUOUS
 70
0
 71
3
 72
15
 73
11
 74
0
 42
0.0000001
 43
0.0000001
 44
0.0000000001
 40
0.0
 40
0.0
 40
0.0
 40
0.0
 40
0.1017444407
 40
0.2096088461
 40
0.3245474155
 40
0.4470525223
 40
0.5769030157
 40
0.7131920169
 40
0.8546475917
 40
1.0
 40
1.0
 40
1.0
 40
1.0
 10
-3.0906501357
 20
-5.0411674528
 30
0.0
 10
-3.0869604129
 20
-5.0366484836
 30
0.0
 10
-3.0791426124
 20
-5.0275127622
 30
0.0
 10
-3.0663457409
 20
-5.0139906698
 30
0.0
 10
-3.0519894094
 20
-5.0003415687
 30
0.0
 10
-3.0359836024
 20
-4.9866399979
 30
0.0
 10
-3.0183740835
 20
-4.9729709836
 30
0.0
 10
-2.9993349101
 20
-4.9594071547
 30
0.0
 10
-2.9791147726
 20
-4.9459957352
 30
0.0
 10
-2.9651752301
 20
-4.9372667853
 30
0.0
 10
-2.9580676143
 20
-4.9329142773
 30
0.0
  0
SPLINE
  5
401
100
AcDbEntity
  8
0
100
AcDbSpline
 62
7
  6
CONTINUOUS
 70
0
 71
3
 72
18
 73
14
 74
0
 42
0.0000001
 43
0.0000001
 44
0.0000000001
 40
0.0
 40
0.0
 40
0.0
 40
0.0
 40
0.1219690361
 40
0.1839708425
 40
0.2465153938
 40
0.3095066389
 40
0.3728352556
 40
0.4363889226
 40
0.5000552733
 40
0.6272461297
 40
0.7535355339
 40
0.8780544894
 40
1.0
 40
1.0
 40
1.0
 40
1.0
 10
-2.6371446456
 20
-5.0298798051
 30
0.0
 10
-2.6337374154
 20
-5.0391875062
 30
0.0
 10
-2.6292640866
 20
-5.0534820121
 30
0.0
 10
-2.6245749857
 20
-5.0729625949
 30
0.0
 10
-2.6216637325
 20
-5.0879275541
 30
0.0
 10
-2.619389383
 20
-5.1031107321
 30
0.0
 10
-2.6177582418
 20
-5.1184589121
 30
0.0
 10
-2.6167781015
 20
-5.1339175384
 30
0.0
 10
-2.6163421359
 20
-5.1545924987
 30
0.0
 10
-2.6174291941
 20
-5.1803756193
 30
0.0
 10
-2.6213228623
 20
-5.2108832365
 30
0.0
 10
-2.627750594
 20
-5.2405230166
 30
0.0
 10
-2.6337421781
 20
-5.2596697866
 30
0.0
 10
-2.6371495774
 20
-5.2689753899
 30
0.0
  0
SPLINE
  5
402
100
AcDbEntity
  8
0
100
AcDbSpline
 62
7
  6
CONTINUOUS
 70
0
 71
3
 72
21
 73
17
 74
0
 42
0.0000001
 43
0.0000001
 44
0.0000000001
 40
0.0
 40
0.0
 40
0.0
 40
0.0
 40
0.1440731398
 40
0.2141423639
 40
0.2827644762
 40
0.4153833666
 40
0.479410101
 40
0.541909948
 40
0.6029368125
 40
0.6625754048
 40
0.7209447789
 40
0.7781948503
 40
0.8345072118
 40
0.890089341
 40
0.9451717899
 40
1.0
 40
1.0
 40
1.0
 40
1.0
 10
-2.6371495774
 20
-5.2689753899
 30
0.0
 10
-2.6409333743
 20
-5.2793089344
 30
0.0
 10
-2.647379448
 20
-5.2943905046
 30
0.0
 10
-2.6575757549
 20
-5.3134419731
 30
0.0
 10
-2.668441246
 20
-5.331098912
 30
0.0
 10
-2.6806616731
 20
-5.3473482405
 30
0.0
 10
-2.6941549508
 20
-5.3618490426
 30
0.0
 10
-2.7046575865
 20
-5.3716117012
 30
0.0
 10
-2.7156093721
 20
-5.3803399628
 30
0.0
 10
-2.7269612006
 20
-5.3879921303
 30
0.0
 10
-2.7386597574
 20
-5.3945323472
 30
0.0
 10
-2.7506514239
 20
-5.3999278672
 30
0.0
 10
-2.7628794408
 20
-5.4041533282
 30
0.0
 10
-2.7752870699
 20
-5.4071865003
 30
0.0
 10
-2.7878135161
 20
-5.4090132865
 30
0.0
 10
-2.7962142544
 20
-5.4094203484
 30
0.0
 10
-2.800402111
 20
-5.4094204414
 30
0.0
  0
SPLINE
  5
403
100
AcDbEntity
  8
0
100
AcDbSpline
 62
7
  6
CONTINUOUS
 70
0
 71
3
 72
23
 73
19
 74
0
 42
0.0000001
 43
0.0000001
 44
0.0000000001
 40
0.0
 40
0.0
 40
0.0
 40
0.0
 40
0.0723863627
 40
0.1435277136
 40
0.2132914826
 40
0.2816143877
 40
0.3484651727
 40
0.4138258032
 40
0.4776964214
 40
0.5401091272
 40
0.6011236465
 40
0.6608295149
 40
0.7193435624
 40
0.7768121274
 40
0.8334073264
 40
0.8893251129
 40
0.9447799417
 40
1.0
 40
1.0
 40
1.0
 40
1.0
 10
-2.6411910708
 20
-5.0194206282
 30
0.0
 10
-2.6431791066
 20
-5.014550955
 30
0.0
 10
-2.647375606
 20
-5.0049968273
 30
0.0
 10
-2.6543762442
 20
-4.9911609276
 30
0.0
 10
-2.6620039016
 20
-4.9779996631
 30
0.0
 10
-2.6702233482
 20
-4.9655712487
 30
0.0
 10
-2.6790014488
 20
-4.9539284095
 30
0.0
 10
-2.6882999723
 20
-4.9431192642
 30
0.0
 10
-2.6980811902
 20
-4.93319169
 30
0.0
 10
-2.7083025436
 20
-4.9241877029
 30
0.0
 10
-2.7189217044
 20
-4.9161471218
 30
0.0
 10
-2.729893047
 20
-4.9091041764
 30
0.0
 10
-2.7411704421
 20
-4.9030905373
 30
0.0
 10
-2.7527054526
 20
-4.8981326001
 30
0.0
 10
-2.7644485157
 20
-4.8942527763
 30
0.0
 10
-2.7763491894
 20
-4.8914689403
 30
0.0
 10
-2.7883542239
 20
-4.8897933218
 30
0.0
 10
-2.7964012132
 20
-4.8894207259
 30
0.0
 10
-2.8004136972
 20
-4.889420815
 30
0.0
  0
SPLINE
  5
404
100
AcDbEntity
  8
0
100
AcDbSpline
 62
7
  6
CONTINUOUS
 70
0
 71
3
 72
11
 73
7
 74
0
 42
0.0000001
 43
0.0000001
 44
0.0000000001
 40
0.0
 40
0.0
 40
0.0
 40
0.0
 40
0.2401732686
 40
0.4850365616
 40
0.7374846583
 40
1.0
 40
1.0
 40
1.0
 40
1.0
 10
-2.8512488817
 20
-5.3659269792
 30
0.0
 10
-2.8506440119
 20
-5.3659269792
 30
0.0
 10
-2.8494196179
 20
-5.3660468471
 30
0.0
 10
-2.8476269774
 20
-5.36656893
 30
0.0
 10
-2.8459040918
 20
-5.3674217053
 30
0.0
 10
-2.8448413406
 20
-5.3681744382
 30
0.0
 10
-2.844328971
 20
-5.3685922665
 30
0.0
  0
SPLINE
  5
405
100
AcDbEntity
  8
0
100
AcDbSpline
 62
7
  6
CONTINUOUS
 70
0
 71
3
 72
11
 73
7
 74
0
 42
0.0000001
 43
0.0000001
 44
0.0000000001
 40
0.0
 40
0.0
 40
0.0
 40
0.0
 40
0.2401732686
 40
0.4850365616
 40
0.7374846583
 40
1.0
 40
1.0
 40
1.0
 40
1.0
 10
-2.8512488817
 20
-4.9329142773
 30
0.0
 10
-2.8506440119
 20
-4.9329142773
 30
0.0
 10
-2.8494196179
 20
-4.9327944094
 30
0.0
 10
-2.8476269774
 20
-4.9322723264
 30
0.0
 10
-2.8459040918
 20
-4.9314195511
 30
0.0
 10
-2.8448413406
 20
-4.9306668183
 30
0.0
 10
-2.844328971
 20
-4.93024899
 30
0.0
  0
SPLINE
  5
406
100
AcDbEntity
  8
0
100
AcDbSpline
 62
7
  6
CONTINUOUS
 70
0
 71
3
 72
15
 73
11
 74
0
 42
0.0000001
 43
0.0000001
 44
0.0000000001
 40
0.0
 40
0.0
 40
0.0
 40
0.0
 40
0.119057511
 40
0.2387427078
 40
0.3596605012
 40
0.482372663
 40
0.6073780386
 40
0.7351040355
 40
0.8658915427
 40
1.0
 40
1.0
 40
1.0
 40
1.0
 10
-2.83575745
 20
-5.4094204414
 30
0.0
 10
-2.8402289414
 20
-5.4094205407
 30
0.0
 10
-2.8492023642
 20
-5.4089573138
 30
0.0
 10
-2.862571428
 20
-5.4068749898
 30
0.0
 10
-2.8757955668
 20
-5.4034191244
 30
0.0
 10
-2.8888006527
 20
-5.3986074281
 30
0.0
 10
-2.9015182415
 20
-5.3924697116
 30
0.0
 10
-2.913879597
 20
-5.3850379113
 30
0.0
 10
-2.9258200222
 20
-5.3763561567
 30
0.0
 10
-2.9333613735
 20
-5.3698475081
 30
0.0
 10
-2.9370432613
 20
-5.3664105455
 30
0.0
  0
SPLINE
  5
407
100
AcDbEntity
  8
0
100
AcDbSpline
 62
7
  6
CONTINUOUS
 70
0
 71
3
 72
17
 73
13
 74
0
 42
0.0000001
 43
0.0000001
 44
0.0000000001
 40
0.0
 40
0.0
 40
0.0
 40
0.0
 40
0.1189994808
 40
0.2386330948
 40
0.2988987019
 40
0.3595485145
 40
0.4822355288
 40
0.5444348928
 40
0.6072696525
 40
0.7350094912
 40
0.8658344983
 40
1.0
 40
1.0
 40
1.0
 40
1.0
 10
-2.8357690363
 20
-4.889420815
 30
0.0
 10
-2.8402616059
 20
-4.8894209148
 30
0.0
 10
-2.8492772066
 20
-4.8898896277
 30
0.0
 10
-2.8604457338
 20
-4.8916385115
 30
0.0
 10
-2.8692887257
 20
-4.8937208347
 30
0.0
 10
-2.8781265023
 20
-4.8962763145
 30
0.0
 10
-2.8868313504
 20
-4.8995130258
 30
0.0
 10
-2.8953443978
 20
-4.903391268
 30
0.0
 10
-2.9038362407
 20
-4.9077520092
 30
0.0
 10
-2.9142362847
 20
-4.9140373157
 30
0.0
 10
-2.926217525
 20
-4.9227997767
 30
0.0
 10
-2.9337821587
 20
-4.9293664465
 30
0.0
 10
-2.9374742228
 20
-4.9328340401
 30
0.0
  0
SPLINE
  5
408
100
AcDbEntity
  8
0
100
AcDbSpline
 62
7
  6
CONTINUOUS
 70
0
 71
3
 72
19
 73
15
 74
0
 42
0.0000001
 43
0.0000001
 44
0.0000000001
 40
0.0
 40
0.0
 40
0.0
 40
0.0
 40
0.1239135187
 40
0.2486584689
 40
0.3113153546
 40
0.3741210923
 40
0.4370327446
 40
0.5
 40
0.5629672554
 40
0.6258789077
 40
0.6886846454
 40
0.7513415311
 40
0.8760864813
 40
1.0
 40
1.0
 40
1.0
 40
1.0
 10
-2.8254850928
 20
-5.0411674528
 30
0.0
 10
-2.8272873139
 20
-5.0499964969
 30
0.0
 10
-2.8305862813
 20
-5.0677809536
 30
0.0
 10
-2.8337380925
 20
-5.0902091297
 30
0.0
 10
-2.8355717804
 20
-5.1083137778
 30
0.0
 10
-2.8365772848
 20
-5.1219774448
 30
0.0
 10
-2.8371894992
 20
-5.1356870556
 30
0.0
 10
-2.8373956097
 20
-5.1494206282
 30
0.0
 10
-2.8371894992
 20
-5.1631542008
 30
0.0
 10
-2.8365772848
 20
-5.1768638117
 30
0.0
 10
-2.8355717804
 20
-5.1905274787
 30
0.0
 10
-2.8337380925
 20
-5.2086321268
 30
0.0
 10
-2.8305862813
 20
-5.2310603029
 30
0.0
 10
-2.8272873139
 20
-5.2488447596
 30
0.0
 10
-2.8254850928
 20
-5.2576738037
 30
0.0
  0
SPLINE
  5
409
100
AcDbEntity
  8
0
100
AcDbSpline
 62
7
  6
CONTINUOUS
 70
0
 71
3
 72
17
 73
13
 74
0
 42
0.0000001
 43
0.0000001
 44
0.0000000001
 40
0.0
 40
0.0
 40
0.0
 40
0.0
 40
0.0507521541
 40
0.1062279752
 40
0.1656818145
 40
0.2283685672
 40
0.3603916239
 40
0.4965882669
 40
0.6320482742
 40
0.7629485808
 40
0.8864675634
 40
1.0
 40
1.0
 40
1.0
 40
1.0
 10
-2.7186663602
 20
-5.2576738037
 30
0.0
 10
-2.7180920568
 20
-5.2576738037
 30
0.0
 10
-2.7168897707
 20
-5.2577284009
 30
0.0
 10
-2.7150260839
 20
-5.2579425495
 30
0.0
 10
-2.7130454254
 20
-5.2582902936
 30
0.0
 10
-2.7102407945
 20
-5.2589317582
 30
0.0
 10
-2.7066513087
 20
-5.2600142767
 30
0.0
 10
-2.7023835893
 20
-5.2616527149
 30
0.0
 10
-2.6982465024
 20
-5.2635670504
 30
0.0
 10
-2.6943673144
 20
-5.2656751753
 30
0.0
 10
-2.6908474651
 20
-5.2679050168
 30
0.0
 10
-2.6886902192
 20
-5.2695052494
 30
0.0
 10
-2.6876950832
 20
-5.2703177746
 30
0.0
  0
SPLINE
  5
40A
100
AcDbEntity
  8
0
100
AcDbSpline
 62
7
  6
CONTINUOUS
 70
0
 71
3
 72
17
 73
13
 74
0
 42
0.0000001
 43
0.0000001
 44
0.0000000001
 40
0.0
 40
0.0
 40
0.0
 40
0.0
 40
0.0507521541
 40
0.1062279752
 40
0.1656818145
 40
0.2283685672
 40
0.3603916239
 40
0.4965882669
 40
0.6320482742
 40
0.7629485808
 40
0.8864675634
 40
1.0
 40
1.0
 40
1.0
 40
1.0
 10
-2.7186663602
 20
-5.0411674528
 30
0.0
 10
-2.7180920568
 20
-5.0411674528
 30
0.0
 10
-2.7168897707
 20
-5.0411128556
 30
0.0
 10
-2.7150260839
 20
-5.040898707
 30
0.0
 10
-2.7130454254
 20
-5.0405509628
 30
0.0
 10
-2.7102407945
 20
-5.0399094982
 30
0.0
 10
-2.7066513087
 20
-5.0388269798
 30
0.0
 10
-2.7023835893
 20
-5.0371885415
 30
0.0
 10
-2.6982465024
 20
-5.0352742061
 30
0.0
 10
-2.6943673144
 20
-5.0331660811
 30
0.0
 10
-2.6908474651
 20
-5.0309362397
 30
0.0
 10
-2.6886902192
 20
-5.0293360071
 30
0.0
 10
-2.6876950832
 20
-5.0285234819
 30
0.0
  0
SPLINE
  5
40B
100
AcDbEntity
  8
0
100
AcDbSpline
 62
7
  6
CONTINUOUS
 70
0
 71
3
 72
15
 73
11
 74
0
 42
0.0000001
 43
0.0000001
 44
0.0000000001
 40
0.0
 40
0.0
 40
0.0
 40
0.0
 40
0.1453524083
 40
0.2868079831
 40
0.4230969843
 40
0.5529474777
 40
0.6754525845
 40
0.7903911539
 40
0.8982555593
 40
1.0
 40
1.0
 40
1.0
 40
1.0
 10
-2.8254850928
 20
-5.2576738037
 30
0.0
 10
-2.8325927086
 20
-5.2620263117
 30
0.0
 10
-2.8465322512
 20
-5.2707552617
 30
0.0
 10
-2.8667523887
 20
-5.2841666811
 30
0.0
 10
-2.8857915621
 20
-5.29773051
 30
0.0
 10
-2.903401081
 20
-5.3113995243
 30
0.0
 10
-2.9194068879
 20
-5.3251010951
 30
0.0
 10
-2.9337632194
 20
-5.3387501962
 30
0.0
 10
-2.946560091
 20
-5.3522722886
 30
0.0
 10
-2.9543778914
 20
-5.36140801
 30
0.0
 10
-2.9580676143
 20
-5.3659269792
 30
0.0
  0
SPLINE
  5
40C
100
AcDbEntity
  8
0
100
AcDbSpline
 62
7
  6
CONTINUOUS
 70
0
 71
3
 72
9
 73
5
 74
0
 42
0.0000001
 43
0.0000001
 44
0.0000000001
 40
0.0
 40
0.0
 40
0.0
 40
0.0
 40
0.5053699307
 40
1.0
 40
1.0
 40
1.0
 40
1.0
 10
-2.6765464099
 20
-5.0194206282
 30
0.0
 10
-2.6789368956
 20
-5.013565158
 30
0.0
 10
-2.6840342056
 20
-5.0021247594
 30
0.0
 10
-2.6898777375
 20
-4.9910455369
 30
0.0
 10
-2.6929565626
 20
-4.9856752766
 30
0.0
  0
SPLINE
  5
40D
100
AcDbEntity
  8
0
100
AcDbSpline
 62
7
  6
CONTINUOUS
 70
0
 71
3
 72
21
 73
17
 74
0
 42
0.0000001
 43
0.0000001
 44
0.0000000001
 40
0.0
 40
0.0
 40
0.0
 40
0.0
 40
0.1409037921
 40
0.2094606649
 40
0.2767188217
 40
0.4072915637
 40
0.4707168939
 40
0.532947487
 40
0.5940561555
 40
0.6541316856
 40
0.7132821329
 40
0.7716321156
 40
0.8293208944
 40
0.8865019298
 40
0.9433379855
 40
1.0
 40
1.0
 40
1.0
 40
1.0
 10
-2.6929565626
 20
-4.9856752766
 30
0.0
 10
-2.6971716621
 20
-4.9783230624
 30
0.0
 10
-2.7039708284
 20
-4.9676831046
 30
0.0
 10
-2.7140245711
 20
-4.9544110042
 30
0.0
 10
-2.7243851716
 20
-4.9421815857
 30
0.0
 10
-2.7355484986
 20
-4.9310607351
 30
0.0
 10
-2.7474359884
 20
-4.9212400634
 30
0.0
 10
-2.7565424981
 20
-4.9146490721
 30
0.0
 10
-2.7658948973
 20
-4.9087828049
 30
0.0
 10
-2.7754655657
 20
-4.9036603678
 30
0.0
 10
-2.7852246631
 20
-4.899298029
 30
0.0
 10
-2.7951417415
 20
-4.8957088347
 30
0.0
 10
-2.8051864698
 20
-4.8929060531
 30
0.0
 10
-2.8153271397
 20
-4.8908968058
 30
0.0
 10
-2.8255315616
 20
-4.8896892321
 30
0.0
 10
-2.8323610453
 20
-4.8894207393
 30
0.0
 10
-2.8357690363
 20
-4.889420815
 30
0.0
  0
SPLINE
  5
40E
100
AcDbEntity
  8
0
100
AcDbSpline
 62
7
  6
CONTINUOUS
 70
0
 71
3
 72
19
 73
15
 74
0
 42
0.0000001
 43
0.0000001
 44
0.0000000001
 40
0.0
 40
0.0
 40
0.0
 40
0.0
 40
0.0607988999
 40
0.1226154382
 40
0.1852676822
 40
0.2486092977
 40
0.3124835742
 40
0.376713916
 40
0.5054802096
 40
0.6335154076
 40
0.7594199491
 40
0.8211934175
 40
0.8819716417
 40
1.0
 40
1.0
 40
1.0
 40
1.0
 10
-2.6765464099
 20
-5.0194206282
 30
0.0
 10
-2.6742296093
 20
-5.0250956076
 30
0.0
 10
-2.6699063988
 20
-5.0366861965
 30
0.0
 10
-2.6644072585
 20
-5.0545470123
 30
0.0
 10
-2.6598694045
 20
-5.0729404535
 30
0.0
 10
-2.6563173468
 20
-5.0917598723
 30
0.0
 10
-2.653770454
 20
-5.1109023845
 30
0.0
 10
-2.6517325787
 20
-5.1367295454
 30
0.0
 10
-2.6517594331
 20
-5.1691620826
 30
0.0
 10
-2.6558739788
 20
-5.2075959629
 30
0.0
 10
-2.6626763784
 20
-5.2387634705
 30
0.0
 10
-2.6700926067
 20
-5.2627034356
 30
0.0
 10
-2.6786154295
 20
-5.2854210647
 30
0.0
 10
-2.6864635234
 20
-5.3017197801
 30
0.0
 10
-2.6923325512
 20
-5.3120712224
 30
0.0
  0
SPLINE
  5
40F
100
AcDbEntity
  8
0
100
AcDbSpline
 62
7
  6
CONTINUOUS
 70
0
 71
3
 72
20
 73
16
 74
0
 42
0.0000001
 43
0.0000001
 44
0.0000000001
 40
0.0
 40
0.0
 40
0.0
 40
0.0
 40
0.1410155942
 40
0.276870466
 40
0.4075028347
 40
0.4709452369
 40
0.5331840148
 40
0.594289866
 40
0.6543539183
 40
0.7134833306
 40
0.7718041018
 40
0.8294568544
 40
0.8865957751
 40
0.9433861272
 40
1.0
 40
1.0
 40
1.0
 40
1.0
 10
-2.6923325512
 20
-5.3120712224
 30
0.0
 10
-2.6965444901
 20
-5.3194999896
 30
0.0
 10
-2.7055262303
 20
-5.3336989113
 30
0.0
 10
-2.7208671623
 20
-5.353087113
 30
0.0
 10
-2.7350022356
 20
-5.3672823615
 30
0.0
 10
-2.746939976
 20
-5.3772170814
 30
0.0
 10
-2.7560868895
 20
-5.3838860225
 30
0.0
 10
-2.7654852233
 20
-5.3898210654
 30
0.0
 10
-2.7751049462
 20
-5.39500522
 30
0.0
 10
-2.7849168611
 20
-5.3994202535
 30
0.0
 10
-2.7948897583
 20
-5.403052708
 30
0.0
 10
-2.8049922696
 20
-5.4058909209
 30
0.0
 10
-2.8151929542
 20
-5.4079243335
 30
0.0
 10
-2.8254582671
 20
-5.4091481247
 30
0.0
 10
-2.8323289834
 20
-5.4094203653
 30
0.0
 10
-2.83575745
 20
-5.4094204414
 30
0.0
  0
SPLINE
  5
410
100
AcDbEntity
  8
0
100
AcDbSpline
 62
7
  6
CONTINUOUS
 70
0
 71
3
 72
45
 73
41
 74
0
 42
0.0000001
 43
0.0000001
 44
0.0000000001
 40
0.0
 40
0.0
 40
0.0
 40
0.0
 40
0.0128513267
 40
0.0257402646
 40
0.038691441
 40
0.051730823
 40
0.0648871307
 40
0.0781878531
 40
0.1053036192
 40
0.1332505709
 40
0.1621439873
 40
0.1920543393
 40
0.2230077703
 40
0.2549895349
 40
0.287948694
 40
0.3218028922
 40
0.3564428168
 40
0.3917370601
 40
0.4275370898
 40
0.4636814477
 40
0.5
 40
0.5363185523
 40
0.5724629102
 40
0.6082629399
 40
0.6435571832
 40
0.6781971078
 40
0.712051306
 40
0.7450104651
 40
0.7769922297
 40
0.8079456607
 40
0.8378560127
 40
0.8667494291
 40
0.8946963808
 40
0.9218121469
 40
0.9351128693
 40
0.948269177
 40
0.961308559
 40
0.9742597354
 40
0.9871486733
 40
1.0
 40
1.0
 40
1.0
 40
1.0
 10
-2.9701135316
 20
-4.9624206282
 30
0.0
 10
-2.9679502987
 20
-4.9624206282
 30
0.0
 10
-2.9636160123
 20
-4.9625716289
 30
0.0
 10
-2.9571335146
 20
-4.9632485406
 30
0.0
 10
-2.9506813641
 20
-4.9643747146
 30
0.0
 10
-2.9442774059
 20
-4.9659482561
 30
0.0
 10
-2.9379367716
 20
-4.9679641593
 30
0.0
 10
-2.9295354426
 20
-4.9712559022
 30
0.0
 10
-2.9192471138
 20
-4.9764838504
 30
0.0
 10
-2.9074894923
 20
-4.9843811142
 30
0.0
 10
-2.896345601
 20
-4.9938633158
 30
0.0
 10
-2.8859211673
 20
-5.0048358707
 30
0.0
 10
-2.8763132553
 20
-5.0171922947
 30
0.0
 10
-2.8676112391
 20
-5.0308129883
 30
0.0
 10
-2.8598962321
 20
-5.04556724
 30
0.0
 10
-2.8532408187
 20
-5.0613140697
 30
0.0
 10
-2.8477077382
 20
-5.0779030245
 30
0.0
 10
-2.8433488243
 20
-5.0951754858
 30
0.0
 10
-2.8402053229
 20
-5.1129664705
 30
0.0
 10
-2.838307399
 20
-5.131106005
 30
0.0
 10
-2.8376728183
 20
-5.1494206282
 30
0.0
 10
-2.838307399
 20
-5.1677352515
 30
0.0
 10
-2.8402053229
 20
-5.1858747859
 30
0.0
 10
-2.8433488243
 20
-5.2036657707
 30
0.0
 10
-2.8477077382
 20
-5.220938232
 30
0.0
 10
-2.8532408187
 20
-5.2375271868
 30
0.0
 10
-2.8598962321
 20
-5.2532740164
 30
0.0
 10
-2.8676112391
 20
-5.2680282682
 30
0.0
 10
-2.8763132553
 20
-5.2816489618
 30
0.0
 10
-2.8859211673
 20
-5.2940053858
 30
0.0
 10
-2.896345601
 20
-5.3049779407
 30
0.0
 10
-2.9074894923
 20
-5.3144601422
 30
0.0
 10
-2.9192471138
 20
-5.3223574061
 30
0.0
 10
-2.9295354426
 20
-5.3275853542
 30
0.0
 10
-2.9379367716
 20
-5.3308770971
 30
0.0
 10
-2.9442774059
 20
-5.3328930004
 30
0.0
 10
-2.9506813641
 20
-5.3344665419
 30
0.0
 10
-2.9571335146
 20
-5.3355927158
 30
0.0
 10
-2.9636160123
 20
-5.3362696275
 30
0.0
 10
-2.9679502987
 20
-5.3364206282
 30
0.0
 10
-2.9701135316
 20
-5.3364206282
 30
0.0
  0
SPLINE
  5
411
100
AcDbEntity
  8
0
100
AcDbSpline
 62
7
  6
CONTINUOUS
 70
0
 71
3
 72
15
 73
11
 74
0
 42
0.0000001
 43
0.0000001
 44
0.0000000001
 40
0.0
 40
0.0
 40
0.0
 40
0.0
 40
0.1093848924
 40
0.2247529651
 40
0.3455303054
 40
0.4709316038
 40
0.5999829275
 40
0.7318632405
 40
0.865594525
 40
1.0
 40
1.0
 40
1.0
 40
1.0
 10
-2.844328971
 20
-5.3685922665
 30
0.0
 10
-2.8436250904
 20
-5.3691662686
 30
0.0
 10
-2.8422877818
 20
-5.3704828638
 30
0.0
 10
-2.8405666374
 20
-5.3727889969
 30
0.0
 10
-2.8390946753
 20
-5.3754139666
 30
0.0
 10
-2.8378823331
 20
-5.3782902387
 30
0.0
 10
-2.8369361602
 20
-5.3813604337
 30
0.0
 10
-2.8362595351
 20
-5.3845711821
 30
0.0
 10
-2.8358537252
 20
-5.3878714383
 30
0.0
 10
-2.8357632432
 20
-5.3900989132
 30
0.0
 10
-2.8357632432
 20
-5.391214921
 30
0.0
  0
SPLINE
  5
412
100
AcDbEntity
  8
0
100
AcDbSpline
 62
7
  6
CONTINUOUS
 70
0
 71
3
 72
15
 73
11
 74
0
 42
0.0000001
 43
0.0000001
 44
0.0000000001
 40
0.0
 40
0.0
 40
0.0
 40
0.0
 40
0.1017444407
 40
0.2096088461
 40
0.3245474155
 40
0.4470525223
 40
0.5769030157
 40
0.7131920169
 40
0.8546475917
 40
1.0
 40
1.0
 40
1.0
 40
1.0
 10
-2.9580676143
 20
-4.9329142773
 30
0.0
 10
-2.9543778914
 20
-4.9374332464
 30
0.0
 10
-2.946560091
 20
-4.9465689679
 30
0.0
 10
-2.9337632194
 20
-4.9600910603
 30
0.0
 10
-2.9194068879
 20
-4.9737401614
 30
0.0
 10
-2.903401081
 20
-4.9874417322
 30
0.0
 10
-2.8857915621
 20
-5.0011107465
 30
0.0
 10
-2.8667523887
 20
-5.0146745754
 30
0.0
 10
-2.8465322512
 20
-5.0280859948
 30
0.0
 10
-2.8325927086
 20
-5.0368149448
 30
0.0
 10
-2.8254850928
 20
-5.0411674528
 30
0.0
  0
SPLINE
  5
413
100
AcDbEntity
  8
0
100
AcDbSpline
 62
7
  6
CONTINUOUS
 70
0
 71
3
 72
15
 73
11
 74
0
 42
0.0000001
 43
0.0000001
 44
0.0000000001
 40
0.0
 40
0.0
 40
0.0
 40
0.0
 40
0.1093848924
 40
0.2247529651
 40
0.3455303054
 40
0.4709316038
 40
0.5999829275
 40
0.7318632405
 40
0.865594525
 40
1.0
 40
1.0
 40
1.0
 40
1.0
 10
-2.844328971
 20
-4.93024899
 30
0.0
 10
-2.8436250904
 20
-4.9296749878
 30
0.0
 10
-2.8422877818
 20
-4.9283583926
 30
0.0
 10
-2.8405666374
 20
-4.9260522596
 30
0.0
 10
-2.8390946753
 20
-4.9234272898
 30
0.0
 10
-2.8378823331
 20
-4.9205510178
 30
0.0
 10
-2.8369361602
 20
-4.9174808228
 30
0.0
 10
-2.8362595351
 20
-4.9142700743
 30
0.0
 10
-2.8358537252
 20
-4.9109698182
 30
0.0
 10
-2.8357632432
 20
-4.9087423432
 30
0.0
 10
-2.8357632432
 20
-4.9076263355
 30
0.0
  0
SPLINE
  5
414
100
AcDbEntity
  8
0
100
AcDbSpline
 62
7
  6
CONTINUOUS
 70
0
 71
3
 72
45
 73
41
 74
0
 42
0.0000001
 43
0.0000001
 44
0.0000000001
 40
0.0
 40
0.0
 40
0.0
 40
0.0
 40
0.0128513267
 40
0.0257402646
 40
0.038691441
 40
0.051730823
 40
0.0648871307
 40
0.0781878531
 40
0.1053036192
 40
0.1332505709
 40
0.1621439873
 40
0.1920543393
 40
0.2230077703
 40
0.2549895349
 40
0.287948694
 40
0.3218028922
 40
0.3564428168
 40
0.3917370601
 40
0.4275370898
 40
0.4636814477
 40
0.5
 40
0.5363185523
 40
0.5724629102
 40
0.6082629399
 40
0.6435571832
 40
0.6781971078
 40
0.712051306
 40
0.7450104651
 40
0.7769922297
 40
0.8079456607
 40
0.8378560127
 40
0.8667494291
 40
0.8946963808
 40
0.9218121469
 40
0.9351128693
 40
0.948269177
 40
0.961308559
 40
0.9742597354
 40
0.9871486733
 40
1.0
 40
1.0
 40
1.0
 40
1.0
 10
-2.9701135316
 20
-5.3364206282
 30
0.0
 10
-2.9722767645
 20
-5.3364206282
 30
0.0
 10
-2.9766110509
 20
-5.3362696275
 30
0.0
 10
-2.9830935486
 20
-5.3355927158
 30
0.0
 10
-2.9895456991
 20
-5.3344665419
 30
0.0
 10
-2.9959496573
 20
-5.3328930004
 30
0.0
 10
-3.0022902916
 20
-5.3308770971
 30
0.0
 10
-3.0106916206
 20
-5.3275853542
 30
0.0
 10
-3.0209799494
 20
-5.3223574061
 30
0.0
 10
-3.0327375709
 20
-5.3144601422
 30
0.0
 10
-3.0438814622
 20
-5.3049779407
 30
0.0
 10
-3.0543058959
 20
-5.2940053858
 30
0.0
 10
-3.0639138079
 20
-5.2816489618
 30
0.0
 10
-3.0726158241
 20
-5.2680282682
 30
0.0
 10
-3.0803308311
 20
-5.2532740164
 30
0.0
 10
-3.0869862445
 20
-5.2375271868
 30
0.0
 10
-3.092519325
 20
-5.220938232
 30
0.0
 10
-3.0968782389
 20
-5.2036657707
 30
0.0
 10
-3.1000217403
 20
-5.1858747859
 30
0.0
 10
-3.1019196642
 20
-5.1677352515
 30
0.0
 10
-3.1025542449
 20
-5.1494206282
 30
0.0
 10
-3.1019196642
 20
-5.131106005
 30
0.0
 10
-3.1000217403
 20
-5.1129664705
 30
0.0
 10
-3.0968782389
 20
-5.0951754858
 30
0.0
 10
-3.092519325
 20
-5.0779030245
 30
0.0
 10
-3.0869862445
 20
-5.0613140697
 30
0.0
 10
-3.0803308311
 20
-5.04556724
 30
0.0
 10
-3.0726158241
 20
-5.0308129883
 30
0.0
 10
-3.0639138079
 20
-5.0171922947
 30
0.0
 10
-3.0543058959
 20
-5.0048358707
 30
0.0
 10
-3.0438814622
 20
-4.9938633158
 30
0.0
 10
-3.0327375709
 20
-4.9843811142
 30
0.0
 10
-3.0209799494
 20
-4.9764838504
 30
0.0
 10
-3.0106916206
 20
-4.9712559022
 30
0.0
 10
-3.0022902916
 20
-4.9679641593
 30
0.0
 10
-2.9959496573
 20
-4.9659482561
 30
0.0
 10
-2.9895456991
 20
-4.9643747146
 30
0.0
 10
-2.9830935486
 20
-4.9632485406
 30
0.0
 10
-2.9766110509
 20
-4.9625716289
 30
0.0
 10
-2.9722767645
 20
-4.9624206282
 30
0.0
 10
-2.9701135316
 20
-4.9624206282
 30
0.0
  0
SPLINE
  5
415
100
AcDbEntity
  8
0
100
AcDbSpline
 62
7
  6
CONTINUOUS
 70
0
 71
3
 72
15
 73
11
 74
0
 42
0.0000001
 43
0.0000001
 44
0.0000000001
 40
0.0
 40
0.0
 40
0.0
 40
0.0
 40
0.1453524083
 40
0.2868079831
 40
0.4230969843
 40
0.5529474777
 40
0.6754525845
 40
0.7903911539
 40
0.8982555593
 40
1.0
 40
1.0
 40
1.0
 40
1.0
 10
10.7215699705
 20
-4.9329142773
 30
0.0
 10
10.7286775863
 20
-4.9372667853
 30
0.0
 10
10.7426171288
 20
-4.9459957352
 30
0.0
 10
10.7628372663
 20
-4.9594071547
 30
0.0
 10
10.7818764397
 20
-4.9729709836
 30
0.0
 10
10.7994859586
 20
-4.9866399979
 30
0.0
 10
10.8154917656
 20
-5.0003415687
 30
0.0
 10
10.8298480971
 20
-5.0139906698
 30
0.0
 10
10.8426449687
 20
-5.0275127622
 30
0.0
 10
10.8504627691
 20
-5.0366484836
 30
0.0
 10
10.8541524919
 20
-5.0411674528
 30
0.0
  0
SPLINE
  5
416
100
AcDbEntity
  8
0
100
AcDbSpline
 62
7
  6
CONTINUOUS
 70
0
 71
3
 72
19
 73
15
 74
0
 42
0.0000001
 43
0.0000001
 44
0.0000000001
 40
0.0
 40
0.0
 40
0.0
 40
0.0
 40
0.1239135187
 40
0.2486584689
 40
0.3113153546
 40
0.3741210923
 40
0.4370327446
 40
0.5
 40
0.5629672554
 40
0.6258789077
 40
0.6886846454
 40
0.7513415311
 40
0.8760864813
 40
1.0
 40
1.0
 40
1.0
 40
1.0
 10
10.8541524919
 20
-5.0411674528
 30
0.0
 10
10.855954713
 20
-5.0499964969
 30
0.0
 10
10.8592536804
 20
-5.0677809536
 30
0.0
 10
10.8624054917
 20
-5.0902091297
 30
0.0
 10
10.8642391795
 20
-5.1083137778
 30
0.0
 10
10.865244684
 20
-5.1219774448
 30
0.0
 10
10.8658568983
 20
-5.1356870556
 30
0.0
 10
10.8660630089
 20
-5.1494206282
 30
0.0
 10
10.8658568983
 20
-5.1631542008
 30
0.0
 10
10.865244684
 20
-5.1768638117
 30
0.0
 10
10.8642391795
 20
-5.1905274787
 30
0.0
 10
10.8624054917
 20
-5.2086321268
 30
0.0
 10
10.8592536804
 20
-5.2310603029
 30
0.0
 10
10.855954713
 20
-5.2488447596
 30
0.0
 10
10.8541524919
 20
-5.2576738037
 30
0.0
  0
SPLINE
  5
417
100
AcDbEntity
  8
0
100
AcDbSpline
 62
7
  6
CONTINUOUS
 70
0
 71
3
 72
15
 73
11
 74
0
 42
0.0000001
 43
0.0000001
 44
0.0000000001
 40
0.0
 40
0.0
 40
0.0
 40
0.0
 40
0.1017444407
 40
0.2096088461
 40
0.3245474155
 40
0.4470525223
 40
0.5769030157
 40
0.7131920169
 40
0.8546475917
 40
1.0
 40
1.0
 40
1.0
 40
1.0
 10
10.8541524919
 20
-5.2576738037
 30
0.0
 10
10.8504627691
 20
-5.2621927728
 30
0.0
 10
10.8426449687
 20
-5.2713284943
 30
0.0
 10
10.8298480971
 20
-5.2848505867
 30
0.0
 10
10.8154917656
 20
-5.2984996878
 30
0.0
 10
10.7994859586
 20
-5.3122012586
 30
0.0
 10
10.7818764397
 20
-5.3258702729
 30
0.0
 10
10.7628372663
 20
-5.3394341018
 30
0.0
 10
10.7426171288
 20
-5.3528455212
 30
0.0
 10
10.7286775863
 20
-5.3615744712
 30
0.0
 10
10.7215699705
 20
-5.3659269792
 30
0.0
  0
SPLINE
  5
418
100
AcDbEntity
  8
0
100
AcDbSpline
 62
7
  6
CONTINUOUS
 70
0
 71
3
 72
15
 73
11
 74
0
 42
0.0000001
 43
0.0000001
 44
0.0000000001
 40
0.0
 40
0.0
 40
0.0
 40
0.0
 40
0.1341084573
 40
0.2648959645
 40
0.3926219614
 40
0.517627337
 40
0.6403394988
 40
0.7612572922
 40
0.880942489
 40
1.0
 40
1.0
 40
1.0
 40
1.0
 10
10.7005456176
 20
-4.9324307109
 30
0.0
 10
10.6968637297
 20
-4.9289937484
 30
0.0
 10
10.6893223784
 20
-4.9224850997
 30
0.0
 10
10.6773819532
 20
-4.9138033451
 30
0.0
 10
10.6650205977
 20
-4.9063715449
 30
0.0
 10
10.6523030089
 20
-4.9002338284
 30
0.0
 10
10.639297923
 20
-4.895422132
 30
0.0
 10
10.6260737842
 20
-4.8919662667
 30
0.0
 10
10.6127047204
 20
-4.8898839426
 30
0.0
 10
10.6037312976
 20
-4.8894207157
 30
0.0
 10
10.5992598062
 20
-4.889420815
 30
0.0
  0
SPLINE
  5
419
100
AcDbEntity
  8
0
100
AcDbSpline
 62
7
  6
CONTINUOUS
 70
0
 71
3
 72
17
 73
13
 74
0
 42
0.0000001
 43
0.0000001
 44
0.0000000001
 40
0.0
 40
0.0
 40
0.0
 40
0.0
 40
0.1341655017
 40
0.2649905088
 40
0.3927303475
 40
0.4555651072
 40
0.5177644712
 40
0.6404514855
 40
0.7011012981
 40
0.7613669052
 40
0.8810005192
 40
1.0
 40
1.0
 40
1.0
 40
1.0
 10
10.700976579
 20
-5.3660072164
 30
0.0
 10
10.6972845149
 20
-5.36947481
 30
0.0
 10
10.6897198812
 20
-5.3760414798
 30
0.0
 10
10.6777386409
 20
-5.3848039408
 30
0.0
 10
10.6673385969
 20
-5.3910892473
 30
0.0
 10
10.658846754
 20
-5.3954499885
 30
0.0
 10
10.6503337066
 20
-5.3993282306
 30
0.0
 10
10.6416288585
 20
-5.402564942
 30
0.0
 10
10.6327910819
 20
-5.4051204217
 30
0.0
 10
10.6239480901
 20
-5.4072027449
 30
0.0
 10
10.6127795628
 20
-5.4089516288
 30
0.0
 10
10.6037639621
 20
-5.4094203417
 30
0.0
 10
10.5992713925
 20
-5.4094204414
 30
0.0
  0
SPLINE
  5
41A
100
AcDbEntity
  8
0
100
AcDbSpline
 62
7
  6
CONTINUOUS
 70
0
 71
3
 72
11
 73
7
 74
0
 42
0.0000001
 43
0.0000001
 44
0.0000000001
 40
0.0
 40
0.0
 40
0.0
 40
0.0
 40
0.2401732686
 40
0.4850365616
 40
0.7374846583
 40
1.0
 40
1.0
 40
1.0
 40
1.0
 10
10.6147512379
 20
-5.3659269792
 30
0.0
 10
10.6141463681
 20
-5.3659269792
 30
0.0
 10
10.6129219741
 20
-5.3660468471
 30
0.0
 10
10.6111293336
 20
-5.36656893
 30
0.0
 10
10.609406448
 20
-5.3674217053
 30
0.0
 10
10.6083436968
 20
-5.3681744382
 30
0.0
 10
10.6078313272
 20
-5.3685922665
 30
0.0
  0
SPLINE
  5
41B
100
AcDbEntity
  8
0
100
AcDbSpline
 62
7
  6
CONTINUOUS
 70
0
 71
3
 72
11
 73
7
 74
0
 42
0.0000001
 43
0.0000001
 44
0.0000000001
 40
0.0
 40
0.0
 40
0.0
 40
0.0
 40
0.2401732686
 40
0.4850365616
 40
0.7374846583
 40
1.0
 40
1.0
 40
1.0
 40
1.0
 10
10.6147512379
 20
-4.9329142773
 30
0.0
 10
10.6141463681
 20
-4.9329142773
 30
0.0
 10
10.6129219741
 20
-4.9327944094
 30
0.0
 10
10.6111293336
 20
-4.9322723264
 30
0.0
 10
10.609406448
 20
-4.9314195511
 30
0.0
 10
10.6083436968
 20
-4.9306668183
 30
0.0
 10
10.6078313272
 20
-4.93024899
 30
0.0
  0
SPLINE
  5
41C
100
AcDbEntity
  8
0
100
AcDbSpline
 62
7
  6
CONTINUOUS
 70
0
 71
3
 72
23
 73
19
 74
0
 42
0.0000001
 43
0.0000001
 44
0.0000000001
 40
0.0
 40
0.0
 40
0.0
 40
0.0
 40
0.0552200583
 40
0.1106748871
 40
0.1665926736
 40
0.2231878726
 40
0.2806564376
 40
0.3391704851
 40
0.3988763535
 40
0.4598908728
 40
0.5223035786
 40
0.5861741968
 40
0.6515348273
 40
0.7183856123
 40
0.7867085174
 40
0.8564722864
 40
0.9276136373
 40
1.0
 40
1.0
 40
1.0
 40
1.0
 10
10.5639160534
 20
-5.4094204414
 30
0.0
 10
10.5599035694
 20
-5.4094205306
 30
0.0
 10
10.5518565801
 20
-5.4090479347
 30
0.0
 10
10.5398515456
 20
-5.4073723162
 30
0.0
 10
10.527950872
 20
-5.4045884801
 30
0.0
 10
10.5162078088
 20
-5.4007086564
 30
0.0
 10
10.5046727983
 20
-5.3957507192
 30
0.0
 10
10.4933954032
 20
-5.38973708
 30
0.0
 10
10.4824240606
 20
-5.3826941346
 30
0.0
 10
10.4718048998
 20
-5.3746535536
 30
0.0
 10
10.4615835464
 20
-5.3656495664
 30
0.0
 10
10.4518023285
 20
-5.3557219922
 30
0.0
 10
10.442503805
 20
-5.344912847
 30
0.0
 10
10.4337257044
 20
-5.3332700078
 30
0.0
 10
10.4255062579
 20
-5.3208415934
 30
0.0
 10
10.4178786004
 20
-5.3076803289
 30
0.0
 10
10.4108779622
 20
-5.2938444292
 30
0.0
 10
10.4066814628
 20
-5.2842903014
 30
0.0
 10
10.404693427
 20
-5.2794206282
 30
0.0
  0
SPLINE
  5
41D
100
AcDbEntity
  8
0
100
AcDbSpline
 62
7
  6
CONTINUOUS
 70
0
 71
3
 72
33
 73
29
 74
0
 42
0.0000001
 43
0.0000001
 44
0.0000000001
 40
0.0
 40
0.0
 40
0.0
 40
0.0
 40
0.0248617031
 40
0.0498293083
 40
0.0750052916
 40
0.1004865152
 40
0.1263607673
 40
0.1527060222
 40
0.1795875392
 40
0.2070587667
 40
0.2351590604
 40
0.2639158084
 40
0.293342707
 40
0.3234424266
 40
0.3855854026
 40
0.4501825721
 40
0.5169033937
 40
0.585309275
 40
0.6548820701
 40
0.7250511664
 40
0.7601826356
 40
0.7952393726
 40
0.8301469022
 40
0.8648309296
 40
0.8992215798
 40
0.9332580601
 40
0.9668772299
 40
1.0
 40
1.0
 40
1.0
 40
1.0
 10
10.5639044672
 20
-4.889420815
 30
0.0
 10
10.5598921642
 20
-4.8894209041
 30
0.0
 10
10.5518455279
 20
-4.8897943577
 30
0.0
 10
10.539841163
 20
-4.8914710225
 30
0.0
 10
10.5279410293
 20
-4.8942553323
 30
0.0
 10
10.5161988283
 20
-4.8981363245
 30
0.0
 10
10.5046642446
 20
-4.9030942823
 30
0.0
 10
10.4933879345
 20
-4.9091090147
 30
0.0
 10
10.4824168184
 20
-4.9161516336
 30
0.0
 10
10.4717989378
 20
-4.9241931957
 30
0.0
 10
10.4615776689
 20
-4.9331966762
 30
0.0
 10
10.4517979307
 20
-4.9431247475
 30
0.0
 10
10.4424990092
 20
-4.9539334189
 30
0.0
 10
10.4306727576
 20
-4.9696224046
 30
0.0
 10
10.4173515866
 20
-4.9912218556
 30
0.0
 10
10.4040446607
 20
-5.0195316893
 30
0.0
 10
10.3934581871
 20
-5.0500359919
 30
0.0
 10
10.3857688392
 20
-5.0822177727
 30
0.0
 10
10.3811035362
 20
-5.1155330057
 30
0.0
 10
10.3798006153
 20
-5.143768861
 30
0.0
 10
10.3803247048
 20
-5.1664209187
 30
0.0
 10
10.3815020805
 20
-5.1833472946
 30
0.0
 10
10.3834595759
 20
-5.2001282584
 30
0.0
 10
10.3861871291
 20
-5.2166926803
 30
0.0
 10
10.3896749448
 20
-5.232970217
 30
0.0
 10
10.3939074939
 20
-5.2488927847
 30
0.0
 10
10.3988674587
 20
-5.2643890104
 30
0.0
 10
10.4026730125
 20
-5.2744716437
 30
0.0
 10
10.404693427
 20
-5.2794206282
 30
0.0
  0
SPLINE
  5
41E
100
AcDbEntity
  8
0
100
AcDbSpline
 62
7
  6
CONTINUOUS
 70
0
 71
3
 72
17
 73
13
 74
0
 42
0.0000001
 43
0.0000001
 44
0.0000000001
 40
0.0
 40
0.0
 40
0.0
 40
0.0
 40
0.0507521541
 40
0.1062279752
 40
0.1656818145
 40
0.2283685672
 40
0.3603916239
 40
0.4965882669
 40
0.6320482742
 40
0.7629485808
 40
0.8864675634
 40
1.0
 40
1.0
 40
1.0
 40
1.0
 10
10.4821687164
 20
-5.2576738037
 30
0.0
 10
10.4815944131
 20
-5.2576738037
 30
0.0
 10
10.480392127
 20
-5.2577284009
 30
0.0
 10
10.4785284401
 20
-5.2579425495
 30
0.0
 10
10.4765477816
 20
-5.2582902936
 30
0.0
 10
10.4737431507
 20
-5.2589317582
 30
0.0
 10
10.4701536649
 20
-5.2600142767
 30
0.0
 10
10.4658859455
 20
-5.2616527149
 30
0.0
 10
10.4617488586
 20
-5.2635670504
 30
0.0
 10
10.4578696706
 20
-5.2656751753
 30
0.0
 10
10.4543498213
 20
-5.2679050168
 30
0.0
 10
10.4521925754
 20
-5.2695052494
 30
0.0
 10
10.4511974394
 20
-5.2703177746
 30
0.0
  0
SPLINE
  5
41F
100
AcDbEntity
  8
0
100
AcDbSpline
 62
7
  6
CONTINUOUS
 70
0
 71
3
 72
45
 73
41
 74
0
 42
0.0000001
 43
0.0000001
 44
0.0000000001
 40
0.0
 40
0.0
 40
0.0
 40
0.0
 40
0.0128513267
 40
0.0257402646
 40
0.038691441
 40
0.051730823
 40
0.0648871307
 40
0.0781878531
 40
0.1053036192
 40
0.1332505709
 40
0.1621439873
 40
0.1920543393
 40
0.2230077703
 40
0.2549895349
 40
0.287948694
 40
0.3218028922
 40
0.3564428168
 40
0.3917370601
 40
0.4275370898
 40
0.4636814477
 40
0.5
 40
0.5363185523
 40
0.5724629102
 40
0.6082629399
 40
0.6435571832
 40
0.6781971078
 40
0.712051306
 40
0.7450104651
 40
0.7769922297
 40
0.8079456607
 40
0.8378560127
 40
0.8667494291
 40
0.8946963808
 40
0.9218121469
 40
0.9351128693
 40
0.948269177
 40
0.961308559
 40
0.9742597354
 40
0.9871486733
 40
1.0
 40
1.0
 40
1.0
 40
1.0
 10
10.7336158878
 20
-4.9624206282
 30
0.0
 10
10.7357791207
 20
-4.9624206282
 30
0.0
 10
10.7401134071
 20
-4.9625716289
 30
0.0
 10
10.7465959048
 20
-4.9632485406
 30
0.0
 10
10.7530480553
 20
-4.9643747146
 30
0.0
 10
10.7594520135
 20
-4.9659482561
 30
0.0
 10
10.7657926478
 20
-4.9679641593
 30
0.0
 10
10.7741939768
 20
-4.9712559022
 30
0.0
 10
10.7844823056
 20
-4.9764838504
 30
0.0
 10
10.7962399271
 20
-4.9843811142
 30
0.0
 10
10.8073838184
 20
-4.9938633158
 30
0.0
 10
10.8178082521
 20
-5.0048358707
 30
0.0
 10
10.8274161641
 20
-5.0171922947
 30
0.0
 10
10.8361181803
 20
-5.0308129883
 30
0.0
 10
10.8438331873
 20
-5.04556724
 30
0.0
 10
10.8504886007
 20
-5.0613140697
 30
0.0
 10
10.8560216812
 20
-5.0779030245
 30
0.0
 10
10.8603805951
 20
-5.0951754858
 30
0.0
 10
10.8635240965
 20
-5.1129664705
 30
0.0
 10
10.8654220204
 20
-5.131106005
 30
0.0
 10
10.8660566011
 20
-5.1494206282
 30
0.0
 10
10.8654220204
 20
-5.1677352515
 30
0.0
 10
10.8635240965
 20
-5.1858747859
 30
0.0
 10
10.8603805951
 20
-5.2036657707
 30
0.0
 10
10.8560216812
 20
-5.220938232
 30
0.0
 10
10.8504886007
 20
-5.2375271868
 30
0.0
 10
10.8438331873
 20
-5.2532740164
 30
0.0
 10
10.8361181803
 20
-5.2680282682
 30
0.0
 10
10.8274161641
 20
-5.2816489618
 30
0.0
 10
10.8178082521
 20
-5.2940053858
 30
0.0
 10
10.8073838184
 20
-5.3049779407
 30
0.0
 10
10.7962399271
 20
-5.3144601422
 30
0.0
 10
10.7844823056
 20
-5.3223574061
 30
0.0
 10
10.7741939768
 20
-5.3275853542
 30
0.0
 10
10.7657926478
 20
-5.3308770971
 30
0.0
 10
10.7594520135
 20
-5.3328930004
 30
0.0
 10
10.7530480553
 20
-5.3344665419
 30
0.0
 10
10.7465959048
 20
-5.3355927158
 30
0.0
 10
10.7401134071
 20
-5.3362696275
 30
0.0
 10
10.7357791207
 20
-5.3364206282
 30
0.0
 10
10.7336158878
 20
-5.3364206282
 30
0.0
  0
SPLINE
  5
420
100
AcDbEntity
  8
0
100
AcDbSpline
 62
7
  6
CONTINUOUS
 70
0
 71
3
 72
17
 73
13
 74
0
 42
0.0000001
 43
0.0000001
 44
0.0000000001
 40
0.0
 40
0.0
 40
0.0
 40
0.0
 40
0.0507521541
 40
0.1062279752
 40
0.1656818145
 40
0.2283685672
 40
0.3603916239
 40
0.4965882669
 40
0.6320482742
 40
0.7629485808
 40
0.8864675634
 40
1.0
 40
1.0
 40
1.0
 40
1.0
 10
10.4821687164
 20
-5.0411674528
 30
0.0
 10
10.4815944131
 20
-5.0411674528
 30
0.0
 10
10.480392127
 20
-5.0411128556
 30
0.0
 10
10.4785284401
 20
-5.040898707
 30
0.0
 10
10.4765477816
 20
-5.0405509628
 30
0.0
 10
10.4737431507
 20
-5.0399094982
 30
0.0
 10
10.4701536649
 20
-5.0388269798
 30
0.0
 10
10.4658859455
 20
-5.0371885415
 30
0.0
 10
10.4617488586
 20
-5.0352742061
 30
0.0
 10
10.4578696706
 20
-5.0331660811
 30
0.0
 10
10.4543498213
 20
-5.0309362397
 30
0.0
 10
10.4521925754
 20
-5.0293360071
 30
0.0
 10
10.4511974394
 20
-5.0285234819
 30
0.0
  0
SPLINE
  5
421
100
AcDbEntity
  8
0
100
AcDbSpline
 62
7
  6
CONTINUOUS
 70
0
 71
3
 72
15
 73
11
 74
0
 42
0.0000001
 43
0.0000001
 44
0.0000000001
 40
0.0
 40
0.0
 40
0.0
 40
0.0
 40
0.1017444407
 40
0.2096088461
 40
0.3245474155
 40
0.4470525223
 40
0.5769030157
 40
0.7131920169
 40
0.8546475917
 40
1.0
 40
1.0
 40
1.0
 40
1.0
 10
10.7215699705
 20
-5.3659269792
 30
0.0
 10
10.7178802476
 20
-5.36140801
 30
0.0
 10
10.7100624472
 20
-5.3522722886
 30
0.0
 10
10.6972655757
 20
-5.3387501962
 30
0.0
 10
10.6829092441
 20
-5.3251010951
 30
0.0
 10
10.6669034372
 20
-5.3113995243
 30
0.0
 10
10.6492939183
 20
-5.29773051
 30
0.0
 10
10.6302547449
 20
-5.2841666811
 30
0.0
 10
10.6100346074
 20
-5.2707552617
 30
0.0
 10
10.5960950648
 20
-5.2620263117
 30
0.0
 10
10.588987449
 20
-5.2576738037
 30
0.0
  0
SPLINE
  5
422
100
AcDbEntity
  8
0
100
AcDbSpline
 62
7
  6
CONTINUOUS
 70
0
 71
3
 72
45
 73
41
 74
0
 42
0.0000001
 43
0.0000001
 44
0.0000000001
 40
0.0
 40
0.0
 40
0.0
 40
0.0
 40
0.0128513267
 40
0.0257402646
 40
0.038691441
 40
0.051730823
 40
0.0648871307
 40
0.0781878531
 40
0.1053036192
 40
0.1332505709
 40
0.1621439873
 40
0.1920543393
 40
0.2230077703
 40
0.2549895349
 40
0.287948694
 40
0.3218028922
 40
0.3564428168
 40
0.3917370601
 40
0.4275370898
 40
0.4636814477
 40
0.5
 40
0.5363185523
 40
0.5724629102
 40
0.6082629399
 40
0.6435571832
 40
0.6781971078
 40
0.712051306
 40
0.7450104651
 40
0.7769922297
 40
0.8079456607
 40
0.8378560127
 40
0.8667494291
 40
0.8946963808
 40
0.9218121469
 40
0.9351128693
 40
0.948269177
 40
0.961308559
 40
0.9742597354
 40
0.9871486733
 40
1.0
 40
1.0
 40
1.0
 40
1.0
 10
10.7336158878
 20
-5.3364206282
 30
0.0
 10
10.7314526549
 20
-5.3364206282
 30
0.0
 10
10.7271183685
 20
-5.3362696275
 30
0.0
 10
10.7206358708
 20
-5.3355927158
 30
0.0
 10
10.7141837203
 20
-5.3344665419
 30
0.0
 10
10.7077797621
 20
-5.3328930004
 30
0.0
 10
10.7014391278
 20
-5.3308770971
 30
0.0
 10
10.6930377988
 20
-5.3275853542
 30
0.0
 10
10.68274947
 20
-5.3223574061
 30
0.0
 10
10.6709918485
 20
-5.3144601422
 30
0.0
 10
10.6598479572
 20
-5.3049779407
 30
0.0
 10
10.6494235235
 20
-5.2940053858
 30
0.0
 10
10.6398156115
 20
-5.2816489618
 30
0.0
 10
10.6311135953
 20
-5.2680282682
 30
0.0
 10
10.6233985883
 20
-5.2532740164
 30
0.0
 10
10.6167431749
 20
-5.2375271868
 30
0.0
 10
10.6112100944
 20
-5.220938232
 30
0.0
 10
10.6068511805
 20
-5.2036657707
 30
0.0
 10
10.6037076791
 20
-5.1858747859
 30
0.0
 10
10.6018097552
 20
-5.1677352515
 30
0.0
 10
10.6011751745
 20
-5.1494206282
 30
0.0
 10
10.6018097552
 20
-5.131106005
 30
0.0
 10
10.6037076791
 20
-5.1129664705
 30
0.0
 10
10.6068511805
 20
-5.0951754858
 30
0.0
 10
10.6112100944
 20
-5.0779030245
 30
0.0
 10
10.6167431749
 20
-5.0613140697
 30
0.0
 10
10.6233985883
 20
-5.04556724
 30
0.0
 10
10.6311135953
 20
-5.0308129883
 30
0.0
 10
10.6398156115
 20
-5.0171922947
 30
0.0
 10
10.6494235235
 20
-5.0048358707
 30
0.0
 10
10.6598479572
 20
-4.9938633158
 30
0.0
 10
10.6709918485
 20
-4.9843811142
 30
0.0
 10
10.68274947
 20
-4.9764838504
 30
0.0
 10
10.6930377988
 20
-4.9712559022
 30
0.0
 10
10.7014391278
 20
-4.9679641593
 30
0.0
 10
10.7077797621
 20
-4.9659482561
 30
0.0
 10
10.7141837203
 20
-4.9643747146
 30
0.0
 10
10.7206358708
 20
-4.9632485406
 30
0.0
 10
10.7271183685
 20
-4.9625716289
 30
0.0
 10
10.7314526549
 20
-4.9624206282
 30
0.0
 10
10.7336158878
 20
-4.9624206282
 30
0.0
  0
SPLINE
  5
423
100
AcDbEntity
  8
0
100
AcDbSpline
 62
7
  6
CONTINUOUS
 70
0
 71
3
 72
19
 73
15
 74
0
 42
0.0000001
 43
0.0000001
 44
0.0000000001
 40
0.0
 40
0.0
 40
0.0
 40
0.0
 40
0.1239135187
 40
0.2486584689
 40
0.3113153546
 40
0.3741210923
 40
0.4370327446
 40
0.5
 40
0.5629672554
 40
0.6258789077
 40
0.6886846454
 40
0.7513415311
 40
0.8760864813
 40
1.0
 40
1.0
 40
1.0
 40
1.0
 10
10.588987449
 20
-5.2576738037
 30
0.0
 10
10.5907896701
 20
-5.2488447596
 30
0.0
 10
10.5940886375
 20
-5.2310603029
 30
0.0
 10
10.5972404487
 20
-5.2086321268
 30
0.0
 10
10.5990741366
 20
-5.1905274787
 30
0.0
 10
10.600079641
 20
-5.1768638117
 30
0.0
 10
10.6006918554
 20
-5.1631542008
 30
0.0
 10
10.6008979659
 20
-5.1494206282
 30
0.0
 10
10.6006918554
 20
-5.1356870556
 30
0.0
 10
10.600079641
 20
-5.1219774448
 30
0.0
 10
10.5990741366
 20
-5.1083137778
 30
0.0
 10
10.5972404487
 20
-5.0902091297
 30
0.0
 10
10.5940886375
 20
-5.0677809536
 30
0.0
 10
10.5907896701
 20
-5.0499964969
 30
0.0
 10
10.588987449
 20
-5.0411674528
 30
0.0
  0
SPLINE
  5
424
100
AcDbEntity
  8
0
100
AcDbSpline
 62
7
  6
CONTINUOUS
 70
0
 71
3
 72
21
 73
17
 74
0
 42
0.0000001
 43
0.0000001
 44
0.0000000001
 40
0.0
 40
0.0
 40
0.0
 40
0.0
 40
0.0566620145
 40
0.1134980702
 40
0.1706791056
 40
0.2283678844
 40
0.2867178671
 40
0.3458683144
 40
0.4059438445
 40
0.467052513
 40
0.5292831061
 40
0.5927084363
 40
0.7232811783
 40
0.7905393351
 40
0.8590962079
 40
1.0
 40
1.0
 40
1.0
 40
1.0
 10
10.5992713925
 20
-5.4094204414
 30
0.0
 10
10.5958634015
 20
-5.4094205171
 30
0.0
 10
10.5890339178
 20
-5.4091520243
 30
0.0
 10
10.5788294959
 20
-5.4079444507
 30
0.0
 10
10.568688826
 20
-5.4059352034
 30
0.0
 10
10.5586440977
 20
-5.4031324217
 30
0.0
 10
10.5487270194
 20
-5.3995432275
 30
0.0
 10
10.5389679219
 20
-5.3951808886
 30
0.0
 10
10.5293972535
 20
-5.3900584515
 30
0.0
 10
10.5200448543
 20
-5.3841921844
 30
0.0
 10
10.5109383446
 20
-5.3776011931
 30
0.0
 10
10.4990508548
 20
-5.3677805213
 30
0.0
 10
10.4878875278
 20
-5.3566596708
 30
0.0
 10
10.4775269273
 20
-5.3444302522
 30
0.0
 10
10.4674731846
 20
-5.3311581519
 30
0.0
 10
10.4606740183
 20
-5.3205181941
 30
0.0
 10
10.4564589188
 20
-5.3131659798
 30
0.0
  0
SPLINE
  5
425
100
AcDbEntity
  8
0
100
AcDbSpline
 62
7
  6
CONTINUOUS
 70
0
 71
3
 72
9
 73
5
 74
0
 42
0.0000001
 43
0.0000001
 44
0.0000000001
 40
0.0
 40
0.0
 40
0.0
 40
0.0
 40
0.4946300693
 40
1.0
 40
1.0
 40
1.0
 40
1.0
 10
10.4564589188
 20
-5.3131659798
 30
0.0
 10
10.4533800937
 20
-5.3077957196
 30
0.0
 10
10.4475365618
 20
-5.2967164971
 30
0.0
 10
10.4424392518
 20
-5.2852760984
 30
0.0
 10
10.4400487661
 20
-5.2794206282
 30
0.0
  0
SPLINE
  5
426
100
AcDbEntity
  8
0
100
AcDbSpline
 62
7
  6
CONTINUOUS
 70
0
 71
3
 72
15
 73
11
 74
0
 42
0.0000001
 43
0.0000001
 44
0.0000000001
 40
0.0
 40
0.0
 40
0.0
 40
0.0
 40
0.1453524083
 40
0.2868079831
 40
0.4230969843
 40
0.5529474777
 40
0.6754525845
 40
0.7903911539
 40
0.8982555593
 40
1.0
 40
1.0
 40
1.0
 40
1.0
 10
10.588987449
 20
-5.0411674528
 30
0.0
 10
10.5960950648
 20
-5.0368149448
 30
0.0
 10
10.6100346074
 20
-5.0280859948
 30
0.0
 10
10.6302547449
 20
-5.0146745754
 30
0.0
 10
10.6492939183
 20
-5.0011107465
 30
0.0
 10
10.6669034372
 20
-4.9874417322
 30
0.0
 10
10.6829092441
 20
-4.9737401614
 30
0.0
 10
10.6972655757
 20
-4.9600910603
 30
0.0
 10
10.7100624472
 20
-4.9465689679
 30
0.0
 10
10.7178802476
 20
-4.9374332464
 30
0.0
 10
10.7215699705
 20
-4.9329142773
 30
0.0
  0
SPLINE
  5
427
100
AcDbEntity
  8
0
100
AcDbSpline
 62
7
  6
CONTINUOUS
 70
0
 71
3
 72
20
 73
16
 74
0
 42
0.0000001
 43
0.0000001
 44
0.0000000001
 40
0.0
 40
0.0
 40
0.0
 40
0.0
 40
0.0566138728
 40
0.1134042249
 40
0.1705431456
 40
0.2281958982
 40
0.2865166694
 40
0.3456460817
 40
0.405710134
 40
0.4668159852
 40
0.5290547631
 40
0.5924971653
 40
0.723129534
 40
0.8589844058
 40
1.0
 40
1.0
 40
1.0
 40
1.0
 10
10.5992598062
 20
-4.889420815
 30
0.0
 10
10.5958313396
 20
-4.8894208912
 30
0.0
 10
10.5889606233
 20
-4.8896931317
 30
0.0
 10
10.5786953104
 20
-4.890916923
 30
0.0
 10
10.5684946258
 20
-4.8929503356
 30
0.0
 10
10.5583921145
 20
-4.8957885484
 30
0.0
 10
10.5484192173
 20
-4.8994210029
 30
0.0
 10
10.5386073024
 20
-4.9038360365
 30
0.0
 10
10.5289875795
 20
-4.9090201911
 30
0.0
 10
10.5195892457
 20
-4.9149552339
 30
0.0
 10
10.5104423322
 20
-4.9216241751
 30
0.0
 10
10.4985045918
 20
-4.931558895
 30
0.0
 10
10.4843695186
 20
-4.9457541435
 30
0.0
 10
10.4690285865
 20
-4.9651423452
 30
0.0
 10
10.4600468463
 20
-4.9793412669
 30
0.0
 10
10.4558349075
 20
-4.9867700341
 30
0.0
  0
SPLINE
  5
428
100
AcDbEntity
  8
0
100
AcDbSpline
 62
7
  6
CONTINUOUS
 70
0
 71
3
 72
19
 73
15
 74
0
 42
0.0000001
 43
0.0000001
 44
0.0000000001
 40
0.0
 40
0.0
 40
0.0
 40
0.0
 40
0.1180283583
 40
0.1788065825
 40
0.2405800509
 40
0.3664845924
 40
0.4945197904
 40
0.623286084
 40
0.6875164258
 40
0.7513907023
 40
0.8147323178
 40
0.8773845618
 40
0.9392011001
 40
1.0
 40
1.0
 40
1.0
 40
1.0
 10
10.4558349075
 20
-4.9867700341
 30
0.0
 10
10.4499658796
 20
-4.9971214764
 30
0.0
 10
10.4421177857
 20
-5.0134201917
 30
0.0
 10
10.4335949629
 20
-5.0361378209
 30
0.0
 10
10.4261787346
 20
-5.060077786
 30
0.0
 10
10.419376335
 20
-5.0912452936
 30
0.0
 10
10.4152617893
 20
-5.1296791739
 30
0.0
 10
10.4152349349
 20
-5.1621117111
 30
0.0
 10
10.4172728102
 20
-5.187938872
 30
0.0
 10
10.419819703
 20
-5.2070813841
 30
0.0
 10
10.4233717607
 20
-5.225900803
 30
0.0
 10
10.4279096147
 20
-5.2442942441
 30
0.0
 10
10.433408755
 20
-5.2621550599
 30
0.0
 10
10.4377319655
 20
-5.2737456489
 30
0.0
 10
10.4400487661
 20
-5.2794206282
 30
0.0
  0
SPLINE
  5
429
100
AcDbEntity
  8
0
100
AcDbSpline
 62
7
  6
CONTINUOUS
 70
0
 71
3
 72
15
 73
11
 74
0
 42
0.0000001
 43
0.0000001
 44
0.0000000001
 40
0.0
 40
0.0
 40
0.0
 40
0.0
 40
0.1093848924
 40
0.2247529651
 40
0.3455303054
 40
0.4709316038
 40
0.5999829275
 40
0.7318632405
 40
0.865594525
 40
1.0
 40
1.0
 40
1.0
 40
1.0
 10
10.6078313272
 20
-5.3685922665
 30
0.0
 10
10.6071274466
 20
-5.3691662686
 30
0.0
 10
10.605790138
 20
-5.3704828638
 30
0.0
 10
10.6040689936
 20
-5.3727889969
 30
0.0
 10
10.6025970315
 20
-5.3754139666
 30
0.0
 10
10.6013846893
 20
-5.3782902387
 30
0.0
 10
10.6004385164
 20
-5.3813604337
 30
0.0
 10
10.5997618913
 20
-5.3845711821
 30
0.0
 10
10.5993560814
 20
-5.3878714383
 30
0.0
 10
10.5992655994
 20
-5.3900989132
 30
0.0
 10
10.5992655994
 20
-5.391214921
 30
0.0
  0
SPLINE
  5
42A
100
AcDbEntity
  8
0
100
AcDbSpline
 62
7
  6
CONTINUOUS
 70
0
 71
3
 72
15
 73
11
 74
0
 42
0.0000001
 43
0.0000001
 44
0.0000000001
 40
0.0
 40
0.0
 40
0.0
 40
0.0
 40
0.1093848924
 40
0.2247529651
 40
0.3455303054
 40
0.4709316038
 40
0.5999829275
 40
0.7318632405
 40
0.865594525
 40
1.0
 40
1.0
 40
1.0
 40
1.0
 10
10.6078313272
 20
-4.93024899
 30
0.0
 10
10.6071274466
 20
-4.9296749878
 30
0.0
 10
10.605790138
 20
-4.9283583926
 30
0.0
 10
10.6040689936
 20
-4.9260522596
 30
0.0
 10
10.6025970315
 20
-4.9234272898
 30
0.0
 10
10.6013846893
 20
-4.9205510178
 30
0.0
 10
10.6004385164
 20
-4.9174808228
 30
0.0
 10
10.5997618913
 20
-4.9142700743
 30
0.0
 10
10.5993560814
 20
-4.9109698182
 30
0.0
 10
10.5992655994
 20
-4.9087423432
 30
0.0
 10
10.5992655994
 20
-4.9076263355
 30
0.0
  0
SPLINE
  5
42B
100
AcDbEntity
  8
0
100
AcDbSpline
 62
7
  6
CONTINUOUS
 70
0
 71
3
 72
15
 73
11
 74
0
 42
0.0000001
 43
0.0000001
 44
0.0000000001
 40
0.0
 40
0.0
 40
0.0
 40
0.0
 40
0.1252329418
 40
0.2504328526
 40
0.375563059
 40
0.50061068
 40
0.625565329
 40
0.7504307829
 40
0.8752344504
 40
1.0
 40
1.0
 40
1.0
 40
1.0
 10
13.269635835
 20
4.0400793718
 30
0.0
 10
13.269635835
 20
4.0355054292
 30
0.0
 10
13.2705345588
 20
4.026333584
 30
0.0
 10
13.2745273547
 20
4.0131231746
 30
0.0
 10
13.28101168
 20
4.0009425204
 30
0.0
 10
13.2897388941
 20
3.9902665561
 30
0.0
 10
13.3003735599
 20
3.9815039399
 30
0.0
 10
13.3125090614
 20
3.9749922675
 30
0.0
 10
13.3256720279
 20
3.9709821418
 30
0.0
 10
13.334812602
 20
3.9700793718
 30
0.0
 10
13.3393694738
 20
3.9700793718
 30
0.0
  0
SPLINE
  5
42C
100
AcDbEntity
  8
0
100
AcDbSpline
 62
7
  6
CONTINUOUS
 70
0
 71
3
 72
15
 73
11
 74
0
 42
0.0000001
 43
0.0000001
 44
0.0000000001
 40
0.0
 40
0.0
 40
0.0
 40
0.0
 40
0.1252329418
 40
0.2504328526
 40
0.375563059
 40
0.50061068
 40
0.625565329
 40
0.7504307829
 40
0.8752344504
 40
1.0
 40
1.0
 40
1.0
 40
1.0
 10
-5.5061334788
 20
4.0400793718
 30
0.0
 10
-5.5061334788
 20
4.0355054292
 30
0.0
 10
-5.5070322026
 20
4.026333584
 30
0.0
 10
-5.5110249985
 20
4.0131231746
 30
0.0
 10
-5.5175093238
 20
4.0009425204
 30
0.0
 10
-5.5262365378
 20
3.9902665561
 30
0.0
 10
-5.5368712037
 20
3.9815039399
 30
0.0
 10
-5.5490067052
 20
3.9749922675
 30
0.0
 10
-5.5621696717
 20
3.9709821418
 30
0.0
 10
-5.5713102458
 20
3.9700793718
 30
0.0
 10
-5.5758671176
 20
3.9700793718
 30
0.0
  0
SPLINE
  5
42D
100
AcDbEntity
  8
0
100
AcDbSpline
 62
7
  6
CONTINUOUS
 70
0
 71
3
 72
15
 73
11
 74
0
 42
0.0000001
 43
0.0000001
 44
0.0000000001
 40
0.0
 40
0.0
 40
0.0
 40
0.0
 40
0.1247655496
 40
0.2495692171
 40
0.374434671
 40
0.49938932
 40
0.624436941
 40
0.7495671474
 40
0.8747670582
 40
1.0
 40
1.0
 40
1.0
 40
1.0
 10
-5.4887129887
 20
3.9700793718
 30
0.0
 10
-5.4841561168
 20
3.9700793718
 30
0.0
 10
-5.4750155427
 20
3.9709821418
 30
0.0
 10
-5.4618525763
 20
3.9749922675
 30
0.0
 10
-5.4497170748
 20
3.9815039399
 30
0.0
 10
-5.4390824089
 20
3.9902665561
 30
0.0
 10
-5.4303551949
 20
4.0009425204
 30
0.0
 10
-5.4238708696
 20
4.0131231746
 30
0.0
 10
-5.4198780737
 20
4.026333584
 30
0.0
 10
-5.4189793499
 20
4.0355054292
 30
0.0
 10
-5.4189793499
 20
4.0400793718
 30
0.0
  0
SPLINE
  5
42E
100
AcDbEntity
  8
0
100
AcDbSpline
 62
7
  6
CONTINUOUS
 70
0
 71
3
 72
28
 73
24
 74
0
 42
0.0000001
 43
0.0000001
 44
0.0000000001
 40
0.0
 40
0.0
 40
0.0
 40
0.0
 40
0.0021305048
 40
0.0044214144
 40
0.0070012998
 40
0.0099604635
 40
0.0172254701
 40
0.0264980328
 40
0.0378926661
 40
0.0514485686
 40
0.0671720242
 40
0.0850541119
 40
0.1050741558
 40
0.1271927251
 40
0.1775363827
 40
0.2356684096
 40
0.3010495167
 40
0.3730842755
 40
0.4510872115
 40
0.5343297763
 40
0.622006629
 40
0.8073320284
 40
1.0
 40
1.0
 40
1.0
 40
1.0
 10
5.2034551159
 20
3.9700793718
 30
0.0
 10
5.2034047775
 20
3.9700793718
 30
0.0
 10
5.2032998234
 20
3.9700948103
 30
0.0
 10
5.2031469661
 20
3.9701619113
 30
0.0
 10
5.202996259
 20
3.9702710683
 30
0.0
 10
5.2027826866
 20
3.97048671
 30
0.0
 10
5.2025242914
 20
3.9708720328
 30
0.0
 10
5.2022347421
 20
3.9714659828
 30
0.0
 10
5.2019472491
 20
3.9722227175
 30
0.0
 10
5.2016623819
 20
3.9731409399
 30
0.0
 10
5.2013810013
 20
3.9742194516
 30
0.0
 10
5.2011040116
 20
3.9754560357
 30
0.0
 10
5.2008322627
 20
3.9768480406
 30
0.0
 10
5.2004616543
 20
3.9790016465
 30
0.0
 10
5.2000252058
 20
3.9820568322
 30
0.0
 10
5.1995518652
 20
3.9861375769
 30
0.0
 10
5.1991140382
 20
3.9907373597
 30
0.0
 10
5.1987166969
 20
3.9958118151
 30
0.0
 10
5.1983636564
 20
4.0013124708
 30
0.0
 10
5.1980588729
 20
4.0071860996
 30
0.0
 10
5.1977142218
 20
4.0155963334
 30
0.0
 10
5.1974296378
 20
4.0265959319
 30
0.0
 10
5.1973543269
 20
4.0355271198
 30
0.0
 10
5.1973543269
 20
4.0400793718
 30
0.0
  0
SPLINE
  5
42F
100
AcDbEntity
  8
0
100
AcDbSpline
 62
7
  6
CONTINUOUS
 70
0
 71
3
 72
28
 73
24
 74
0
 42
0.0000001
 43
0.0000001
 44
0.0000000001
 40
0.0
 40
0.0
 40
0.0
 40
0.0
 40
0.1926679716
 40
0.377993371
 40
0.4656702237
 40
0.5489127885
 40
0.6269157245
 40
0.6989504833
 40
0.7643315904
 40
0.8224636173
 40
0.8728072749
 40
0.8949258442
 40
0.9149458881
 40
0.9328279758
 40
0.9485514314
 40
0.9621073339
 40
0.9735019672
 40
0.9827745299
 40
0.9900395365
 40
0.9929987002
 40
0.9955785856
 40
0.9978694952
 40
1.0
 40
1.0
 40
1.0
 40
1.0
 10
4.2011594876
 20
4.0400793718
 30
0.0
 10
4.2011594876
 20
4.0355271198
 30
0.0
 10
4.2012347986
 20
4.0265959319
 30
0.0
 10
4.2015193826
 20
4.0155963334
 30
0.0
 10
4.2018640336
 20
4.0071860996
 30
0.0
 10
4.2021688171
 20
4.0013124708
 30
0.0
 10
4.2025218577
 20
3.9958118151
 30
0.0
 10
4.2029191989
 20
3.9907373597
 30
0.0
 10
4.203357026
 20
3.9861375769
 30
0.0
 10
4.2038303665
 20
3.9820568322
 30
0.0
 10
4.204266815
 20
3.9790016465
 30
0.0
 10
4.2046374234
 20
3.9768480406
 30
0.0
 10
4.2049091723
 20
3.9754560357
 30
0.0
 10
4.2051861621
 20
3.9742194516
 30
0.0
 10
4.2054675426
 20
3.9731409399
 30
0.0
 10
4.2057524098
 20
3.9722227175
 30
0.0
 10
4.2060399028
 20
3.9714659828
 30
0.0
 10
4.2063294521
 20
3.9708720328
 30
0.0
 10
4.2065878473
 20
3.97048671
 30
0.0
 10
4.2068014198
 20
3.9702710683
 30
0.0
 10
4.2069521268
 20
3.9701619113
 30
0.0
 10
4.2071049841
 20
3.9700948103
 30
0.0
 10
4.2072099382
 20
3.9700793718
 30
0.0
 10
4.2072602766
 20
3.9700793718
 30
0.0
  0
SPLINE
  5
430
100
AcDbEntity
  8
0
100
AcDbSpline
 62
7
  6
CONTINUOUS
 70
0
 71
3
 72
9
 73
5
 74
0
 42
0.0000001
 43
0.0000001
 44
0.0000000001
 40
0.0
 40
0.0
 40
0.0
 40
0.0
 40
0.2462729443
 40
1.0
 40
1.0
 40
1.0
 40
1.0
 10
-2.633264605
 20
-5.2582316543
 30
0.0
 10
-2.6324475223
 20
-5.2578265784
 30
0.0
 10
-2.6291651131
 20
-5.2561109775
 30
0.0
 10
-2.6260282909
 20
-5.254119593
 30
0.0
 10
-2.6237614051
 20
-5.2524911708
 30
0.0
  0
SPLINE
  5
431
100
AcDbEntity
  8
0
100
AcDbSpline
 62
3
  6
CONTINUOUS
 70
0
 71
3
 72
15
 73
11
 74
0
 42
0.0000001
 43
0.0000001
 44
0.0000000001
 40
0.0
 40
0.0
 40
0.0
 40
0.0
 40
0.1252329418
 40
0.2504328526
 40
0.375563059
 40
0.50061068
 40
0.625565329
 40
0.7504307829
 40
0.8752344504
 40
1.0
 40
1.0
 40
1.0
 40
1.0
 10
13.1999021963
 20
4.0400793718
 30
0.0
 10
13.1999021963
 20
4.0309314865
 30
0.0
 10
13.2016996439
 20
4.0125877962
 30
0.0
 10
13.2096852356
 20
3.9861669774
 30
0.0
 10
13.2226538862
 20
3.961805669
 30
0.0
 10
13.2401083143
 20
3.9404537404
 30
0.0
 10
13.261377646
 20
3.9229285079
 30
0.0
 10
13.285648649
 20
3.9099051633
 30
0.0
 10
13.3119745819
 20
3.9018849119
 30
0.0
 10
13.3302557301
 20
3.9000793718
 30
0.0
 10
13.3393694738
 20
3.9000793718
 30
0.0
  0
SPLINE
  5
432
100
AcDbEntity
  8
0
100
AcDbSpline
 62
3
  6
CONTINUOUS
 70
0
 71
3
 72
15
 73
11
 74
0
 42
0.0000001
 43
0.0000001
 44
0.0000000001
 40
0.0
 40
0.0
 40
0.0
 40
0.0
 40
0.1247655496
 40
0.2495692171
 40
0.374434671
 40
0.49938932
 40
0.624436941
 40
0.7495671474
 40
0.8747670582
 40
1.0
 40
1.0
 40
1.0
 40
1.0
 10
-5.4887129887
 20
3.9000793718
 30
0.0
 10
-5.479599245
 20
3.9000793718
 30
0.0
 10
-5.4613180968
 20
3.9018849119
 30
0.0
 10
-5.4349921639
 20
3.9099051633
 30
0.0
 10
-5.4107211609
 20
3.9229285079
 30
0.0
 10
-5.3894518292
 20
3.9404537404
 30
0.0
 10
-5.3719974011
 20
3.961805669
 30
0.0
 10
-5.3590287505
 20
3.9861669774
 30
0.0
 10
-5.3510431588
 20
4.0125877962
 30
0.0
 10
-5.3492457112
 20
4.0309314865
 30
0.0
 10
-5.3492457112
 20
4.0400793718
 30
0.0
  0
SPLINE
  5
433
100
AcDbEntity
  8
0
100
AcDbSpline
 62
3
  6
CONTINUOUS
 70
0
 71
3
 72
31
 73
27
 74
0
 42
0.0000001
 43
0.0000001
 44
0.0000000001
 40
0.0
 40
0.0
 40
0.0
 40
0.0
 40
0.1926653097
 40
0.3779881486
 40
0.46566379
 40
0.5489052046
 40
0.6269070629
 40
0.6989408265
 40
0.7643210303
 40
0.8224522541
 40
0.8486263564
 40
0.8727968003
 40
0.894915064
 40
0.9149348313
 40
0.9328166719
 40
0.9485399103
 40
0.9620956255
 40
0.9734901014
 40
0.9783883358
 40
0.9827665264
 40
0.9866418115
 40
0.9900396741
 40
0.9929987969
 40
0.9955786467
 40
0.9978695246
 40
1.0
 40
1.0
 40
1.0
 40
1.0
 10
4.1950586986
 20
4.0400793718
 30
0.0
 10
4.1950586986
 20
4.0309748679
 30
0.0
 10
4.1952093208
 20
4.0131124922
 30
0.0
 10
4.1957784877
 20
3.9911132946
 30
0.0
 10
4.1964677919
 20
3.974292828
 30
0.0
 10
4.1970773531
 20
3.9625455677
 30
0.0
 10
4.1977834535
 20
3.9515442661
 30
0.0
 10
4.1985780724
 20
3.9413953225
 30
0.0
 10
4.1994539315
 20
3.9321958628
 30
0.0
 10
4.2002684554
 20
3.9251686806
 30
0.0
 10
4.2009645678
 20
3.9200899113
 30
0.0
 10
4.2014829734
 20
3.9167049417
 30
0.0
 10
4.2020146053
 20
3.9136167147
 30
0.0
 10
4.2025580569
 20
3.9108326965
 30
0.0
 10
4.2031120597
 20
3.908359538
 30
0.0
 10
4.2036747761
 20
3.9062024884
 30
0.0
 10
4.2042446382
 20
3.9043661215
 30
0.0
 10
4.204745812
 20
3.903045902
 30
0.0
 10
4.2051577153
 20
3.9021597111
 30
0.0
 10
4.2054521066
 20
3.9016118793
 30
0.0
 10
4.2057475581
 20
3.9011465544
 30
0.0
 10
4.2060442324
 20
3.9007635904
 30
0.0
 10
4.2063426047
 20
3.9004628086
 30
0.0
 10
4.2066439677
 20
3.900244441
 30
0.0
 10
4.206949694
 20
3.9001102512
 30
0.0
 10
4.2071595998
 20
3.9000793718
 30
0.0
 10
4.2072602766
 20
3.9000793718
 30
0.0
  0
SPLINE
  5
434
100
AcDbEntity
  8
0
100
AcDbSpline
 62
3
  6
CONTINUOUS
 70
0
 71
3
 72
23
 73
19
 74
0
 42
0.0000001
 43
0.0000001
 44
0.0000000001
 40
0.0
 40
0.0
 40
0.0
 40
0.0
 40
0.0561138398
 40
0.1143303188
 40
0.1748923046
 40
0.2379666836
 40
0.3029272348
 40
0.3686694606
 40
0.434461097
 40
0.5000910476
 40
0.5654241599
 40
0.6306400694
 40
0.6959679054
 40
0.7608512059
 40
0.8242098791
 40
0.8853094046
 40
0.943931746
 40
1.0
 40
1.0
 40
1.0
 40
1.0
 10
-2.6369225579
 20
-5.02915094
 30
0.0
 10
-2.6337154244
 20
-5.032794958
 30
0.0
 10
-2.6275981845
 20
-5.0405947739
 30
0.0
 10
-2.619492698
 20
-5.0533969335
 30
0.0
 10
-2.6123953113
 20
-5.0674645248
 30
0.0
 10
-2.6064380756
 20
-5.0826770887
 30
0.0
 10
-2.6016915102
 20
-5.0987752355
 30
0.0
 10
-2.5982633697
 20
-5.1154450523
 30
0.0
 10
-2.5962379812
 20
-5.132400114
 30
0.0
 10
-2.5955705621
 20
-5.149425245
 30
0.0
 10
-2.596225183
 20
-5.1664013196
 30
0.0
 10
-2.598240705
 20
-5.1832453014
 30
0.0
 10
-2.601637057
 20
-5.1998265176
 30
0.0
 10
-2.6063480343
 20
-5.2159163128
 30
0.0
 10
-2.6123129453
 20
-5.2311958868
 30
0.0
 10
-2.6194563752
 20
-5.2453593427
 30
0.0
 10
-2.6275898289
 20
-5.2582355134
 30
0.0
 10
-2.6337208835
 20
-5.2660646138
 30
0.0
 10
-2.6369252659
 20
-5.2697057996
 30
0.0
  0
SPLINE
  5
435
100
AcDbEntity
  8
0
100
AcDbSpline
 62
7
  6
CONTINUOUS
 70
0
 71
3
 72
30
 73
26
 74
0
 42
0.0000001
 43
0.0000001
 44
0.0000000001
 40
0.0
 40
0.0
 40
0.0
 40
0.0
 40
0.1118199296
 40
0.2174484888
 40
0.3167210576
 40
0.4094996367
 40
0.4956539445
 40
0.5750601336
 40
0.6476224156
 40
0.7132712945
 40
0.7719525507
 40
0.7986722373
 40
0.8236469378
 40
0.8468838677
 40
0.868394104
 40
0.8881939303
 40
0.9063067795
 40
0.922766097
 40
0.9376205342
 40
0.9509422052
 40
0.9628333508
 40
0.9734391409
 40
0.9829653442
 40
0.9916962128
 40
1.0
 40
1.0
 40
1.0
 40
1.0
 10
56.9423876457
 20
4.1893405378
 30
0.0
 10
56.9420545727
 20
4.1864535668
 30
0.0
 10
56.9413808366
 20
4.1808424265
 30
0.0
 10
56.9403127431
 20
4.1726804925
 30
0.0
 10
56.9392170447
 20
4.1650217781
 30
0.0
 10
56.9380958067
 20
4.157878625
 30
0.0
 10
56.9369510449
 20
4.1512625635
 30
0.0
 10
56.9357845759
 20
4.1451844412
 30
0.0
 10
56.9345985549
 20
4.1396539168
 30
0.0
 10
56.9333952801
 20
4.1346796499
 30
0.0
 10
56.9323501504
 20
4.1308946122
 30
0.0
 10
56.9314993487
 20
4.1281548736
 30
0.0
 10
56.9308781039
 20
4.1263089931
 30
0.0
 10
56.9302539222
 20
4.1246076011
 30
0.0
 10
56.9296270452
 20
4.1230512586
 30
0.0
 10
56.9289977395
 20
4.1216404871
 30
0.0
 10
56.9283662398
 20
4.1203757627
 30
0.0
 10
56.927732723
 20
4.1192574735
 30
0.0
 10
56.9270972029
 20
4.1182858576
 30
0.0
 10
56.926459637
 20
4.1174608678
 30
0.0
 10
56.9258195722
 20
4.116782361
 30
0.0
 10
56.9251760649
 20
4.1162504456
 30
0.0
 10
56.9245274295
 20
4.1158661448
 30
0.0
 10
56.9238728679
 20
4.1156323468
 30
0.0
 10
56.9234286254
 20
4.1155793718
 30
0.0
 10
56.9232128158
 20
4.1155793718
 30
0.0
  0
SPLINE
  5
436
100
AcDbEntity
  8
0
100
AcDbSpline
 62
7
  6
CONTINUOUS
 70
0
 71
3
 72
30
 73
26
 74
0
 42
0.0000001
 43
0.0000001
 44
0.0000000001
 40
0.0
 40
0.0
 40
0.0
 40
0.0
 40
0.1118199296
 40
0.2174484888
 40
0.3167210576
 40
0.4094996367
 40
0.4956539445
 40
0.5750601336
 40
0.6476224156
 40
0.7132712945
 40
0.7719525507
 40
0.7986722373
 40
0.8236469378
 40
0.8468838677
 40
0.868394104
 40
0.8881939303
 40
0.9063067795
 40
0.922766097
 40
0.9376205342
 40
0.9509422052
 40
0.9628333508
 40
0.9734391409
 40
0.9829653442
 40
0.9916962128
 40
1.0
 40
1.0
 40
1.0
 40
1.0
 10
38.0859174719
 20
4.1893405378
 30
0.0
 10
38.086250545
 20
4.1864535668
 30
0.0
 10
38.086924281
 20
4.1808424265
 30
0.0
 10
38.0879923745
 20
4.1726804925
 30
0.0
 10
38.0890880729
 20
4.1650217781
 30
0.0
 10
38.090209311
 20
4.157878625
 30
0.0
 10
38.0913540727
 20
4.1512625635
 30
0.0
 10
38.0925205417
 20
4.1451844412
 30
0.0
 10
38.0937065627
 20
4.1396539168
 30
0.0
 10
38.0949098375
 20
4.1346796499
 30
0.0
 10
38.0959549672
 20
4.1308946122
 30
0.0
 10
38.0968057689
 20
4.1281548736
 30
0.0
 10
38.0974270137
 20
4.1263089931
 30
0.0
 10
38.0980511954
 20
4.1246076011
 30
0.0
 10
38.0986780724
 20
4.1230512586
 30
0.0
 10
38.0993073781
 20
4.1216404871
 30
0.0
 10
38.0999388778
 20
4.1203757627
 30
0.0
 10
38.1005723946
 20
4.1192574735
 30
0.0
 10
38.1012079147
 20
4.1182858576
 30
0.0
 10
38.1018454806
 20
4.1174608678
 30
0.0
 10
38.1024855454
 20
4.116782361
 30
0.0
 10
38.1031290527
 20
4.1162504456
 30
0.0
 10
38.1037776881
 20
4.1158661448
 30
0.0
 10
38.1044322497
 20
4.1156323468
 30
0.0
 10
38.1048764922
 20
4.1155793718
 30
0.0
 10
38.1050923018
 20
4.1155793718
 30
0.0
  0
SPLINE
  5
437
100
AcDbEntity
  8
0
100
AcDbSpline
 62
7
  6
CONTINUOUS
 70
0
 71
3
 72
30
 73
26
 74
0
 42
0.0000001
 43
0.0000001
 44
0.0000000001
 40
0.0
 40
0.0
 40
0.0
 40
0.0
 40
0.0083037872
 40
0.0170346558
 40
0.0265608591
 40
0.0371666492
 40
0.0490577948
 40
0.0623794658
 40
0.077233903
 40
0.0936932205
 40
0.1118060697
 40
0.131605896
 40
0.1531161323
 40
0.1763530622
 40
0.2013277627
 40
0.2280474493
 40
0.2867287055
 40
0.3523775844
 40
0.4249398664
 40
0.5043460555
 40
0.5905003633
 40
0.6832789424
 40
0.7825515112
 40
0.8881800704
 40
1.0
 40
1.0
 40
1.0
 40
1.0
 10
38.1698449663
 20
4.1155793718
 30
0.0
 10
38.1700607759
 20
4.1155793718
 30
0.0
 10
38.1705050184
 20
4.1156323468
 30
0.0
 10
38.17115958
 20
4.1158661448
 30
0.0
 10
38.1718082154
 20
4.1162504456
 30
0.0
 10
38.1724517227
 20
4.116782361
 30
0.0
 10
38.1730917875
 20
4.1174608678
 30
0.0
 10
38.1737293534
 20
4.1182858576
 30
0.0
 10
38.1743648735
 20
4.1192574735
 30
0.0
 10
38.1749983903
 20
4.1203757627
 30
0.0
 10
38.17562989
 20
4.1216404871
 30
0.0
 10
38.1762591957
 20
4.1230512586
 30
0.0
 10
38.1768860727
 20
4.1246076011
 30
0.0
 10
38.1775102544
 20
4.1263089931
 30
0.0
 10
38.1781314992
 20
4.1281548736
 30
0.0
 10
38.1789823009
 20
4.1308946122
 30
0.0
 10
38.1800274306
 20
4.1346796499
 30
0.0
 10
38.1812307054
 20
4.1396539168
 30
0.0
 10
38.1824167264
 20
4.1451844412
 30
0.0
 10
38.1835831954
 20
4.1512625635
 30
0.0
 10
38.1847279572
 20
4.157878625
 30
0.0
 10
38.1858491952
 20
4.1650217781
 30
0.0
 10
38.1869448936
 20
4.1726804925
 30
0.0
 10
38.1880129871
 20
4.1808424265
 30
0.0
 10
38.1886867231
 20
4.1864535668
 30
0.0
 10
38.1890197962
 20
4.1893405378
 30
0.0
  0
SPLINE
  5
438
100
AcDbEntity
  8
0
100
AcDbSpline
 62
7
  6
CONTINUOUS
 70
0
 71
3
 72
30
 73
26
 74
0
 42
0.0000001
 43
0.0000001
 44
0.0000000001
 40
0.0
 40
0.0
 40
0.0
 40
0.0
 40
0.0083037872
 40
0.0170346558
 40
0.0265608591
 40
0.0371666492
 40
0.0490577948
 40
0.0623794658
 40
0.077233903
 40
0.0936932205
 40
0.1118060697
 40
0.131605896
 40
0.1531161323
 40
0.1763530622
 40
0.2013277627
 40
0.2280474493
 40
0.2867287055
 40
0.3523775844
 40
0.4249398664
 40
0.5043460555
 40
0.5905003633
 40
0.6832789424
 40
0.7825515112
 40
0.8881800704
 40
1.0
 40
1.0
 40
1.0
 40
1.0
 10
38.1050923018
 20
4.1155793718
 30
0.0
 10
38.1053081113
 20
4.1155793718
 30
0.0
 10
38.1057523539
 20
4.1156323468
 30
0.0
 10
38.1064069154
 20
4.1158661448
 30
0.0
 10
38.1070555509
 20
4.1162504456
 30
0.0
 10
38.1076990582
 20
4.116782361
 30
0.0
 10
38.1083391229
 20
4.1174608678
 30
0.0
 10
38.1089766889
 20
4.1182858576
 30
0.0
 10
38.1096122089
 20
4.1192574735
 30
0.0
 10
38.1102457258
 20
4.1203757627
 30
0.0
 10
38.1108772254
 20
4.1216404871
 30
0.0
 10
38.1115065311
 20
4.1230512586
 30
0.0
 10
38.1121334082
 20
4.1246076011
 30
0.0
 10
38.1127575899
 20
4.1263089931
 30
0.0
 10
38.1133788347
 20
4.1281548736
 30
0.0
 10
38.1142296364
 20
4.1308946122
 30
0.0
 10
38.115274766
 20
4.1346796499
 30
0.0
 10
38.1164780408
 20
4.1396539168
 30
0.0
 10
38.1176640618
 20
4.1451844412
 30
0.0
 10
38.1188305309
 20
4.1512625635
 30
0.0
 10
38.1199752926
 20
4.157878625
 30
0.0
 10
38.1210965307
 20
4.1650217781
 30
0.0
 10
38.122192229
 20
4.1726804925
 30
0.0
 10
38.1232603225
 20
4.1808424265
 30
0.0
 10
38.1239340586
 20
4.1864535668
 30
0.0
 10
38.1242671316
 20
4.1893405378
 30
0.0
  0
SPLINE
  5
439
100
AcDbEntity
  8
0
100
AcDbSpline
 62
7
  6
CONTINUOUS
 70
0
 71
3
 72
31
 73
27
 74
0
 42
0.0000001
 43
0.0000001
 44
0.0000000001
 40
0.0
 40
0.0
 40
0.0
 40
0.0
 40
0.111641578
 40
0.2173880933
 40
0.3170231375
 40
0.4103364836
 40
0.497131009
 40
0.5772420545
 40
0.6505153529
 40
0.7168146744
 40
0.7760463633
 40
0.8029904048
 40
0.8281437303
 40
0.8515039891
 40
0.8730759534
 40
0.8928693659
 40
0.9108999481
 40
0.9271919734
 40
0.9417822687
 40
0.9547276562
 40
0.9661172921
 40
0.9760852375
 40
0.984833365
 40
0.9926609861
 40
0.9963631019
 40
1.0
 40
1.0
 40
1.0
 40
1.0
 10
37.6181158747
 20
5.6461268868
 30
0.0
 10
37.6184710153
 20
5.6499543888
 30
0.0
 10
37.619193984
 20
5.6574044251
 30
0.0
 10
37.6203526343
 20
5.6682583944
 30
0.0
 10
37.6215539622
 20
5.6784726099
 30
0.0
 10
37.6227952096
 20
5.6880244251
 30
0.0
 10
37.6240737275
 20
5.6968927001
 30
0.0
 10
37.6253861883
 20
5.7050579303
 30
0.0
 10
37.6267293555
 20
5.712502251
 30
0.0
 10
37.6281003737
 20
5.7192092792
 30
0.0
 10
37.6292974249
 20
5.7243219435
 30
0.0
 10
37.6302755782
 20
5.7280284587
 30
0.0
 10
37.6309909622
 20
5.7305263441
 30
0.0
 10
37.6317110746
 20
5.7328297968
 30
0.0
 10
37.6324354527
 20
5.7349377195
 30
0.0
 10
37.6331636429
 20
5.7368492197
 30
0.0
 10
37.6338952194
 20
5.7385634935
 30
0.0
 10
37.6346297972
 20
5.7400798357
 30
0.0
 10
37.6353670983
 20
5.7413977269
 30
0.0
 10
37.636107198
 20
5.7425169425
 30
0.0
 10
37.6368503723
 20
5.7434377823
 30
0.0
 10
37.6375981598
 20
5.7441605869
 30
0.0
 10
37.6383527953
 20
5.7446847364
 30
0.0
 10
37.6390034247
 20
5.7449570933
 30
0.0
 10
37.6395163155
 20
5.7450620722
 30
0.0
 10
37.6397693398
 20
5.7450793718
 30
0.0
 10
37.6398945622
 20
5.7450793718
 30
0.0
  0
SPLINE
  5
43A
100
AcDbEntity
  8
0
100
AcDbSpline
 62
7
  6
CONTINUOUS
 70
0
 71
3
 72
31
 73
27
 74
0
 42
0.0000001
 43
0.0000001
 44
0.0000000001
 40
0.0
 40
0.0
 40
0.0
 40
0.0
 40
0.0036368981
 40
0.0073390139
 40
0.015166635
 40
0.0239147625
 40
0.0338827079
 40
0.0452723438
 40
0.0582177313
 40
0.0728080266
 40
0.0891000519
 40
0.1071306341
 40
0.1269240466
 40
0.1484960109
 40
0.1718562697
 40
0.1970095952
 40
0.2239536367
 40
0.2831853256
 40
0.3494846471
 40
0.4227579455
 40
0.502868991
 40
0.5896635164
 40
0.6829768625
 40
0.7826119067
 40
0.888358422
 40
1.0
 40
1.0
 40
1.0
 40
1.0
 10
37.6398945622
 20
5.0150793718
 30
0.0
 10
37.6397693398
 20
5.0150793718
 30
0.0
 10
37.6395163155
 20
5.0150966713
 30
0.0
 10
37.6390034247
 20
5.0152016502
 30
0.0
 10
37.6383527953
 20
5.0154740071
 30
0.0
 10
37.6375981598
 20
5.0159981566
 30
0.0
 10
37.6368503723
 20
5.0167209612
 30
0.0
 10
37.636107198
 20
5.0176418011
 30
0.0
 10
37.6353670983
 20
5.0187610166
 30
0.0
 10
37.6346297972
 20
5.0200789079
 30
0.0
 10
37.6338952194
 20
5.02159525
 30
0.0
 10
37.6331636429
 20
5.0233095239
 30
0.0
 10
37.6324354527
 20
5.0252210241
 30
0.0
 10
37.6317110746
 20
5.0273289467
 30
0.0
 10
37.6309909622
 20
5.0296323994
 30
0.0
 10
37.6302755782
 20
5.0321302849
 30
0.0
 10
37.6292974249
 20
5.0358368
 30
0.0
 10
37.6281003737
 20
5.0409494643
 30
0.0
 10
37.6267293555
 20
5.0476564925
 30
0.0
 10
37.6253861883
 20
5.0551008132
 30
0.0
 10
37.6240737275
 20
5.0632660434
 30
0.0
 10
37.6227952096
 20
5.0721343184
 30
0.0
 10
37.6215539622
 20
5.0816861336
 30
0.0
 10
37.6203526343
 20
5.0919003491
 30
0.0
 10
37.619193984
 20
5.1027543185
 30
0.0
 10
37.6184710153
 20
5.1102043547
 30
0.0
 10
37.6181158747
 20
5.1140318567
 30
0.0
  0
SPLINE
  5
43B
100
AcDbEntity
  8
0
100
AcDbSpline
 62
7
  6
CONTINUOUS
 70
0
 71
3
 72
43
 73
39
 74
0
 42
0.0000001
 43
0.0000001
 44
0.0000000001
 40
0.0
 40
0.0
 40
0.0
 40
0.0
 40
0.0967818639
 40
0.1926694648
 40
0.2866923273
 40
0.3779817862
 40
0.465663021
 40
0.548899173
 40
0.5886014298
 40
0.6269012241
 40
0.6637066348
 40
0.6989309058
 40
0.7324931119
 40
0.764313323
 40
0.7943183756
 40
0.8224412918
 40
0.8486166944
 40
0.8727880323
 40
0.8949056659
 40
0.9149232432
 40
0.924133631
 40
0.9328072092
 40
0.940941159
 40
0.9485331819
 40
0.9555817501
 40
0.9620873162
 40
0.9680523008
 40
0.9734808491
 40
0.9783795636
 40
0.9806335124
 40
0.9827592652
 40
0.9866346869
 40
0.99003195
 40
0.9929903403
 40
0.9955699911
 40
0.9978618572
 40
0.9989412144
 40
1.0
 40
1.0
 40
1.0
 40
1.0
 10
37.6717058192
 20
5.3800793718
 30
0.0
 10
37.6717058192
 20
5.3681554186
 30
0.0
 10
37.6716045555
 20
5.3444175631
 30
0.0
 10
37.6711503393
 20
5.3090982967
 30
0.0
 10
37.6703979228
 20
5.274460919
 30
0.0
 10
37.6693551653
 20
5.2408425532
 30
0.0
 10
37.6680322493
 20
5.2085640568
 30
0.0
 10
37.6666874174
 20
5.1826490087
 30
0.0
 10
37.6654725009
 20
5.162820816
 30
0.0
 10
37.664514505
 20
5.1487083955
 30
0.0
 10
37.6634975617
 20
5.1351532868
 30
0.0
 10
37.6624240929
 20
5.1221881225
 30
0.0
 10
37.6612969887
 20
5.1098441216
 30
0.0
 10
37.6601188191
 20
5.0981509774
 30
0.0
 10
37.6588925148
 20
5.0871367955
 30
0.0
 10
37.6576214101
 20
5.0768280423
 30
0.0
 10
37.6563084267
 20
5.0672494676
 30
0.0
 10
37.6549570307
 20
5.0584239612
 30
0.0
 10
37.6535709515
 20
5.050372627
 30
0.0
 10
37.6523586303
 20
5.0441631083
 30
0.0
 10
37.6513662445
 20
5.0395999783
 30
0.0
 10
37.6506360589
 20
5.0364785753
 30
0.0
 10
37.6498996473
 20
5.0335638549
 30
0.0
 10
37.6491574674
 20
5.0308576391
 30
0.0
 10
37.6484099374
 20
5.0283615992
 30
0.0
 10
37.6476575559
 20
5.0260771241
 30
0.0
 10
37.6469008728
 20
5.0240052725
 30
0.0
 10
37.6461403648
 20
5.0221470515
 30
0.0
 10
37.6454869099
 20
5.0207405921
 30
0.0
 10
37.644959443
 20
5.0197261991
 30
0.0
 10
37.6444608438
 20
5.0188395907
 30
0.0
 10
37.6438397816
 20
5.0178606934
 30
0.0
 10
37.6430666718
 20
5.0168621769
 30
0.0
 10
37.6422886432
 20
5.0160781784
 30
0.0
 10
37.6415031971
 20
5.0155091041
 30
0.0
 10
37.6408240635
 20
5.0152123609
 30
0.0
 10
37.6402888124
 20
5.0150981706
 30
0.0
 10
37.6400250092
 20
5.0150793718
 30
0.0
 10
37.6398945622
 20
5.0150793718
 30
0.0
  0
SPLINE
  5
43C
100
AcDbEntity
  8
0
100
AcDbSpline
 62
7
  6
CONTINUOUS
 70
0
 71
3
 72
43
 73
39
 74
0
 42
0.0000001
 43
0.0000001
 44
0.0000000001
 40
0.0
 40
0.0
 40
0.0
 40
0.0
 40
0.0010587856
 40
0.0021381428
 40
0.0044300089
 40
0.0070096597
 40
0.00996805
 40
0.0133653131
 40
0.0172407348
 40
0.0193664876
 40
0.0216204364
 40
0.0265191509
 40
0.0319476992
 40
0.0379126838
 40
0.0444182499
 40
0.0514668181
 40
0.059058841
 40
0.0671927908
 40
0.075866369
 40
0.0850767568
 40
0.1050943341
 40
0.1272119677
 40
0.1513833056
 40
0.1775587082
 40
0.2056816244
 40
0.235686677
 40
0.2675068881
 40
0.3010690942
 40
0.3362933652
 40
0.3730987759
 40
0.4113985702
 40
0.451100827
 40
0.534336979
 40
0.6220182138
 40
0.7133076727
 40
0.8073305352
 40
0.9032181361
 40
1.0
 40
1.0
 40
1.0
 40
1.0
 10
37.6398945622
 20
5.7450793718
 30
0.0
 10
37.6400250092
 20
5.7450793718
 30
0.0
 10
37.6402888124
 20
5.7450605729
 30
0.0
 10
37.6408240635
 20
5.7449463826
 30
0.0
 10
37.6415031971
 20
5.7446496394
 30
0.0
 10
37.6422886432
 20
5.7440805651
 30
0.0
 10
37.6430666718
 20
5.7432965666
 30
0.0
 10
37.6438397816
 20
5.7422980502
 30
0.0
 10
37.6444608438
 20
5.7413191528
 30
0.0
 10
37.644959443
 20
5.7404325444
 30
0.0
 10
37.6454869099
 20
5.7394181515
 30
0.0
 10
37.6461403648
 20
5.7380116921
 30
0.0
 10
37.6469008728
 20
5.736153471
 30
0.0
 10
37.6476575559
 20
5.7340816194
 30
0.0
 10
37.6484099374
 20
5.7317971443
 30
0.0
 10
37.6491574674
 20
5.7293011044
 30
0.0
 10
37.6498996473
 20
5.7265948886
 30
0.0
 10
37.6506360589
 20
5.7236801682
 30
0.0
 10
37.6513662445
 20
5.7205587652
 30
0.0
 10
37.6523586303
 20
5.7159956352
 30
0.0
 10
37.6535709515
 20
5.7097861166
 30
0.0
 10
37.6549570307
 20
5.7017347823
 30
0.0
 10
37.6563084267
 20
5.692909276
 30
0.0
 10
37.6576214101
 20
5.6833307012
 30
0.0
 10
37.6588925148
 20
5.673021948
 30
0.0
 10
37.6601188191
 20
5.6620077661
 30
0.0
 10
37.6612969887
 20
5.650314622
 30
0.0
 10
37.6624240929
 20
5.637970621
 30
0.0
 10
37.6634975617
 20
5.6250054567
 30
0.0
 10
37.664514505
 20
5.611450348
 30
0.0
 10
37.6654725009
 20
5.5973379275
 30
0.0
 10
37.6666874174
 20
5.5775097348
 30
0.0
 10
37.6680322493
 20
5.5515946867
 30
0.0
 10
37.6693551653
 20
5.5193161904
 30
0.0
 10
37.6703979228
 20
5.4856978245
 30
0.0
 10
37.6711503393
 20
5.4510604468
 30
0.0
 10
37.6716045555
 20
5.4157411804
 30
0.0
 10
37.6717058192
 20
5.392003325
 30
0.0
 10
37.6717058192
 20
5.3800793718
 30
0.0
  0
SPLINE
  5
43D
100
AcDbEntity
  8
0
100
AcDbSpline
 62
7
  6
CONTINUOUS
 70
0
 71
3
 72
13
 73
9
 74
0
 42
0.0000001
 43
0.0000001
 44
0.0000000001
 40
0.0
 40
0.0
 40
0.0
 40
0.0
 40
0.2515721043
 40
0.3786772753
 40
0.5058489261
 40
0.6322146208
 40
0.7569721283
 40
1.0
 40
1.0
 40
1.0
 40
1.0
 10
48.3912865584
 20
5.6323814394
 30
0.0
 10
48.4096697735
 20
5.6220292391
 30
0.0
 10
48.4373062581
 20
5.6063847232
 30
0.0
 10
48.4741244733
 20
5.5853119688
 30
0.0
 10
48.5017731622
 20
5.5693569465
 30
0.0
 10
48.5291920676
 20
5.5533980778
 30
0.0
 10
48.5649321679
 20
5.5324215245
 30
0.0
 10
48.5914550902
 20
5.5166773078
 30
0.0
 10
48.6089551308
 20
5.5062304056
 30
0.0
  0
SPLINE
  5
43E
100
AcDbEntity
  8
0
100
AcDbSpline
 62
7
  6
CONTINUOUS
 70
0
 71
3
 72
13
 73
9
 74
0
 42
0.0000001
 43
0.0000001
 44
0.0000000001
 40
0.0
 40
0.0
 40
0.0
 40
0.0
 40
0.2473154933
 40
0.3732415121
 40
0.5
 40
0.6267584879
 40
0.7526845067
 40
1.0
 40
1.0
 40
1.0
 40
1.0
 10
48.6089551308
 20
5.5062304056
 30
0.0
 10
48.609478322
 20
5.4854352059
 30
0.0
 10
48.6101211565
 20
5.4540474696
 30
0.0
 10
48.6105772719
 20
5.4119945126
 30
0.0
 10
48.6106954919
 20
5.3800793718
 30
0.0
 10
48.6105772719
 20
5.3481642309
 30
0.0
 10
48.6101211565
 20
5.3061112739
 30
0.0
 10
48.609478322
 20
5.2747235377
 30
0.0
 10
48.6089551308
 20
5.2539283379
 30
0.0
  0
SPLINE
  5
43F
100
AcDbEntity
  8
0
100
AcDbSpline
 62
7
  6
CONTINUOUS
 70
0
 71
3
 72
13
 73
9
 74
0
 42
0.0000001
 43
0.0000001
 44
0.0000000001
 40
0.0
 40
0.0
 40
0.0
 40
0.0
 40
0.2430278717
 40
0.3677853792
 40
0.4941510739
 40
0.6213227247
 40
0.7484278957
 40
1.0
 40
1.0
 40
1.0
 40
1.0
 10
48.6089551308
 20
5.2539283379
 30
0.0
 10
48.5914550902
 20
5.2434814358
 30
0.0
 10
48.5649321679
 20
5.227737219
 30
0.0
 10
48.5291920676
 20
5.2067606658
 30
0.0
 10
48.5017731622
 20
5.190801797
 30
0.0
 10
48.4741244733
 20
5.1748467747
 30
0.0
 10
48.4373062581
 20
5.1537740204
 30
0.0
 10
48.4096697735
 20
5.1381295044
 30
0.0
 10
48.3912865584
 20
5.1277773041
 30
0.0
  0
SPLINE
  5
440
100
AcDbEntity
  8
0
100
AcDbSpline
 62
7
  6
CONTINUOUS
 70
0
 71
3
 72
38
 73
34
 74
0
 42
0.0000001
 43
0.0000001
 44
0.0000000001
 40
0.0
 40
0.0
 40
0.0
 40
0.0
 40
0.0625123862
 40
0.0938030325
 40
0.1250905267
 40
0.1563799674
 40
0.1876746253
 40
0.2189724139
 40
0.2502708229
 40
0.2815688937
 40
0.3128657863
 40
0.3441609144
 40
0.3754530534
 40
0.4067412737
 40
0.4380248038
 40
0.4693027216
 40
0.5005746012
 40
0.5318396372
 40
0.5630975427
 40
0.5943479329
 40
0.6255905322
 40
0.6568254537
 40
0.6880525238
 40
0.7192721761
 40
0.7504845699
 40
0.7816902066
 40
0.8128897215
 40
0.8440836068
 40
0.87527287
 40
0.9064581249
 40
0.9376404568
 40
0.9688207707
 40
1.0
 40
1.0
 40
1.0
 40
1.0
 10
48.1489672504
 20
5.2473293718
 30
0.0
 10
48.1432004187
 20
5.25735597
 30
0.0
 10
48.1355199711
 20
5.2729932443
 30
0.0
 10
48.1273898764
 20
5.2946757022
 30
0.0
 10
48.122362068
 20
5.3113144739
 30
0.0
 10
48.1184293098
 20
5.328244891
 30
0.0
 10
48.1156090712
 20
5.3453980112
 30
0.0
 10
48.1139100843
 20
5.3626997845
 30
0.0
 10
48.1133438644
 20
5.3800762431
 30
0.0
 10
48.1139101077
 20
5.3974524748
 30
0.0
 10
48.1156072254
 20
5.4147543462
 30
0.0
 10
48.1184288735
 20
5.4319075795
 30
0.0
 10
48.122360315
 20
5.4488393342
 30
0.0
 10
48.1273884933
 20
5.4654761472
 30
0.0
 10
48.1334881723
 20
5.4817478316
 30
0.0
 10
48.1406358775
 20
5.4975838985
 30
0.0
 10
48.1487999975
 20
5.5129167774
 30
0.0
 10
48.1579447872
 20
5.5276814745
 30
0.0
 10
48.1680334037
 20
5.5418131574
 30
0.0
 10
48.1790195801
 20
5.5552535716
 30
0.0
 10
48.1908592655
 20
5.5679427939
 30
0.0
 10
48.2034996159
 20
5.5798282828
 30
0.0
 10
48.2168873549
 20
5.5908585497
 30
0.0
 10
48.2309656551
 20
5.6009854326
 30
0.0
 10
48.245672733
 20
5.6101679144
 30
0.0
 10
48.2609476072
 20
5.618363365
 30
0.0
 10
48.2767229951
 20
5.6255400529
 30
0.0
 10
48.292932633
 20
5.6316647749
 30
0.0
 10
48.3095065745
 20
5.636712177
 30
0.0
 10
48.3263736794
 20
5.6406616765
 30
0.0
 10
48.3434624744
 20
5.643493596
 30
0.0
 10
48.3606982229
 20
5.6451995312
 30
0.0
 10
48.3722402743
 20
5.6455788983
 30
0.0
 10
48.3780093938
 20
5.6455790356
 30
0.0
  0
SPLINE
  5
441
100
AcDbEntity
  8
0
100
AcDbSpline
 62
7
  6
CONTINUOUS
 70
0
 71
3
 72
22
 73
18
 74
0
 42
0.0000001
 43
0.0000001
 44
0.0000000001
 40
0.0
 40
0.0
 40
0.0
 40
0.0
 40
0.1251231256
 40
0.1877142671
 40
0.2502741568
 40
0.3128145723
 40
0.3753439957
 40
0.4378605951
 40
0.5003619734
 40
0.5628491587
 40
0.6253236289
 40
0.687787548
 40
0.750241932
 40
0.8126884438
 40
0.8751290629
 40
0.9375654169
 40
1.0
 40
1.0
 40
1.0
 40
1.0
 10
48.1489672504
 20
5.2473293718
 30
0.0
 10
48.1547319967
 20
5.2373063992
 30
0.0
 10
48.1643804955
 20
5.2228123315
 30
0.0
 10
48.1790257154
 20
5.2048981744
 30
0.0
 10
48.1908675782
 20
5.1922069528
 30
0.0
 10
48.2035087428
 20
5.1803219728
 30
0.0
 10
48.2168984609
 20
5.169292909
 30
0.0
 10
48.2309771869
 20
5.1591644099
 30
0.0
 10
48.2456868633
 20
5.1499834811
 30
0.0
 10
48.2609626756
 20
5.1417873376
 30
0.0
 10
48.276739857
 20
5.1346116828
 30
0.0
 10
48.2929511203
 20
5.1284881488
 30
0.0
 10
48.3095262466
 20
5.12344036
 30
0.0
 10
48.3263952286
 20
5.1194936978
 30
0.0
 10
48.3434851306
 20
5.1166613304
 30
0.0
 10
48.3607223856
 20
5.1149580468
 30
0.0
 10
48.3722652223
 20
5.1145795705
 30
0.0
 10
48.378034757
 20
5.1145797079
 30
0.0
  0
SPLINE
  5
442
100
AcDbEntity
  8
0
100
AcDbSpline
 62
7
  6
CONTINUOUS
 70
0
 71
3
 72
22
 73
18
 74
0
 42
0.0000001
 43
0.0000001
 44
0.0000000001
 40
0.0
 40
0.0
 40
0.0
 40
0.0
 40
0.0624345802
 40
0.1248709325
 40
0.1873115514
 40
0.2497580634
 40
0.3122124485
 40
0.3746763688
 40
0.4371508404
 40
0.4996380274
 40
0.5621394073
 40
0.6246560074
 40
0.68718543
 40
0.7497258446
 40
0.8122857348
 40
0.8748768766
 40
1.0
 40
1.0
 40
1.0
 40
1.0
 10
48.3806366993
 20
5.6455790356
 30
0.0
 10
48.3864059701
 20
5.6455788955
 30
0.0
 10
48.3979482602
 20
5.6451998994
 30
0.0
 10
48.4151846513
 20
5.6434959403
 30
0.0
 10
48.432273656
 20
5.64066301
 30
0.0
 10
48.4491417174
 20
5.6367158939
 30
0.0
 10
48.4657159106
 20
5.6316677628
 30
0.0
 10
48.4819262392
 20
5.6255439984
 30
0.0
 10
48.4977024935
 20
5.6183682206
 30
0.0
 10
48.5129773982
 20
5.610172063
 30
0.0
 10
48.5276861944
 20
5.6009912225
 30
0.0
 10
48.5417640787
 20
5.5908629127
 30
0.0
 10
48.5551530021
 20
5.5798341332
 30
0.0
 10
48.5677934274
 20
5.5679495265
 30
0.0
 10
48.5796346152
 20
5.555258762
 30
0.0
 10
48.5942790304
 20
5.5373453147
 30
0.0
 10
48.6039270417
 20
5.522851886
 30
0.0
 10
48.6096915244
 20
5.5128293718
 30
0.0
  0
SPLINE
  5
443
100
AcDbEntity
  8
0
100
AcDbSpline
 62
7
  6
CONTINUOUS
 70
0
 71
3
 72
23
 73
19
 74
0
 42
0.0000001
 43
0.0000001
 44
0.0000000001
 40
0.0
 40
0.0
 40
0.0
 40
0.0
 40
0.0624280805
 40
0.124858422
 40
0.1872929365
 40
0.2497335689
 40
0.3121824889
 40
0.3746410178
 40
0.4371112296
 40
0.4995940446
 40
0.5620909175
 40
0.6246026334
 40
0.6871296909
 40
0.7496727752
 40
0.8122314978
 40
0.8748061458
 40
0.9373958175
 40
1.0
 40
1.0
 40
1.0
 40
1.0
 10
48.3806366993
 20
5.1145797079
 30
0.0
 10
48.386519053
 20
5.114579565
 30
0.0
 10
48.39828782
 20
5.1149734341
 30
0.0
 10
48.4158590572
 20
5.116746042
 30
0.0
 10
48.4332745941
 20
5.1196889295
 30
0.0
 10
48.4504551935
 20
5.1237929771
 30
0.0
 10
48.467325317
 20
5.1290365833
 30
0.0
 10
48.4838093916
 20
5.1353983012
 30
0.0
 10
48.4998338841
 20
5.1428496482
 30
0.0
 10
48.5153283807
 20
5.1513559104
 30
0.0
 10
48.5302222004
 20
5.1608820424
 30
0.0
 10
48.5444512644
 20
5.1713822226
 30
0.0
 10
48.5579499379
 20
5.1828129025
 30
0.0
 10
48.5706599437
 20
5.1951208483
 30
0.0
 10
48.5825239003
 20
5.2082522861
 30
0.0
 10
48.5934885608
 20
5.2221492335
 30
0.0
 10
48.603506575
 20
5.2367475949
 30
0.0
 10
48.6095229745
 20
5.2469065777
 30
0.0
 10
48.6123585699
 20
5.2520792923
 30
0.0
  0
SPLINE
  5
444
100
AcDbEntity
  8
0
100
AcDbSpline
 62
7
  6
CONTINUOUS
 70
0
 71
3
 72
13
 73
9
 74
0
 42
0.0000001
 43
0.0000001
 44
0.0000000001
 40
0.0
 40
0.0
 40
0.0
 40
0.0
 40
0.2473154933
 40
0.3732415121
 40
0.5
 40
0.6267584879
 40
0.7526845067
 40
1.0
 40
1.0
 40
1.0
 40
1.0
 10
48.173617986
 20
5.2539283379
 30
0.0
 10
48.1741411772
 20
5.2747235377
 30
0.0
 10
48.1747840117
 20
5.3061112739
 30
0.0
 10
48.1752401272
 20
5.3481642309
 30
0.0
 10
48.1753583471
 20
5.3800793718
 30
0.0
 10
48.1752401272
 20
5.4119945126
 30
0.0
 10
48.1747840117
 20
5.4540474696
 30
0.0
 10
48.1741411772
 20
5.4854352059
 30
0.0
 10
48.173617986
 20
5.5062304056
 30
0.0
  0
SPLINE
  5
445
100
AcDbEntity
  8
0
100
AcDbSpline
 62
7
  6
CONTINUOUS
 70
0
 71
3
 72
38
 73
34
 74
0
 42
0.0000001
 43
0.0000001
 44
0.0000000001
 40
0.0
 40
0.0
 40
0.0
 40
0.0
 40
0.062512389
 40
0.0938030368
 40
0.1250905326
 40
0.1563799754
 40
0.1876746356
 40
0.2189724262
 40
0.2502708369
 40
0.2815689092
 40
0.3128658032
 40
0.3441609324
 40
0.3754530722
 40
0.4067412929
 40
0.4380248231
 40
0.4693027407
 40
0.5005746197
 40
0.5318396548
 40
0.563097559
 40
0.5943479476
 40
0.6255905452
 40
0.6568254648
 40
0.6880525327
 40
0.7192721829
 40
0.7504845746
 40
0.7816902095
 40
0.8128897225
 40
0.8440836064
 40
0.8752728686
 40
0.9064581228
 40
0.9376404549
 40
0.9688207692
 40
1.0
 40
1.0
 40
1.0
 40
1.0
 10
48.1515818742
 20
5.2473293718
 30
0.0
 10
48.1458149106
 20
5.2573561994
 30
0.0
 10
48.1381343093
 20
5.2729938456
 30
0.0
 10
48.1300041097
 20
5.2946768304
 30
0.0
 10
48.1249762729
 20
5.3113160098
 30
0.0
 10
48.1210435384
 20
5.3282468415
 30
0.0
 10
48.1182233759
 20
5.3454003782
 30
0.0
 10
48.1165245178
 20
5.3627025646
 30
0.0
 10
48.1159584798
 20
5.3800794278
 30
0.0
 10
48.1165249561
 20
5.3974560505
 30
0.0
 10
48.1182223585
 20
5.4147582942
 30
0.0
 10
48.1210443397
 20
5.4319118761
 30
0.0
 10
48.1249761622
 20
5.4488439508
 30
0.0
 10
48.1300047663
 20
5.4654810504
 30
0.0
 10
48.1361049123
 20
5.4817529841
 30
0.0
 10
48.1432531249
 20
5.4975892577
 30
0.0
 10
48.151417786
 20
5.5129222981
 30
0.0
 10
48.1605631495
 20
5.5276871062
 30
0.0
 10
48.1706523661
 20
5.5418188476
 30
0.0
 10
48.1816391652
 20
5.5552592644
 30
0.0
 10
48.1934794919
 20
5.5679484296
 30
0.0
 10
48.2061204949
 20
5.5798338021
 30
0.0
 10
48.2195088956
 20
5.5908638879
 30
0.0
 10
48.233587858
 20
5.6009905272
 30
0.0
 10
48.2482955952
 20
5.6101726994
 30
0.0
 10
48.2635711194
 20
5.6183677745
 30
0.0
 10
48.2793471416
 20
5.6255440229
 30
0.0
 10
48.2955573939
 20
5.6316682376
 30
0.0
 10
48.3121319219
 20
5.6367150714
 30
0.0
 10
48.3289995817
 20
5.6406639371
 30
0.0
 10
48.3460888929
 20
5.6434951638
 30
0.0
 10
48.3633251141
 20
5.645200348
 30
0.0
 10
48.3748674478
 20
5.6455791758
 30
0.0
 10
48.3806366993
 20
5.6455790356
 30
0.0
  0
SPLINE
  5
446
100
AcDbEntity
  8
0
100
AcDbSpline
 62
7
  6
CONTINUOUS
 70
0
 71
3
 72
22
 73
18
 74
0
 42
0.0000001
 43
0.0000001
 44
0.0000000001
 40
0.0
 40
0.0
 40
0.0
 40
0.0
 40
0.1251231234
 40
0.1877142652
 40
0.2502741554
 40
0.31281457
 40
0.3753439926
 40
0.4378605927
 40
0.5003619726
 40
0.5628491596
 40
0.6253236312
 40
0.6877875515
 40
0.7502419366
 40
0.8126884486
 40
0.8751290675
 40
0.9375654198
 40
1.0
 40
1.0
 40
1.0
 40
1.0
 10
48.1515818742
 20
5.2473293718
 30
0.0
 10
48.1573463569
 20
5.2373068575
 30
0.0
 10
48.1669943682
 20
5.2228134289
 30
0.0
 10
48.1816387834
 20
5.2048999815
 30
0.0
 10
48.1934799712
 20
5.192209217
 30
0.0
 10
48.2061203965
 20
5.1803246103
 30
0.0
 10
48.2195093199
 20
5.1692958308
 30
0.0
 10
48.2335872042
 20
5.159167521
 30
0.0
 10
48.2482960004
 20
5.1499866805
 30
0.0
 10
48.2635709051
 20
5.1417905229
 30
0.0
 10
48.2793471594
 20
5.1346147452
 30
0.0
 10
48.295557488
 20
5.1284909807
 30
0.0
 10
48.3121316812
 20
5.1234428496
 30
0.0
 10
48.3289997426
 20
5.1194957336
 30
0.0
 10
48.3460887473
 20
5.1166628032
 30
0.0
 10
48.3633251384
 20
5.1149588441
 30
0.0
 10
48.3748674285
 20
5.114579848
 30
0.0
 10
48.3806366993
 20
5.1145797079
 30
0.0
  0
SPLINE
  5
447
100
AcDbEntity
  8
0
100
AcDbSpline
 62
7
  6
CONTINUOUS
 70
0
 71
3
 72
13
 73
9
 74
0
 42
0.0000001
 43
0.0000001
 44
0.0000000001
 40
0.0
 40
0.0
 40
0.0
 40
0.0
 40
0.2515721043
 40
0.3786772753
 40
0.5058489261
 40
0.6322146208
 40
0.7569721283
 40
1.0
 40
1.0
 40
1.0
 40
1.0
 10
48.173617986
 20
5.5062304056
 30
0.0
 10
48.1920012011
 20
5.5165826059
 30
0.0
 10
48.2196376857
 20
5.5322271218
 30
0.0
 10
48.2564559009
 20
5.5532998762
 30
0.0
 10
48.2841045899
 20
5.5692548984
 30
0.0
 10
48.3115234953
 20
5.5852137672
 30
0.0
 10
48.3472635955
 20
5.6061903205
 30
0.0
 10
48.3737865178
 20
5.6219345372
 30
0.0
 10
48.3912865584
 20
5.6323814394
 30
0.0
  0
SPLINE
  5
448
100
AcDbEntity
  8
0
100
AcDbSpline
 62
7
  6
CONTINUOUS
 70
0
 71
3
 72
47
 73
43
 74
0
 42
0.0000001
 43
0.0000001
 44
0.0000000001
 40
0.0
 40
0.0
 40
0.0
 40
0.0
 40
0.0312670784
 40
0.0469087572
 40
0.0625447422
 40
0.093792587
 40
0.1250300887
 40
0.1406498431
 40
0.1562666719
 40
0.187482807
 40
0.2186897021
 40
0.234294914
 40
0.2498983853
 40
0.2810917911
 40
0.3122813953
 40
0.327880226
 40
0.3434789273
 40
0.3746678189
 40
0.4058596836
 40
0.4370567058
 40
0.4682609193
 40
0.4994738589
 40
0.5306969184
 40
0.5619311076
 40
0.5931768056
 40
0.6244341662
 40
0.655702857
 40
0.6713458381
 40
0.6869913345
 40
0.7182796914
 40
0.7495757788
 40
0.7652307854
 40
0.7808870313
 40
0.8121926258
 40
0.8434997058
 40
0.8591579575
 40
0.874815919
 40
0.9061188237
 40
0.937415259
 40
0.9530686138
 40
0.9687228166
 40
1.0
 40
1.0
 40
1.0
 40
1.0
 10
48.2049374373
 20
5.4890793718
 30
0.0
 10
48.2084882746
 20
5.4952530944
 30
0.0
 10
48.2142756607
 20
5.5042616785
 30
0.0
 10
48.2228362107
 20
5.5156544113
 30
0.0
 10
48.2319438823
 20
5.5266105323
 30
0.0
 10
48.2443148992
 20
5.5394433567
 30
0.0
 10
48.2578830449
 20
5.5509976867
 30
0.0
 10
48.2693703088
 20
5.5594053602
 30
0.0
 10
48.2812533087
 20
5.5672349262
 30
0.0
 10
48.2968030729
 20
5.5759109964
 30
0.0
 10
48.3131285058
 20
5.5830142684
 30
0.0
 10
48.3265522147
 20
5.5877122928
 30
0.0
 10
48.3401881792
 20
5.5917422436
 30
0.0
 10
48.357578283
 20
5.5955136433
 30
0.0
 10
48.3752542345
 20
5.5975537652
 30
0.0
 10
48.3894578532
 20
5.5981377716
 30
0.0
 10
48.4036727264
 20
5.5980208619
 30
0.0
 10
48.4214062735
 20
5.5965618347
 30
0.0
 10
48.4424075927
 20
5.5927250446
 30
0.0
 10
48.4629343122
 20
5.5868411957
 30
0.0
 10
48.4827872043
 20
5.5789656761
 30
0.0
 10
48.5017751883
 20
5.5691743249
 30
0.0
 10
48.519715994
 20
5.5575626106
 30
0.0
 10
48.5364361693
 20
5.5442413221
 30
0.0
 10
48.5517748173
 20
5.5293387047
 30
0.0
 10
48.5655846338
 20
5.5130002618
 30
0.0
 10
48.575708388
 20
5.4983153466
 30
0.0
 10
48.5829158778
 20
5.4860176108
 30
0.0
 10
48.5895140962
 20
5.4733773369
 30
0.0
 10
48.5965917958
 20
5.4569910151
 30
0.0
 10
48.6020327197
 20
5.4399887031
 30
0.0
 10
48.6053738919
 20
5.4261197843
 30
0.0
 10
48.6080324979
 20
5.4121017995
 30
0.0
 10
48.6100669621
 20
5.3943597115
 30
0.0
 10
48.6103570215
 20
5.3765032533
 30
0.0
 10
48.6095437301
 20
5.3622571084
 30
0.0
 10
48.6080340747
 20
5.3480688173
 30
0.0
 10
48.6048508155
 20
5.3304991414
 30
0.0
 10
48.5999649769
 20
5.313326051
 30
0.0
 10
48.5950660393
 20
5.299928435
 30
0.0
 10
48.589518463
 20
5.2867921884
 30
0.0
 10
48.5846397187
 20
5.2772550896
 30
0.0
 10
48.5810877339
 20
5.2710793718
 30
0.0
  0
SPLINE
  5
449
100
AcDbEntity
  8
0
100
AcDbSpline
 62
7
  6
CONTINUOUS
 70
0
 71
3
 72
13
 73
9
 74
0
 42
0.0000001
 43
0.0000001
 44
0.0000000001
 40
0.0
 40
0.0
 40
0.0
 40
0.0
 40
0.2430278717
 40
0.3677853792
 40
0.4941510739
 40
0.6213227247
 40
0.7484278957
 40
1.0
 40
1.0
 40
1.0
 40
1.0
 10
48.3912865584
 20
5.1277773041
 30
0.0
 10
48.3737865178
 20
5.1382242063
 30
0.0
 10
48.3472635955
 20
5.153968423
 30
0.0
 10
48.3115234953
 20
5.1749449763
 30
0.0
 10
48.2841045899
 20
5.1909038451
 30
0.0
 10
48.2564559009
 20
5.2068588674
 30
0.0
 10
48.2196376857
 20
5.2279316217
 30
0.0
 10
48.1920012011
 20
5.2435761377
 30
0.0
 10
48.173617986
 20
5.2539283379
 30
0.0
  0
SPLINE
  5
44A
100
AcDbEntity
  8
0
100
AcDbSpline
 62
7
  6
CONTINUOUS
 70
0
 71
3
 72
47
 73
43
 74
0
 42
0.0000001
 43
0.0000001
 44
0.0000000001
 40
0.0
 40
0.0
 40
0.0
 40
0.0
 40
0.0312670784
 40
0.0469087572
 40
0.0625447422
 40
0.093792587
 40
0.1250300887
 40
0.1406498431
 40
0.1562666719
 40
0.187482807
 40
0.2186897021
 40
0.234294914
 40
0.2498983853
 40
0.2810917911
 40
0.3122813953
 40
0.327880226
 40
0.3434789273
 40
0.3746678189
 40
0.4058596836
 40
0.4370567058
 40
0.4682609193
 40
0.4994738589
 40
0.5306969184
 40
0.5619311076
 40
0.5931768056
 40
0.6244341662
 40
0.655702857
 40
0.6713458381
 40
0.6869913345
 40
0.7182796914
 40
0.7495757788
 40
0.7652307854
 40
0.7808870313
 40
0.8121926258
 40
0.8434997058
 40
0.8591579575
 40
0.874815919
 40
0.9061188237
 40
0.937415259
 40
0.9530686138
 40
0.9687228166
 40
1.0
 40
1.0
 40
1.0
 40
1.0
 10
48.5810877339
 20
5.2710793718
 30
0.0
 10
48.5775368966
 20
5.2649056491
 30
0.0
 10
48.5717495105
 20
5.255897065
 30
0.0
 10
48.5631889605
 20
5.2445043322
 30
0.0
 10
48.554081289
 20
5.2335482113
 30
0.0
 10
48.541710272
 20
5.2207153869
 30
0.0
 10
48.5281421263
 20
5.2091610568
 30
0.0
 10
48.5166548624
 20
5.2007533833
 30
0.0
 10
48.5047718625
 20
5.1929238174
 30
0.0
 10
48.4892220984
 20
5.1842477471
 30
0.0
 10
48.4728966654
 20
5.1771444751
 30
0.0
 10
48.4594729565
 20
5.1724464507
 30
0.0
 10
48.445836992
 20
5.1684165
 30
0.0
 10
48.4284468882
 20
5.1646451002
 30
0.0
 10
48.4107709367
 20
5.1626049784
 30
0.0
 10
48.396567318
 20
5.1620209719
 30
0.0
 10
48.3823524448
 20
5.1621378816
 30
0.0
 10
48.3646188977
 20
5.1635969088
 30
0.0
 10
48.3436175785
 20
5.167433699
 30
0.0
 10
48.323090859
 20
5.1733175478
 30
0.0
 10
48.3032379669
 20
5.1811930675
 30
0.0
 10
48.2842499829
 20
5.1909844186
 30
0.0
 10
48.2663091773
 20
5.2025961329
 30
0.0
 10
48.2495890019
 20
5.2159174214
 30
0.0
 10
48.2342503539
 20
5.2308200388
 30
0.0
 10
48.2204405374
 20
5.2471584817
 30
0.0
 10
48.2103167832
 20
5.2618433969
 30
0.0
 10
48.2031092934
 20
5.2741411327
 30
0.0
 10
48.196511075
 20
5.2867814066
 30
0.0
 10
48.1894333754
 20
5.3031677284
 30
0.0
 10
48.1839924515
 20
5.3201700405
 30
0.0
 10
48.1806512793
 20
5.3340389593
 30
0.0
 10
48.1779926733
 20
5.348056944
 30
0.0
 10
48.1759582091
 20
5.3657990321
 30
0.0
 10
48.1756681497
 20
5.3836554902
 30
0.0
 10
48.1764814411
 20
5.3979016351
 30
0.0
 10
48.1779910965
 20
5.4120899262
 30
0.0
 10
48.1811743557
 20
5.4296596021
 30
0.0
 10
48.1860601943
 20
5.4468326925
 30
0.0
 10
48.1909591319
 20
5.4602303086
 30
0.0
 10
48.1965067082
 20
5.4733665552
 30
0.0
 10
48.2013854525
 20
5.4829036539
 30
0.0
 10
48.2049374373
 20
5.4890793718
 30
0.0
  0
SPLINE
  5
44B
100
AcDbEntity
  8
0
100
AcDbSpline
 62
7
  6
CONTINUOUS
 70
0
 71
3
 72
24
 73
20
 74
0
 42
0.0000001
 43
0.0000001
 44
0.0000000001
 40
0.0
 40
0.0
 40
0.0
 40
0.0
 40
0.1896348566
 40
0.3644455398
 40
0.4455750699
 40
0.5222010633
 40
0.5940983048
 40
0.661050759
 40
0.7228526023
 40
0.7793336974
 40
0.8303378655
 40
0.8757327934
 40
0.9154253341
 40
0.9331117309
 40
0.9493514416
 40
0.9641478999
 40
0.9775095524
 40
0.9894516696
 40
1.0
 40
1.0
 40
1.0
 40
1.0
 10
57.5762102041
 20
5.4890793718
 30
0.0
 10
57.5758679918
 20
5.4958803031
 30
0.0
 10
57.5751289986
 20
5.5089466221
 30
0.0
 10
57.5739897974
 20
5.5249068056
 30
0.0
 10
57.5729766026
 20
5.5368059239
 30
0.0
 10
57.5721947983
 20
5.5450154632
 30
0.0
 10
57.5713747037
 20
5.55270951
 30
0.0
 10
57.5705191205
 20
5.5598638905
 30
0.0
 10
57.5696305972
 20
5.5664561297
 30
0.0
 10
57.5687124225
 20
5.5724656322
 30
0.0
 10
57.5677678123
 20
5.5778740198
 30
0.0
 10
57.5667997632
 20
5.5826646853
 30
0.0
 10
57.5659476262
 20
5.5862565665
 30
0.0
 10
57.5652472034
 20
5.5888059027
 30
0.0
 10
57.5647382076
 20
5.5904800539
 30
0.0
 10
57.5642256862
 20
5.5919900282
 30
0.0
 10
57.5637100371
 20
5.5933349799
 30
0.0
 10
57.5631917466
 20
5.594514025
 30
0.0
 10
57.5628221532
 20
5.5952329981
 30
0.0
 10
57.5626349474
 20
5.5955622786
 30
0.0
  0
SPLINE
  5
44C
100
AcDbEntity
  8
0
100
AcDbSpline
 62
7
  6
CONTINUOUS
 70
0
 71
3
 72
9
 73
5
 74
0
 42
0.0000001
 43
0.0000001
 44
0.0000000001
 40
0.0
 40
0.0
 40
0.0
 40
0.0
 40
0.5066195038
 40
1.0
 40
1.0
 40
1.0
 40
1.0
 10
57.5400271184
 20
5.1277773041
 30
0.0
 10
57.542442575
 20
5.1311038811
 30
0.0
 10
57.5470652286
 20
5.1377772934
 30
0.0
 10
57.5513173946
 20
5.1446954241
 30
0.0
 10
57.5532987387
 20
5.1481743707
 30
0.0
  0
SPLINE
  5
44D
100
AcDbEntity
  8
0
100
AcDbSpline
 62
7
  6
CONTINUOUS
 70
0
 71
3
 72
34
 73
30
 74
0
 42
0.0000001
 43
0.0000001
 44
0.0000000001
 40
0.0
 40
0.0
 40
0.0
 40
0.0
 40
0.0038050564
 40
0.0081536181
 40
0.0130559092
 40
0.0185176785
 40
0.0245418428
 40
0.0311288065
 40
0.038276026
 40
0.0459797716
 40
0.0630382912
 40
0.0822601711
 40
0.1035828517
 40
0.1269377115
 40
0.1522439707
 40
0.1794125408
 40
0.2083488975
 40
0.2389475346
 40
0.2711001273
 40
0.3046897236
 40
0.37568804
 40
0.450911729
 40
0.5292654213
 40
0.6096061149
 40
0.6907603129
 40
0.771544276
 40
0.8507720382
 40
0.9273038776
 40
1.0
 40
1.0
 40
1.0
 40
1.0
 10
57.5626349474
 20
5.1645964651
 30
0.0
 10
57.5628391848
 20
5.1649557036
 30
0.0
 10
57.5632415813
 20
5.1657456351
 30
0.0
 10
57.5638029737
 20
5.167048357
 30
0.0
 10
57.564361252
 20
5.1685460715
 30
0.0
 10
57.564915796
 20
5.1702376626
 30
0.0
 10
57.5654660067
 20
5.1721220256
 30
0.0
 10
57.5660112463
 20
5.1741976247
 30
0.0
 10
57.5665510815
 20
5.1764625614
 30
0.0
 10
57.5672881587
 20
5.1798488945
 30
0.0
 10
57.568182012
 20
5.1845421232
 30
0.0
 10
57.5691925973
 20
5.1907162864
 30
0.0
 10
57.5701703502
 20
5.1975871113
 30
0.0
 10
57.5711110142
 20
5.2051293839
 30
0.0
 10
57.5720109869
 20
5.2133155836
 30
0.0
 10
57.5728667948
 20
5.2221157044
 30
0.0
 10
57.5736749069
 20
5.2314973308
 30
0.0
 10
57.5744325383
 20
5.2414260821
 30
0.0
 10
57.5751365536
 20
5.2518653223
 30
0.0
 10
57.5760166681
 20
5.2666896717
 30
0.0
 10
57.5769545259
 20
5.2861957703
 30
0.0
 10
57.5778127518
 20
5.3105706563
 30
0.0
 10
57.5784098631
 20
5.3359682048
 30
0.0
 10
57.5787367473
 20
5.3620147368
 30
0.0
 10
57.5787883674
 20
5.3883271926
 30
0.0
 10
57.5785638705
 20
5.4145178706
 30
0.0
 10
57.5780669211
 20
5.4402027505
 30
0.0
 10
57.5773048138
 20
5.4650023718
 30
0.0
 10
57.5766069644
 20
5.4811943883
 30
0.0
 10
57.5762102041
 20
5.4890793718
 30
0.0
  0
SPLINE
  5
44E
100
AcDbEntity
  8
0
100
AcDbSpline
 62
7
  6
CONTINUOUS
 70
0
 71
3
 72
9
 73
5
 74
0
 42
0.0000001
 43
0.0000001
 44
0.0000000001
 40
0.0
 40
0.0
 40
0.0
 40
0.0
 40
0.4933804962
 40
1.0
 40
1.0
 40
1.0
 40
1.0
 10
57.5532987387
 20
5.6119843728
 30
0.0
 10
57.5513173946
 20
5.6154633194
 30
0.0
 10
57.5470652286
 20
5.6223814501
 30
0.0
 10
57.542442575
 20
5.6290548624
 30
0.0
 10
57.5400271184
 20
5.6323814394
 30
0.0
  0
SPLINE
  5
44F
100
AcDbEntity
  8
0
100
AcDbSpline
 62
7
  6
CONTINUOUS
 70
0
 71
3
 72
20
 73
16
 74
0
 42
0.0000001
 43
0.0000001
 44
0.0000000001
 40
0.0
 40
0.0
 40
0.0
 40
0.0
 40
0.2020065414
 40
0.3802232924
 40
0.5348214024
 40
0.6034151897
 40
0.6663281764
 40
0.7237010459
 40
0.7757253342
 40
0.8226646511
 40
0.8648852788
 40
0.902898317
 40
0.9374121187
 40
0.9693809691
 40
1.0
 40
1.0
 40
1.0
 40
1.0
 10
57.4251143116
 20
5.6337925601
 30
0.0
 10
57.4248541076
 20
5.634713071
 30
0.0
 10
57.4243363564
 20
5.6364380945
 30
0.0
 10
57.4235039526
 20
5.6388308723
 30
0.0
 10
57.4227793618
 20
5.6405899252
 30
0.0
 10
57.4221895385
 20
5.6418100372
 30
0.0
 10
57.4217636828
 20
5.6425969898
 30
0.0
 10
57.4213366456
 20
5.64329284
 30
0.0
 10
57.4209084137
 20
5.6438975201
 30
0.0
 10
57.4204788964
 20
5.6444110024
 30
0.0
 10
57.420047781
 20
5.644833217
 30
0.0
 10
57.4196145142
 20
5.6451639038
 30
0.0
 10
57.4191781913
 20
5.6454022207
 30
0.0
 10
57.4187386735
 20
5.6455465902
 30
0.0
 10
57.4184413938
 20
5.6455790759
 30
0.0
 10
57.4182964006
 20
5.6455790356
 30
0.0
  0
SPLINE
  5
450
100
AcDbEntity
  8
0
100
AcDbSpline
 62
7
  6
CONTINUOUS
 70
0
 71
3
 72
28
 73
24
 74
0
 42
0.0000001
 43
0.0000001
 44
0.0000000001
 40
0.0
 40
0.0
 40
0.0
 40
0.0
 40
0.0678455031
 40
0.1390463981
 40
0.2127060149
 40
0.2879646453
 40
0.3639128537
 40
0.4396362921
 40
0.5142265389
 40
0.5867864663
 40
0.6564458884
 40
0.7223705187
 40
0.7837712914
 40
0.8125456163
 40
0.8399193279
 40
0.8658139384
 40
0.890152581
 40
0.9128640079
 40
0.9338857806
 40
0.9531575261
 40
0.9706275262
 40
0.9862540354
 40
1.0
 40
1.0
 40
1.0
 40
1.0
 10
57.4383357272
 20
5.2473293718
 30
0.0
 10
57.4387728197
 20
5.2560158952
 30
0.0
 10
57.4395523695
 20
5.2738245291
 30
0.0
 10
57.440436367
 20
5.3010787255
 30
0.0
 10
57.4410557587
 20
5.3292907885
 30
0.0
 10
57.4414030847
 20
5.3581160991
 30
0.0
 10
57.4414738921
 20
5.3872079819
 30
0.0
 10
57.4412673572
 20
5.4162135336
 30
0.0
 10
57.4407860478
 20
5.4447814248
 30
0.0
 10
57.4400359062
 20
5.4725658984
 30
0.0
 10
57.4390265684
 20
5.4992305821
 30
0.0
 10
57.4377707318
 20
5.5244526078
 30
0.0
 10
57.4365064471
 20
5.544424779
 30
0.0
 10
57.4353721828
 20
5.5594514619
 30
0.0
 10
57.4344885199
 20
5.5699319548
 30
0.0
 10
57.4335565437
 20
5.579837273
 30
0.0
 10
57.4325790203
 20
5.5891374591
 30
0.0
 10
57.4315588798
 20
5.597804413
 30
0.0
 10
57.4304997572
 20
5.6058119732
 30
0.0
 10
57.4294048687
 20
5.6131360384
 30
0.0
 10
57.4282777923
 20
5.6197547434
 30
0.0
 10
57.4271228166
 20
5.625648306
 30
0.0
 10
57.4262826861
 20
5.6293198684
 30
0.0
 10
57.425851556
 20
5.6310284909
 30
0.0
  0
SPLINE
  5
451
100
AcDbEntity
  8
0
100
AcDbSpline
 62
7
  6
CONTINUOUS
 70
0
 71
3
 72
15
 73
11
 74
0
 42
0.0000001
 43
0.0000001
 44
0.0000000001
 40
0.0
 40
0.0
 40
0.0
 40
0.0
 40
0.1490698013
 40
0.2923501365
 40
0.4291996026
 40
0.5590666057
 40
0.6815024651
 40
0.7960713691
 40
0.9023676538
 40
1.0
 40
1.0
 40
1.0
 40
1.0
 10
57.4383357272
 20
5.2473293718
 30
0.0
 10
57.4381027543
 20
5.2426994022
 30
0.0
 10
57.4376140216
 20
5.2336208394
 30
0.0
 10
57.4367945901
 20
5.2202984742
 30
0.0
 10
57.4359055996
 20
5.2075791081
 30
0.0
 10
57.4349505178
 20
5.1955146619
 30
0.0
 10
57.4339334531
 20
5.184150749
 30
0.0
 10
57.4328579718
 20
5.1735286702
 30
0.0
 10
57.4317286669
 20
5.1636881974
 30
0.0
 10
57.4309071267
 20
5.1573994041
 30
0.0
 10
57.4304842106
 20
5.1543927961
 30
0.0
  0
SPLINE
  5
452
100
AcDbEntity
  8
0
100
AcDbSpline
 62
7
  6
CONTINUOUS
 70
0
 71
3
 72
21
 73
17
 74
0
 42
0.0000001
 43
0.0000001
 44
0.0000000001
 40
0.0
 40
0.0
 40
0.0
 40
0.0
 40
0.1249717233
 40
0.1874684367
 40
0.2499692886
 40
0.3124732591
 40
0.3749805625
 40
0.4374896612
 40
0.5
 40
0.5625103388
 40
0.6250194375
 40
0.6875267409
 40
0.7500307114
 40
0.8125315633
 40
0.8750282767
 40
1.0
 40
1.0
 40
1.0
 40
1.0
 10
57.5590702956
 20
5.2539283379
 30
0.0
 10
57.5620190017
 20
5.2641819723
 30
0.0
 10
57.5660708366
 20
5.2796761829
 30
0.0
 10
57.5705354394
 20
5.3005474665
 30
0.0
 10
57.5733651753
 20
5.3163062904
 30
0.0
 10
57.5756280071
 20
5.3321577091
 30
0.0
 10
57.5772799356
 20
5.3480856318
 30
0.0
 10
57.5782858859
 20
5.3640682414
 30
0.0
 10
57.5786245606
 20
5.3800793718
 30
0.0
 10
57.5782858859
 20
5.3960905021
 30
0.0
 10
57.5772799356
 20
5.4120731117
 30
0.0
 10
57.5756280071
 20
5.4280010344
 30
0.0
 10
57.5733651753
 20
5.4438524531
 30
0.0
 10
57.5705354394
 20
5.459611277
 30
0.0
 10
57.5660708366
 20
5.4804825606
 30
0.0
 10
57.5620190017
 20
5.4959767712
 30
0.0
 10
57.5590702956
 20
5.5062304056
 30
0.0
  0
SPLINE
  5
453
100
AcDbEntity
  8
0
100
AcDbSpline
 62
7
  6
CONTINUOUS
 70
0
 71
3
 72
9
 73
5
 74
0
 42
0.0000001
 43
0.0000001
 44
0.0000000001
 40
0.0
 40
0.0
 40
0.0
 40
0.0
 40
0.2545918989
 40
1.0
 40
1.0
 40
1.0
 40
1.0
 10
57.5532987387
 20
5.1481743707
 30
0.0
 10
57.5540904955
 20
5.1495645782
 30
0.0
 10
57.5571269286
 20
5.1550661755
 30
0.0
 10
57.5598499652
 20
5.1607442893
 30
0.0
 10
57.5616459935
 20
5.1650704477
 30
0.0
  0
LINE
  5
454
100
AcDbEntity
  8
0
100
AcDbLine
 62
7
  6
CONTINUOUS
 10
57.5616459935
 20
5.1650704477
 11
57.561789081
 21
5.1654165126
  0
SPLINE
  5
455
100
AcDbEntity
  8
0
100
AcDbSpline
 62
7
  6
CONTINUOUS
 70
0
 71
3
 72
19
 73
15
 74
0
 42
0.0000001
 43
0.0000001
 44
0.0000000001
 40
0.0
 40
0.0
 40
0.0
 40
0.0
 40
0.1296331746
 40
0.1931206136
 40
0.2558526181
 40
0.3179625945
 40
0.3796012857
 40
0.4409268894
 40
0.5020962281
 40
0.5632602961
 40
0.6245528286
 40
0.7479349191
 40
0.8729649692
 40
1.0
 40
1.0
 40
1.0
 40
1.0
 10
57.561789081
 20
5.1654165126
 30
0.0
 10
57.5632893153
 20
5.1690597752
 30
0.0
 10
57.5652794637
 20
5.174595404
 30
0.0
 10
57.5673207429
 20
5.1821020747
 30
0.0
 10
57.5685172569
 20
5.187702935
 30
0.0
 10
57.5693839321
 20
5.1933073084
 30
0.0
 10
57.5699192314
 20
5.1989101124
 30
0.0
 10
57.5701272971
 20
5.2045059349
 30
0.0
 10
57.5700124151
 20
5.2100898602
 30
0.0
 10
57.5695863696
 20
5.2156575733
 30
0.0
 10
57.5686160393
 20
5.2230693379
 30
0.0
 10
57.5666806819
 20
5.2322977616
 30
0.0
 10
57.5633537775
 20
5.2432256042
 30
0.0
 10
57.5605781103
 20
5.2503738309
 30
0.0
 10
57.5590702956
 20
5.2539283379
 30
0.0
  0
SPLINE
  5
456
100
AcDbEntity
  8
0
100
AcDbSpline
 62
7
  6
CONTINUOUS
 70
0
 71
3
 72
14
 73
10
 74
0
 42
0.0000001
 43
0.0000001
 44
0.0000000001
 40
0.0
 40
0.0
 40
0.0
 40
0.0
 40
0.2479351964
 40
0.3719122344
 40
0.4961186958
 40
0.6207839825
 40
0.7461604627
 40
0.8724959321
 40
1.0
 40
1.0
 40
1.0
 40
1.0
 10
57.4408624966
 20
5.5062304056
 30
0.0
 10
57.4416710447
 20
5.5132021968
 30
0.0
 10
57.442541545
 20
5.5237073165
 30
0.0
 10
57.442823379
 20
5.5377522306
 30
0.0
 10
57.4425520145
 20
5.5483074392
 30
0.0
 10
57.4417625767
 20
5.5588765108
 30
0.0
 10
57.440432932
 20
5.5694523596
 30
0.0
 10
57.4385548463
 20
5.5800259644
 30
0.0
 10
57.4369530473
 20
5.587034073
 30
0.0
 10
57.4360684152
 20
5.5905333554
 30
0.0
  0
SPLINE
  5
457
100
AcDbEntity
  8
0
100
AcDbSpline
 62
7
  6
CONTINUOUS
 70
0
 71
3
 72
19
 73
15
 74
0
 42
0.0000001
 43
0.0000001
 44
0.0000000001
 40
0.0
 40
0.0
 40
0.0
 40
0.0
 40
0.1270350308
 40
0.2520650809
 40
0.3754471714
 40
0.4367397039
 40
0.4979037719
 40
0.5590731106
 40
0.6203987143
 40
0.6820374055
 40
0.7441473819
 40
0.8068793864
 40
0.8703668254
 40
1.0
 40
1.0
 40
1.0
 40
1.0
 10
57.5590702956
 20
5.5062304056
 30
0.0
 10
57.5605781103
 20
5.5097849127
 30
0.0
 10
57.5633537775
 20
5.5169331393
 30
0.0
 10
57.5666806819
 20
5.5278609819
 30
0.0
 10
57.5686160393
 20
5.5370894056
 30
0.0
 10
57.5695863696
 20
5.5445011703
 30
0.0
 10
57.5700124151
 20
5.5500688834
 30
0.0
 10
57.5701272971
 20
5.5556528087
 30
0.0
 10
57.5699192314
 20
5.5612486311
 30
0.0
 10
57.5693839321
 20
5.5668514351
 30
0.0
 10
57.5685172569
 20
5.5724558085
 30
0.0
 10
57.5673207429
 20
5.5780566688
 30
0.0
 10
57.5652794637
 20
5.5855633395
 30
0.0
 10
57.5632893153
 20
5.5910989684
 30
0.0
 10
57.561789081
 20
5.5947422309
 30
0.0
  0
LINE
  5
458
100
AcDbEntity
  8
0
100
AcDbLine
 62
7
  6
CONTINUOUS
 10
57.561789081
 20
5.5947422309
 11
57.5616459935
 21
5.5950882958
  0
SPLINE
  5
459
100
AcDbEntity
  8
0
100
AcDbSpline
 62
7
  6
CONTINUOUS
 70
0
 71
3
 72
9
 73
5
 74
0
 42
0.0000001
 43
0.0000001
 44
0.0000000001
 40
0.0
 40
0.0
 40
0.0
 40
0.0
 40
0.2455498839
 40
1.0
 40
1.0
 40
1.0
 40
1.0
 10
57.5616459935
 20
5.5950882958
 30
0.0
 10
57.5610543346
 20
5.5965134461
 30
0.0
 10
57.5585418557
 20
5.6022744947
 30
0.0
 10
57.5556450755
 20
5.6078645533
 30
0.0
 10
57.5532987387
 20
5.6119843728
 30
0.0
  0
SPLINE
  5
45A
100
AcDbEntity
  8
0
100
AcDbSpline
 62
7
  6
CONTINUOUS
 70
0
 71
3
 72
15
 73
11
 74
0
 42
0.0000001
 43
0.0000001
 44
0.0000000001
 40
0.0
 40
0.0
 40
0.0
 40
0.0
 40
0.1249964676
 40
0.2499956901
 40
0.3749971619
 40
0.4999999975
 40
0.6250028276
 40
0.7500042897
 40
0.8750035086
 40
1.0
 40
1.0
 40
1.0
 40
1.0
 10
57.4408624966
 20
5.2539283379
 30
0.0
 10
57.4422577204
 20
5.2643822086
 30
0.0
 10
57.4447930253
 20
5.2853255945
 30
0.0
 10
57.4476718323
 20
5.3168399037
 30
0.0
 10
57.4494751625
 20
5.3484362873
 30
0.0
 10
57.4500903235
 20
5.3800793707
 30
0.0
 10
57.4494751628
 20
5.4117224533
 30
0.0
 10
57.4476718328
 20
5.4433188353
 30
0.0
 10
57.4447930266
 20
5.4748331454
 30
0.0
 10
57.4422577207
 20
5.4957765329
 30
0.0
 10
57.4408624966
 20
5.5062304056
 30
0.0
  0
SPLINE
  5
45B
100
AcDbEntity
  8
0
100
AcDbSpline
 62
7
  6
CONTINUOUS
 70
0
 71
3
 72
14
 73
10
 74
0
 42
0.0000001
 43
0.0000001
 44
0.0000000001
 40
0.0
 40
0.0
 40
0.0
 40
0.0
 40
0.1275040503
 40
0.2538395089
 40
0.3792159868
 40
0.5038812922
 40
0.6280877791
 40
0.7520648318
 40
1.0
 40
1.0
 40
1.0
 40
1.0
 10
57.4360685049
 20
5.1696257473
 30
0.0
 10
57.4369531272
 20
5.1731250154
 30
0.0
 10
57.4385549116
 20
5.1801330943
 30
0.0
 10
57.4404329726
 20
5.1907066552
 30
0.0
 10
57.4417625955
 20
5.2012824599
 30
0.0
 10
57.4425520254
 20
5.211851487
 30
0.0
 10
57.4428233771
 20
5.2224066515
 30
0.0
 10
57.4425415401
 20
5.2364515046
 30
0.0
 10
57.4416710411
 20
5.2469565779
 30
0.0
 10
57.4408624966
 20
5.2539283379
 30
0.0
  0
SPLINE
  5
45C
100
AcDbEntity
  8
0
100
AcDbSpline
 62
7
  6
CONTINUOUS
 70
0
 71
3
 72
24
 73
20
 74
0
 42
0.0000001
 43
0.0000001
 44
0.0000000001
 40
0.0
 40
0.0
 40
0.0
 40
0.0
 40
0.1896348566
 40
0.3644455398
 40
0.4455750699
 40
0.5222010633
 40
0.5940983048
 40
0.661050759
 40
0.7228526023
 40
0.7793336974
 40
0.8303378655
 40
0.8757327934
 40
0.9154253341
 40
0.9331117309
 40
0.9493514416
 40
0.9641478999
 40
0.9775095524
 40
0.9894516696
 40
1.0
 40
1.0
 40
1.0
 40
1.0
 10
37.4520949135
 20
5.4890793718
 30
0.0
 10
37.4524371259
 20
5.4958803031
 30
0.0
 10
37.453176119
 20
5.5089466221
 30
0.0
 10
37.4543153202
 20
5.5249068056
 30
0.0
 10
37.4553285151
 20
5.5368059239
 30
0.0
 10
37.4561103193
 20
5.5450154632
 30
0.0
 10
37.4569304139
 20
5.55270951
 30
0.0
 10
37.4577859972
 20
5.5598638905
 30
0.0
 10
37.4586745205
 20
5.5664561297
 30
0.0
 10
37.4595926951
 20
5.5724656322
 30
0.0
 10
37.4605373053
 20
5.5778740198
 30
0.0
 10
37.4615053545
 20
5.5826646853
 30
0.0
 10
37.4623574914
 20
5.5862565665
 30
0.0
 10
37.4630579143
 20
5.5888059027
 30
0.0
 10
37.46356691
 20
5.5904800539
 30
0.0
 10
37.4640794315
 20
5.5919900282
 30
0.0
 10
37.4645950805
 20
5.5933349799
 30
0.0
 10
37.465113371
 20
5.594514025
 30
0.0
 10
37.4654829645
 20
5.5952329981
 30
0.0
 10
37.4656701702
 20
5.5955622786
 30
0.0
  0
SPLINE
  5
45D
100
AcDbEntity
  8
0
100
AcDbSpline
 62
7
  6
CONTINUOUS
 70
0
 71
3
 72
9
 73
5
 74
0
 42
0.0000001
 43
0.0000001
 44
0.0000000001
 40
0.0
 40
0.0
 40
0.0
 40
0.0
 40
0.5066195038
 40
1.0
 40
1.0
 40
1.0
 40
1.0
 10
37.4882779992
 20
5.1277773041
 30
0.0
 10
37.4858625426
 20
5.1311038811
 30
0.0
 10
37.4812398891
 20
5.1377772934
 30
0.0
 10
37.476987723
 20
5.1446954241
 30
0.0
 10
37.4750063789
 20
5.1481743707
 30
0.0
  0
SPLINE
  5
45E
100
AcDbEntity
  8
0
100
AcDbSpline
 62
7
  6
CONTINUOUS
 70
0
 71
3
 72
34
 73
30
 74
0
 42
0.0000001
 43
0.0000001
 44
0.0000000001
 40
0.0
 40
0.0
 40
0.0
 40
0.0
 40
0.0038050564
 40
0.0081536181
 40
0.0130559092
 40
0.0185176785
 40
0.0245418428
 40
0.0311288065
 40
0.038276026
 40
0.0459797716
 40
0.0630382912
 40
0.0822601711
 40
0.1035828517
 40
0.1269377115
 40
0.1522439707
 40
0.1794125408
 40
0.2083488975
 40
0.2389475346
 40
0.2711001273
 40
0.3046897236
 40
0.37568804
 40
0.450911729
 40
0.5292654213
 40
0.6096061149
 40
0.6907603129
 40
0.771544276
 40
0.8507720382
 40
0.9273038776
 40
1.0
 40
1.0
 40
1.0
 40
1.0
 10
37.4656701702
 20
5.1645964651
 30
0.0
 10
37.4654659328
 20
5.1649557036
 30
0.0
 10
37.4650635363
 20
5.1657456351
 30
0.0
 10
37.4645021439
 20
5.167048357
 30
0.0
 10
37.4639438656
 20
5.1685460715
 30
0.0
 10
37.4633893216
 20
5.1702376626
 30
0.0
 10
37.4628391109
 20
5.1721220256
 30
0.0
 10
37.4622938713
 20
5.1741976247
 30
0.0
 10
37.4617540361
 20
5.1764625614
 30
0.0
 10
37.461016959
 20
5.1798488945
 30
0.0
 10
37.4601231056
 20
5.1845421232
 30
0.0
 10
37.4591125203
 20
5.1907162864
 30
0.0
 10
37.4581347674
 20
5.1975871113
 30
0.0
 10
37.4571941034
 20
5.2051293839
 30
0.0
 10
37.4562941307
 20
5.2133155836
 30
0.0
 10
37.4554383229
 20
5.2221157044
 30
0.0
 10
37.4546302107
 20
5.2314973308
 30
0.0
 10
37.4538725793
 20
5.2414260821
 30
0.0
 10
37.453168564
 20
5.2518653223
 30
0.0
 10
37.4522884495
 20
5.2666896717
 30
0.0
 10
37.4513505917
 20
5.2861957703
 30
0.0
 10
37.4504923658
 20
5.3105706563
 30
0.0
 10
37.4498952545
 20
5.3359682048
 30
0.0
 10
37.4495683703
 20
5.3620147368
 30
0.0
 10
37.4495167502
 20
5.3883271926
 30
0.0
 10
37.4497412471
 20
5.4145178706
 30
0.0
 10
37.4502381965
 20
5.4402027505
 30
0.0
 10
37.4510003038
 20
5.4650023718
 30
0.0
 10
37.4516981532
 20
5.4811943883
 30
0.0
 10
37.4520949135
 20
5.4890793718
 30
0.0
  0
SPLINE
  5
45F
100
AcDbEntity
  8
0
100
AcDbSpline
 62
7
  6
CONTINUOUS
 70
0
 71
3
 72
9
 73
5
 74
0
 42
0.0000001
 43
0.0000001
 44
0.0000000001
 40
0.0
 40
0.0
 40
0.0
 40
0.0
 40
0.4933804962
 40
1.0
 40
1.0
 40
1.0
 40
1.0
 10
37.4750063789
 20
5.6119843728
 30
0.0
 10
37.476987723
 20
5.6154633194
 30
0.0
 10
37.4812398891
 20
5.6223814501
 30
0.0
 10
37.4858625426
 20
5.6290548624
 30
0.0
 10
37.4882779992
 20
5.6323814394
 30
0.0
  0
SPLINE
  5
460
100
AcDbEntity
  8
0
100
AcDbSpline
 62
7
  6
CONTINUOUS
 70
0
 71
3
 72
28
 73
24
 74
0
 42
0.0000001
 43
0.0000001
 44
0.0000000001
 40
0.0
 40
0.0
 40
0.0
 40
0.0
 40
0.0072117986
 40
0.0149369085
 40
0.0235974846
 40
0.0334959881
 40
0.0448353794
 40
0.0577467482
 40
0.0723140485
 40
0.0885925328
 40
0.1066189675
 40
0.1264178851
 40
0.1480054954
 40
0.1713906957
 40
0.2235477071
 40
0.2828546526
 40
0.3492424329
 40
0.4226072125
 40
0.5028027976
 40
0.5896720658
 40
0.6830434162
 40
0.7827051583
 40
1.0
 40
1.0
 40
1.0
 40
1.0
 10
37.6398934527
 20
5.6455790356
 30
0.0
 10
37.6400803992
 20
5.6455790865
 30
0.0
 10
37.640469365
 20
5.6455236357
 30
0.0
 10
37.641036926
 20
5.6452812484
 30
0.0
 10
37.6415965596
 20
5.6448857189
 30
0.0
 10
37.6421505324
 20
5.6443400992
 30
0.0
 10
37.6427011028
 20
5.6436447658
 30
0.0
 10
37.6432493062
 20
5.6427996013
 30
0.0
 10
37.6437955202
 20
5.6418045845
 30
0.0
 10
37.6443396633
 20
5.640659882
 30
0.0
 10
37.6448815062
 20
5.6393658221
 30
0.0
 10
37.6454207348
 20
5.6379228412
 30
0.0
 10
37.6459570357
 20
5.6363314957
 30
0.0
 10
37.6466947519
 20
5.6339238926
 30
0.0
 10
37.6475967443
 20
5.630545493
 30
0.0
 10
37.6486281181
 20
5.6260513281
 30
0.0
 10
37.6496408776
 20
5.6209910302
 30
0.0
 10
37.6506323487
 20
5.6153759343
 30
0.0
 10
37.6516002269
 20
5.6092187396
 30
0.0
 10
37.6525419696
 20
5.6025333931
 30
0.0
 10
37.6534550693
 20
5.5953351545
 30
0.0
 10
37.6546668728
 20
5.5847675745
 30
0.0
 10
37.6554703045
 20
5.5765900203
 30
0.0
 10
37.6559761448
 20
5.5709799952
 30
0.0
  0
SPLINE
  5
461
100
AcDbEntity
  8
0
100
AcDbSpline
 62
7
  6
CONTINUOUS
 70
0
 71
3
 72
20
 73
16
 74
0
 42
0.0000001
 43
0.0000001
 44
0.0000000001
 40
0.0
 40
0.0
 40
0.0
 40
0.0
 40
0.2020065414
 40
0.3802232924
 40
0.5348214024
 40
0.6034151897
 40
0.6663281764
 40
0.7237010459
 40
0.7757253342
 40
0.8226646511
 40
0.8648852788
 40
0.902898317
 40
0.9374121187
 40
0.9693809691
 40
1.0
 40
1.0
 40
1.0
 40
1.0
 10
37.603190806
 20
5.6337925601
 30
0.0
 10
37.60345101
 20
5.634713071
 30
0.0
 10
37.6039687612
 20
5.6364380945
 30
0.0
 10
37.604801165
 20
5.6388308723
 30
0.0
 10
37.6055257558
 20
5.6405899252
 30
0.0
 10
37.6061155791
 20
5.6418100372
 30
0.0
 10
37.6065414348
 20
5.6425969898
 30
0.0
 10
37.606968472
 20
5.64329284
 30
0.0
 10
37.607396704
 20
5.6438975201
 30
0.0
 10
37.6078262212
 20
5.6444110024
 30
0.0
 10
37.6082573366
 20
5.644833217
 30
0.0
 10
37.6086906034
 20
5.6451639038
 30
0.0
 10
37.6091269263
 20
5.6454022207
 30
0.0
 10
37.6095664441
 20
5.6455465902
 30
0.0
 10
37.6098637238
 20
5.6455790759
 30
0.0
 10
37.610008717
 20
5.6455790356
 30
0.0
  0
SPLINE
  5
462
100
AcDbEntity
  8
0
100
AcDbSpline
 62
7
  6
CONTINUOUS
 70
0
 71
3
 72
11
 73
7
 74
0
 42
0.0000001
 43
0.0000001
 44
0.0000000001
 40
0.0
 40
0.0
 40
0.0
 40
0.0
 40
0.2610724814
 40
0.5162043766
 40
0.7632803181
 40
1.0
 40
1.0
 40
1.0
 40
1.0
 10
37.6627669523
 20
5.4202943803
 30
0.0
 10
37.6626593753
 20
5.4283506354
 30
0.0
 10
37.6623814128
 20
5.444279043
 30
0.0
 10
37.6617688116
 20
5.4678270114
 30
0.0
 10
37.6609693306
 20
5.4906173916
 30
0.0
 10
37.6603010218
 20
5.5055331826
 30
0.0
 10
37.6599338888
 20
5.5128293718
 30
0.0
  0
SPLINE
  5
463
100
AcDbEntity
  8
0
100
AcDbSpline
 62
7
  6
CONTINUOUS
 70
0
 71
3
 72
20
 73
16
 74
0
 42
0.0000001
 43
0.0000001
 44
0.0000000001
 40
0.0
 40
0.0
 40
0.0
 40
0.0
 40
0.2024590711
 40
0.3809921891
 40
0.5358185491
 40
0.6044957914
 40
0.6674617641
 40
0.7248491705
 40
0.7768418469
 40
0.8236969101
 40
0.8657827081
 40
0.9036188972
 40
0.9379209947
 40
0.9696465394
 40
1.0
 40
1.0
 40
1.0
 40
1.0
 10
37.6031075158
 20
5.1266626719
 30
0.0
 10
37.6033706484
 20
5.1257191853
 30
0.0
 10
37.6038941968
 20
5.1239513018
 30
0.0
 10
37.604736547
 20
5.1214988009
 30
0.0
 10
37.605469904
 20
5.1196955547
 30
0.0
 10
37.6060669176
 20
5.1184443777
 30
0.0
 10
37.6064979508
 20
5.1176373774
 30
0.0
 10
37.6069301981
 20
5.1169237918
 30
0.0
 10
37.6073636663
 20
5.1163037731
 30
0.0
 10
37.607798487
 20
5.1157774194
 30
0.0
 10
37.6082349827
 20
5.1153447679
 30
0.0
 10
37.6086736819
 20
5.1150059276
 30
0.0
 10
37.6091154837
 20
5.1147615549
 30
0.0
 10
37.6095606188
 20
5.1146132731
 30
0.0
 10
37.6098618676
 20
5.1145797487
 30
0.0
 10
37.610008717
 20
5.1145797079
 30
0.0
  0
SPLINE
  5
464
100
AcDbEntity
  8
0
100
AcDbSpline
 62
7
  6
CONTINUOUS
 70
0
 71
3
 72
15
 73
11
 74
0
 42
0.0000001
 43
0.0000001
 44
0.0000000001
 40
0.0
 40
0.0
 40
0.0
 40
0.0
 40
0.1220924646
 40
0.2441336407
 40
0.3665138762
 40
0.4897523094
 40
0.6143953533
 40
0.7408753124
 40
0.8694108864
 40
1.0
 40
1.0
 40
1.0
 40
1.0
 10
37.6064857982
 20
5.6323814394
 30
0.0
 10
37.6058802379
 20
5.6271599317
 30
0.0
 10
37.6049250379
 20
5.6166867043
 30
0.0
 10
37.6044244482
 20
5.6009044441
 30
0.0
 10
37.6050098339
 20
5.5850722837
 30
0.0
 10
37.6067926539
 20
5.5692156055
 30
0.0
 10
37.6098094214
 20
5.5533676457
 30
0.0
 10
37.6140097694
 20
5.5375579722
 30
0.0
 10
37.6192744802
 20
5.5218038424
 30
0.0
 10
37.6233611623
 20
5.5114179886
 30
0.0
 10
37.6255289753
 20
5.5062304056
 30
0.0
  0
SPLINE
  5
465
100
AcDbEntity
  8
0
100
AcDbSpline
 62
7
  6
CONTINUOUS
 70
0
 71
3
 72
25
 73
21
 74
0
 42
0.0000001
 43
0.0000001
 44
0.0000000001
 40
0.0
 40
0.0
 40
0.0
 40
0.0
 40
0.0616191363
 40
0.1225255592
 40
0.1827757134
 40
0.2424804553
 40
0.3018069094
 40
0.3609830165
 40
0.3906059406
 40
0.4202991652
 40
0.4800387391
 40
0.5405242251
 40
0.5711405922
 40
0.602043134
 40
0.6647934434
 40
0.7289332327
 40
0.7945368463
 40
0.8616143713
 40
0.9301275978
 40
1.0
 40
1.0
 40
1.0
 40
1.0
 10
37.4882779992
 20
5.6323814394
 30
0.0
 10
37.4871970761
 20
5.6298332822
 30
0.0
 10
37.4851593328
 20
5.624717939
 30
0.0
 10
37.4825119007
 20
5.6169420653
 30
0.0
 10
37.4803402324
 20
5.6091080769
 30
0.0
 10
37.4786954909
 20
5.6012180381
 30
0.0
 10
37.4776254861
 20
5.5932774544
 30
0.0
 10
37.4772501638
 20
5.5866265036
 30
0.0
 10
37.4772750568
 20
5.5813025454
 30
0.0
 10
37.4775217084
 20
5.5759588944
 30
0.0
 10
37.4782523224
 20
5.5692559066
 30
0.0
 10
37.4795440002
 20
5.5625963297
 30
0.0
 10
37.4809034228
 20
5.5572859592
 30
0.0
 10
37.4824954268
 20
5.5519343184
 30
0.0
 10
37.4848936774
 20
5.5452573613
 30
0.0
 10
37.4883606781
 20
5.5373298311
 30
0.0
 10
37.4923851695
 20
5.5294523708
 30
0.0
 10
37.4969184708
 20
5.5216296342
 30
0.0
 10
37.5019096949
 20
5.5138630118
 30
0.0
 10
37.5054770281
 20
5.5087701744
 30
0.0
 10
37.5073211764
 20
5.5062304056
 30
0.0
  0
SPLINE
  5
466
100
AcDbEntity
  8
0
100
AcDbSpline
 62
7
  6
CONTINUOUS
 70
0
 71
3
 72
41
 73
37
 74
0
 42
0.0000001
 43
0.0000001
 44
0.0000000001
 40
0.0
 40
0.0
 40
0.0
 40
0.0
 40
0.1196887454
 40
0.2335462139
 40
0.3408403133
 40
0.4409961463
 40
0.533487642
 40
0.6178222441
 40
0.6935401364
 40
0.728049182
 40
0.760266283
 40
0.7901518665
 40
0.8176768176
 40
0.8428167046
 40
0.86555113
 40
0.8858683295
 40
0.9037748394
 40
0.9192940054
 40
0.9261737259
 40
0.932478371
 40
0.9382220703
 40
0.9434253751
 40
0.9481165894
 40
0.9523347682
 40
0.9561340623
 40
0.9595889061
 40
0.9627983638
 40
0.96588581
 40
0.9689897409
 40
0.9722464558
 40
0.9757740855
 40
0.9796656998
 40
0.9839905132
 40
0.9887986918
 40
0.9941264253
 40
1.0
 40
1.0
 40
1.0
 40
1.0
 10
37.4850031862
 20
5.2710793718
 30
0.0
 10
37.4847712024
 20
5.2664690603
 30
0.0
 10
37.4842803609
 20
5.257474912
 30
0.0
 10
37.4834398863
 20
5.2443561007
 30
0.0
 10
37.4825166628
 20
5.2319981215
 30
0.0
 10
37.4815166455
 20
5.2204729993
 30
0.0
 10
37.4804454453
 20
5.209843813
 30
0.0
 10
37.4793098268
 20
5.2001696668
 30
0.0
 10
37.4782862877
 20
5.1927352306
 30
0.0
 10
37.4774308439
 20
5.1873083122
 30
0.0
 10
37.4767971217
 20
5.1836363314
 30
0.0
 10
37.4761521245
 20
5.1802400987
 30
0.0
 10
37.4754969087
 20
5.1771242094
 30
0.0
 10
37.4748325454
 20
5.1742928024
 30
0.0
 10
37.4741600868
 20
5.1717497995
 30
0.0
 10
37.4734805053
 20
5.1694984879
 30
0.0
 10
37.4727949993
 20
5.1675416021
 30
0.0
 10
37.472198295
 20
5.1661047252
 30
0.0
 10
37.4717125513
 20
5.1651095908
 30
0.0
 10
37.4713619503
 20
5.1644689181
 30
0.0
 10
37.4710103431
 20
5.1639035666
 30
0.0
 10
37.4706577376
 20
5.1634135623
 30
0.0
 10
37.470304047
 20
5.1629988575
 30
0.0
 10
37.4699490001
 20
5.1626594415
 30
0.0
 10
37.4695920993
 20
5.1623954964
 30
0.0
 10
37.4692326997
 20
5.1622076958
 30
0.0
 10
37.4688704891
 20
5.1620974903
 30
0.0
 10
37.4685063481
 20
5.1620667396
 30
0.0
 10
37.4681424956
 20
5.1621162534
 30
0.0
 10
37.4677809221
 20
5.16224481
 30
0.0
 10
37.4674221613
 20
5.1624505544
 30
0.0
 10
37.4670657512
 20
5.162732222
 30
0.0
 10
37.4667110584
 20
5.1630892865
 30
0.0
 10
37.4663576373
 20
5.163521637
 30
0.0
 10
37.4660052746
 20
5.1640292825
 30
0.0
 10
37.4657821305
 20
5.1643995351
 30
0.0
 10
37.4656701702
 20
5.1645964651
 30
0.0
  0
SPLINE
  5
467
100
AcDbEntity
  8
0
100
AcDbSpline
 62
7
  6
CONTINUOUS
 70
0
 71
3
 72
47
 73
43
 74
0
 42
0.0000001
 43
0.0000001
 44
0.0000000001
 40
0.0
 40
0.0
 40
0.0
 40
0.0
 40
0.0036572566
 40
0.0052443511
 40
0.0066820691
 40
0.0079836822
 40
0.009167183
 40
0.0102565784
 40
0.0112826572
 40
0.0122822364
 40
0.0132951502
 40
0.0155012651
 40
0.016761208
 40
0.0181518454
 40
0.0196878774
 40
0.0213801263
 40
0.0252618581
 40
0.0298403648
 40
0.0351366368
 40
0.041161637
 40
0.0479206163
 40
0.0554143898
 40
0.0636389988
 40
0.0725885413
 40
0.0822560627
 40
0.0926334428
 40
0.1154716602
 40
0.1410042923
 40
0.1691171554
 40
0.1996773811
 40
0.232542338
 40
0.2675526252
 40
0.3045417717
 40
0.3433288521
 40
0.383727346
 40
0.4685615914
 40
0.5573930195
 40
0.6484881328
 40
0.7400689117
 40
0.8303444336
 40
0.9175573065
 40
1.0
 40
1.0
 40
1.0
 40
1.0
 10
37.4656701702
 20
5.5955622786
 30
0.0
 10
37.4658712793
 20
5.5959160141
 30
0.0
 10
37.4661827079
 20
5.5964117939
 30
0.0
 10
37.4666460155
 20
5.5969941024
 30
0.0
 10
37.4669779743
 20
5.5973437233
 30
0.0
 10
37.4673111767
 20
5.597627164
 30
0.0
 10
37.4676460815
 20
5.5978441388
 30
0.0
 10
37.4679831
 20
5.5979939275
 30
0.0
 10
37.468322207
 20
5.5980753127
 30
0.0
 10
37.4686624589
 20
5.5980869741
 30
0.0
 10
37.4691280322
 20
5.5980072707
 30
0.0
 10
37.4695834538
 20
5.5977793393
 30
0.0
 10
37.470008949
 20
5.5974457047
 30
0.0
 10
37.4703415208
 20
5.5971180487
 30
0.0
 10
37.4706727041
 20
5.5967243947
 30
0.0
 10
37.4711344986
 20
5.5960813187
 30
0.0
 10
37.4717017443
 20
5.5951016617
 30
0.0
 10
37.4723512231
 20
5.5937144505
 30
0.0
 10
37.4729970062
 20
5.592066469
 30
0.0
 10
37.473638266
 20
5.5901591692
 30
0.0
 10
37.4742740185
 20
5.5879940126
 30
0.0
 10
37.474903263
 20
5.5855732928
 30
0.0
 10
37.475525251
 20
5.5828998822
 30
0.0
 10
37.4761390988
 20
5.5799770387
 30
0.0
 10
37.4767439911
 20
5.576808166
 30
0.0
 10
37.4775637176
 20
5.5721077551
 30
0.0
 10
37.4785494394
 20
5.5656454043
 30
0.0
 10
37.4796512966
 20
5.5572069553
 30
0.0
 10
37.4807002909
 20
5.5478966952
 30
0.0
 10
37.4816912606
 20
5.5377601606
 30
0.0
 10
37.4826185982
 20
5.5268472759
 30
0.0
 10
37.4834779042
 20
5.5152115095
 30
0.0
 10
37.4842643801
 20
5.5029103067
 30
0.0
 10
37.4849744344
 20
5.4900040309
 30
0.0
 10
37.4858278474
 20
5.4717749361
 30
0.0
 10
37.4866685183
 20
5.4479720361
 30
0.0
 10
37.4873135862
 20
5.4185209584
 30
0.0
 10
37.487596846
 20
5.3883135293
 30
0.0
 10
37.4875124609
 20
5.3579442517
 30
0.0
 10
37.4870622599
 20
5.3280101206
 30
0.0
 10
37.4862554475
 20
5.2991005759
 30
0.0
 10
37.485464154
 20
5.28024038
 30
0.0
 10
37.4850031862
 20
5.2710793718
 30
0.0
  0
SPLINE
  5
468
100
AcDbEntity
  8
0
100
AcDbSpline
 62
7
  6
CONTINUOUS
 70
0
 71
3
 72
15
 73
11
 74
0
 42
0.0000001
 43
0.0000001
 44
0.0000000001
 40
0.0
 40
0.0
 40
0.0
 40
0.0
 40
0.1249964676
 40
0.2499956901
 40
0.3749971619
 40
0.4999999975
 40
0.6250028276
 40
0.7500042897
 40
0.8750035086
 40
1.0
 40
1.0
 40
1.0
 40
1.0
 10
37.6255289753
 20
5.5062304056
 30
0.0
 10
37.6241337515
 20
5.4957765349
 30
0.0
 10
37.6215984467
 20
5.474833149
 30
0.0
 10
37.6187196397
 20
5.4433188398
 30
0.0
 10
37.6169163095
 20
5.4117224563
 30
0.0
 10
37.6163011485
 20
5.3800793728
 30
0.0
 10
37.6169163091
 20
5.3484362902
 30
0.0
 10
37.6187196392
 20
5.3168399083
 30
0.0
 10
37.6215984454
 20
5.2853255981
 30
0.0
 10
37.6241337513
 20
5.2643822106
 30
0.0
 10
37.6255289753
 20
5.2539283379
 30
0.0
  0
SPLINE
  5
469
100
AcDbEntity
  8
0
100
AcDbSpline
 62
7
  6
CONTINUOUS
 70
0
 71
3
 72
21
 73
17
 74
0
 42
0.0000001
 43
0.0000001
 44
0.0000000001
 40
0.0
 40
0.0
 40
0.0
 40
0.0
 40
0.1249717233
 40
0.1874684367
 40
0.2499692886
 40
0.3124732591
 40
0.3749805625
 40
0.4374896612
 40
0.5
 40
0.5625103388
 40
0.6250194375
 40
0.6875267409
 40
0.7500307114
 40
0.8125315633
 40
0.8750282767
 40
1.0
 40
1.0
 40
1.0
 40
1.0
 10
37.5073211764
 20
5.5062304056
 30
0.0
 10
37.5043724703
 20
5.4959767712
 30
0.0
 10
37.5003206353
 20
5.4804825606
 30
0.0
 10
37.4958560325
 20
5.459611277
 30
0.0
 10
37.4930262967
 20
5.4438524531
 30
0.0
 10
37.4907634649
 20
5.4280010344
 30
0.0
 10
37.4891115364
 20
5.4120731117
 30
0.0
 10
37.488105586
 20
5.3960905021
 30
0.0
 10
37.4877669114
 20
5.3800793718
 30
0.0
 10
37.488105586
 20
5.3640682414
 30
0.0
 10
37.4891115364
 20
5.3480856318
 30
0.0
 10
37.4907634649
 20
5.3321577091
 30
0.0
 10
37.4930262967
 20
5.3163062904
 30
0.0
 10
37.4958560325
 20
5.3005474665
 30
0.0
 10
37.5003206353
 20
5.2796761829
 30
0.0
 10
37.5043724703
 20
5.2641819723
 30
0.0
 10
37.5073211764
 20
5.2539283379
 30
0.0
  0
SPLINE
  5
46A
100
AcDbEntity
  8
0
100
AcDbSpline
 62
7
  6
CONTINUOUS
 70
0
 71
3
 72
15
 73
11
 74
0
 42
0.0000001
 43
0.0000001
 44
0.0000000001
 40
0.0
 40
0.0
 40
0.0
 40
0.0
 40
0.1305891503
 40
0.2591247296
 40
0.3856046735
 40
0.510247709
 40
0.6334861385
 40
0.7558663678
 40
0.8779075341
 40
1.0
 40
1.0
 40
1.0
 40
1.0
 10
37.6255289753
 20
5.2539283379
 30
0.0
 10
37.6233611617
 20
5.2487407535
 30
0.0
 10
37.6192744779
 20
5.2383548983
 30
0.0
 10
37.6140097678
 20
5.2226007671
 30
0.0
 10
37.6098094203
 20
5.2067910943
 30
0.0
 10
37.6067926535
 20
5.1909431355
 30
0.0
 10
37.605009834
 20
5.175086458
 30
0.0
 10
37.6044244484
 20
5.1592542985
 30
0.0
 10
37.6049250379
 20
5.143472039
 30
0.0
 10
37.6058802378
 20
5.1329988119
 30
0.0
 10
37.6064857982
 20
5.1277773041
 30
0.0
  0
SPLINE
  5
46B
100
AcDbEntity
  8
0
100
AcDbSpline
 62
7
  6
CONTINUOUS
 70
0
 71
3
 72
25
 73
21
 74
0
 42
0.0000001
 43
0.0000001
 44
0.0000000001
 40
0.0
 40
0.0
 40
0.0
 40
0.0
 40
0.0698724022
 40
0.1383856287
 40
0.2054631537
 40
0.2710667673
 40
0.3352065566
 40
0.397956866
 40
0.4288594078
 40
0.4594757749
 40
0.5199612609
 40
0.5797008348
 40
0.6093940594
 40
0.6390169835
 40
0.6981930906
 40
0.7575195447
 40
0.8172242866
 40
0.8774744408
 40
0.9383808637
 40
1.0
 40
1.0
 40
1.0
 40
1.0
 10
37.5073211764
 20
5.2539283379
 30
0.0
 10
37.5054770281
 20
5.2513885691
 30
0.0
 10
37.5019096949
 20
5.2462957318
 30
0.0
 10
37.4969184708
 20
5.2385291093
 30
0.0
 10
37.4923851695
 20
5.2307063727
 30
0.0
 10
37.4883606781
 20
5.2228289124
 30
0.0
 10
37.4848936774
 20
5.2149013822
 30
0.0
 10
37.4824954268
 20
5.2082244251
 30
0.0
 10
37.4809034228
 20
5.2028727843
 30
0.0
 10
37.4795440002
 20
5.1975624139
 30
0.0
 10
37.4782523224
 20
5.1909028369
 30
0.0
 10
37.4775217084
 20
5.1841998492
 30
0.0
 10
37.4772750568
 20
5.1788561981
 30
0.0
 10
37.4772501638
 20
5.17353224
 30
0.0
 10
37.4776254861
 20
5.1668812892
 30
0.0
 10
37.4786954909
 20
5.1589407054
 30
0.0
 10
37.4803402324
 20
5.1510506666
 30
0.0
 10
37.4825119007
 20
5.1432166782
 30
0.0
 10
37.4851593328
 20
5.1354408045
 30
0.0
 10
37.4871970761
 20
5.1303254613
 30
0.0
 10
37.4882779992
 20
5.1277773041
 30
0.0
  0
SPLINE
  5
46C
100
AcDbEntity
  8
0
100
AcDbSpline
 62
7
  6
CONTINUOUS
 70
0
 71
3
 72
34
 73
30
 74
0
 42
0.0000001
 43
0.0000001
 44
0.0000000001
 40
0.0
 40
0.0
 40
0.0
 40
0.0
 40
0.0027949545
 40
0.0056851443
 40
0.0087567188
 40
0.0120816541
 40
0.0157168127
 40
0.0197057262
 40
0.0240812657
 40
0.0288676749
 40
0.0397363675
 40
0.0524115617
 40
0.0669471397
 40
0.0833740709
 40
0.1017079827
 40
0.1219491969
 40
0.1440905762
 40
0.168121064
 40
0.1940268684
 40
0.2217896175
 40
0.2827799667
 40
0.3508702388
 40
0.4258028603
 40
0.5072635804
 40
0.5949238959
 40
0.6884308691
 40
0.7874179891
 40
0.8914493904
 40
1.0
 40
1.0
 40
1.0
 40
1.0
 10
37.610008717
 20
5.6455790356
 30
0.0
 10
37.6101354746
 20
5.6455790004
 30
0.0
 10
37.6103939115
 20
5.6455542737
 30
0.0
 10
37.6107775487
 20
5.645444372
 30
0.0
 10
37.6111593259
 20
5.6452625386
 30
0.0
 10
37.6115391212
 20
5.6450097225
 30
0.0
 10
37.6119173412
 20
5.644686453
 30
0.0
 10
37.6122943036
 20
5.6442929191
 30
0.0
 10
37.6126702436
 20
5.6438291694
 30
0.0
 10
37.6131925612
 20
5.6430851984
 30
0.0
 10
37.6138355797
 20
5.6419700828
 30
0.0
 10
37.6145742037
 20
5.6404076792
 30
0.0
 10
37.6153088238
 20
5.638568916
 30
0.0
 10
37.6160386179
 20
5.6364549977
 30
0.0
 10
37.6167625733
 20
5.6340673833
 30
0.0
 10
37.6174799616
 20
5.6314084721
 30
0.0
 10
37.6181899097
 20
5.6284810678
 30
0.0
 10
37.6188915507
 20
5.6252881477
 30
0.0
 10
37.6195840408
 20
5.6218328501
 30
0.0
 10
37.6205236628
 20
5.616718215
 30
0.0
 10
37.6216580603
 20
5.6096951939
 30
0.0
 10
37.6229332756
 20
5.6005304716
 30
0.0
 10
37.6241549075
 20
5.5904227097
 30
0.0
 10
37.6253180009
 20
5.579415244
 30
0.0
 10
37.6264166763
 20
5.5675549497
 30
0.0
 10
37.6274464204
 20
5.5548908628
 30
0.0
 10
37.628402426
 20
5.5414765687
 30
0.0
 10
37.6292802875
 20
5.5273733201
 30
0.0
 10
37.6298006378
 20
5.5177461717
 30
0.0
 10
37.6300480436
 20
5.5128293718
 30
0.0
  0
SPLINE
  5
46D
100
AcDbEntity
  8
0
100
AcDbSpline
 62
7
  6
CONTINUOUS
 70
0
 71
3
 72
42
 73
38
 74
0
 42
0.0000001
 43
0.0000001
 44
0.0000000001
 40
0.0
 40
0.0
 40
0.0
 40
0.0
 40
0.0009467186
 40
0.0019256487
 40
0.0029660961
 40
0.0040925906
 40
0.005324365
 40
0.0066759767
 40
0.0081583224
 40
0.0097795422
 40
0.0134604358
 40
0.0177534277
 40
0.0226777785
 40
0.0282432337
 40
0.0344534429
 40
0.0413090457
 40
0.0488087478
 40
0.056949669
 40
0.0657259296
 40
0.0751300347
 40
0.0957889966
 40
0.1188549683
 40
0.1442355609
 40
0.17183108
 40
0.2015282562
 40
0.2332034344
 40
0.2667265129
 40
0.3019546674
 40
0.3387416653
 40
0.4163610305
 40
0.4982730703
 40
0.5830895335
 40
0.6693703883
 40
0.755652809
 40
0.8404651478
 40
0.9223851568
 40
1.0
 40
1.0
 40
1.0
 40
1.0
 10
37.610008717
 20
5.1145797079
 30
0.0
 10
37.6101354683
 20
5.1145796727
 30
0.0
 10
37.6103939016
 20
5.1146042534
 30
0.0
 10
37.6107775629
 20
5.1147140138
 30
0.0
 10
37.6111593644
 20
5.1148958422
 30
0.0
 10
37.6115391436
 20
5.1151488318
 30
0.0
 10
37.6119173289
 20
5.1154723475
 30
0.0
 10
37.612294259
 20
5.1158660882
 30
0.0
 10
37.612670199
 20
5.1163299096
 30
0.0
 10
37.6131925217
 20
5.1170737535
 30
0.0
 10
37.6138356144
 20
5.1181885886
 30
0.0
 10
37.6145743153
 20
5.1197508385
 30
0.0
 10
37.6153088396
 20
5.1215897763
 30
0.0
 10
37.6160385108
 20
5.1237039175
 30
0.0
 10
37.6167625371
 20
5.1260914819
 30
0.0
 10
37.6174799931
 20
5.1287501455
 30
0.0
 10
37.6181899859
 20
5.1316774563
 30
0.0
 10
37.6188915404
 20
5.1348705635
 30
0.0
 10
37.6195839685
 20
5.1383260684
 30
0.0
 10
37.6205236681
 20
5.1434406413
 30
0.0
 10
37.6216581802
 20
5.1504636131
 30
0.0
 10
37.6229331065
 20
5.1596280872
 30
0.0
 10
37.6241550434
 20
5.1697358483
 30
0.0
 10
37.6253179599
 20
5.1807436446
 30
0.0
 10
37.6264167032
 20
5.1926046024
 30
0.0
 10
37.6274464294
 20
5.2052681067
 30
0.0
 10
37.6284022188
 20
5.2186798707
 30
0.0
 10
37.6292803251
 20
5.2327827109
 30
0.0
 10
37.6303610808
 20
5.2527875251
 30
0.0
 10
37.6314778481
 20
5.2790488365
 30
0.0
 10
37.6324363675
 20
5.3117501017
 30
0.0
 10
37.6330183614
 20
5.3456200269
 30
0.0
 10
37.6332135649
 20
5.3800794758
 30
0.0
 10
37.6330182954
 20
5.4145383689
 30
0.0
 10
37.6324363878
 20
5.4484090273
 30
0.0
 10
37.631477805
 20
5.4811101755
 30
0.0
 10
37.6305702649
 20
5.502451047
 30
0.0
 10
37.6300480436
 20
5.5128293718
 30
0.0
  0
SPLINE
  5
46E
100
AcDbEntity
  8
0
100
AcDbSpline
 62
7
  6
CONTINUOUS
 70
0
 71
3
 72
15
 73
11
 74
0
 42
0.0000001
 43
0.0000001
 44
0.0000000001
 40
0.0
 40
0.0
 40
0.0
 40
0.0
 40
0.1453524083
 40
0.2868079831
 40
0.4230969843
 40
0.5529474777
 40
0.6754525845
 40
0.7903911539
 40
0.8982555593
 40
1.0
 40
1.0
 40
1.0
 40
1.0
 10
40.6743337664
 20
-5.3659269792
 30
0.0
 10
40.6672261506
 20
-5.3615744712
 30
0.0
 10
40.6532866081
 20
-5.3528455212
 30
0.0
 10
40.6330664706
 20
-5.3394341018
 30
0.0
 10
40.6140272972
 20
-5.3258702729
 30
0.0
 10
40.5964177783
 20
-5.3122012586
 30
0.0
 10
40.5804119713
 20
-5.2984996878
 30
0.0
 10
40.5660556398
 20
-5.2848505867
 30
0.0
 10
40.5532587683
 20
-5.2713284943
 30
0.0
 10
40.5454409678
 20
-5.2621927728
 30
0.0
 10
40.541751245
 20
-5.2576738037
 30
0.0
  0
SPLINE
  5
46F
100
AcDbEntity
  8
0
100
AcDbSpline
 62
7
  6
CONTINUOUS
 70
0
 71
3
 72
19
 73
15
 74
0
 42
0.0000001
 43
0.0000001
 44
0.0000000001
 40
0.0
 40
0.0
 40
0.0
 40
0.0
 40
0.1239135187
 40
0.2486584689
 40
0.3113153546
 40
0.3741210923
 40
0.4370327446
 40
0.5
 40
0.5629672554
 40
0.6258789077
 40
0.6886846454
 40
0.7513415311
 40
0.8760864813
 40
1.0
 40
1.0
 40
1.0
 40
1.0
 10
40.541751245
 20
-5.2576738037
 30
0.0
 10
40.5399490239
 20
-5.2488447596
 30
0.0
 10
40.5366500565
 20
-5.2310603029
 30
0.0
 10
40.5334982453
 20
-5.2086321268
 30
0.0
 10
40.5316645574
 20
-5.1905274787
 30
0.0
 10
40.5306590529
 20
-5.1768638117
 30
0.0
 10
40.5300468386
 20
-5.1631542008
 30
0.0
 10
40.529840728
 20
-5.1494206282
 30
0.0
 10
40.5300468386
 20
-5.1356870556
 30
0.0
 10
40.5306590529
 20
-5.1219774448
 30
0.0
 10
40.5316645574
 20
-5.1083137778
 30
0.0
 10
40.5334982453
 20
-5.0902091297
 30
0.0
 10
40.5366500565
 20
-5.0677809536
 30
0.0
 10
40.5399490239
 20
-5.0499964969
 30
0.0
 10
40.541751245
 20
-5.0411674528
 30
0.0
  0
SPLINE
  5
470
100
AcDbEntity
  8
0
100
AcDbSpline
 62
7
  6
CONTINUOUS
 70
0
 71
3
 72
15
 73
11
 74
0
 42
0.0000001
 43
0.0000001
 44
0.0000000001
 40
0.0
 40
0.0
 40
0.0
 40
0.0
 40
0.1017444407
 40
0.2096088461
 40
0.3245474155
 40
0.4470525223
 40
0.5769030157
 40
0.7131920169
 40
0.8546475917
 40
1.0
 40
1.0
 40
1.0
 40
1.0
 10
40.541751245
 20
-5.0411674528
 30
0.0
 10
40.5454409678
 20
-5.0366484836
 30
0.0
 10
40.5532587683
 20
-5.0275127622
 30
0.0
 10
40.5660556398
 20
-5.0139906698
 30
0.0
 10
40.5804119713
 20
-5.0003415687
 30
0.0
 10
40.5964177783
 20
-4.9866399979
 30
0.0
 10
40.6140272972
 20
-4.9729709836
 30
0.0
 10
40.6330664706
 20
-4.9594071547
 30
0.0
 10
40.6532866081
 20
-4.9459957352
 30
0.0
 10
40.6672261506
 20
-4.9372667853
 30
0.0
 10
40.6743337664
 20
-4.9329142773
 30
0.0
  0
SPLINE
  5
471
100
AcDbEntity
  8
0
100
AcDbSpline
 62
7
  6
CONTINUOUS
 70
0
 71
3
 72
33
 73
29
 74
0
 42
0.0000001
 43
0.0000001
 44
0.0000000001
 40
0.0
 40
0.0
 40
0.0
 40
0.0
 40
0.0331227701
 40
0.0667419399
 40
0.1007784202
 40
0.1351690704
 40
0.1698530978
 40
0.2047606274
 40
0.2398173644
 40
0.2749488336
 40
0.3451179299
 40
0.414690725
 40
0.4830966063
 40
0.5498174279
 40
0.6144145974
 40
0.6765575734
 40
0.706657293
 40
0.7360841916
 40
0.7648409396
 40
0.7929412333
 40
0.8204124608
 40
0.8472939778
 40
0.8736392327
 40
0.8995134848
 40
0.9249947084
 40
0.9501706917
 40
0.9751382969
 40
1.0
 40
1.0
 40
1.0
 40
1.0
 10
40.9912103099
 20
-5.0194206282
 30
0.0
 10
40.9932307244
 20
-5.0243696128
 30
0.0
 10
40.9970362782
 20
-5.0344522461
 30
0.0
 10
41.0019962431
 20
-5.0499484718
 30
0.0
 10
41.0062287921
 20
-5.0658710395
 30
0.0
 10
41.0097166078
 20
-5.0821485762
 30
0.0
 10
41.012444161
 20
-5.098712998
 30
0.0
 10
41.0144016565
 20
-5.1154939618
 30
0.0
 10
41.0155790321
 20
-5.1324203377
 30
0.0
 10
41.0161031216
 20
-5.1550723954
 30
0.0
 10
41.0148002007
 20
-5.1833082508
 30
0.0
 10
41.0101348977
 20
-5.2166234838
 30
0.0
 10
41.0024455498
 20
-5.2488052646
 30
0.0
 10
40.9918590762
 20
-5.2793095672
 30
0.0
 10
40.9785521503
 20
-5.3076194009
 30
0.0
 10
40.9652309793
 20
-5.3292188518
 30
0.0
 10
40.9534047277
 20
-5.3449078375
 30
0.0
 10
40.9441058062
 20
-5.355716509
 30
0.0
 10
40.934326068
 20
-5.3656445803
 30
0.0
 10
40.9241047991
 20
-5.3746480608
 30
0.0
 10
40.9134869185
 20
-5.3826896229
 30
0.0
 10
40.9025158024
 20
-5.3897322418
 30
0.0
 10
40.8912394923
 20
-5.3957469742
 30
0.0
 10
40.8797049087
 20
-5.400704932
 30
0.0
 10
40.8679627076
 20
-5.4045859242
 30
0.0
 10
40.856062574
 20
-5.4073702339
 30
0.0
 10
40.844058209
 20
-5.4090468988
 30
0.0
 10
40.8360115727
 20
-5.4094203523
 30
0.0
 10
40.8319992697
 20
-5.4094204414
 30
0.0
  0
SPLINE
  5
472
100
AcDbEntity
  8
0
100
AcDbSpline
 62
7
  6
CONTINUOUS
 70
0
 71
3
 72
23
 73
19
 74
0
 42
0.0000001
 43
0.0000001
 44
0.0000000001
 40
0.0
 40
0.0
 40
0.0
 40
0.0
 40
0.0723863627
 40
0.1435277136
 40
0.2132914826
 40
0.2816143877
 40
0.3484651727
 40
0.4138258032
 40
0.4776964214
 40
0.5401091272
 40
0.6011236465
 40
0.6608295149
 40
0.7193435624
 40
0.7768121274
 40
0.8334073264
 40
0.8893251129
 40
0.9447799417
 40
1.0
 40
1.0
 40
1.0
 40
1.0
 10
40.9912103099
 20
-5.0194206282
 30
0.0
 10
40.9892222741
 20
-5.014550955
 30
0.0
 10
40.9850257747
 20
-5.0049968273
 30
0.0
 10
40.9780251365
 20
-4.9911609276
 30
0.0
 10
40.9703974791
 20
-4.9779996631
 30
0.0
 10
40.9621780325
 20
-4.9655712487
 30
0.0
 10
40.9533999319
 20
-4.9539284095
 30
0.0
 10
40.9441014084
 20
-4.9431192642
 30
0.0
 10
40.9343201905
 20
-4.93319169
 30
0.0
 10
40.9240988371
 20
-4.9241877029
 30
0.0
 10
40.9134796763
 20
-4.9161471218
 30
0.0
 10
40.9025083338
 20
-4.9091041764
 30
0.0
 10
40.8912309386
 20
-4.9030905373
 30
0.0
 10
40.8796959281
 20
-4.8981326001
 30
0.0
 10
40.867952865
 20
-4.8942527763
 30
0.0
 10
40.8560521913
 20
-4.8914689403
 30
0.0
 10
40.8440471568
 20
-4.8897933218
 30
0.0
 10
40.8360001675
 20
-4.8894207259
 30
0.0
 10
40.8319876835
 20
-4.889420815
 30
0.0
  0
SPLINE
  5
473
100
AcDbEntity
  8
0
100
AcDbSpline
 62
7
  6
CONTINUOUS
 70
0
 71
3
 72
11
 73
7
 74
0
 42
0.0000001
 43
0.0000001
 44
0.0000000001
 40
0.0
 40
0.0
 40
0.0
 40
0.0
 40
0.2401732686
 40
0.4850365616
 40
0.7374846583
 40
1.0
 40
1.0
 40
1.0
 40
1.0
 10
40.781152499
 20
-5.3659269792
 30
0.0
 10
40.7817573688
 20
-5.3659269792
 30
0.0
 10
40.7829817629
 20
-5.3660468471
 30
0.0
 10
40.7847744033
 20
-5.36656893
 30
0.0
 10
40.7864972889
 20
-5.3674217053
 30
0.0
 10
40.7875600401
 20
-5.3681744382
 30
0.0
 10
40.7880724097
 20
-5.3685922665
 30
0.0
  0
SPLINE
  5
474
100
AcDbEntity
  8
0
100
AcDbSpline
 62
7
  6
CONTINUOUS
 70
0
 71
3
 72
11
 73
7
 74
0
 42
0.0000001
 43
0.0000001
 44
0.0000000001
 40
0.0
 40
0.0
 40
0.0
 40
0.0
 40
0.2401732686
 40
0.4850365616
 40
0.7374846583
 40
1.0
 40
1.0
 40
1.0
 40
1.0
 10
40.781152499
 20
-4.9329142773
 30
0.0
 10
40.7817573688
 20
-4.9329142773
 30
0.0
 10
40.7829817629
 20
-4.9327944094
 30
0.0
 10
40.7847744033
 20
-4.9322723264
 30
0.0
 10
40.7864972889
 20
-4.9314195511
 30
0.0
 10
40.7875600401
 20
-4.9306668183
 30
0.0
 10
40.7880724097
 20
-4.93024899
 30
0.0
  0
SPLINE
  5
475
100
AcDbEntity
  8
0
100
AcDbSpline
 62
7
  6
CONTINUOUS
 70
0
 71
3
 72
15
 73
11
 74
0
 42
0.0000001
 43
0.0000001
 44
0.0000000001
 40
0.0
 40
0.0
 40
0.0
 40
0.0
 40
0.119057511
 40
0.2387427078
 40
0.3596605012
 40
0.482372663
 40
0.6073780386
 40
0.7351040355
 40
0.8658915427
 40
1.0
 40
1.0
 40
1.0
 40
1.0
 10
40.7966439307
 20
-5.4094204414
 30
0.0
 10
40.7921724393
 20
-5.4094205407
 30
0.0
 10
40.7831990165
 20
-5.4089573138
 30
0.0
 10
40.7698299527
 20
-5.4068749898
 30
0.0
 10
40.7566058139
 20
-5.4034191244
 30
0.0
 10
40.743600728
 20
-5.3986074281
 30
0.0
 10
40.7308831392
 20
-5.3924697116
 30
0.0
 10
40.7185217837
 20
-5.3850379113
 30
0.0
 10
40.7065813585
 20
-5.3763561567
 30
0.0
 10
40.6990400073
 20
-5.3698475081
 30
0.0
 10
40.6953581194
 20
-5.3664105455
 30
0.0
  0
SPLINE
  5
476
100
AcDbEntity
  8
0
100
AcDbSpline
 62
7
  6
CONTINUOUS
 70
0
 71
3
 72
17
 73
13
 74
0
 42
0.0000001
 43
0.0000001
 44
0.0000000001
 40
0.0
 40
0.0
 40
0.0
 40
0.0
 40
0.1189994808
 40
0.2386330948
 40
0.2988987019
 40
0.3595485145
 40
0.4822355288
 40
0.5444348928
 40
0.6072696525
 40
0.7350094912
 40
0.8658344983
 40
1.0
 40
1.0
 40
1.0
 40
1.0
 10
40.7966323444
 20
-4.889420815
 30
0.0
 10
40.7921397748
 20
-4.8894209148
 30
0.0
 10
40.7831241741
 20
-4.8898896277
 30
0.0
 10
40.7719556469
 20
-4.8916385115
 30
0.0
 10
40.7631126551
 20
-4.8937208347
 30
0.0
 10
40.7542748784
 20
-4.8962763145
 30
0.0
 10
40.7455700303
 20
-4.8995130258
 30
0.0
 10
40.7370569829
 20
-4.903391268
 30
0.0
 10
40.72856514
 20
-4.9077520092
 30
0.0
 10
40.718165096
 20
-4.9140373157
 30
0.0
 10
40.7061838557
 20
-4.9227997767
 30
0.0
 10
40.698619222
 20
-4.9293664465
 30
0.0
 10
40.6949271579
 20
-4.9328340401
 30
0.0
  0
SPLINE
  5
477
100
AcDbEntity
  8
0
100
AcDbSpline
 62
7
  6
CONTINUOUS
 70
0
 71
3
 72
19
 73
15
 74
0
 42
0.0000001
 43
0.0000001
 44
0.0000000001
 40
0.0
 40
0.0
 40
0.0
 40
0.0
 40
0.1239135187
 40
0.2486584689
 40
0.3113153546
 40
0.3741210923
 40
0.4370327446
 40
0.5
 40
0.5629672554
 40
0.6258789077
 40
0.6886846454
 40
0.7513415311
 40
0.8760864813
 40
1.0
 40
1.0
 40
1.0
 40
1.0
 10
40.8069162879
 20
-5.0411674528
 30
0.0
 10
40.8051140668
 20
-5.0499964969
 30
0.0
 10
40.8018150994
 20
-5.0677809536
 30
0.0
 10
40.7986632882
 20
-5.0902091297
 30
0.0
 10
40.7968296003
 20
-5.1083137778
 30
0.0
 10
40.7958240959
 20
-5.1219774448
 30
0.0
 10
40.7952118815
 20
-5.1356870556
 30
0.0
 10
40.795005771
 20
-5.1494206282
 30
0.0
 10
40.7952118815
 20
-5.1631542008
 30
0.0
 10
40.7958240959
 20
-5.1768638117
 30
0.0
 10
40.7968296003
 20
-5.1905274787
 30
0.0
 10
40.7986632882
 20
-5.2086321268
 30
0.0
 10
40.8018150994
 20
-5.2310603029
 30
0.0
 10
40.8051140668
 20
-5.2488447596
 30
0.0
 10
40.8069162879
 20
-5.2576738037
 30
0.0
  0
SPLINE
  5
478
100
AcDbEntity
  8
0
100
AcDbSpline
 62
7
  6
CONTINUOUS
 70
0
 71
3
 72
17
 73
13
 74
0
 42
0.0000001
 43
0.0000001
 44
0.0000000001
 40
0.0
 40
0.0
 40
0.0
 40
0.0
 40
0.0507521541
 40
0.1062279752
 40
0.1656818145
 40
0.2283685672
 40
0.3603916239
 40
0.4965882669
 40
0.6320482742
 40
0.7629485808
 40
0.8864675634
 40
1.0
 40
1.0
 40
1.0
 40
1.0
 10
40.9137350205
 20
-5.2576738037
 30
0.0
 10
40.9143093239
 20
-5.2576738037
 30
0.0
 10
40.91551161
 20
-5.2577284009
 30
0.0
 10
40.9173752968
 20
-5.2579425495
 30
0.0
 10
40.9193559553
 20
-5.2582902936
 30
0.0
 10
40.9221605862
 20
-5.2589317582
 30
0.0
 10
40.925750072
 20
-5.2600142767
 30
0.0
 10
40.9300177914
 20
-5.2616527149
 30
0.0
 10
40.9341548784
 20
-5.2635670504
 30
0.0
 10
40.9380340663
 20
-5.2656751753
 30
0.0
 10
40.9415539156
 20
-5.2679050168
 30
0.0
 10
40.9437111615
 20
-5.2695052494
 30
0.0
 10
40.9447062975
 20
-5.2703177746
 30
0.0
  0
SPLINE
  5
479
100
AcDbEntity
  8
0
100
AcDbSpline
 62
7
  6
CONTINUOUS
 70
0
 71
3
 72
17
 73
13
 74
0
 42
0.0000001
 43
0.0000001
 44
0.0000000001
 40
0.0
 40
0.0
 40
0.0
 40
0.0
 40
0.0507521541
 40
0.1062279752
 40
0.1656818145
 40
0.2283685672
 40
0.3603916239
 40
0.4965882669
 40
0.6320482742
 40
0.7629485808
 40
0.8864675634
 40
1.0
 40
1.0
 40
1.0
 40
1.0
 10
40.9137350205
 20
-5.0411674528
 30
0.0
 10
40.9143093239
 20
-5.0411674528
 30
0.0
 10
40.91551161
 20
-5.0411128556
 30
0.0
 10
40.9173752968
 20
-5.040898707
 30
0.0
 10
40.9193559553
 20
-5.0405509628
 30
0.0
 10
40.9221605862
 20
-5.0399094982
 30
0.0
 10
40.925750072
 20
-5.0388269798
 30
0.0
 10
40.9300177914
 20
-5.0371885415
 30
0.0
 10
40.9341548784
 20
-5.0352742061
 30
0.0
 10
40.9380340663
 20
-5.0331660811
 30
0.0
 10
40.9415539156
 20
-5.0309362397
 30
0.0
 10
40.9437111615
 20
-5.0293360071
 30
0.0
 10
40.9447062975
 20
-5.0285234819
 30
0.0
  0
SPLINE
  5
47A
100
AcDbEntity
  8
0
100
AcDbSpline
 62
7
  6
CONTINUOUS
 70
0
 71
3
 72
15
 73
11
 74
0
 42
0.0000001
 43
0.0000001
 44
0.0000000001
 40
0.0
 40
0.0
 40
0.0
 40
0.0
 40
0.1453524083
 40
0.2868079831
 40
0.4230969843
 40
0.5529474777
 40
0.6754525845
 40
0.7903911539
 40
0.8982555593
 40
1.0
 40
1.0
 40
1.0
 40
1.0
 10
40.8069162879
 20
-5.2576738037
 30
0.0
 10
40.7998086721
 20
-5.2620263117
 30
0.0
 10
40.7858691295
 20
-5.2707552617
 30
0.0
 10
40.765648992
 20
-5.2841666811
 30
0.0
 10
40.7466098187
 20
-5.29773051
 30
0.0
 10
40.7290002997
 20
-5.3113995243
 30
0.0
 10
40.7129944928
 20
-5.3251010951
 30
0.0
 10
40.6986381613
 20
-5.3387501962
 30
0.0
 10
40.6858412897
 20
-5.3522722886
 30
0.0
 10
40.6780234893
 20
-5.36140801
 30
0.0
 10
40.6743337664
 20
-5.3659269792
 30
0.0
  0
SPLINE
  5
47B
100
AcDbEntity
  8
0
100
AcDbSpline
 62
7
  6
CONTINUOUS
 70
0
 71
3
 72
9
 73
5
 74
0
 42
0.0000001
 43
0.0000001
 44
0.0000000001
 40
0.0
 40
0.0
 40
0.0
 40
0.0
 40
0.5053699307
 40
1.0
 40
1.0
 40
1.0
 40
1.0
 10
40.9558549708
 20
-5.0194206282
 30
0.0
 10
40.9534644851
 20
-5.013565158
 30
0.0
 10
40.9483671751
 20
-5.0021247594
 30
0.0
 10
40.9425236432
 20
-4.9910455369
 30
0.0
 10
40.9394448181
 20
-4.9856752766
 30
0.0
  0
SPLINE
  5
47C
100
AcDbEntity
  8
0
100
AcDbSpline
 62
7
  6
CONTINUOUS
 70
0
 71
3
 72
21
 73
17
 74
0
 42
0.0000001
 43
0.0000001
 44
0.0000000001
 40
0.0
 40
0.0
 40
0.0
 40
0.0
 40
0.1409037921
 40
0.2094606649
 40
0.2767188217
 40
0.4072915637
 40
0.4707168939
 40
0.532947487
 40
0.5940561555
 40
0.6541316856
 40
0.7132821329
 40
0.7716321156
 40
0.8293208944
 40
0.8865019298
 40
0.9433379855
 40
1.0
 40
1.0
 40
1.0
 40
1.0
 10
40.9394448181
 20
-4.9856752766
 30
0.0
 10
40.9352297186
 20
-4.9783230624
 30
0.0
 10
40.9284305523
 20
-4.9676831046
 30
0.0
 10
40.9183768097
 20
-4.9544110042
 30
0.0
 10
40.9080162091
 20
-4.9421815857
 30
0.0
 10
40.8968528821
 20
-4.9310607351
 30
0.0
 10
40.8849653923
 20
-4.9212400634
 30
0.0
 10
40.8758588826
 20
-4.9146490721
 30
0.0
 10
40.8665064834
 20
-4.9087828049
 30
0.0
 10
40.856935815
 20
-4.9036603678
 30
0.0
 10
40.8471767176
 20
-4.899298029
 30
0.0
 10
40.8372596392
 20
-4.8957088347
 30
0.0
 10
40.8272149109
 20
-4.8929060531
 30
0.0
 10
40.8170742411
 20
-4.8908968058
 30
0.0
 10
40.8068698192
 20
-4.8896892321
 30
0.0
 10
40.8000403354
 20
-4.8894207393
 30
0.0
 10
40.7966323444
 20
-4.889420815
 30
0.0
  0
SPLINE
  5
47D
100
AcDbEntity
  8
0
100
AcDbSpline
 62
7
  6
CONTINUOUS
 70
0
 71
3
 72
19
 73
15
 74
0
 42
0.0000001
 43
0.0000001
 44
0.0000000001
 40
0.0
 40
0.0
 40
0.0
 40
0.0
 40
0.0607988999
 40
0.1226154382
 40
0.1852676822
 40
0.2486092977
 40
0.3124835742
 40
0.376713916
 40
0.5054802096
 40
0.6335154076
 40
0.7594199491
 40
0.8211934175
 40
0.8819716417
 40
1.0
 40
1.0
 40
1.0
 40
1.0
 10
40.9558549708
 20
-5.0194206282
 30
0.0
 10
40.9581717714
 20
-5.0250956076
 30
0.0
 10
40.9624949819
 20
-5.0366861965
 30
0.0
 10
40.9679941222
 20
-5.0545470123
 30
0.0
 10
40.9725319762
 20
-5.0729404535
 30
0.0
 10
40.9760840339
 20
-5.0917598723
 30
0.0
 10
40.9786309267
 20
-5.1109023845
 30
0.0
 10
40.980668802
 20
-5.1367295454
 30
0.0
 10
40.9806419476
 20
-5.1691620826
 30
0.0
 10
40.9765274019
 20
-5.2075959629
 30
0.0
 10
40.9697250024
 20
-5.2387634705
 30
0.0
 10
40.962308774
 20
-5.2627034356
 30
0.0
 10
40.9537859512
 20
-5.2854210647
 30
0.0
 10
40.9459378574
 20
-5.3017197801
 30
0.0
 10
40.9400688295
 20
-5.3120712224
 30
0.0
  0
SPLINE
  5
47E
100
AcDbEntity
  8
0
100
AcDbSpline
 62
7
  6
CONTINUOUS
 70
0
 71
3
 72
20
 73
16
 74
0
 42
0.0000001
 43
0.0000001
 44
0.0000000001
 40
0.0
 40
0.0
 40
0.0
 40
0.0
 40
0.1410155942
 40
0.276870466
 40
0.4075028347
 40
0.4709452369
 40
0.5331840148
 40
0.594289866
 40
0.6543539183
 40
0.7134833306
 40
0.7718041018
 40
0.8294568544
 40
0.8865957751
 40
0.9433861272
 40
1.0
 40
1.0
 40
1.0
 40
1.0
 10
40.9400688295
 20
-5.3120712224
 30
0.0
 10
40.9358568907
 20
-5.3194999896
 30
0.0
 10
40.9268751504
 20
-5.3336989113
 30
0.0
 10
40.9115342184
 20
-5.353087113
 30
0.0
 10
40.8973991451
 20
-5.3672823615
 30
0.0
 10
40.8854614047
 20
-5.3772170814
 30
0.0
 10
40.8763144912
 20
-5.3838860225
 30
0.0
 10
40.8669161574
 20
-5.3898210654
 30
0.0
 10
40.8572964345
 20
-5.39500522
 30
0.0
 10
40.8474845196
 20
-5.3994202535
 30
0.0
 10
40.8375116224
 20
-5.403052708
 30
0.0
 10
40.8274091111
 20
-5.4058909209
 30
0.0
 10
40.8172084265
 20
-5.4079243335
 30
0.0
 10
40.8069431136
 20
-5.4091481247
 30
0.0
 10
40.8000723973
 20
-5.4094203653
 30
0.0
 10
40.7966439307
 20
-5.4094204414
 30
0.0
  0
SPLINE
  5
47F
100
AcDbEntity
  8
0
100
AcDbSpline
 62
7
  6
CONTINUOUS
 70
0
 71
3
 72
45
 73
41
 74
0
 42
0.0000001
 43
0.0000001
 44
0.0000000001
 40
0.0
 40
0.0
 40
0.0
 40
0.0
 40
0.0128513267
 40
0.0257402646
 40
0.038691441
 40
0.051730823
 40
0.0648871307
 40
0.0781878531
 40
0.1053036192
 40
0.1332505709
 40
0.1621439873
 40
0.1920543393
 40
0.2230077703
 40
0.2549895349
 40
0.287948694
 40
0.3218028922
 40
0.3564428168
 40
0.3917370601
 40
0.4275370898
 40
0.4636814477
 40
0.5
 40
0.5363185523
 40
0.5724629102
 40
0.6082629399
 40
0.6435571832
 40
0.6781971078
 40
0.712051306
 40
0.7450104651
 40
0.7769922297
 40
0.8079456607
 40
0.8378560127
 40
0.8667494291
 40
0.8946963808
 40
0.9218121469
 40
0.9351128693
 40
0.948269177
 40
0.961308559
 40
0.9742597354
 40
0.9871486733
 40
1.0
 40
1.0
 40
1.0
 40
1.0
 10
40.6622878491
 20
-4.9624206282
 30
0.0
 10
40.664451082
 20
-4.9624206282
 30
0.0
 10
40.6687853684
 20
-4.9625716289
 30
0.0
 10
40.6752678662
 20
-4.9632485406
 30
0.0
 10
40.6817200166
 20
-4.9643747146
 30
0.0
 10
40.6881239748
 20
-4.9659482561
 30
0.0
 10
40.6944646092
 20
-4.9679641593
 30
0.0
 10
40.7028659381
 20
-4.9712559022
 30
0.0
 10
40.7131542669
 20
-4.9764838504
 30
0.0
 10
40.7249118884
 20
-4.9843811142
 30
0.0
 10
40.7360557797
 20
-4.9938633158
 30
0.0
 10
40.7464802134
 20
-5.0048358707
 30
0.0
 10
40.7560881254
 20
-5.0171922947
 30
0.0
 10
40.7647901416
 20
-5.0308129883
 30
0.0
 10
40.7725051486
 20
-5.04556724
 30
0.0
 10
40.779160562
 20
-5.0613140697
 30
0.0
 10
40.7846936425
 20
-5.0779030245
 30
0.0
 10
40.7890525565
 20
-5.0951754858
 30
0.0
 10
40.7921960578
 20
-5.1129664705
 30
0.0
 10
40.7940939817
 20
-5.131106005
 30
0.0
 10
40.7947285624
 20
-5.1494206282
 30
0.0
 10
40.7940939817
 20
-5.1677352515
 30
0.0
 10
40.7921960578
 20
-5.1858747859
 30
0.0
 10
40.7890525565
 20
-5.2036657707
 30
0.0
 10
40.7846936425
 20
-5.220938232
 30
0.0
 10
40.779160562
 20
-5.2375271868
 30
0.0
 10
40.7725051486
 20
-5.2532740164
 30
0.0
 10
40.7647901416
 20
-5.2680282682
 30
0.0
 10
40.7560881254
 20
-5.2816489618
 30
0.0
 10
40.7464802134
 20
-5.2940053858
 30
0.0
 10
40.7360557797
 20
-5.3049779407
 30
0.0
 10
40.7249118884
 20
-5.3144601422
 30
0.0
 10
40.7131542669
 20
-5.3223574061
 30
0.0
 10
40.7028659381
 20
-5.3275853542
 30
0.0
 10
40.6944646092
 20
-5.3308770971
 30
0.0
 10
40.6881239748
 20
-5.3328930004
 30
0.0
 10
40.6817200166
 20
-5.3344665419
 30
0.0
 10
40.6752678662
 20
-5.3355927158
 30
0.0
 10
40.6687853684
 20
-5.3362696275
 30
0.0
 10
40.664451082
 20
-5.3364206282
 30
0.0
 10
40.6622878491
 20
-5.3364206282
 30
0.0
  0
SPLINE
  5
480
100
AcDbEntity
  8
0
100
AcDbSpline
 62
7
  6
CONTINUOUS
 70
0
 71
3
 72
15
 73
11
 74
0
 42
0.0000001
 43
0.0000001
 44
0.0000000001
 40
0.0
 40
0.0
 40
0.0
 40
0.0
 40
0.1093848924
 40
0.2247529651
 40
0.3455303054
 40
0.4709316038
 40
0.5999829275
 40
0.7318632405
 40
0.865594525
 40
1.0
 40
1.0
 40
1.0
 40
1.0
 10
40.7880724097
 20
-5.3685922665
 30
0.0
 10
40.7887762903
 20
-5.3691662686
 30
0.0
 10
40.7901135989
 20
-5.3704828638
 30
0.0
 10
40.7918347433
 20
-5.3727889969
 30
0.0
 10
40.7933067054
 20
-5.3754139666
 30
0.0
 10
40.7945190476
 20
-5.3782902387
 30
0.0
 10
40.7954652205
 20
-5.3813604337
 30
0.0
 10
40.7961418456
 20
-5.3845711821
 30
0.0
 10
40.7965476555
 20
-5.3878714383
 30
0.0
 10
40.7966381375
 20
-5.3900989132
 30
0.0
 10
40.7966381375
 20
-5.391214921
 30
0.0
  0
SPLINE
  5
481
100
AcDbEntity
  8
0
100
AcDbSpline
 62
7
  6
CONTINUOUS
 70
0
 71
3
 72
15
 73
11
 74
0
 42
0.0000001
 43
0.0000001
 44
0.0000000001
 40
0.0
 40
0.0
 40
0.0
 40
0.0
 40
0.1017444407
 40
0.2096088461
 40
0.3245474155
 40
0.4470525223
 40
0.5769030157
 40
0.7131920169
 40
0.8546475917
 40
1.0
 40
1.0
 40
1.0
 40
1.0
 10
40.6743337664
 20
-4.9329142773
 30
0.0
 10
40.6780234893
 20
-4.9374332464
 30
0.0
 10
40.6858412897
 20
-4.9465689679
 30
0.0
 10
40.6986381613
 20
-4.9600910603
 30
0.0
 10
40.7129944928
 20
-4.9737401614
 30
0.0
 10
40.7290002997
 20
-4.9874417322
 30
0.0
 10
40.7466098187
 20
-5.0011107465
 30
0.0
 10
40.765648992
 20
-5.0146745754
 30
0.0
 10
40.7858691295
 20
-5.0280859948
 30
0.0
 10
40.7998086721
 20
-5.0368149448
 30
0.0
 10
40.8069162879
 20
-5.0411674528
 30
0.0
  0
SPLINE
  5
482
100
AcDbEntity
  8
0
100
AcDbSpline
 62
7
  6
CONTINUOUS
 70
0
 71
3
 72
15
 73
11
 74
0
 42
0.0000001
 43
0.0000001
 44
0.0000000001
 40
0.0
 40
0.0
 40
0.0
 40
0.0
 40
0.1093848924
 40
0.2247529651
 40
0.3455303054
 40
0.4709316038
 40
0.5999829275
 40
0.7318632405
 40
0.865594525
 40
1.0
 40
1.0
 40
1.0
 40
1.0
 10
40.7880724097
 20
-4.93024899
 30
0.0
 10
40.7887762903
 20
-4.9296749878
 30
0.0
 10
40.7901135989
 20
-4.9283583926
 30
0.0
 10
40.7918347433
 20
-4.9260522596
 30
0.0
 10
40.7933067054
 20
-4.9234272898
 30
0.0
 10
40.7945190476
 20
-4.9205510178
 30
0.0
 10
40.7954652205
 20
-4.9174808228
 30
0.0
 10
40.7961418456
 20
-4.9142700743
 30
0.0
 10
40.7965476555
 20
-4.9109698182
 30
0.0
 10
40.7966381375
 20
-4.9087423432
 30
0.0
 10
40.7966381375
 20
-4.9076263355
 30
0.0
  0
SPLINE
  5
483
100
AcDbEntity
  8
0
100
AcDbSpline
 62
7
  6
CONTINUOUS
 70
0
 71
3
 72
45
 73
41
 74
0
 42
0.0000001
 43
0.0000001
 44
0.0000000001
 40
0.0
 40
0.0
 40
0.0
 40
0.0
 40
0.0128513267
 40
0.0257402646
 40
0.038691441
 40
0.051730823
 40
0.0648871307
 40
0.0781878531
 40
0.1053036192
 40
0.1332505709
 40
0.1621439873
 40
0.1920543393
 40
0.2230077703
 40
0.2549895349
 40
0.287948694
 40
0.3218028922
 40
0.3564428168
 40
0.3917370601
 40
0.4275370898
 40
0.4636814477
 40
0.5
 40
0.5363185523
 40
0.5724629102
 40
0.6082629399
 40
0.6435571832
 40
0.6781971078
 40
0.712051306
 40
0.7450104651
 40
0.7769922297
 40
0.8079456607
 40
0.8378560127
 40
0.8667494291
 40
0.8946963808
 40
0.9218121469
 40
0.9351128693
 40
0.948269177
 40
0.961308559
 40
0.9742597354
 40
0.9871486733
 40
1.0
 40
1.0
 40
1.0
 40
1.0
 10
40.6622878491
 20
-5.3364206282
 30
0.0
 10
40.6601246162
 20
-5.3364206282
 30
0.0
 10
40.6557903298
 20
-5.3362696275
 30
0.0
 10
40.6493078321
 20
-5.3355927158
 30
0.0
 10
40.6428556817
 20
-5.3344665419
 30
0.0
 10
40.6364517234
 20
-5.3328930004
 30
0.0
 10
40.6301110891
 20
-5.3308770971
 30
0.0
 10
40.6217097601
 20
-5.3275853542
 30
0.0
 10
40.6114214313
 20
-5.3223574061
 30
0.0
 10
40.5996638098
 20
-5.3144601422
 30
0.0
 10
40.5885199185
 20
-5.3049779407
 30
0.0
 10
40.5780954848
 20
-5.2940053858
 30
0.0
 10
40.5684875729
 20
-5.2816489618
 30
0.0
 10
40.5597855566
 20
-5.2680282682
 30
0.0
 10
40.5520705496
 20
-5.2532740164
 30
0.0
 10
40.5454151362
 20
-5.2375271868
 30
0.0
 10
40.5398820557
 20
-5.220938232
 30
0.0
 10
40.5355231418
 20
-5.2036657707
 30
0.0
 10
40.5323796404
 20
-5.1858747859
 30
0.0
 10
40.5304817165
 20
-5.1677352515
 30
0.0
 10
40.5298471358
 20
-5.1494206282
 30
0.0
 10
40.5304817165
 20
-5.131106005
 30
0.0
 10
40.5323796404
 20
-5.1129664705
 30
0.0
 10
40.5355231418
 20
-5.0951754858
 30
0.0
 10
40.5398820557
 20
-5.0779030245
 30
0.0
 10
40.5454151362
 20
-5.0613140697
 30
0.0
 10
40.5520705496
 20
-5.04556724
 30
0.0
 10
40.5597855566
 20
-5.0308129883
 30
0.0
 10
40.5684875729
 20
-5.0171922947
 30
0.0
 10
40.5780954848
 20
-5.0048358707
 30
0.0
 10
40.5885199185
 20
-4.9938633158
 30
0.0
 10
40.5996638098
 20
-4.9843811142
 30
0.0
 10
40.6114214313
 20
-4.9764838504
 30
0.0
 10
40.6217097601
 20
-4.9712559022
 30
0.0
 10
40.6301110891
 20
-4.9679641593
 30
0.0
 10
40.6364517234
 20
-4.9659482561
 30
0.0
 10
40.6428556817
 20
-4.9643747146
 30
0.0
 10
40.6493078321
 20
-4.9632485406
 30
0.0
 10
40.6557903298
 20
-4.9625716289
 30
0.0
 10
40.6601246162
 20
-4.9624206282
 30
0.0
 10
40.6622878491
 20
-4.9624206282
 30
0.0
  0
SPLINE
  5
484
100
AcDbEntity
  8
0
100
AcDbSpline
 62
7
  6
CONTINUOUS
 70
0
 71
3
 72
15
 73
11
 74
0
 42
0.0000001
 43
0.0000001
 44
0.0000000001
 40
0.0
 40
0.0
 40
0.0
 40
0.0
 40
0.1453524083
 40
0.2868079831
 40
0.4230969843
 40
0.5529474777
 40
0.6754525845
 40
0.7903911539
 40
0.8982555593
 40
1.0
 40
1.0
 40
1.0
 40
1.0
 10
54.3539713512
 20
-4.9329142773
 30
0.0
 10
54.361078967
 20
-4.9372667853
 30
0.0
 10
54.3750185095
 20
-4.9459957352
 30
0.0
 10
54.395238647
 20
-4.9594071547
 30
0.0
 10
54.4142778204
 20
-4.9729709836
 30
0.0
 10
54.4318873394
 20
-4.9866399979
 30
0.0
 10
54.4478931463
 20
-5.0003415687
 30
0.0
 10
54.4622494778
 20
-5.0139906698
 30
0.0
 10
54.4750463494
 20
-5.0275127622
 30
0.0
 10
54.4828641498
 20
-5.0366484836
 30
0.0
 10
54.4865538726
 20
-5.0411674528
 30
0.0
  0
SPLINE
  5
485
100
AcDbEntity
  8
0
100
AcDbSpline
 62
7
  6
CONTINUOUS
 70
0
 71
3
 72
19
 73
15
 74
0
 42
0.0000001
 43
0.0000001
 44
0.0000000001
 40
0.0
 40
0.0
 40
0.0
 40
0.0
 40
0.1239135187
 40
0.2486584689
 40
0.3113153546
 40
0.3741210923
 40
0.4370327446
 40
0.5
 40
0.5629672554
 40
0.6258789077
 40
0.6886846454
 40
0.7513415311
 40
0.8760864813
 40
1.0
 40
1.0
 40
1.0
 40
1.0
 10
54.4865538726
 20
-5.0411674528
 30
0.0
 10
54.4883560937
 20
-5.0499964969
 30
0.0
 10
54.4916550611
 20
-5.0677809536
 30
0.0
 10
54.4948068724
 20
-5.0902091297
 30
0.0
 10
54.4966405602
 20
-5.1083137778
 30
0.0
 10
54.4976460647
 20
-5.1219774448
 30
0.0
 10
54.498258279
 20
-5.1356870556
 30
0.0
 10
54.4984643896
 20
-5.1494206282
 30
0.0
 10
54.498258279
 20
-5.1631542008
 30
0.0
 10
54.4976460647
 20
-5.1768638117
 30
0.0
 10
54.4966405602
 20
-5.1905274787
 30
0.0
 10
54.4948068724
 20
-5.2086321268
 30
0.0
 10
54.4916550611
 20
-5.2310603029
 30
0.0
 10
54.4883560937
 20
-5.2488447596
 30
0.0
 10
54.4865538726
 20
-5.2576738037
 30
0.0
  0
SPLINE
  5
486
100
AcDbEntity
  8
0
100
AcDbSpline
 62
7
  6
CONTINUOUS
 70
0
 71
3
 72
15
 73
11
 74
0
 42
0.0000001
 43
0.0000001
 44
0.0000000001
 40
0.0
 40
0.0
 40
0.0
 40
0.0
 40
0.1017444407
 40
0.2096088461
 40
0.3245474155
 40
0.4470525223
 40
0.5769030157
 40
0.7131920169
 40
0.8546475917
 40
1.0
 40
1.0
 40
1.0
 40
1.0
 10
54.4865538726
 20
-5.2576738037
 30
0.0
 10
54.4828641498
 20
-5.2621927728
 30
0.0
 10
54.4750463494
 20
-5.2713284943
 30
0.0
 10
54.4622494778
 20
-5.2848505867
 30
0.0
 10
54.4478931463
 20
-5.2984996878
 30
0.0
 10
54.4318873394
 20
-5.3122012586
 30
0.0
 10
54.4142778204
 20
-5.3258702729
 30
0.0
 10
54.395238647
 20
-5.3394341018
 30
0.0
 10
54.3750185095
 20
-5.3528455212
 30
0.0
 10
54.361078967
 20
-5.3615744712
 30
0.0
 10
54.3539713512
 20
-5.3659269792
 30
0.0
  0
SPLINE
  5
487
100
AcDbEntity
  8
0
100
AcDbSpline
 62
7
  6
CONTINUOUS
 70
0
 71
3
 72
15
 73
11
 74
0
 42
0.0000001
 43
0.0000001
 44
0.0000000001
 40
0.0
 40
0.0
 40
0.0
 40
0.0
 40
0.1341084573
 40
0.2648959645
 40
0.3926219614
 40
0.517627337
 40
0.6403394988
 40
0.7612572922
 40
0.880942489
 40
1.0
 40
1.0
 40
1.0
 40
1.0
 10
54.3329469983
 20
-4.9324307109
 30
0.0
 10
54.3292651104
 20
-4.9289937484
 30
0.0
 10
54.3217237591
 20
-4.9224850997
 30
0.0
 10
54.309783334
 20
-4.9138033451
 30
0.0
 10
54.2974219785
 20
-4.9063715449
 30
0.0
 10
54.2847043896
 20
-4.9002338284
 30
0.0
 10
54.2716993038
 20
-4.895422132
 30
0.0
 10
54.2584751649
 20
-4.8919662667
 30
0.0
 10
54.2451061011
 20
-4.8898839426
 30
0.0
 10
54.2361326783
 20
-4.8894207157
 30
0.0
 10
54.2316611869
 20
-4.889420815
 30
0.0
  0
SPLINE
  5
488
100
AcDbEntity
  8
0
100
AcDbSpline
 62
7
  6
CONTINUOUS
 70
0
 71
3
 72
17
 73
13
 74
0
 42
0.0000001
 43
0.0000001
 44
0.0000000001
 40
0.0
 40
0.0
 40
0.0
 40
0.0
 40
0.1341655017
 40
0.2649905088
 40
0.3927303475
 40
0.4555651072
 40
0.5177644712
 40
0.6404514855
 40
0.7011012981
 40
0.7613669052
 40
0.8810005192
 40
1.0
 40
1.0
 40
1.0
 40
1.0
 10
54.3333779597
 20
-5.3660072164
 30
0.0
 10
54.3296858956
 20
-5.36947481
 30
0.0
 10
54.3221212619
 20
-5.3760414798
 30
0.0
 10
54.3101400216
 20
-5.3848039408
 30
0.0
 10
54.2997399776
 20
-5.3910892473
 30
0.0
 10
54.2912481347
 20
-5.3954499885
 30
0.0
 10
54.2827350873
 20
-5.3993282306
 30
0.0
 10
54.2740302392
 20
-5.402564942
 30
0.0
 10
54.2651924626
 20
-5.4051204217
 30
0.0
 10
54.2563494708
 20
-5.4072027449
 30
0.0
 10
54.2451809435
 20
-5.4089516288
 30
0.0
 10
54.2361653428
 20
-5.4094203417
 30
0.0
 10
54.2316727732
 20
-5.4094204414
 30
0.0
  0
SPLINE
  5
489
100
AcDbEntity
  8
0
100
AcDbSpline
 62
7
  6
CONTINUOUS
 70
0
 71
3
 72
11
 73
7
 74
0
 42
0.0000001
 43
0.0000001
 44
0.0000000001
 40
0.0
 40
0.0
 40
0.0
 40
0.0
 40
0.2401732686
 40
0.4850365616
 40
0.7374846583
 40
1.0
 40
1.0
 40
1.0
 40
1.0
 10
54.2471526186
 20
-5.3659269792
 30
0.0
 10
54.2465477488
 20
-5.3659269792
 30
0.0
 10
54.2453233548
 20
-5.3660468471
 30
0.0
 10
54.2435307143
 20
-5.36656893
 30
0.0
 10
54.2418078287
 20
-5.3674217053
 30
0.0
 10
54.2407450775
 20
-5.3681744382
 30
0.0
 10
54.2402327079
 20
-5.3685922665
 30
0.0
  0
SPLINE
  5
48A
100
AcDbEntity
  8
0
100
AcDbSpline
 62
7
  6
CONTINUOUS
 70
0
 71
3
 72
11
 73
7
 74
0
 42
0.0000001
 43
0.0000001
 44
0.0000000001
 40
0.0
 40
0.0
 40
0.0
 40
0.0
 40
0.2401732686
 40
0.4850365616
 40
0.7374846583
 40
1.0
 40
1.0
 40
1.0
 40
1.0
 10
54.2471526186
 20
-4.9329142773
 30
0.0
 10
54.2465477488
 20
-4.9329142773
 30
0.0
 10
54.2453233548
 20
-4.9327944094
 30
0.0
 10
54.2435307143
 20
-4.9322723264
 30
0.0
 10
54.2418078287
 20
-4.9314195511
 30
0.0
 10
54.2407450775
 20
-4.9306668183
 30
0.0
 10
54.2402327079
 20
-4.93024899
 30
0.0
  0
SPLINE
  5
48B
100
AcDbEntity
  8
0
100
AcDbSpline
 62
7
  6
CONTINUOUS
 70
0
 71
3
 72
23
 73
19
 74
0
 42
0.0000001
 43
0.0000001
 44
0.0000000001
 40
0.0
 40
0.0
 40
0.0
 40
0.0
 40
0.0552200583
 40
0.1106748871
 40
0.1665926736
 40
0.2231878726
 40
0.2806564376
 40
0.3391704851
 40
0.3988763535
 40
0.4598908728
 40
0.5223035786
 40
0.5861741968
 40
0.6515348273
 40
0.7183856123
 40
0.7867085174
 40
0.8564722864
 40
0.9276136373
 40
1.0
 40
1.0
 40
1.0
 40
1.0
 10
54.1963174342
 20
-5.4094204414
 30
0.0
 10
54.1923049501
 20
-5.4094205306
 30
0.0
 10
54.1842579608
 20
-5.4090479347
 30
0.0
 10
54.1722529263
 20
-5.4073723162
 30
0.0
 10
54.1603522527
 20
-5.4045884801
 30
0.0
 10
54.1486091895
 20
-5.4007086564
 30
0.0
 10
54.137074179
 20
-5.3957507192
 30
0.0
 10
54.1257967839
 20
-5.38973708
 30
0.0
 10
54.1148254413
 20
-5.3826941346
 30
0.0
 10
54.1042062805
 20
-5.3746535536
 30
0.0
 10
54.0939849271
 20
-5.3656495664
 30
0.0
 10
54.0842037092
 20
-5.3557219922
 30
0.0
 10
54.0749051857
 20
-5.344912847
 30
0.0
 10
54.0661270851
 20
-5.3332700078
 30
0.0
 10
54.0579076386
 20
-5.3208415934
 30
0.0
 10
54.0502799811
 20
-5.3076803289
 30
0.0
 10
54.0432793429
 20
-5.2938444292
 30
0.0
 10
54.0390828435
 20
-5.2842903014
 30
0.0
 10
54.0370948077
 20
-5.2794206282
 30
0.0
  0
SPLINE
  5
48C
100
AcDbEntity
  8
0
100
AcDbSpline
 62
7
  6
CONTINUOUS
 70
0
 71
3
 72
33
 73
29
 74
0
 42
0.0000001
 43
0.0000001
 44
0.0000000001
 40
0.0
 40
0.0
 40
0.0
 40
0.0
 40
0.0248617031
 40
0.0498293083
 40
0.0750052916
 40
0.1004865152
 40
0.1263607673
 40
0.1527060222
 40
0.1795875392
 40
0.2070587667
 40
0.2351590604
 40
0.2639158084
 40
0.293342707
 40
0.3234424266
 40
0.3855854026
 40
0.4501825721
 40
0.5169033937
 40
0.585309275
 40
0.6548820701
 40
0.7250511664
 40
0.7601826356
 40
0.7952393726
 40
0.8301469022
 40
0.8648309296
 40
0.8992215798
 40
0.9332580601
 40
0.9668772299
 40
1.0
 40
1.0
 40
1.0
 40
1.0
 10
54.1963058479
 20
-4.889420815
 30
0.0
 10
54.1922935449
 20
-4.8894209041
 30
0.0
 10
54.1842469086
 20
-4.8897943577
 30
0.0
 10
54.1722425437
 20
-4.8914710225
 30
0.0
 10
54.16034241
 20
-4.8942553323
 30
0.0
 10
54.148600209
 20
-4.8981363245
 30
0.0
 10
54.1370656253
 20
-4.9030942823
 30
0.0
 10
54.1257893152
 20
-4.9091090147
 30
0.0
 10
54.1148181991
 20
-4.9161516336
 30
0.0
 10
54.1042003185
 20
-4.9241931957
 30
0.0
 10
54.0939790496
 20
-4.9331966762
 30
0.0
 10
54.0841993114
 20
-4.9431247475
 30
0.0
 10
54.0749003899
 20
-4.9539334189
 30
0.0
 10
54.0630741384
 20
-4.9696224046
 30
0.0
 10
54.0497529673
 20
-4.9912218556
 30
0.0
 10
54.0364460415
 20
-5.0195316893
 30
0.0
 10
54.0258595678
 20
-5.0500359919
 30
0.0
 10
54.0181702199
 20
-5.0822177727
 30
0.0
 10
54.0135049169
 20
-5.1155330057
 30
0.0
 10
54.012201996
 20
-5.143768861
 30
0.0
 10
54.0127260855
 20
-5.1664209187
 30
0.0
 10
54.0139034612
 20
-5.1833472946
 30
0.0
 10
54.0158609566
 20
-5.2001282584
 30
0.0
 10
54.0185885098
 20
-5.2166926803
 30
0.0
 10
54.0220763255
 20
-5.232970217
 30
0.0
 10
54.0263088746
 20
-5.2488927847
 30
0.0
 10
54.0312688394
 20
-5.2643890104
 30
0.0
 10
54.0350743932
 20
-5.2744716437
 30
0.0
 10
54.0370948077
 20
-5.2794206282
 30
0.0
  0
SPLINE
  5
48D
100
AcDbEntity
  8
0
100
AcDbSpline
 62
7
  6
CONTINUOUS
 70
0
 71
3
 72
17
 73
13
 74
0
 42
0.0000001
 43
0.0000001
 44
0.0000000001
 40
0.0
 40
0.0
 40
0.0
 40
0.0
 40
0.0507521541
 40
0.1062279752
 40
0.1656818145
 40
0.2283685672
 40
0.3603916239
 40
0.4965882669
 40
0.6320482742
 40
0.7629485808
 40
0.8864675634
 40
1.0
 40
1.0
 40
1.0
 40
1.0
 10
54.1145700971
 20
-5.2576738037
 30
0.0
 10
54.1139957938
 20
-5.2576738037
 30
0.0
 10
54.1127935077
 20
-5.2577284009
 30
0.0
 10
54.1109298208
 20
-5.2579425495
 30
0.0
 10
54.1089491623
 20
-5.2582902936
 30
0.0
 10
54.1061445314
 20
-5.2589317582
 30
0.0
 10
54.1025550456
 20
-5.2600142767
 30
0.0
 10
54.0982873262
 20
-5.2616527149
 30
0.0
 10
54.0941502393
 20
-5.2635670504
 30
0.0
 10
54.0902710513
 20
-5.2656751753
 30
0.0
 10
54.086751202
 20
-5.2679050168
 30
0.0
 10
54.0845939562
 20
-5.2695052494
 30
0.0
 10
54.0835988201
 20
-5.2703177746
 30
0.0
  0
SPLINE
  5
48E
100
AcDbEntity
  8
0
100
AcDbSpline
 62
7
  6
CONTINUOUS
 70
0
 71
3
 72
45
 73
41
 74
0
 42
0.0000001
 43
0.0000001
 44
0.0000000001
 40
0.0
 40
0.0
 40
0.0
 40
0.0
 40
0.0128513267
 40
0.0257402646
 40
0.038691441
 40
0.051730823
 40
0.0648871307
 40
0.0781878531
 40
0.1053036192
 40
0.1332505709
 40
0.1621439873
 40
0.1920543393
 40
0.2230077703
 40
0.2549895349
 40
0.287948694
 40
0.3218028922
 40
0.3564428168
 40
0.3917370601
 40
0.4275370898
 40
0.4636814477
 40
0.5
 40
0.5363185523
 40
0.5724629102
 40
0.6082629399
 40
0.6435571832
 40
0.6781971078
 40
0.712051306
 40
0.7450104651
 40
0.7769922297
 40
0.8079456607
 40
0.8378560127
 40
0.8667494291
 40
0.8946963808
 40
0.9218121469
 40
0.9351128693
 40
0.948269177
 40
0.961308559
 40
0.9742597354
 40
0.9871486733
 40
1.0
 40
1.0
 40
1.0
 40
1.0
 10
54.3660172685
 20
-4.9624206282
 30
0.0
 10
54.3681805014
 20
-4.9624206282
 30
0.0
 10
54.3725147878
 20
-4.9625716289
 30
0.0
 10
54.3789972855
 20
-4.9632485406
 30
0.0
 10
54.385449436
 20
-4.9643747146
 30
0.0
 10
54.3918533942
 20
-4.9659482561
 30
0.0
 10
54.3981940285
 20
-4.9679641593
 30
0.0
 10
54.4065953575
 20
-4.9712559022
 30
0.0
 10
54.4168836863
 20
-4.9764838504
 30
0.0
 10
54.4286413078
 20
-4.9843811142
 30
0.0
 10
54.4397851991
 20
-4.9938633158
 30
0.0
 10
54.4502096328
 20
-5.0048358707
 30
0.0
 10
54.4598175448
 20
-5.0171922947
 30
0.0
 10
54.468519561
 20
-5.0308129883
 30
0.0
 10
54.476234568
 20
-5.04556724
 30
0.0
 10
54.4828899814
 20
-5.0613140697
 30
0.0
 10
54.4884230619
 20
-5.0779030245
 30
0.0
 10
54.4927819758
 20
-5.0951754858
 30
0.0
 10
54.4959254772
 20
-5.1129664705
 30
0.0
 10
54.4978234011
 20
-5.131106005
 30
0.0
 10
54.4984579818
 20
-5.1494206282
 30
0.0
 10
54.4978234011
 20
-5.1677352515
 30
0.0
 10
54.4959254772
 20
-5.1858747859
 30
0.0
 10
54.4927819758
 20
-5.2036657707
 30
0.0
 10
54.4884230619
 20
-5.220938232
 30
0.0
 10
54.4828899814
 20
-5.2375271868
 30
0.0
 10
54.476234568
 20
-5.2532740164
 30
0.0
 10
54.468519561
 20
-5.2680282682
 30
0.0
 10
54.4598175448
 20
-5.2816489618
 30
0.0
 10
54.4502096328
 20
-5.2940053858
 30
0.0
 10
54.4397851991
 20
-5.3049779407
 30
0.0
 10
54.4286413078
 20
-5.3144601422
 30
0.0
 10
54.4168836863
 20
-5.3223574061
 30
0.0
 10
54.4065953575
 20
-5.3275853542
 30
0.0
 10
54.3981940285
 20
-5.3308770971
 30
0.0
 10
54.3918533942
 20
-5.3328930004
 30
0.0
 10
54.385449436
 20
-5.3344665419
 30
0.0
 10
54.3789972855
 20
-5.3355927158
 30
0.0
 10
54.3725147878
 20
-5.3362696275
 30
0.0
 10
54.3681805014
 20
-5.3364206282
 30
0.0
 10
54.3660172685
 20
-5.3364206282
 30
0.0
  0
SPLINE
  5
48F
100
AcDbEntity
  8
0
100
AcDbSpline
 62
7
  6
CONTINUOUS
 70
0
 71
3
 72
17
 73
13
 74
0
 42
0.0000001
 43
0.0000001
 44
0.0000000001
 40
0.0
 40
0.0
 40
0.0
 40
0.0
 40
0.0507521541
 40
0.1062279752
 40
0.1656818145
 40
0.2283685672
 40
0.3603916239
 40
0.4965882669
 40
0.6320482742
 40
0.7629485808
 40
0.8864675634
 40
1.0
 40
1.0
 40
1.0
 40
1.0
 10
54.1145700971
 20
-5.0411674528
 30
0.0
 10
54.1139957938
 20
-5.0411674528
 30
0.0
 10
54.1127935077
 20
-5.0411128556
 30
0.0
 10
54.1109298208
 20
-5.040898707
 30
0.0
 10
54.1089491623
 20
-5.0405509628
 30
0.0
 10
54.1061445314
 20
-5.0399094982
 30
0.0
 10
54.1025550456
 20
-5.0388269798
 30
0.0
 10
54.0982873262
 20
-5.0371885415
 30
0.0
 10
54.0941502393
 20
-5.0352742061
 30
0.0
 10
54.0902710513
 20
-5.0331660811
 30
0.0
 10
54.086751202
 20
-5.0309362397
 30
0.0
 10
54.0845939562
 20
-5.0293360071
 30
0.0
 10
54.0835988201
 20
-5.0285234819
 30
0.0
  0
SPLINE
  5
490
100
AcDbEntity
  8
0
100
AcDbSpline
 62
7
  6
CONTINUOUS
 70
0
 71
3
 72
15
 73
11
 74
0
 42
0.0000001
 43
0.0000001
 44
0.0000000001
 40
0.0
 40
0.0
 40
0.0
 40
0.0
 40
0.1017444407
 40
0.2096088461
 40
0.3245474155
 40
0.4470525223
 40
0.5769030157
 40
0.7131920169
 40
0.8546475917
 40
1.0
 40
1.0
 40
1.0
 40
1.0
 10
54.3539713512
 20
-5.3659269792
 30
0.0
 10
54.3502816283
 20
-5.36140801
 30
0.0
 10
54.3424638279
 20
-5.3522722886
 30
0.0
 10
54.3296669564
 20
-5.3387501962
 30
0.0
 10
54.3153106248
 20
-5.3251010951
 30
0.0
 10
54.2993048179
 20
-5.3113995243
 30
0.0
 10
54.281695299
 20
-5.29773051
 30
0.0
 10
54.2626561256
 20
-5.2841666811
 30
0.0
 10
54.2424359881
 20
-5.2707552617
 30
0.0
 10
54.2284964455
 20
-5.2620263117
 30
0.0
 10
54.2213888297
 20
-5.2576738037
 30
0.0
  0
SPLINE
  5
491
100
AcDbEntity
  8
0
100
AcDbSpline
 62
7
  6
CONTINUOUS
 70
0
 71
3
 72
45
 73
41
 74
0
 42
0.0000001
 43
0.0000001
 44
0.0000000001
 40
0.0
 40
0.0
 40
0.0
 40
0.0
 40
0.0128513267
 40
0.0257402646
 40
0.038691441
 40
0.051730823
 40
0.0648871307
 40
0.0781878531
 40
0.1053036192
 40
0.1332505709
 40
0.1621439873
 40
0.1920543393
 40
0.2230077703
 40
0.2549895349
 40
0.287948694
 40
0.3218028922
 40
0.3564428168
 40
0.3917370601
 40
0.4275370898
 40
0.4636814477
 40
0.5
 40
0.5363185523
 40
0.5724629102
 40
0.6082629399
 40
0.6435571832
 40
0.6781971078
 40
0.712051306
 40
0.7450104651
 40
0.7769922297
 40
0.8079456607
 40
0.8378560127
 40
0.8667494291
 40
0.8946963808
 40
0.9218121469
 40
0.9351128693
 40
0.948269177
 40
0.961308559
 40
0.9742597354
 40
0.9871486733
 40
1.0
 40
1.0
 40
1.0
 40
1.0
 10
54.3660172685
 20
-5.3364206282
 30
0.0
 10
54.3638540356
 20
-5.3364206282
 30
0.0
 10
54.3595197492
 20
-5.3362696275
 30
0.0
 10
54.3530372515
 20
-5.3355927158
 30
0.0
 10
54.346585101
 20
-5.3344665419
 30
0.0
 10
54.3401811428
 20
-5.3328930004
 30
0.0
 10
54.3338405085
 20
-5.3308770971
 30
0.0
 10
54.3254391795
 20
-5.3275853542
 30
0.0
 10
54.3151508507
 20
-5.3223574061
 30
0.0
 10
54.3033932292
 20
-5.3144601422
 30
0.0
 10
54.2922493379
 20
-5.3049779407
 30
0.0
 10
54.2818249042
 20
-5.2940053858
 30
0.0
 10
54.2722169922
 20
-5.2816489618
 30
0.0
 10
54.263514976
 20
-5.2680282682
 30
0.0
 10
54.255799969
 20
-5.2532740164
 30
0.0
 10
54.2491445556
 20
-5.2375271868
 30
0.0
 10
54.2436114751
 20
-5.220938232
 30
0.0
 10
54.2392525612
 20
-5.2036657707
 30
0.0
 10
54.2361090598
 20
-5.1858747859
 30
0.0
 10
54.2342111359
 20
-5.1677352515
 30
0.0
 10
54.2335765552
 20
-5.1494206282
 30
0.0
 10
54.2342111359
 20
-5.131106005
 30
0.0
 10
54.2361090598
 20
-5.1129664705
 30
0.0
 10
54.2392525612
 20
-5.0951754858
 30
0.0
 10
54.2436114751
 20
-5.0779030245
 30
0.0
 10
54.2491445556
 20
-5.0613140697
 30
0.0
 10
54.255799969
 20
-5.04556724
 30
0.0
 10
54.263514976
 20
-5.0308129883
 30
0.0
 10
54.2722169922
 20
-5.0171922947
 30
0.0
 10
54.2818249042
 20
-5.0048358707
 30
0.0
 10
54.2922493379
 20
-4.9938633158
 30
0.0
 10
54.3033932292
 20
-4.9843811142
 30
0.0
 10
54.3151508507
 20
-4.9764838504
 30
0.0
 10
54.3254391795
 20
-4.9712559022
 30
0.0
 10
54.3338405085
 20
-4.9679641593
 30
0.0
 10
54.3401811428
 20
-4.9659482561
 30
0.0
 10
54.346585101
 20
-4.9643747146
 30
0.0
 10
54.3530372515
 20
-4.9632485406
 30
0.0
 10
54.3595197492
 20
-4.9625716289
 30
0.0
 10
54.3638540356
 20
-4.9624206282
 30
0.0
 10
54.3660172685
 20
-4.9624206282
 30
0.0
  0
SPLINE
  5
492
100
AcDbEntity
  8
0
100
AcDbSpline
 62
7
  6
CONTINUOUS
 70
0
 71
3
 72
19
 73
15
 74
0
 42
0.0000001
 43
0.0000001
 44
0.0000000001
 40
0.0
 40
0.0
 40
0.0
 40
0.0
 40
0.1239135187
 40
0.2486584689
 40
0.3113153546
 40
0.3741210923
 40
0.4370327446
 40
0.5
 40
0.5629672554
 40
0.6258789077
 40
0.6886846454
 40
0.7513415311
 40
0.8760864813
 40
1.0
 40
1.0
 40
1.0
 40
1.0
 10
54.2213888297
 20
-5.2576738037
 30
0.0
 10
54.2231910508
 20
-5.2488447596
 30
0.0
 10
54.2264900182
 20
-5.2310603029
 30
0.0
 10
54.2296418294
 20
-5.2086321268
 30
0.0
 10
54.2314755173
 20
-5.1905274787
 30
0.0
 10
54.2324810217
 20
-5.1768638117
 30
0.0
 10
54.2330932361
 20
-5.1631542008
 30
0.0
 10
54.2332993466
 20
-5.1494206282
 30
0.0
 10
54.2330932361
 20
-5.1356870556
 30
0.0
 10
54.2324810217
 20
-5.1219774448
 30
0.0
 10
54.2314755173
 20
-5.1083137778
 30
0.0
 10
54.2296418294
 20
-5.0902091297
 30
0.0
 10
54.2264900182
 20
-5.0677809536
 30
0.0
 10
54.2231910508
 20
-5.0499964969
 30
0.0
 10
54.2213888297
 20
-5.0411674528
 30
0.0
  0
SPLINE
  5
493
100
AcDbEntity
  8
0
100
AcDbSpline
 62
7
  6
CONTINUOUS
 70
0
 71
3
 72
23
 73
19
 74
0
 42
0.0000001
 43
0.0000001
 44
0.0000000001
 40
0.0
 40
0.0
 40
0.0
 40
0.0
 40
0.0552200583
 40
0.1106748871
 40
0.1665926736
 40
0.2231878726
 40
0.2806564376
 40
0.3391704851
 40
0.3988763535
 40
0.4598908728
 40
0.5223035786
 40
0.5861741968
 40
0.6515348273
 40
0.7183856123
 40
0.7867085174
 40
0.8564722864
 40
0.9276136373
 40
1.0
 40
1.0
 40
1.0
 40
1.0
 10
54.2316727732
 20
-5.4094204414
 30
0.0
 10
54.2276602892
 20
-5.4094205306
 30
0.0
 10
54.2196132999
 20
-5.4090479347
 30
0.0
 10
54.2076082653
 20
-5.4073723162
 30
0.0
 10
54.1957075917
 20
-5.4045884801
 30
0.0
 10
54.1839645286
 20
-5.4007086564
 30
0.0
 10
54.172429518
 20
-5.3957507192
 30
0.0
 10
54.1611521229
 20
-5.38973708
 30
0.0
 10
54.1501807803
 20
-5.3826941346
 30
0.0
 10
54.1395616196
 20
-5.3746535536
 30
0.0
 10
54.1293402661
 20
-5.3656495664
 30
0.0
 10
54.1195590483
 20
-5.3557219922
 30
0.0
 10
54.1102605248
 20
-5.344912847
 30
0.0
 10
54.1014824241
 20
-5.3332700078
 30
0.0
 10
54.0932629776
 20
-5.3208415934
 30
0.0
 10
54.0856353202
 20
-5.3076803289
 30
0.0
 10
54.078634682
 20
-5.2938444292
 30
0.0
 10
54.0744381826
 20
-5.2842903014
 30
0.0
 10
54.0724501468
 20
-5.2794206282
 30
0.0
  0
SPLINE
  5
494
100
AcDbEntity
  8
0
100
AcDbSpline
 62
7
  6
CONTINUOUS
 70
0
 71
3
 72
15
 73
11
 74
0
 42
0.0000001
 43
0.0000001
 44
0.0000000001
 40
0.0
 40
0.0
 40
0.0
 40
0.0
 40
0.1453524083
 40
0.2868079831
 40
0.4230969843
 40
0.5529474777
 40
0.6754525845
 40
0.7903911539
 40
0.8982555593
 40
1.0
 40
1.0
 40
1.0
 40
1.0
 10
54.2213888297
 20
-5.0411674528
 30
0.0
 10
54.2284964455
 20
-5.0368149448
 30
0.0
 10
54.2424359881
 20
-5.0280859948
 30
0.0
 10
54.2626561256
 20
-5.0146745754
 30
0.0
 10
54.281695299
 20
-5.0011107465
 30
0.0
 10
54.2993048179
 20
-4.9874417322
 30
0.0
 10
54.3153106248
 20
-4.9737401614
 30
0.0
 10
54.3296669564
 20
-4.9600910603
 30
0.0
 10
54.3424638279
 20
-4.9465689679
 30
0.0
 10
54.3502816283
 20
-4.9374332464
 30
0.0
 10
54.3539713512
 20
-4.9329142773
 30
0.0
  0
SPLINE
  5
495
100
AcDbEntity
  8
0
100
AcDbSpline
 62
7
  6
CONTINUOUS
 70
0
 71
3
 72
33
 73
29
 74
0
 42
0.0000001
 43
0.0000001
 44
0.0000000001
 40
0.0
 40
0.0
 40
0.0
 40
0.0
 40
0.0248617031
 40
0.0498293083
 40
0.0750052916
 40
0.1004865152
 40
0.1263607673
 40
0.1527060222
 40
0.1795875392
 40
0.2070587667
 40
0.2351590604
 40
0.2639158084
 40
0.293342707
 40
0.3234424266
 40
0.3855854026
 40
0.4501825721
 40
0.5169033937
 40
0.585309275
 40
0.6548820701
 40
0.7250511664
 40
0.7601826356
 40
0.7952393726
 40
0.8301469022
 40
0.8648309296
 40
0.8992215798
 40
0.9332580601
 40
0.9668772299
 40
1.0
 40
1.0
 40
1.0
 40
1.0
 10
54.2316611869
 20
-4.889420815
 30
0.0
 10
54.227648884
 20
-4.8894209041
 30
0.0
 10
54.2196022477
 20
-4.8897943577
 30
0.0
 10
54.2075978827
 20
-4.8914710225
 30
0.0
 10
54.1956977491
 20
-4.8942553323
 30
0.0
 10
54.183955548
 20
-4.8981363245
 30
0.0
 10
54.1724209644
 20
-4.9030942823
 30
0.0
 10
54.1611446543
 20
-4.9091090147
 30
0.0
 10
54.1501735382
 20
-4.9161516336
 30
0.0
 10
54.1395556576
 20
-4.9241931957
 30
0.0
 10
54.1293343887
 20
-4.9331966762
 30
0.0
 10
54.1195546505
 20
-4.9431247475
 30
0.0
 10
54.110255729
 20
-4.9539334189
 30
0.0
 10
54.0984294774
 20
-4.9696224046
 30
0.0
 10
54.0851083064
 20
-4.9912218556
 30
0.0
 10
54.0718013805
 20
-5.0195316893
 30
0.0
 10
54.0612149069
 20
-5.0500359919
 30
0.0
 10
54.0535255589
 20
-5.0822177727
 30
0.0
 10
54.0488602559
 20
-5.1155330057
 30
0.0
 10
54.047557335
 20
-5.143768861
 30
0.0
 10
54.0480814246
 20
-5.1664209187
 30
0.0
 10
54.0492588002
 20
-5.1833472946
 30
0.0
 10
54.0512162956
 20
-5.2001282584
 30
0.0
 10
54.0539438489
 20
-5.2166926803
 30
0.0
 10
54.0574316646
 20
-5.232970217
 30
0.0
 10
54.0616642136
 20
-5.2488927847
 30
0.0
 10
54.0666241785
 20
-5.2643890104
 30
0.0
 10
54.0704297323
 20
-5.2744716437
 30
0.0
 10
54.0724501468
 20
-5.2794206282
 30
0.0
  0
SPLINE
  5
496
100
AcDbEntity
  8
0
100
AcDbSpline
 62
7
  6
CONTINUOUS
 70
0
 71
3
 72
15
 73
11
 74
0
 42
0.0000001
 43
0.0000001
 44
0.0000000001
 40
0.0
 40
0.0
 40
0.0
 40
0.0
 40
0.1093848924
 40
0.2247529651
 40
0.3455303054
 40
0.4709316038
 40
0.5999829275
 40
0.7318632405
 40
0.865594525
 40
1.0
 40
1.0
 40
1.0
 40
1.0
 10
54.2402327079
 20
-5.3685922665
 30
0.0
 10
54.2395288273
 20
-5.3691662686
 30
0.0
 10
54.2381915187
 20
-5.3704828638
 30
0.0
 10
54.2364703743
 20
-5.3727889969
 30
0.0
 10
54.2349984122
 20
-5.3754139666
 30
0.0
 10
54.2337860701
 20
-5.3782902387
 30
0.0
 10
54.2328398971
 20
-5.3813604337
 30
0.0
 10
54.232163272
 20
-5.3845711821
 30
0.0
 10
54.2317574621
 20
-5.3878714383
 30
0.0
 10
54.2316669801
 20
-5.3900989132
 30
0.0
 10
54.2316669801
 20
-5.391214921
 30
0.0
  0
SPLINE
  5
497
100
AcDbEntity
  8
0
100
AcDbSpline
 62
7
  6
CONTINUOUS
 70
0
 71
3
 72
15
 73
11
 74
0
 42
0.0000001
 43
0.0000001
 44
0.0000000001
 40
0.0
 40
0.0
 40
0.0
 40
0.0
 40
0.1093848924
 40
0.2247529651
 40
0.3455303054
 40
0.4709316038
 40
0.5999829275
 40
0.7318632405
 40
0.865594525
 40
1.0
 40
1.0
 40
1.0
 40
1.0
 10
54.2402327079
 20
-4.93024899
 30
0.0
 10
54.2395288273
 20
-4.9296749878
 30
0.0
 10
54.2381915187
 20
-4.9283583926
 30
0.0
 10
54.2364703743
 20
-4.9260522596
 30
0.0
 10
54.2349984122
 20
-4.9234272898
 30
0.0
 10
54.2337860701
 20
-4.9205510178
 30
0.0
 10
54.2328398971
 20
-4.9174808228
 30
0.0
 10
54.232163272
 20
-4.9142700743
 30
0.0
 10
54.2317574621
 20
-4.9109698182
 30
0.0
 10
54.2316669801
 20
-4.9087423432
 30
0.0
 10
54.2316669801
 20
-4.9076263355
 30
0.0
  0
SPLINE
  5
498
100
AcDbEntity
  8
0
100
AcDbSpline
 62
7
  6
CONTINUOUS
 70
0
 71
3
 72
15
 73
11
 74
0
 42
0.0000001
 43
0.0000001
 44
0.0000000001
 40
0.0
 40
0.0
 40
0.0
 40
0.0
 40
0.1252329418
 40
0.2504328526
 40
0.375563059
 40
0.50061068
 40
0.625565329
 40
0.7504307829
 40
0.8752344504
 40
1.0
 40
1.0
 40
1.0
 40
1.0
 10
56.9020372157
 20
4.0400793718
 30
0.0
 10
56.9020372157
 20
4.0355054292
 30
0.0
 10
56.9029359395
 20
4.026333584
 30
0.0
 10
56.9069287354
 20
4.0131231746
 30
0.0
 10
56.9134130607
 20
4.0009425204
 30
0.0
 10
56.9221402748
 20
3.9902665561
 30
0.0
 10
56.9327749406
 20
3.9815039399
 30
0.0
 10
56.9449104421
 20
3.9749922675
 30
0.0
 10
56.9580734086
 20
3.9709821418
 30
0.0
 10
56.9672139827
 20
3.9700793718
 30
0.0
 10
56.9717708545
 20
3.9700793718
 30
0.0
  0
SPLINE
  5
499
100
AcDbEntity
  8
0
100
AcDbSpline
 62
7
  6
CONTINUOUS
 70
0
 71
3
 72
15
 73
11
 74
0
 42
0.0000001
 43
0.0000001
 44
0.0000000001
 40
0.0
 40
0.0
 40
0.0
 40
0.0
 40
0.1252329418
 40
0.2504328526
 40
0.375563059
 40
0.50061068
 40
0.625565329
 40
0.7504307829
 40
0.8752344504
 40
1.0
 40
1.0
 40
1.0
 40
1.0
 10
38.1262679019
 20
4.0400793718
 30
0.0
 10
38.1262679019
 20
4.0355054292
 30
0.0
 10
38.1253691781
 20
4.026333584
 30
0.0
 10
38.1213763822
 20
4.0131231746
 30
0.0
 10
38.1148920569
 20
4.0009425204
 30
0.0
 10
38.1061648429
 20
3.9902665561
 30
0.0
 10
38.095530177
 20
3.9815039399
 30
0.0
 10
38.0833946755
 20
3.9749922675
 30
0.0
 10
38.0702317091
 20
3.9709821418
 30
0.0
 10
38.061091135
 20
3.9700793718
 30
0.0
 10
38.0565342631
 20
3.9700793718
 30
0.0
  0
SPLINE
  5
49A
100
AcDbEntity
  8
0
100
AcDbSpline
 62
7
  6
CONTINUOUS
 70
0
 71
3
 72
15
 73
11
 74
0
 42
0.0000001
 43
0.0000001
 44
0.0000000001
 40
0.0
 40
0.0
 40
0.0
 40
0.0
 40
0.1247655496
 40
0.2495692171
 40
0.374434671
 40
0.49938932
 40
0.624436941
 40
0.7495671474
 40
0.8747670582
 40
1.0
 40
1.0
 40
1.0
 40
1.0
 10
38.143688392
 20
3.9700793718
 30
0.0
 10
38.1482452639
 20
3.9700793718
 30
0.0
 10
38.157385838
 20
3.9709821418
 30
0.0
 10
38.1705488044
 20
3.9749922675
 30
0.0
 10
38.1826843059
 20
3.9815039399
 30
0.0
 10
38.1933189718
 20
3.9902665561
 30
0.0
 10
38.2020461858
 20
4.0009425204
 30
0.0
 10
38.2085305111
 20
4.0131231746
 30
0.0
 10
38.212523307
 20
4.026333584
 30
0.0
 10
38.2134220308
 20
4.0355054292
 30
0.0
 10
38.2134220308
 20
4.0400793718
 30
0.0
  0
SPLINE
  5
49B
100
AcDbEntity
  8
0
100
AcDbSpline
 62
7
  6
CONTINUOUS
 70
0
 71
3
 72
28
 73
24
 74
0
 42
0.0000001
 43
0.0000001
 44
0.0000000001
 40
0.0
 40
0.0
 40
0.0
 40
0.0
 40
0.0021305048
 40
0.0044214144
 40
0.0070012998
 40
0.0099604635
 40
0.0172254701
 40
0.0264980328
 40
0.0378926661
 40
0.0514485686
 40
0.0671720242
 40
0.0850541119
 40
0.1050741558
 40
0.1271927251
 40
0.1775363827
 40
0.2356684096
 40
0.3010495167
 40
0.3730842755
 40
0.4510872115
 40
0.5343297763
 40
0.622006629
 40
0.8073320284
 40
1.0
 40
1.0
 40
1.0
 40
1.0
 10
48.8358564966
 20
3.9700793718
 30
0.0
 10
48.8358061582
 20
3.9700793718
 30
0.0
 10
48.8357012041
 20
3.9700948103
 30
0.0
 10
48.8355483468
 20
3.9701619113
 30
0.0
 10
48.8353976397
 20
3.9702710683
 30
0.0
 10
48.8351840673
 20
3.97048671
 30
0.0
 10
48.8349256721
 20
3.9708720328
 30
0.0
 10
48.8346361228
 20
3.9714659828
 30
0.0
 10
48.8343486298
 20
3.9722227175
 30
0.0
 10
48.8340637626
 20
3.9731409399
 30
0.0
 10
48.8337823821
 20
3.9742194516
 30
0.0
 10
48.8335053923
 20
3.9754560357
 30
0.0
 10
48.8332336434
 20
3.9768480406
 30
0.0
 10
48.832863035
 20
3.9790016465
 30
0.0
 10
48.8324265865
 20
3.9820568322
 30
0.0
 10
48.8319532459
 20
3.9861375769
 30
0.0
 10
48.8315154189
 20
3.9907373597
 30
0.0
 10
48.8311180777
 20
3.9958118151
 30
0.0
 10
48.8307650371
 20
4.0013124708
 30
0.0
 10
48.8304602536
 20
4.0071860996
 30
0.0
 10
48.8301156026
 20
4.0155963334
 30
0.0
 10
48.8298310185
 20
4.0265959319
 30
0.0
 10
48.8297557076
 20
4.0355271198
 30
0.0
 10
48.8297557076
 20
4.0400793718
 30
0.0
  0
SPLINE
  5
49C
100
AcDbEntity
  8
0
100
AcDbSpline
 62
7
  6
CONTINUOUS
 70
0
 71
3
 72
28
 73
24
 74
0
 42
0.0000001
 43
0.0000001
 44
0.0000000001
 40
0.0
 40
0.0
 40
0.0
 40
0.0
 40
0.1926679716
 40
0.377993371
 40
0.4656702237
 40
0.5489127885
 40
0.6269157245
 40
0.6989504833
 40
0.7643315904
 40
0.8224636173
 40
0.8728072749
 40
0.8949258442
 40
0.9149458881
 40
0.9328279758
 40
0.9485514314
 40
0.9621073339
 40
0.9735019672
 40
0.9827745299
 40
0.9900395365
 40
0.9929987002
 40
0.9955785856
 40
0.9978694952
 40
1.0
 40
1.0
 40
1.0
 40
1.0
 10
47.8335608683
 20
4.0400793718
 30
0.0
 10
47.8335608683
 20
4.0355271198
 30
0.0
 10
47.8336361793
 20
4.0265959319
 30
0.0
 10
47.8339207633
 20
4.0155963334
 30
0.0
 10
47.8342654143
 20
4.0071860996
 30
0.0
 10
47.8345701978
 20
4.0013124708
 30
0.0
 10
47.8349232384
 20
3.9958118151
 30
0.0
 10
47.8353205796
 20
3.9907373597
 30
0.0
 10
47.8357584067
 20
3.9861375769
 30
0.0
 10
47.8362317472
 20
3.9820568322
 30
0.0
 10
47.8366681957
 20
3.9790016465
 30
0.0
 10
47.8370388041
 20
3.9768480406
 30
0.0
 10
47.837310553
 20
3.9754560357
 30
0.0
 10
47.8375875428
 20
3.9742194516
 30
0.0
 10
47.8378689233
 20
3.9731409399
 30
0.0
 10
47.8381537905
 20
3.9722227175
 30
0.0
 10
47.8384412835
 20
3.9714659828
 30
0.0
 10
47.8387308328
 20
3.9708720328
 30
0.0
 10
47.838989228
 20
3.97048671
 30
0.0
 10
47.8392028005
 20
3.9702710683
 30
0.0
 10
47.8393535075
 20
3.9701619113
 30
0.0
 10
47.8395063648
 20
3.9700948103
 30
0.0
 10
47.8396113189
 20
3.9700793718
 30
0.0
 10
47.8396616573
 20
3.9700793718
 30
0.0
  0
SPLINE
  5
49D
100
AcDbEntity
  8
0
100
AcDbSpline
 62
3
  6
CONTINUOUS
 70
0
 71
3
 72
15
 73
11
 74
0
 42
0.0000001
 43
0.0000001
 44
0.0000000001
 40
0.0
 40
0.0
 40
0.0
 40
0.0
 40
0.1252329418
 40
0.2504328526
 40
0.375563059
 40
0.50061068
 40
0.625565329
 40
0.7504307829
 40
0.8752344504
 40
1.0
 40
1.0
 40
1.0
 40
1.0
 10
56.832303577
 20
4.0400793718
 30
0.0
 10
56.832303577
 20
4.0309314865
 30
0.0
 10
56.8341010246
 20
4.0125877962
 30
0.0
 10
56.8420866163
 20
3.9861669774
 30
0.0
 10
56.8550552669
 20
3.961805669
 30
0.0
 10
56.872509695
 20
3.9404537404
 30
0.0
 10
56.8937790267
 20
3.9229285079
 30
0.0
 10
56.9180500297
 20
3.9099051633
 30
0.0
 10
56.9443759626
 20
3.9018849119
 30
0.0
 10
56.9626571108
 20
3.9000793718
 30
0.0
 10
56.9717708545
 20
3.9000793718
 30
0.0
  0
SPLINE
  5
49E
100
AcDbEntity
  8
0
100
AcDbSpline
 62
3
  6
CONTINUOUS
 70
0
 71
3
 72
15
 73
11
 74
0
 42
0.0000001
 43
0.0000001
 44
0.0000000001
 40
0.0
 40
0.0
 40
0.0
 40
0.0
 40
0.1247655496
 40
0.2495692171
 40
0.374434671
 40
0.49938932
 40
0.624436941
 40
0.7495671474
 40
0.8747670582
 40
1.0
 40
1.0
 40
1.0
 40
1.0
 10
38.143688392
 20
3.9000793718
 30
0.0
 10
38.1528021357
 20
3.9000793718
 30
0.0
 10
38.1710832839
 20
3.9018849119
 30
0.0
 10
38.1974092168
 20
3.9099051633
 30
0.0
 10
38.2216802198
 20
3.9229285079
 30
0.0
 10
38.2429495515
 20
3.9404537404
 30
0.0
 10
38.2604039796
 20
3.961805669
 30
0.0
 10
38.2733726302
 20
3.9861669774
 30
0.0
 10
38.2813582219
 20
4.0125877962
 30
0.0
 10
38.2831556695
 20
4.0309314865
 30
0.0
 10
38.2831556695
 20
4.0400793718
 30
0.0
  0
SPLINE
  5
49F
100
AcDbEntity
  8
0
100
AcDbSpline
 62
3
  6
CONTINUOUS
 70
0
 71
3
 72
31
 73
27
 74
0
 42
0.0000001
 43
0.0000001
 44
0.0000000001
 40
0.0
 40
0.0
 40
0.0
 40
0.0
 40
0.1926653097
 40
0.3779881486
 40
0.46566379
 40
0.5489052046
 40
0.6269070629
 40
0.6989408265
 40
0.7643210303
 40
0.8224522541
 40
0.8486263564
 40
0.8727968003
 40
0.894915064
 40
0.9149348313
 40
0.9328166719
 40
0.9485399103
 40
0.9620956255
 40
0.9734901014
 40
0.9783883358
 40
0.9827665264
 40
0.9866418115
 40
0.9900396741
 40
0.9929987969
 40
0.9955786467
 40
0.9978695246
 40
1.0
 40
1.0
 40
1.0
 40
1.0
 10
47.8274600793
 20
4.0400793718
 30
0.0
 10
47.8274600793
 20
4.0309748679
 30
0.0
 10
47.8276107015
 20
4.0131124922
 30
0.0
 10
47.8281798684
 20
3.9911132946
 30
0.0
 10
47.8288691726
 20
3.974292828
 30
0.0
 10
47.8294787339
 20
3.9625455677
 30
0.0
 10
47.8301848342
 20
3.9515442661
 30
0.0
 10
47.8309794531
 20
3.9413953225
 30
0.0
 10
47.8318553122
 20
3.9321958628
 30
0.0
 10
47.8326698361
 20
3.9251686806
 30
0.0
 10
47.8333659485
 20
3.9200899113
 30
0.0
 10
47.8338843541
 20
3.9167049417
 30
0.0
 10
47.834415986
 20
3.9136167147
 30
0.0
 10
47.8349594376
 20
3.9108326965
 30
0.0
 10
47.8355134404
 20
3.908359538
 30
0.0
 10
47.8360761568
 20
3.9062024884
 30
0.0
 10
47.836646019
 20
3.9043661215
 30
0.0
 10
47.8371471927
 20
3.903045902
 30
0.0
 10
47.837559096
 20
3.9021597111
 30
0.0
 10
47.8378534873
 20
3.9016118793
 30
0.0
 10
47.8381489388
 20
3.9011465544
 30
0.0
 10
47.8384456131
 20
3.9007635904
 30
0.0
 10
47.8387439854
 20
3.9004628086
 30
0.0
 10
47.8390453484
 20
3.900244441
 30
0.0
 10
47.8393510747
 20
3.9001102512
 30
0.0
 10
47.8395609805
 20
3.9000793718
 30
0.0
 10
47.8396616573
 20
3.9000793718
 30
0.0
  0
LINE
  5
4A0
100
AcDbEntity
  8
0
100
AcDbLine
 62
7
  6
CONTINUOUS
 10
9.9028821229
 20
-40.0823148034
 11
9.9247821229
 21
-40.0949587743
  0
LINE
  5
4A1
100
AcDbEntity
  8
0
100
AcDbLine
 62
7
  6
CONTINUOUS
 10
9.7153821229
 20
-40.1905679789
 11
9.7153821229
 21
-40.2158559207
  0
LINE
  5
4A2
100
AcDbEntity
  8
0
100
AcDbLine
 62
7
  6
CONTINUOUS
 10
9.9028821229
 20
-39.8658084525
 11
9.9247821229
 21
-39.8531644816
  0
LINE
  5
4A3
100
AcDbEntity
  8
0
100
AcDbLine
 62
7
  6
CONTINUOUS
 10
9.7153821229
 20
-39.757555277
 11
9.7153821229
 21
-39.7322673352
  0
LINE
  5
4A4
100
AcDbEntity
  8
0
100
AcDbLine
 62
7
  6
CONTINUOUS
 10
9.5278821229
 20
-39.8658084525
 11
9.5059821229
 21
-39.8531644816
  0
LINE
  5
4A5
100
AcDbEntity
  8
0
100
AcDbLine
 62
7
  6
CONTINUOUS
 10
9.5278821229
 20
-40.0823148034
 11
9.5059821229
 21
-40.0949587743
  0
LINE
  5
4A6
100
AcDbEntity
  8
0
100
AcDbLine
 62
7
  6
CONTINUOUS
 10
8.8422219511
 20
-39.0216546317
 11
8.8641219511
 21
-39.0342986026
  0
LINE
  5
4A7
100
AcDbEntity
  8
0
100
AcDbLine
 62
7
  6
CONTINUOUS
 10
8.6547219511
 20
-39.1299078071
 11
8.6547219511
 21
-39.1551957489
  0
LINE
  5
4A8
100
AcDbEntity
  8
0
100
AcDbLine
 62
7
  6
CONTINUOUS
 10
8.8422219511
 20
-38.8051482807
 11
8.8641219511
 21
-38.7925043098
  0
LINE
  5
4A9
100
AcDbEntity
  8
0
100
AcDbLine
 62
7
  6
CONTINUOUS
 10
8.6547219511
 20
-38.6968951052
 11
8.6547219511
 21
-38.6716071635
  0
LINE
  5
4AA
100
AcDbEntity
  8
0
100
AcDbLine
 62
7
  6
CONTINUOUS
 10
8.4672219511
 20
-38.8051482807
 11
8.4453219511
 21
-38.7925043098
  0
LINE
  5
4AB
100
AcDbEntity
  8
0
100
AcDbLine
 62
7
  6
CONTINUOUS
 10
8.4672219511
 20
-39.0216546317
 11
8.4453219511
 21
-39.0342986026
  0
LINE
  5
4AC
100
AcDbEntity
  8
0
100
AcDbLine
 62
7
  6
CONTINUOUS
 10
-0.7037195949
 20
-29.4757130856
 11
-0.6818195949
 21
-29.4883570565
  0
LINE
  5
4AD
100
AcDbEntity
  8
0
100
AcDbLine
 62
7
  6
CONTINUOUS
 10
-0.8912195949
 20
-29.5839662611
 11
-0.8912195949
 21
-29.6092542029
  0
LINE
  5
4AE
100
AcDbEntity
  8
0
100
AcDbLine
 62
7
  6
CONTINUOUS
 10
-0.7037195949
 20
-29.2592067347
 11
-0.6818195949
 21
-29.2465627638
  0
LINE
  5
4AF
100
AcDbEntity
  8
0
100
AcDbLine
 62
7
  6
CONTINUOUS
 10
-0.8912195949
 20
-29.1509535592
 11
-0.8912195949
 21
-29.1256656174
  0
LINE
  5
4B0
100
AcDbEntity
  8
0
100
AcDbLine
 62
7
  6
CONTINUOUS
 10
-1.0787195949
 20
-29.2592067347
 11
-1.1006195949
 21
-29.2465627638
  0
LINE
  5
4B1
100
AcDbEntity
  8
0
100
AcDbLine
 62
7
  6
CONTINUOUS
 10
-1.0787195949
 20
-29.4757130856
 11
-1.1006195949
 21
-29.4883570565
  0
LINE
  5
4B2
100
AcDbEntity
  8
0
100
AcDbLine
 62
7
  6
CONTINUOUS
 10
8.8422219511
 20
-29.4757130856
 11
8.8641219511
 21
-29.4883570565
  0
LINE
  5
4B3
100
AcDbEntity
  8
0
100
AcDbLine
 62
7
  6
CONTINUOUS
 10
8.6547219511
 20
-29.5839662611
 11
8.6547219511
 21
-29.6092542029
  0
LINE
  5
4B4
100
AcDbEntity
  8
0
100
AcDbLine
 62
7
  6
CONTINUOUS
 10
8.8422219511
 20
-29.2592067347
 11
8.8641219511
 21
-29.2465627638
  0
LINE
  5
4B5
100
AcDbEntity
  8
0
100
AcDbLine
 62
7
  6
CONTINUOUS
 10
8.6547219511
 20
-29.1509535592
 11
8.6547219511
 21
-29.1256656174
  0
LINE
  5
4B6
100
AcDbEntity
  8
0
100
AcDbLine
 62
7
  6
CONTINUOUS
 10
8.4672219511
 20
-29.2592067347
 11
8.4453219511
 21
-29.2465627638
  0
LINE
  5
4B7
100
AcDbEntity
  8
0
100
AcDbLine
 62
7
  6
CONTINUOUS
 10
8.4672219511
 20
-29.4757130856
 11
8.4453219511
 21
-29.4883570565
  0
LINE
  5
4B8
100
AcDbEntity
  8
0
100
AcDbLine
 62
7
  6
CONTINUOUS
 10
-1.7643797667
 20
-28.4150529139
 11
-1.7424797667
 21
-28.4276968848
  0
LINE
  5
4B9
100
AcDbEntity
  8
0
100
AcDbLine
 62
7
  6
CONTINUOUS
 10
-1.9518797667
 20
-28.5233060893
 11
-1.9518797667
 21
-28.5485940311
  0
LINE
  5
4BA
100
AcDbEntity
  8
0
100
AcDbLine
 62
7
  6
CONTINUOUS
 10
-1.7643797667
 20
-28.1985465629
 11
-1.7424797667
 21
-28.185902592
  0
LINE
  5
4BB
100
AcDbEntity
  8
0
100
AcDbLine
 62
7
  6
CONTINUOUS
 10
-1.9518797667
 20
-28.0902933875
 11
-1.9518797667
 21
-28.0650054457
  0
LINE
  5
4BC
100
AcDbEntity
  8
0
100
AcDbLine
 62
7
  6
CONTINUOUS
 10
-2.1393797667
 20
-28.1985465629
 11
-2.1612797667
 21
-28.185902592
  0
LINE
  5
4BD
100
AcDbEntity
  8
0
100
AcDbLine
 62
7
  6
CONTINUOUS
 10
-2.1393797667
 20
-28.4150529139
 11
-2.1612797667
 21
-28.4276968848
  0
LINE
  5
4BE
100
AcDbEntity
  8
0
100
AcDbLine
 62
7
  6
CONTINUOUS
 10
9.9028821229
 20
-28.4150529139
 11
9.9247821229
 21
-28.4276968848
  0
LINE
  5
4BF
100
AcDbEntity
  8
0
100
AcDbLine
 62
7
  6
CONTINUOUS
 10
9.7153821229
 20
-28.5233060893
 11
9.7153821229
 21
-28.5485940311
  0
LINE
  5
4C0
100
AcDbEntity
  8
0
100
AcDbLine
 62
7
  6
CONTINUOUS
 10
9.9028821229
 20
-28.1985465629
 11
9.9247821229
 21
-28.185902592
  0
LINE
  5
4C1
100
AcDbEntity
  8
0
100
AcDbLine
 62
7
  6
CONTINUOUS
 10
9.7153821229
 20
-28.0902933875
 11
9.7153821229
 21
-28.0650054457
  0
LINE
  5
4C2
100
AcDbEntity
  8
0
100
AcDbLine
 62
7
  6
CONTINUOUS
 10
9.5278821229
 20
-28.1985465629
 11
9.5059821229
 21
-28.185902592
  0
LINE
  5
4C3
100
AcDbEntity
  8
0
100
AcDbLine
 62
7
  6
CONTINUOUS
 10
9.5278821229
 20
-28.4150529139
 11
9.5059821229
 21
-28.4276968848
  0
LINE
  5
4C4
100
AcDbEntity
  8
0
100
AcDbLine
 62
7
  6
CONTINUOUS
 10
-0.7037195949
 20
-39.0216546317
 11
-0.6818195949
 21
-39.0342986026
  0
LINE
  5
4C5
100
AcDbEntity
  8
0
100
AcDbLine
 62
7
  6
CONTINUOUS
 10
-0.8912195949
 20
-39.1299078071
 11
-0.8912195949
 21
-39.1551957489
  0
LINE
  5
4C6
100
AcDbEntity
  8
0
100
AcDbLine
 62
7
  6
CONTINUOUS
 10
-0.7037195949
 20
-38.8051482807
 11
-0.6818195949
 21
-38.7925043098
  0
LINE
  5
4C7
100
AcDbEntity
  8
0
100
AcDbLine
 62
7
  6
CONTINUOUS
 10
-0.8912195949
 20
-38.6968951052
 11
-0.8912195949
 21
-38.6716071635
  0
LINE
  5
4C8
100
AcDbEntity
  8
0
100
AcDbLine
 62
7
  6
CONTINUOUS
 10
-1.0787195949
 20
-38.8051482807
 11
-1.1006195949
 21
-38.7925043098
  0
LINE
  5
4C9
100
AcDbEntity
  8
0
100
AcDbLine
 62
7
  6
CONTINUOUS
 10
-1.0787195949
 20
-39.0216546317
 11
-1.1006195949
 21
-39.0342986026
  0
LINE
  5
4CA
100
AcDbEntity
  8
0
100
AcDbLine
 62
7
  6
CONTINUOUS
 10
-1.7643797667
 20
-40.0823148034
 11
-1.7424797667
 21
-40.0949587743
  0
LINE
  5
4CB
100
AcDbEntity
  8
0
100
AcDbLine
 62
7
  6
CONTINUOUS
 10
-1.9518797667
 20
-40.1905679789
 11
-1.9518797667
 21
-40.2158559207
  0
LINE
  5
4CC
100
AcDbEntity
  8
0
100
AcDbLine
 62
7
  6
CONTINUOUS
 10
-1.7643797667
 20
-39.8658084525
 11
-1.7424797667
 21
-39.8531644816
  0
LINE
  5
4CD
100
AcDbEntity
  8
0
100
AcDbLine
 62
7
  6
CONTINUOUS
 10
-1.9518797667
 20
-39.757555277
 11
-1.9518797667
 21
-39.7322673352
  0
LINE
  5
4CE
100
AcDbEntity
  8
0
100
AcDbLine
 62
7
  6
CONTINUOUS
 10
-2.1393797667
 20
-39.8658084525
 11
-2.1612797667
 21
-39.8531644816
  0
LINE
  5
4CF
100
AcDbEntity
  8
0
100
AcDbLine
 62
7
  6
CONTINUOUS
 10
-2.1393797667
 20
-40.0823148034
 11
-2.1612797667
 21
-40.0949587743
  0
SPLINE
  5
4D0
100
AcDbEntity
  8
0
100
AcDbSpline
 62
7
  6
CONTINUOUS
 70
0
 71
3
 72
15
 73
11
 74
0
 42
0.0000001
 43
0.0000001
 44
0.0000000001
 40
0.0
 40
0.0
 40
0.0
 40
0.0
 40
0.1261099833
 40
0.2512738785
 40
0.3757984041
 40
0.5
 40
0.6242015959
 40
0.7487261215
 40
0.8738900167
 40
1.0
 40
1.0
 40
1.0
 40
1.0
 10
2.7888199094
 20
-33.2563125809
 30
0.0
 10
2.7820646143
 20
-33.2627631959
 30
0.0
 10
2.7690438184
 20
-33.2760857949
 30
0.0
 10
2.7510276437
 20
-33.2973317532
 30
0.0
 10
2.7346579885
 20
-33.3196979917
 30
0.0
 10
2.719979529
 20
-33.3431245388
 30
0.0
 10
2.7070307739
 20
-33.3675497312
 30
0.0
 10
2.6958458707
 20
-33.3929093877
 30
0.0
 10
2.6864544184
 20
-33.4191348318
 30
0.0
 10
2.6814271072
 20
-33.4370724713
 30
0.0
 10
2.6792183583
 20
-33.446148036
 30
0.0
  0
SPLINE
  5
4D1
100
AcDbEntity
  8
0
100
AcDbSpline
 62
7
  6
CONTINUOUS
 70
0
 71
3
 72
15
 73
11
 74
0
 42
0.0000001
 43
0.0000001
 44
0.0000000001
 40
0.0
 40
0.0
 40
0.0
 40
0.0
 40
0.1263750826
 40
0.2519111412
 40
0.3768245046
 40
0.501338738
 40
0.6256829471
 40
0.7500883069
 40
0.8747853178
 40
1.0
 40
1.0
 40
1.0
 40
1.0
 10
2.6792183583
 20
-33.446148036
 30
0.0
 10
2.6735084361
 20
-33.4516004269
 30
0.0
 10
2.6624408246
 20
-33.4628041056
 30
0.0
 10
2.6469126885
 20
-33.4805158605
 30
0.0
 10
2.6325485024
 20
-33.4990384107
 30
0.0
 10
2.6193760513
 20
-33.5183364219
 30
0.0
 10
2.607419919
 20
-33.5383738423
 30
0.0
 10
2.596702508
 20
-33.5591133296
 30
0.0
 10
2.587244244
 20
-33.580514913
 30
0.0
 10
2.5818034956
 20
-33.5951608706
 30
0.0
 10
2.5792993328
 20
-33.6025717759
 30
0.0
  0
ELLIPSE
  5
4D2
100
AcDbEntity
  8
0
100
AcDbEllipse
 62
7
  6
CONTINUOUS
 10
3.2059507807
 20
-33.7502571418
 30
0.0
 11
0.0775
 21
0.1342339376
 31
0.0
 40
0.0524077793
 41
-3.1415926536
 42
-0.0
  0
ELLIPSE
  5
4D3
100
AcDbEntity
  8
0
100
AcDbEllipse
 62
7
  6
CONTINUOUS
 10
3.9856753597
 20
-33.9604287205
 30
0.0
 11
0.312026085
 21
0.5404450325
 31
0.0
 40
0.942904759
 41
1.5031998078
 42
1.5662361117
  0
ELLIPSE
  5
4D4
100
AcDbEntity
  8
0
100
AcDbEllipse
 62
7
  6
CONTINUOUS
 10
3.7778269965
 20
-34.3204326459
 30
0.0
 11
0.312026085
 21
0.5404450325
 31
0.0
 40
0.942904759
 41
-4.7078287653
 42
-4.6447924614
  0
ENDSEC
  0
SECTION
  2
OBJECTS
  0
DICTIONARY
  5
C
100
AcDbDictionary
280
0
281
1
  3
ACAD_GROUP
350
D
  3
ACAD_MLINESTYLE
350
17
  3
ACAD_LAYOUT
350
1A
  3
ACAD_PLOTSETTINGS
350
19
  3
ACAD_PLOTSTYLENAME
350
E
  0
DICTIONARY
  5
D
102
{ACAD_REACTORS
330
C
102
}
100
AcDbDictionary
280
0
281
1
  0
ACDBDICTIONARYWDFLT
  5
E
102
{ACAD_REACTORS
330
C
102
}
100
AcDbDictionary
281
1
  3
Normal
350
F
100
AcDbDictionaryWithDefault
340
F
  0
DICTIONARY
  5
17
102
{ACAD_REACTORS
330
C
102
}
100
AcDbDictionary
280
0
281
1
  3
Standard
350
18
  0
DICTIONARY
  5
19
102
{ACAD_REACTORS
330
C
102
}
100
AcDbDictionary
281
1
  0
DICTIONARY
  5
1A
102
{ACAD_REACTORS
330
C
102
}
100
AcDbDictionary
281
1
  3
Model
350
4D5
  3
Layout1
350
4D6
  0
ACDBPLACEHOLDER
  5
F
102
{ACAD_REACTORS
330
E
102
}
  0
MLINESTYLE
  5
18
102
{ACAD_REACTORS
330
17
102
}
100
AcDbMlineStyle
  2
STANDARD
 70
0
  3

 62
256
 51
90.0
 52
90.0
 71
2
 49
0.5
 62
256
  6
BYLAYER
 49
-0.5
 62
256
  6
BYLAYER
  0
LAYOUT
  5
4D5
102
{ACAD_REACTORS
330
1A
102
}
100
AcDbPlotSettings
  1

  2
none_device
  4

  6

 40
0.0
 41
0.0
 42
0.0
 43
0.0
 44
431.8
 45
279.4
 46
0.0
 47
0.0
 48
0.0
 49
0.0
140
0.0
141
0.0
142
1.0
143
1.0
 70
1024
 72
0
 73
0
 74
0
  7

 75
0
147
1.0
148
0.0
149
0.0
100
AcDbLayout
  1
Model
 70
0
 71
0
 10
0.0
 20
0.0
 11
17.0
 21
11.0
 12
0.0
 22
0.0
 32
0.0
 14
0.0
 24
0.0
 34
0.0
 15
0.0
 25
0.0
 35
0.0
146
0.0
 13
0.0
 23
0.0
 33
0.0
 16
1.0
 26
0.0
 36
0.0
 17
0.0
 27
1.0
 37
0.0
 76
0
330
23B
345
0
346
0
  0
LAYOUT
  5
4D6
102
{ACAD_REACTORS
330
1A
102
}
100
AcDbPlotSettings
  1

  2
none_device
  4

  6

 40
0.0
 41
0.0
 42
0.0
 43
0.0
 44
431.8
 45
279.4
 46
0.0
 47
0.0
 48
0.0
 49
0.0
140
0.0
141
0.0
142
1.0
143
1.0
 70
0
 72
0
 73
0
 74
0
  7

 75
0
147
1.0
148
0.0
149
0.0
100
AcDbLayout
  1
Layout1
 70
0
 71
1
 10
0.0
 20
0.0
 11
17.0
 21
11.0
 12
0.0
 22
0.0
 32
0.0
 14
0.0
 24
0.0
 34
0.0
 15
0.0
 25
0.0
 35
0.0
146
0.0
 13
0.0
 23
0.0
 33
0.0
 16
1.0
 26
0.0
 36
0.0
 17
0.0
 27
1.0
 37
0.0
 76
0
330
23C
345
0
346
0
  0
ENDSEC
  0
EOF
