999
DXF file: N:\Master\master\M3_ProE_files\Lenexa\MADAM DXF\46900.dxf
999
Pro/ENGINEER 2010280 by Parametric Technology Corporation
  0
SECTION
  2
HEADER
  9
$ACADVER
  1
AC1021
  9
$DWGCODEPAGE
  3
ANSI_1252
  9
$EXTMAX
 10
17.0
 20
11.0
 30
0.0
  9
$EXTMIN
 10
0.0
 20
-0.0
 30
0.0
  9
$LIMMIN
 10
0.0
 20
-0.0
  9
$LIMMAX
 10
17.0
 20
11.0
  9
$VIEWCTR
 10
8.5
 20
5.5
  9
$VIEWSIZE
 40
11.0
  9
$CLAYER
  8
0
  9
$LTSCALE
 40
0.935
  9
$CELTYPE
  6
BYLAYER
  9
$DIMSCALE
 40
1.0
  9
$DIMASZ
 40
0.125
  9
$DIMEXO
 40
0.10625
  9
$DIMDLI
 40
0.646
  9
$DIMEXE
 40
0.306
  9
$DIMCEN
 40
0.153
  9
$DIMLFAC
 40
1.0
  9
$DIMBLK
  1
_FILLED
  9
$DIMTXT
 40
0.125
  9
$DIMTOL
 70
1
  9
$DIMLIM
 70
0
  9
$DIMTFAC
 40
1.0
  9
$DIMTP
 40
0.01
  9
$DIMTM
 40
0.01
  9
$PDMODE
 70
3
  9
$PDSIZE
 40
0.3125
  9
$HANDSEED
  5
49A
  9
$TILEMODE
 70
1
  9
$MEASUREMENT
 70
0
  9
$INSUNITS
 70
1
  0
ENDSEC
  0
SECTION
  2
CLASSES
  0
CLASS
  1
ACDBDICTIONARYWDFLT
  2
AcDbDictionaryWithDefault
  3
AutoCAD 2000
 90
0
 91
1
280
0
281
0
  0
CLASS
  1
ACDBPLACEHOLDER
  2
AcDbPlaceHolder
  3
AutoCAD 2000
 90
0
 91
1
280
0
281
0
  0
CLASS
  1
LAYOUT
  2
AcDbLayout
  3
AutoCAD 2000
 90
0
 91
0
280
0
281
0
  0
ENDSEC
  0
SECTION
  2
TABLES
  0
TABLE
  2
VPORT
  5
8
100
AcDbSymbolTable
 70
2
  0
VPORT
  5
1F4
100
AcDbSymbolTableRecord
100
AcDbViewportTableRecord
  2
*ACTIVE
 70
0
 10
0.0
 20
0.0
 11
1.0
 21
1.0
 12
8.5
 22
5.5
 13
0.0
 23
0.0
 14
1.0
 24
1.0
 15
0.0
 25
0.0
 16
0.0
 26
0.0
 36
1.0
 17
0.0
 27
0.0
 37
0.0
 40
11.0
 41
1.5454545455
 42
50.0
 43
0.0
 44
0.0
 50
0.0
 51
0.0
 71
0
 72
100
 73
1
 74
1
 75
0
 76
0
 77
0
 78
0
  0
ENDTAB
  0
TABLE
  2
LTYPE
  5
5
100
AcDbSymbolTable
 70
6
  0
LTYPE
  5
14
100
AcDbSymbolTableRecord
100
AcDbLinetypeTableRecord
  2
BYBLOCK
 70
0
  3

 72
65
 73
0
 40
0.0
  0
LTYPE
  5
15
100
AcDbSymbolTableRecord
100
AcDbLinetypeTableRecord
  2
BYLAYER
 70
0
  3

 72
65
 73
0
 40
0.0
  0
LTYPE
  5
16
100
AcDbSymbolTableRecord
100
AcDbLinetypeTableRecord
  2
CONTINUOUS
 70
64
  3
Solid line
 72
65
 73
0
 40
0.0
  0
LTYPE
  5
1F5
100
AcDbSymbolTableRecord
100
AcDbLinetypeTableRecord
  2
CENTER
 70
64
  3
____ _ ____ _ ____ _ ____ _ ____ _ ____ _ ____
 72
65
 73
4
 40
0.6
 49
0.375
 74
0
 49
-0.075
 74
0
 49
0.075
 74
0
 49
-0.075
 74
0
  0
LTYPE
  5
1F6
100
AcDbSymbolTableRecord
100
AcDbLinetypeTableRecord
  2
HIDDEN
 70
64
  3
- - - - - - - - - - - - - - - - - - - -
 72
65
 73
2
 40
0.2
 49
0.1
 74
0
 49
-0.1
 74
0
  0
LTYPE
  5
1F7
100
AcDbSymbolTableRecord
100
AcDbLinetypeTableRecord
  2
PHANTOM
 70
64
  3
_____ _ _ _____ _ _ _____ _ _ _____
 72
65
 73
6
 40
0.8
 49
0.45
 74
0
 49
-0.05
 74
0
 49
0.1
 74
0
 49
-0.05
 74
0
 49
0.1
 74
0
 49
-0.05
 74
0
  0
LTYPE
  5
1F8
100
AcDbSymbolTableRecord
100
AcDbLinetypeTableRecord
  2
DOT
 70
64
  3
. . . . . . . . . . . . . . . . . . . .
 72
65
 73
2
 40
0.2
 49
0.1
 74
0
 49
-0.1
 74
0
  0
LTYPE
  5
1F9
100
AcDbSymbolTableRecord
100
AcDbLinetypeTableRecord
  2
DASHED
 70
64
  3
- - - - - - - - - - - - - - - - - - - -
 72
65
 73
2
 40
0.2
 49
0.1
 74
0
 49
-0.1
 74
0
  0
ENDTAB
  0
TABLE
  2
LAYER
  5
2
100
AcDbSymbolTable
 70
36
  0
LAYER
  5
10
100
AcDbSymbolTableRecord
100
AcDbLayerTableRecord
  2
0
 70
0
 62
7
  6
CONTINUOUS
370
-3
390
F
  0
LAYER
  5
1FA
100
AcDbSymbolTableRecord
100
AcDbLayerTableRecord
  2
DEFAULT_1
 70
0
 62
7
  6
CENTER
370
-3
390
F
  0
LAYER
  5
1FB
100
AcDbSymbolTableRecord
100
AcDbLayerTableRecord
  2
DEFAULT_2
 70
0
 62
8
  6
HIDDEN
370
-3
390
F
  0
LAYER
  5
1FC
100
AcDbSymbolTableRecord
100
AcDbLayerTableRecord
  2
DEFAULT_3
 70
0
 62
7
  6
PHANTOM
370
-3
390
F
  0
LAYER
  5
1FD
100
AcDbSymbolTableRecord
100
AcDbLayerTableRecord
  2
01_ALL_DTM_PLN
 70
0
 62
7
  6
CONTINUOUS
370
-3
390
F
  0
LAYER
  5
1FE
100
AcDbSymbolTableRecord
100
AcDbLayerTableRecord
  2
01__ASM_ALL_DTM_PLN
 70
0
 62
7
  6
CONTINUOUS
370
-3
390
F
  0
LAYER
  5
1FF
100
AcDbSymbolTableRecord
100
AcDbLayerTableRecord
  2
01__ASM_DEF_DTM_PLN
 70
0
 62
7
  6
CONTINUOUS
370
-3
390
F
  0
LAYER
  5
200
100
AcDbSymbolTableRecord
100
AcDbLayerTableRecord
  2
01___PRT_ALL_DTM_PLN
 70
0
 62
7
  6
CONTINUOUS
370
-3
390
F
  0
LAYER
  5
201
100
AcDbSymbolTableRecord
100
AcDbLayerTableRecord
  2
01___PRT_DEF_DTM_PLN
 70
0
 62
7
  6
CONTINUOUS
370
-3
390
F
  0
LAYER
  5
202
100
AcDbSymbolTableRecord
100
AcDbLayerTableRecord
  2
02_ALL_AXES
 70
0
 62
7
  6
CONTINUOUS
370
-3
390
F
  0
LAYER
  5
203
100
AcDbSymbolTableRecord
100
AcDbLayerTableRecord
  2
02__ASM_ALL_AXES
 70
0
 62
7
  6
CONTINUOUS
370
-3
390
F
  0
LAYER
  5
204
100
AcDbSymbolTableRecord
100
AcDbLayerTableRecord
  2
02___PRT_ALL_AXES
 70
0
 62
7
  6
CONTINUOUS
370
-3
390
F
  0
LAYER
  5
205
100
AcDbSymbolTableRecord
100
AcDbLayerTableRecord
  2
03_ALL_CURVES
 70
0
 62
7
  6
CONTINUOUS
370
-3
390
F
  0
LAYER
  5
206
100
AcDbSymbolTableRecord
100
AcDbLayerTableRecord
  2
03__ASM_ALL_CURVES
 70
0
 62
7
  6
CONTINUOUS
370
-3
390
F
  0
LAYER
  5
207
100
AcDbSymbolTableRecord
100
AcDbLayerTableRecord
  2
03___PRT_ALL_CURVES
 70
0
 62
7
  6
CONTINUOUS
370
-3
390
F
  0
LAYER
  5
208
100
AcDbSymbolTableRecord
100
AcDbLayerTableRecord
  2
04_ALL_DTM_PNT
 70
0
 62
7
  6
CONTINUOUS
370
-3
390
F
  0
LAYER
  5
209
100
AcDbSymbolTableRecord
100
AcDbLayerTableRecord
  2
04__ASM_ALL_DTM_PNT
 70
0
 62
7
  6
CONTINUOUS
370
-3
390
F
  0
LAYER
  5
20A
100
AcDbSymbolTableRecord
100
AcDbLayerTableRecord
  2
04___PRT_ALL_DTM_PNT
 70
0
 62
7
  6
CONTINUOUS
370
-3
390
F
  0
LAYER
  5
20B
100
AcDbSymbolTableRecord
100
AcDbLayerTableRecord
  2
05_ALL_DTM_CSYS
 70
0
 62
7
  6
CONTINUOUS
370
-3
390
F
  0
LAYER
  5
20C
100
AcDbSymbolTableRecord
100
AcDbLayerTableRecord
  2
05__ASM_ALL_DTM_CSYS
 70
0
 62
7
  6
CONTINUOUS
370
-3
390
F
  0
LAYER
  5
20D
100
AcDbSymbolTableRecord
100
AcDbLayerTableRecord
  2
05__ASM_DEF_DTM_CSYS
 70
0
 62
7
  6
CONTINUOUS
370
-3
390
F
  0
LAYER
  5
20E
100
AcDbSymbolTableRecord
100
AcDbLayerTableRecord
  2
05___PRT_ALL_DTM_CSYS
 70
0
 62
7
  6
CONTINUOUS
370
-3
390
F
  0
LAYER
  5
20F
100
AcDbSymbolTableRecord
100
AcDbLayerTableRecord
  2
05___PRT_DEF_DTM_CSYS
 70
0
 62
7
  6
CONTINUOUS
370
-3
390
F
  0
LAYER
  5
210
100
AcDbSymbolTableRecord
100
AcDbLayerTableRecord
  2
06_ALL_SURFS
 70
0
 62
7
  6
CONTINUOUS
370
-3
390
F
  0
LAYER
  5
211
100
AcDbSymbolTableRecord
100
AcDbLayerTableRecord
  2
06__ASM_ALL_SURFS
 70
0
 62
7
  6
CONTINUOUS
370
-3
390
F
  0
LAYER
  5
212
100
AcDbSymbolTableRecord
100
AcDbLayerTableRecord
  2
06___PRT_ALL_SURFS
 70
0
 62
7
  6
CONTINUOUS
370
-3
390
F
  0
LAYER
  5
213
100
AcDbSymbolTableRecord
100
AcDbLayerTableRecord
  2
07__ASM_ALL_SKELETONS
 70
0
 62
7
  6
CONTINUOUS
370
-3
390
F
  0
LAYER
  5
214
100
AcDbSymbolTableRecord
100
AcDbLayerTableRecord
  2
904PLANES
 70
0
 62
7
  6
CONTINUOUS
370
-3
390
F
  0
LAYER
  5
215
100
AcDbSymbolTableRecord
100
AcDbLayerTableRecord
  2
90517DTMS
 70
0
 62
7
  6
CONTINUOUS
370
-3
390
F
  0
LAYER
  5
216
100
AcDbSymbolTableRecord
100
AcDbLayerTableRecord
  2
AXIS
 70
0
 62
7
  6
CONTINUOUS
370
-3
390
F
  0
LAYER
  5
217
100
AcDbSymbolTableRecord
100
AcDbLayerTableRecord
  2
BAFFLE_DTMS
 70
0
 62
7
  6
CONTINUOUS
370
-3
390
F
  0
LAYER
  5
218
100
AcDbSymbolTableRecord
100
AcDbLayerTableRecord
  2
BD_ANGLE
 70
0
 62
7
  6
CONTINUOUS
370
-3
390
F
  0
LAYER
  5
219
100
AcDbSymbolTableRecord
100
AcDbLayerTableRecord
  2
CONDUIT_DTMS
 70
0
 62
7
  6
CONTINUOUS
370
-3
390
F
  0
LAYER
  5
21A
100
AcDbSymbolTableRecord
100
AcDbLayerTableRecord
  2
CS
 70
0
 62
7
  6
CONTINUOUS
370
-3
390
F
  0
LAYER
  5
21B
100
AcDbSymbolTableRecord
100
AcDbLayerTableRecord
  2
CSYS
 70
0
 62
7
  6
CONTINUOUS
370
-3
390
F
  0
LAYER
  5
21C
100
AcDbSymbolTableRecord
100
AcDbLayerTableRecord
  2
CURVE
 70
0
 62
7
  6
CONTINUOUS
370
-3
390
F
  0
LAYER
  5
21D
100
AcDbSymbolTableRecord
100
AcDbLayerTableRecord
  2
CURVES
 70
0
 62
7
  6
CONTINUOUS
370
-3
390
F
  0
LAYER
  5
21E
100
AcDbSymbolTableRecord
100
AcDbLayerTableRecord
  2
DEFAULT_DTM
 70
0
 62
7
  6
CONTINUOUS
370
-3
390
F
  0
LAYER
  5
21F
100
AcDbSymbolTableRecord
100
AcDbLayerTableRecord
  2
DEF_DTMS
 70
0
 62
7
  6
CONTINUOUS
370
-3
390
F
  0
LAYER
  5
220
100
AcDbSymbolTableRecord
100
AcDbLayerTableRecord
  2
G90581DTMS
 70
0
 62
7
  6
CONTINUOUS
370
-3
390
F
  0
LAYER
  5
221
100
AcDbSymbolTableRecord
100
AcDbLayerTableRecord
  2
GENPLANES
 70
0
 62
7
  6
CONTINUOUS
370
-3
390
F
  0
LAYER
  5
222
100
AcDbSymbolTableRecord
100
AcDbLayerTableRecord
  2
HEAD
 70
0
 62
7
  6
CONTINUOUS
370
-3
390
F
  0
LAYER
  5
223
100
AcDbSymbolTableRecord
100
AcDbLayerTableRecord
  2
HOOD_LOC_DTM
 70
0
 62
7
  6
CONTINUOUS
370
-3
390
F
  0
LAYER
  5
224
100
AcDbSymbolTableRecord
100
AcDbLayerTableRecord
  2
HUB_DTMS
 70
0
 62
7
  6
CONTINUOUS
370
-3
390
F
  0
LAYER
  5
225
100
AcDbSymbolTableRecord
100
AcDbLayerTableRecord
  2
IGES_ITEMS
 70
0
 62
7
  6
CONTINUOUS
370
-3
390
F
  0
LAYER
  5
226
100
AcDbSymbolTableRecord
100
AcDbLayerTableRecord
  2
IGS_ITEMS
 70
0
 62
7
  6
CONTINUOUS
370
-3
390
F
  0
LAYER
  5
227
100
AcDbSymbolTableRecord
100
AcDbLayerTableRecord
  2
INTF_1
 70
0
 62
7
  6
CONTINUOUS
370
-3
390
F
  0
LAYER
  5
228
100
AcDbSymbolTableRecord
100
AcDbLayerTableRecord
  2
J_BOX_ANGLE
 70
0
 62
7
  6
CONTINUOUS
370
-3
390
F
  0
LAYER
  5
229
100
AcDbSymbolTableRecord
100
AcDbLayerTableRecord
  2
LAY0001
 70
0
 62
7
  6
CONTINUOUS
370
-3
390
F
  0
LAYER
  5
22A
100
AcDbSymbolTableRecord
100
AcDbLayerTableRecord
  2
LAY0002
 70
0
 62
7
  6
CONTINUOUS
370
-3
390
F
  0
LAYER
  5
22B
100
AcDbSymbolTableRecord
100
AcDbLayerTableRecord
  2
MTR_HOLE_ANG_DTM
 70
0
 62
7
  6
CONTINUOUS
370
-3
390
F
  0
LAYER
  5
22C
100
AcDbSymbolTableRecord
100
AcDbLayerTableRecord
  2
PARTDTMS
 70
0
 62
7
  6
CONTINUOUS
370
-3
390
F
  0
LAYER
  5
22D
100
AcDbSymbolTableRecord
100
AcDbLayerTableRecord
  2
PLANE
 70
0
 62
7
  6
CONTINUOUS
370
-3
390
F
  0
LAYER
  5
22E
100
AcDbSymbolTableRecord
100
AcDbLayerTableRecord
  2
PLANES
 70
0
 62
7
  6
CONTINUOUS
370
-3
390
F
  0
LAYER
  5
22F
100
AcDbSymbolTableRecord
100
AcDbLayerTableRecord
  2
POINT
 70
0
 62
7
  6
CONTINUOUS
370
-3
390
F
  0
LAYER
  5
230
100
AcDbSymbolTableRecord
100
AcDbLayerTableRecord
  2
ROUND
 70
0
 62
7
  6
CONTINUOUS
370
-3
390
F
  0
LAYER
  5
231
100
AcDbSymbolTableRecord
100
AcDbLayerTableRecord
  2
STANDOFF_DTMS
 70
0
 62
7
  6
CONTINUOUS
370
-3
390
F
  0
LAYER
  5
232
100
AcDbSymbolTableRecord
100
AcDbLayerTableRecord
  2
STIFF_ANGLE
 70
0
 62
7
  6
CONTINUOUS
370
-3
390
F
  0
LAYER
  5
233
100
AcDbSymbolTableRecord
100
AcDbLayerTableRecord
  2
SURFACE
 70
0
 62
7
  6
CONTINUOUS
370
-3
390
F
  0
LAYER
  5
234
100
AcDbSymbolTableRecord
100
AcDbLayerTableRecord
  2
TOP_SURFACE
 70
0
 62
7
  6
CONTINUOUS
370
-3
390
F
  0
LAYER
  5
235
100
AcDbSymbolTableRecord
100
AcDbLayerTableRecord
  2
WITNESS
 70
0
 62
7
  6
CONTINUOUS
370
-3
390
F
  0
LAYER
  5
236
100
AcDbSymbolTableRecord
100
AcDbLayerTableRecord
  2
XSEC_DATUMS
 70
0
 62
7
  6
CONTINUOUS
370
-3
390
F
  0
ENDTAB
  0
TABLE
  2
STYLE
  5
3
100
AcDbSymbolTable
 70
1
  0
STYLE
  5
11
100
AcDbSymbolTableRecord
100
AcDbTextStyleTableRecord
  2
STANDARD
 70
0
 40
0.0
 41
0.8
 50
0.0
 71
0
 42
0.2
  3
txt
  4

  0
STYLE
  5
237
100
AcDbSymbolTableRecord
100
AcDbTextStyleTableRecord
  2
TEXTSTYLE_1
 70
0
 40
0.0
 41
0.8
 50
0.0
 71
0
 42
0.2
  3
gdt
  4

  0
ENDTAB
  0
TABLE
  2
VIEW
  5
6
100
AcDbSymbolTable
 70
0
  0
ENDTAB
  0
TABLE
  2
UCS
  5
7
100
AcDbSymbolTable
 70
0
  0
ENDTAB
  0
TABLE
  2
APPID
  5
9
100
AcDbSymbolTable
 70
1
  0
APPID
  5
238
100
AcDbSymbolTableRecord
100
AcDbRegAppTableRecord
  2
ACAD
 70
0
  0
ENDTAB
  0
TABLE
  2
BLOCK_RECORD
  5
1
100
AcDbSymbolTable
 70
0
  0
BLOCK_RECORD
  5
239
100
AcDbSymbolTableRecord
100
AcDbBlockTableRecord
  2
*Model_Space
  0
BLOCK_RECORD
  5
23A
100
AcDbSymbolTableRecord
100
AcDbBlockTableRecord
  2
*Paper_Space
  0
ENDTAB
  0
TABLE
  2
DIMSTYLE
  5
A
100
AcDbSymbolTable
 70
1
100
AcDbDimStyleTable
 71
0
  0
DIMSTYLE
105
23B
100
AcDbSymbolTableRecord
100
AcDbDimStyleTableRecord
  2
STANDARD
 70
0
  3

  4

 40
1.0
 41
0.125
 42
0.0625
 43
0.38
 44
0.18
 45
0.0
 46
0.0
 47
0.01
 48
0.01
140
0.125
141
0.09
142
0.0
143
25.4
144
1.0
145
0.0
146
1.0
147
0.09
 71
1.0
 72
0.0
 73
1
 74
1
 75
0
 76
0
 77
0
 78
4
170
0
171
2
172
0
173
0
174
0
175
0
176
0
177
0
178
0
270
2
271
2
272
2
273
2
274
2
275
0
280
0
281
0
282
0
283
1
284
4
285
0
286
0
287
3
288
0
340
11
  0
ENDTAB
  0
ENDSEC
  0
SECTION
  2
BLOCKS
  0
BLOCK
  5
20
100
AcDbEntity
  8
0
100
AcDbBlockBegin
  2
*Model_Space
 70
0
 10
0.0
 20
0.0
 30
0.0
  3
*Model_Space
  1

  0
ENDBLK
  5
21
100
AcDbEntity
  8
0
100
AcDbBlockEnd
  0
BLOCK
  5
1C
100
AcDbEntity
  8
0
100
AcDbBlockBegin
  2
*Paper_Space
 70
0
 10
0.0
 20
0.0
 30
0.0
  3
*Paper_Space
  1

  0
ENDBLK
  5
1D
100
AcDbEntity
  8
0
100
AcDbBlockEnd
  0
ENDSEC
  0
SECTION
  2
ENTITIES
  0
MTEXT
  5
23C
100
AcDbEntity
  8
0
100
AcDbMText
 62
2
  6
CONTINUOUS
  7
STANDARD
 71
1
 72
1
 10
35.1442899862
 20
-30.3225742968
 30
0.0
 11
1.0
 21
0.0
 31
0.0
 44
0.9
  1
46900
 40
4.0
 41
16.0
  0
LINE
  5
23D
100
AcDbEntity
  8
0
100
AcDbLine
 62
3
  6
CONTINUOUS
 10
-15.2133018674
 20
3.794504608
 11
-15.2956757598
 21
1.4356249619
  0
LINE
  5
23E
100
AcDbEntity
  8
0
100
AcDbLine
 62
7
  6
CONTINUOUS
 10
-12.4744059521
 20
-3.4593750381
 11
-12.4244059521
 21
-3.4593750381
  0
LINE
  5
23F
100
AcDbEntity
  8
0
100
AcDbLine
 62
7
  6
CONTINUOUS
 10
6.7255940479
 20
-3.4593750381
 11
6.6755940479
 21
-3.4593750381
  0
LINE
  5
240
100
AcDbEntity
  8
0
100
AcDbLine
 62
3
  6
CONTINUOUS
 10
6.6255940479
 20
-3.4593750381
 11
-12.3744059521
 21
-3.4593750381
  0
LINE
  5
241
100
AcDbEntity
  8
0
100
AcDbLine
 62
3
  6
CONTINUOUS
 10
-12.4744059521
 20
-2.0593750381
 11
-12.4744059521
 21
-3.4593750381
  0
LINE
  5
242
100
AcDbEntity
  8
0
100
AcDbLine
 62
7
  6
CONTINUOUS
 10
-12.4244059521
 20
-2.0593750381
 11
-12.4244059521
 21
-3.4593750381
  0
LINE
  5
243
100
AcDbEntity
  8
0
100
AcDbLine
 62
3
  6
CONTINUOUS
 10
-12.3744059521
 20
-1.9593750381
 11
-12.3744059521
 21
-3.4593750381
  0
LINE
  5
244
100
AcDbEntity
  8
0
100
AcDbLine
 62
7
  6
CONTINUOUS
 10
-11.6844059521
 20
6.6501249619
 11
-11.6844059521
 21
6.5801249619
  0
LINE
  5
245
100
AcDbEntity
  8
0
100
AcDbLine
 62
7
  6
CONTINUOUS
 10
-11.4814059521
 20
8.2781224075
 11
-11.4814059521
 21
7.8421275162
  0
LINE
  5
246
100
AcDbEntity
  8
0
100
AcDbLine
 62
3
  6
CONTINUOUS
 10
-12.3744059521
 20
-1.9593750381
 11
6.6255940479
 21
-1.9593750381
  0
LINE
  5
247
100
AcDbEntity
  8
0
100
AcDbLine
 62
7
  6
CONTINUOUS
 10
2.8555940479
 20
-1.9543750381
 11
4.8555940479
 21
-1.9543750381
  0
LINE
  5
248
100
AcDbEntity
  8
0
100
AcDbLine
 62
7
  6
CONTINUOUS
 10
4.8555940479
 20
-1.9093750381
 11
6.4755940479
 21
-1.9093750381
  0
LINE
  5
249
100
AcDbEntity
  8
0
100
AcDbLine
 62
7
  6
CONTINUOUS
 10
-8.5312602016
 20
-1.4393750381
 11
-8.4959048626
 21
-1.4393750381
  0
LINE
  5
24A
100
AcDbEntity
  8
0
100
AcDbLine
 62
7
  6
CONTINUOUS
 10
2.7824482974
 20
-1.4393750381
 11
2.7470929583
 21
-1.4393750381
  0
LINE
  5
24B
100
AcDbEntity
  8
0
100
AcDbLine
 62
7
  6
CONTINUOUS
 10
-8.6535645727
 20
-1.3958813891
 11
-8.5467458401
 21
-1.3958813891
  0
LINE
  5
24C
100
AcDbEntity
  8
0
100
AcDbLine
 62
7
  6
CONTINUOUS
 10
2.9047526685
 20
-1.3958813891
 11
2.7979339359
 21
-1.3958813891
  0
LINE
  5
24D
100
AcDbEntity
  8
0
100
AcDbLine
 62
7
  6
CONTINUOUS
 10
-8.5209820512
 20
-1.2876282136
 11
-8.4141633187
 21
-1.2876282136
  0
LINE
  5
24E
100
AcDbEntity
  8
0
100
AcDbLine
 62
7
  6
CONTINUOUS
 10
2.772170147
 20
-1.2876282136
 11
2.6653514144
 21
-1.2876282136
  0
LINE
  5
24F
100
AcDbEntity
  8
0
100
AcDbLine
 62
7
  6
CONTINUOUS
 10
-8.5209820512
 20
-1.0711218626
 11
-8.4141633187
 21
-1.0711218626
  0
LINE
  5
250
100
AcDbEntity
  8
0
100
AcDbLine
 62
7
  6
CONTINUOUS
 10
2.772170147
 20
-1.0711218626
 11
2.6653514144
 21
-1.0711218626
  0
LINE
  5
251
100
AcDbEntity
  8
0
100
AcDbLine
 62
7
  6
CONTINUOUS
 10
-8.329590756
 20
-1.0698750381
 11
-8.3246846505
 21
-1.0698750381
  0
LINE
  5
252
100
AcDbEntity
  8
0
100
AcDbLine
 62
7
  6
CONTINUOUS
 10
-11.3394059521
 20
7.7946249619
 11
-11.3394059521
 21
8.3256249619
  0
LINE
  5
253
100
AcDbEntity
  8
0
100
AcDbLine
 62
7
  6
CONTINUOUS
 10
-11.3094059521
 20
7.6951249619
 11
-11.3094059521
 21
8.4251249619
  0
LINE
  5
254
100
AcDbEntity
  8
0
100
AcDbLine
 62
7
  6
CONTINUOUS
 10
-10.8194059521
 20
6.7956249619
 11
-10.8194059521
 21
6.8701249619
  0
LINE
  5
255
100
AcDbEntity
  8
0
100
AcDbLine
 62
7
  6
CONTINUOUS
 10
-10.7544059521
 20
6.8701249619
 11
-10.7544059521
 21
6.7201249619
  0
LINE
  5
256
100
AcDbEntity
  8
0
100
AcDbLine
 62
3
  6
CONTINUOUS
 10
-10.7361216809
 20
0.9356249619
 11
-10.7361216809
 21
-1.9593750381
  0
LINE
  5
257
100
AcDbEntity
  8
0
100
AcDbLine
 62
3
  6
CONTINUOUS
 10
-10.6844059521
 20
6.8701249619
 11
-10.6844059521
 21
6.6406249619
  0
LINE
  5
258
100
AcDbEntity
  8
0
100
AcDbLine
 62
7
  6
CONTINUOUS
 10
-11.3111360597
 20
7.2501249619
 11
-11.2955963173
 21
7.6951249619
  0
LINE
  5
259
100
AcDbEntity
  8
0
100
AcDbLine
 62
7
  6
CONTINUOUS
 10
-11.2701041556
 20
8.4251249619
 11
-10.9029192837
 21
18.9399239553
  0
LINE
  5
25A
100
AcDbEntity
  8
0
100
AcDbLine
 62
7
  6
CONTINUOUS
 10
-11.351999116
 20
8.2786266345
 11
-11.3394059521
 21
8.3256249619
  0
LINE
  5
25B
100
AcDbEntity
  8
0
100
AcDbLine
 62
7
  6
CONTINUOUS
 10
-8.6535645727
 20
-0.9628686872
 11
-8.5467458401
 21
-0.9628686872
  0
LINE
  5
25C
100
AcDbEntity
  8
0
100
AcDbLine
 62
7
  6
CONTINUOUS
 10
2.9047526685
 20
-0.9628686872
 11
2.7979339359
 21
-0.9628686872
  0
LINE
  5
25D
100
AcDbEntity
  8
0
100
AcDbLine
 62
7
  6
CONTINUOUS
 10
-8.5312602016
 20
-0.9193750381
 11
-8.4959048626
 21
-0.9193750381
  0
LINE
  5
25E
100
AcDbEntity
  8
0
100
AcDbLine
 62
7
  6
CONTINUOUS
 10
2.7824482974
 20
-0.9193750381
 11
2.7470929583
 21
-0.9193750381
  0
LINE
  5
25F
100
AcDbEntity
  8
0
100
AcDbLine
 62
7
  6
CONTINUOUS
 10
-11.4814059521
 20
7.8421249619
 11
-11.481117277
 21
7.8416249619
  0
LINE
  5
260
100
AcDbEntity
  8
0
100
AcDbLine
 62
7
  6
CONTINUOUS
 10
-11.351999116
 20
7.8416232893
 11
-11.3394059521
 21
7.7946249619
  0
LINE
  5
261
100
AcDbEntity
  8
0
100
AcDbLine
 62
7
  6
CONTINUOUS
 10
-11.4814059521
 20
8.2781249619
 11
-11.481117277
 21
8.2786249619
  0
LINE
  5
262
100
AcDbEntity
  8
0
100
AcDbLine
 62
7
  6
CONTINUOUS
 10
-8.5312602016
 20
0.8606249619
 11
-8.4959048626
 21
0.8606249619
  0
LINE
  5
263
100
AcDbEntity
  8
0
100
AcDbLine
 62
7
  6
CONTINUOUS
 10
2.7824482974
 20
0.8606249619
 11
2.7470929583
 21
0.8606249619
  0
LINE
  5
264
100
AcDbEntity
  8
0
100
AcDbLine
 62
7
  6
CONTINUOUS
 10
-8.6535645727
 20
0.9041186109
 11
-8.5467458401
 21
0.9041186109
  0
LINE
  5
265
100
AcDbEntity
  8
0
100
AcDbLine
 62
7
  6
CONTINUOUS
 10
2.9047526685
 20
0.9041186109
 11
2.7979339359
 21
0.9041186109
  0
LINE
  5
266
100
AcDbEntity
  8
0
100
AcDbLine
 62
3
  6
CONTINUOUS
 10
-15.4915199369
 20
0.9356249619
 11
9.7427080327
 21
0.9356249619
  0
LINE
  5
267
100
AcDbEntity
  8
0
100
AcDbLine
 62
3
  6
CONTINUOUS
 10
-15.4915199369
 20
1.4356249619
 11
9.7427080327
 21
1.4356249619
  0
LINE
  5
268
100
AcDbEntity
  8
0
100
AcDbLine
 62
3
  6
CONTINUOUS
 10
6.7761286384
 20
6.3906249619
 11
-12.5249405427
 21
6.3906249619
  0
LINE
  5
269
100
AcDbEntity
  8
0
100
AcDbLine
 62
7
  6
CONTINUOUS
 10
-3.3744059521
 20
6.5801249619
 11
-3.3744059521
 21
6.8701249619
  0
LINE
  5
26A
100
AcDbEntity
  8
0
100
AcDbLine
 62
3
  6
CONTINUOUS
 10
-2.3744059521
 20
6.5801249619
 11
-3.3744059521
 21
6.5801249619
  0
LINE
  5
26B
100
AcDbEntity
  8
0
100
AcDbLine
 62
3
  6
CONTINUOUS
 10
5.0755940479
 20
6.5801249619
 11
5.9355940479
 21
6.5801249619
  0
LINE
  5
26C
100
AcDbEntity
  8
0
100
AcDbLine
 62
3
  6
CONTINUOUS
 10
-10.8244059521
 20
6.5801249619
 11
-11.6844059521
 21
6.5801249619
  0
LINE
  5
26D
100
AcDbEntity
  8
0
100
AcDbLine
 62
7
  6
CONTINUOUS
 10
-2.3744059521
 20
6.6501249619
 11
-3.3744059521
 21
6.6501249619
  0
LINE
  5
26E
100
AcDbEntity
  8
0
100
AcDbLine
 62
7
  6
CONTINUOUS
 10
5.0755940479
 20
6.6501249619
 11
5.9355940479
 21
6.6501249619
  0
LINE
  5
26F
100
AcDbEntity
  8
0
100
AcDbLine
 62
7
  6
CONTINUOUS
 10
-10.8244059521
 20
6.6501249619
 11
-11.6844059521
 21
6.6501249619
  0
LINE
  5
270
100
AcDbEntity
  8
0
100
AcDbLine
 62
7
  6
CONTINUOUS
 10
5.0055940479
 20
6.7956249619
 11
5.0705940479
 21
6.7956249619
  0
LINE
  5
271
100
AcDbEntity
  8
0
100
AcDbLine
 62
7
  6
CONTINUOUS
 10
-10.7544059521
 20
6.7956249619
 11
-10.8194059521
 21
6.7956249619
  0
LINE
  5
272
100
AcDbEntity
  8
0
100
AcDbLine
 62
7
  6
CONTINUOUS
 10
-12.5644059116
 20
6.8701249619
 11
6.8155940073
 21
6.8701249619
  0
LINE
  5
273
100
AcDbEntity
  8
0
100
AcDbLine
 62
7
  6
CONTINUOUS
 10
-12.5643758323
 20
7.2501249619
 11
6.8155639281
 21
7.2501249619
  0
LINE
  5
274
100
AcDbEntity
  8
0
100
AcDbLine
 62
7
  6
CONTINUOUS
 10
-3.000556986
 20
7.8416249619
 11
-3.1267080198
 21
8.0601249619
  0
LINE
  5
275
100
AcDbEntity
  8
0
100
AcDbLine
 62
7
  6
CONTINUOUS
 10
-2.7482549183
 20
8.2786249619
 11
-2.6221038845
 21
8.0601249619
  0
LINE
  5
276
100
AcDbEntity
  8
0
100
AcDbLine
 62
7
  6
CONTINUOUS
 10
-2.3744059521
 20
6.5801249619
 11
-2.3744059521
 21
6.8701249619
  0
LINE
  5
277
100
AcDbEntity
  8
0
100
AcDbLine
 62
7
  6
CONTINUOUS
 10
-3.1267080198
 20
8.0601249619
 11
-3.000556986
 21
8.2786249619
  0
LINE
  5
278
100
AcDbEntity
  8
0
100
AcDbLine
 62
7
  6
CONTINUOUS
 10
-2.6221038845
 20
8.0601249619
 11
-2.7482549183
 21
7.8416249619
  0
LINE
  5
279
100
AcDbEntity
  8
0
100
AcDbLine
 62
7
  6
CONTINUOUS
 10
5.546784413
 20
7.6951249619
 11
5.5605940479
 21
7.6951249619
  0
LINE
  5
27A
100
AcDbEntity
  8
0
100
AcDbLine
 62
7
  6
CONTINUOUS
 10
-11.2955963173
 20
7.6951249619
 11
-11.3094059521
 21
7.6951249619
  0
LINE
  5
27B
100
AcDbEntity
  8
0
100
AcDbLine
 62
7
  6
CONTINUOUS
 10
-11.3394059521
 20
7.7946249619
 11
-11.3094059521
 21
7.7946249619
  0
LINE
  5
27C
100
AcDbEntity
  8
0
100
AcDbLine
 62
7
  6
CONTINUOUS
 10
5.5905940479
 20
7.7946249619
 11
5.5605940479
 21
7.7946249619
  0
LINE
  5
27D
100
AcDbEntity
  8
0
100
AcDbLine
 62
7
  6
CONTINUOUS
 10
5.7323053727
 20
7.8416249619
 11
5.5941304232
 21
7.8416249619
  0
LINE
  5
27E
100
AcDbEntity
  8
0
100
AcDbLine
 62
7
  6
CONTINUOUS
 10
-2.7482549183
 20
7.8416249619
 11
-3.000556986
 21
7.8416249619
  0
LINE
  5
27F
100
AcDbEntity
  8
0
100
AcDbLine
 62
7
  6
CONTINUOUS
 10
-11.3429423275
 20
7.8416249619
 11
-11.481117277
 21
7.8416249619
  0
LINE
  5
280
100
AcDbEntity
  8
0
100
AcDbLine
 62
7
  6
CONTINUOUS
 10
-11.4616016441
 20
8.0601249619
 11
-11.3429423275
 21
8.0601249619
  0
LINE
  5
281
100
AcDbEntity
  8
0
100
AcDbLine
 62
7
  6
CONTINUOUS
 10
5.7127897399
 20
8.0601249619
 11
5.5941304232
 21
8.0601249619
  0
LINE
  5
282
100
AcDbEntity
  8
0
100
AcDbLine
 62
7
  6
CONTINUOUS
 10
-11.481117277
 20
8.2786249619
 11
-11.3429423275
 21
8.2786249619
  0
LINE
  5
283
100
AcDbEntity
  8
0
100
AcDbLine
 62
7
  6
CONTINUOUS
 10
-3.000556986
 20
8.2786249619
 11
-2.7482549183
 21
8.2786249619
  0
LINE
  5
284
100
AcDbEntity
  8
0
100
AcDbLine
 62
7
  6
CONTINUOUS
 10
5.5941304232
 20
8.2786249619
 11
5.7323053727
 21
8.2786249619
  0
LINE
  5
285
100
AcDbEntity
  8
0
100
AcDbLine
 62
7
  6
CONTINUOUS
 10
-11.3394059521
 20
8.3256249619
 11
-11.3094059521
 21
8.3256249619
  0
LINE
  5
286
100
AcDbEntity
  8
0
100
AcDbLine
 62
7
  6
CONTINUOUS
 10
5.5905940479
 20
8.3256249619
 11
5.5605940479
 21
8.3256249619
  0
LINE
  5
287
100
AcDbEntity
  8
0
100
AcDbLine
 62
7
  6
CONTINUOUS
 10
5.5212922513
 20
8.4251249619
 11
5.5605940479
 21
8.4251249619
  0
LINE
  5
288
100
AcDbEntity
  8
0
100
AcDbLine
 62
7
  6
CONTINUOUS
 10
-11.2701041556
 20
8.4251249619
 11
-11.3094059521
 21
8.4251249619
  0
LINE
  5
289
100
AcDbEntity
  8
0
100
AcDbLine
 62
3
  6
CONTINUOUS
 10
3.0631389561
 20
-1.9543750381
 11
3.0631389561
 21
0.9356249619
  0
LINE
  5
28A
100
AcDbEntity
  8
0
100
AcDbLine
 62
7
  6
CONTINUOUS
 10
5.7325940479
 20
8.2781249619
 11
5.7323053727
 21
8.2786249619
  0
LINE
  5
28B
100
AcDbEntity
  8
0
100
AcDbLine
 62
7
  6
CONTINUOUS
 10
5.5623241555
 20
7.2501249619
 11
5.546784413
 21
7.6951249619
  0
LINE
  5
28C
100
AcDbEntity
  8
0
100
AcDbLine
 62
7
  6
CONTINUOUS
 10
5.5212922513
 20
8.4251249619
 11
5.1541073794
 21
18.9399239553
  0
LINE
  5
28D
100
AcDbEntity
  8
0
100
AcDbLine
 62
7
  6
CONTINUOUS
 10
4.8555940479
 20
-1.9593750381
 11
4.8555940479
 21
-1.9093750381
  0
LINE
  5
28E
100
AcDbEntity
  8
0
100
AcDbLine
 62
3
  6
CONTINUOUS
 10
4.9355940479
 20
6.8701249619
 11
4.9355940479
 21
6.6406249619
  0
LINE
  5
28F
100
AcDbEntity
  8
0
100
AcDbLine
 62
3
  6
CONTINUOUS
 10
4.9873097766
 20
0.9356249619
 11
4.9873097766
 21
-1.9093750381
  0
LINE
  5
290
100
AcDbEntity
  8
0
100
AcDbLine
 62
7
  6
CONTINUOUS
 10
5.0055940479
 20
6.8701249619
 11
5.0055940479
 21
6.7201249619
  0
LINE
  5
291
100
AcDbEntity
  8
0
100
AcDbLine
 62
7
  6
CONTINUOUS
 10
5.0705940479
 20
6.8701249619
 11
5.0705940479
 21
6.7956249619
  0
LINE
  5
292
100
AcDbEntity
  8
0
100
AcDbLine
 62
7
  6
CONTINUOUS
 10
5.5605940479
 20
8.4251249619
 11
5.5605940479
 21
7.6951249619
  0
LINE
  5
293
100
AcDbEntity
  8
0
100
AcDbLine
 62
7
  6
CONTINUOUS
 10
5.5905940479
 20
7.7946249619
 11
5.5905940479
 21
8.3256249619
  0
LINE
  5
294
100
AcDbEntity
  8
0
100
AcDbLine
 62
7
  6
CONTINUOUS
 10
5.7325940479
 20
7.8421275162
 11
5.7325940479
 21
8.2781224075
  0
LINE
  5
295
100
AcDbEntity
  8
0
100
AcDbLine
 62
7
  6
CONTINUOUS
 10
5.9355940479
 20
6.6501249619
 11
5.9355940479
 21
6.5801249619
  0
LINE
  5
296
100
AcDbEntity
  8
0
100
AcDbLine
 62
7
  6
CONTINUOUS
 10
5.6031872117
 20
7.8416232893
 11
5.5905940479
 21
7.7946249619
  0
LINE
  5
297
100
AcDbEntity
  8
0
100
AcDbLine
 62
7
  6
CONTINUOUS
 10
5.7325940479
 20
7.8421249619
 11
5.7323053727
 21
7.8416249619
  0
LINE
  5
298
100
AcDbEntity
  8
0
100
AcDbLine
 62
7
  6
CONTINUOUS
 10
5.6031872117
 20
8.2786266345
 11
5.5905940479
 21
8.3256249619
  0
LINE
  5
299
100
AcDbEntity
  8
0
100
AcDbLine
 62
7
  6
CONTINUOUS
 10
6.4755940479
 20
-1.9593750381
 11
6.4755940479
 21
-1.9093750381
  0
LINE
  5
29A
100
AcDbEntity
  8
0
100
AcDbLine
 62
3
  6
CONTINUOUS
 10
6.6255940479
 20
-1.9593750381
 11
6.6255940479
 21
-3.4593750381
  0
LINE
  5
29B
100
AcDbEntity
  8
0
100
AcDbLine
 62
7
  6
CONTINUOUS
 10
6.6755940479
 20
-2.0593750381
 11
6.6755940479
 21
-3.4593750381
  0
LINE
  5
29C
100
AcDbEntity
  8
0
100
AcDbLine
 62
3
  6
CONTINUOUS
 10
6.7255940479
 20
-2.0593750381
 11
6.7255940479
 21
-3.4593750381
  0
LINE
  5
29D
100
AcDbEntity
  8
0
100
AcDbLine
 62
3
  6
CONTINUOUS
 10
9.4644899631
 20
3.794504608
 11
9.5468638555
 21
1.4356249619
  0
LINE
  5
29E
100
AcDbEntity
  8
0
100
AcDbLine
 62
7
  6
CONTINUOUS
 10
-8.9041372375
 20
20.8701249619
 11
3.1553253333
 21
20.8701249619
  0
LINE
  5
29F
100
AcDbEntity
  8
0
100
AcDbLine
 62
7
  6
CONTINUOUS
 10
52.0709476482
 20
-3.4593750381
 11
52.0209476482
 21
-3.4593750381
  0
LINE
  5
2A0
100
AcDbEntity
  8
0
100
AcDbLine
 62
3
  6
CONTINUOUS
 10
51.9709476482
 20
-3.4593750381
 11
32.9709476482
 21
-3.4593750381
  0
LINE
  5
2A1
100
AcDbEntity
  8
0
100
AcDbLine
 62
7
  6
CONTINUOUS
 10
32.8709476482
 20
-3.4593750381
 11
32.9209476482
 21
-3.4593750381
  0
LINE
  5
2A2
100
AcDbEntity
  8
0
100
AcDbLine
 62
3
  6
CONTINUOUS
 10
51.9709476482
 20
-1.9593750381
 11
32.9709476482
 21
-1.9593750381
  0
LINE
  5
2A3
100
AcDbEntity
  8
0
100
AcDbLine
 62
7
  6
CONTINUOUS
 10
33.1209476482
 20
-1.9093750381
 11
35.8709476482
 21
-1.9093750381
  0
LINE
  5
2A4
100
AcDbEntity
  8
0
100
AcDbLine
 62
7
  6
CONTINUOUS
 10
48.1278018977
 20
-1.4393750381
 11
48.0924465587
 21
-1.4393750381
  0
LINE
  5
2A5
100
AcDbEntity
  8
0
100
AcDbLine
 62
7
  6
CONTINUOUS
 10
36.8140933987
 20
-1.4393750381
 11
36.8494487378
 21
-1.4393750381
  0
LINE
  5
2A6
100
AcDbEntity
  8
0
100
AcDbLine
 62
3
  6
CONTINUOUS
 10
30.132051733
 20
3.794504608
 11
30.0496778406
 21
1.4356249619
  0
LINE
  5
2A7
100
AcDbEntity
  8
0
100
AcDbLine
 62
7
  6
CONTINUOUS
 10
48.2501062688
 20
-1.3958813891
 11
48.1432875362
 21
-1.3958813891
  0
LINE
  5
2A8
100
AcDbEntity
  8
0
100
AcDbLine
 62
7
  6
CONTINUOUS
 10
36.6917890276
 20
-1.3958813891
 11
36.7986077602
 21
-1.3958813891
  0
LINE
  5
2A9
100
AcDbEntity
  8
0
100
AcDbLine
 62
7
  6
CONTINUOUS
 10
48.1175237473
 20
-1.2876282136
 11
48.0107050148
 21
-1.2876282136
  0
LINE
  5
2AA
100
AcDbEntity
  8
0
100
AcDbLine
 62
7
  6
CONTINUOUS
 10
36.8243715491
 20
-1.2876282136
 11
36.9311902817
 21
-1.2876282136
  0
LINE
  5
2AB
100
AcDbEntity
  8
0
100
AcDbLine
 62
7
  6
CONTINUOUS
 10
48.1175237473
 20
-1.0711218626
 11
48.0107050148
 21
-1.0711218626
  0
LINE
  5
2AC
100
AcDbEntity
  8
0
100
AcDbLine
 62
7
  6
CONTINUOUS
 10
36.8243715491
 20
-1.0711218626
 11
36.9311902817
 21
-1.0711218626
  0
LINE
  5
2AD
100
AcDbEntity
  8
0
100
AcDbLine
 62
7
  6
CONTINUOUS
 10
48.2501062688
 20
-0.9628686872
 11
48.1432875362
 21
-0.9628686872
  0
LINE
  5
2AE
100
AcDbEntity
  8
0
100
AcDbLine
 62
7
  6
CONTINUOUS
 10
36.6917890276
 20
-0.9628686872
 11
36.7986077602
 21
-0.9628686872
  0
LINE
  5
2AF
100
AcDbEntity
  8
0
100
AcDbLine
 62
7
  6
CONTINUOUS
 10
48.1278018977
 20
-0.9193750381
 11
48.0924465587
 21
-0.9193750381
  0
LINE
  5
2B0
100
AcDbEntity
  8
0
100
AcDbLine
 62
7
  6
CONTINUOUS
 10
36.8140933987
 20
-0.9193750381
 11
36.8494487378
 21
-0.9193750381
  0
LINE
  5
2B1
100
AcDbEntity
  8
0
100
AcDbLine
 62
7
  6
CONTINUOUS
 10
48.1278018977
 20
0.8606249619
 11
48.0924465587
 21
0.8606249619
  0
LINE
  5
2B2
100
AcDbEntity
  8
0
100
AcDbLine
 62
7
  6
CONTINUOUS
 10
36.8140933987
 20
0.8606249619
 11
36.8494487378
 21
0.8606249619
  0
LINE
  5
2B3
100
AcDbEntity
  8
0
100
AcDbLine
 62
7
  6
CONTINUOUS
 10
48.2501062688
 20
0.9041186109
 11
48.1432875362
 21
0.9041186109
  0
LINE
  5
2B4
100
AcDbEntity
  8
0
100
AcDbLine
 62
7
  6
CONTINUOUS
 10
36.6917890276
 20
0.9041186109
 11
36.7986077602
 21
0.9041186109
  0
LINE
  5
2B5
100
AcDbEntity
  8
0
100
AcDbLine
 62
3
  6
CONTINUOUS
 10
29.8538336634
 20
0.9356249619
 11
55.088061633
 21
0.9356249619
  0
LINE
  5
2B6
100
AcDbEntity
  8
0
100
AcDbLine
 62
3
  6
CONTINUOUS
 10
32.8709476482
 20
-2.0593750381
 11
32.8709476482
 21
-3.4593750381
  0
LINE
  5
2B7
100
AcDbEntity
  8
0
100
AcDbLine
 62
7
  6
CONTINUOUS
 10
32.9209476482
 20
-2.0593750381
 11
32.9209476482
 21
-3.4593750381
  0
LINE
  5
2B8
100
AcDbEntity
  8
0
100
AcDbLine
 62
3
  6
CONTINUOUS
 10
32.9709476482
 20
-1.9593750381
 11
32.9709476482
 21
-3.4593750381
  0
LINE
  5
2B9
100
AcDbEntity
  8
0
100
AcDbLine
 62
7
  6
CONTINUOUS
 10
33.1209476482
 20
-1.9593750381
 11
33.1209476482
 21
-1.9093750381
  0
LINE
  5
2BA
100
AcDbEntity
  8
0
100
AcDbLine
 62
7
  6
CONTINUOUS
 10
33.6609476482
 20
6.6501249619
 11
33.6609476482
 21
6.5801249619
  0
LINE
  5
2BB
100
AcDbEntity
  8
0
100
AcDbLine
 62
7
  6
CONTINUOUS
 10
33.8639476482
 20
8.2781224075
 11
33.8639476482
 21
7.8421275162
  0
LINE
  5
2BC
100
AcDbEntity
  8
0
100
AcDbLine
 62
7
  6
CONTINUOUS
 10
34.0059476482
 20
7.7946249619
 11
34.0059476482
 21
8.3256249619
  0
LINE
  5
2BD
100
AcDbEntity
  8
0
100
AcDbLine
 62
7
  6
CONTINUOUS
 10
34.0359476482
 20
7.6951249619
 11
34.0359476482
 21
8.4251249619
  0
LINE
  5
2BE
100
AcDbEntity
  8
0
100
AcDbLine
 62
3
  6
CONTINUOUS
 10
29.8538336634
 20
1.4356249619
 11
55.088061633
 21
1.4356249619
  0
LINE
  5
2BF
100
AcDbEntity
  8
0
100
AcDbLine
 62
7
  6
CONTINUOUS
 10
33.9933544844
 20
7.8416232893
 11
34.0059476482
 21
7.7946249619
  0
LINE
  5
2C0
100
AcDbEntity
  8
0
100
AcDbLine
 62
7
  6
CONTINUOUS
 10
34.5259476482
 20
6.7956249619
 11
34.5259476482
 21
6.8701249619
  0
LINE
  5
2C1
100
AcDbEntity
  8
0
100
AcDbLine
 62
3
  6
CONTINUOUS
 10
34.552663377
 20
0.9356249619
 11
34.552663377
 21
-1.9093750381
  0
LINE
  5
2C2
100
AcDbEntity
  8
0
100
AcDbLine
 62
7
  6
CONTINUOUS
 10
34.5909476482
 20
6.8701249619
 11
34.5909476482
 21
6.7201249619
  0
LINE
  5
2C3
100
AcDbEntity
  8
0
100
AcDbLine
 62
3
  6
CONTINUOUS
 10
34.6609476482
 20
6.8701249619
 11
34.6609476482
 21
6.6406249619
  0
LINE
  5
2C4
100
AcDbEntity
  8
0
100
AcDbLine
 62
7
  6
CONTINUOUS
 10
34.0342175406
 20
7.2501249619
 11
34.0497572831
 21
7.6951249619
  0
LINE
  5
2C5
100
AcDbEntity
  8
0
100
AcDbLine
 62
7
  6
CONTINUOUS
 10
34.0752494448
 20
8.4251249619
 11
34.4424343167
 21
18.9399239553
  0
LINE
  5
2C6
100
AcDbEntity
  8
0
100
AcDbLine
 62
7
  6
CONTINUOUS
 10
33.9933544844
 20
8.2786266345
 11
34.0059476482
 21
8.3256249619
  0
LINE
  5
2C7
100
AcDbEntity
  8
0
100
AcDbLine
 62
7
  6
CONTINUOUS
 10
33.8639476482
 20
8.2781249619
 11
33.8642363234
 21
8.2786249619
  0
LINE
  5
2C8
100
AcDbEntity
  8
0
100
AcDbLine
 62
7
  6
CONTINUOUS
 10
33.8639476482
 20
7.8421249619
 11
33.8642363234
 21
7.8416249619
  0
LINE
  5
2C9
100
AcDbEntity
  8
0
100
AcDbLine
 62
7
  6
CONTINUOUS
 10
35.8709476482
 20
-1.9593750381
 11
35.8709476482
 21
-1.9093750381
  0
LINE
  5
2CA
100
AcDbEntity
  8
0
100
AcDbLine
 62
3
  6
CONTINUOUS
 10
37.2145911966
 20
-1.9593750381
 11
37.2145911966
 21
0.9356249619
  0
LINE
  5
2CB
100
AcDbEntity
  8
0
100
AcDbLine
 62
7
  6
CONTINUOUS
 10
37.247722199
 20
-1.9593750381
 11
37.247722199
 21
0.9356249619
  0
LINE
  5
2CC
100
AcDbEntity
  8
0
100
AcDbLine
 62
3
  6
CONTINUOUS
 10
52.1214822388
 20
6.3906249619
 11
32.8204130577
 21
6.3906249619
  0
LINE
  5
2CD
100
AcDbEntity
  8
0
100
AcDbLine
 62
3
  6
CONTINUOUS
 10
42.9709476482
 20
6.5801249619
 11
41.9709476482
 21
6.5801249619
  0
LINE
  5
2CE
100
AcDbEntity
  8
0
100
AcDbLine
 62
3
  6
CONTINUOUS
 10
34.5209476482
 20
6.5801249619
 11
33.6609476482
 21
6.5801249619
  0
LINE
  5
2CF
100
AcDbEntity
  8
0
100
AcDbLine
 62
3
  6
CONTINUOUS
 10
50.4209476482
 20
6.5801249619
 11
51.2809476482
 21
6.5801249619
  0
LINE
  5
2D0
100
AcDbEntity
  8
0
100
AcDbLine
 62
7
  6
CONTINUOUS
 10
42.9709476482
 20
6.6501249619
 11
41.9709476482
 21
6.6501249619
  0
LINE
  5
2D1
100
AcDbEntity
  8
0
100
AcDbLine
 62
7
  6
CONTINUOUS
 10
34.5209476482
 20
6.6501249619
 11
33.6609476482
 21
6.6501249619
  0
LINE
  5
2D2
100
AcDbEntity
  8
0
100
AcDbLine
 62
7
  6
CONTINUOUS
 10
50.4209476482
 20
6.6501249619
 11
51.2809476482
 21
6.6501249619
  0
LINE
  5
2D3
100
AcDbEntity
  8
0
100
AcDbLine
 62
7
  6
CONTINUOUS
 10
34.5909476482
 20
6.7956249619
 11
34.5259476482
 21
6.7956249619
  0
LINE
  5
2D4
100
AcDbEntity
  8
0
100
AcDbLine
 62
7
  6
CONTINUOUS
 10
50.3509476482
 20
6.7956249619
 11
50.4159476482
 21
6.7956249619
  0
LINE
  5
2D5
100
AcDbEntity
  8
0
100
AcDbLine
 62
7
  6
CONTINUOUS
 10
32.7809476888
 20
6.8701249619
 11
52.1609476077
 21
6.8701249619
  0
LINE
  5
2D6
100
AcDbEntity
  8
0
100
AcDbLine
 62
7
  6
CONTINUOUS
 10
32.7809549676
 20
7.2501249619
 11
52.1609403289
 21
7.2501249619
  0
LINE
  5
2D7
100
AcDbEntity
  8
0
100
AcDbLine
 62
7
  6
CONTINUOUS
 10
34.0497572831
 20
7.6951249619
 11
34.0359476482
 21
7.6951249619
  0
LINE
  5
2D8
100
AcDbEntity
  8
0
100
AcDbLine
 62
7
  6
CONTINUOUS
 10
50.8921380134
 20
7.6951249619
 11
50.9059476482
 21
7.6951249619
  0
LINE
  5
2D9
100
AcDbEntity
  8
0
100
AcDbLine
 62
7
  6
CONTINUOUS
 10
50.9359476482
 20
7.7946249619
 11
50.9059476482
 21
7.7946249619
  0
LINE
  5
2DA
100
AcDbEntity
  8
0
100
AcDbLine
 62
7
  6
CONTINUOUS
 10
34.0059476482
 20
7.7946249619
 11
34.0359476482
 21
7.7946249619
  0
LINE
  5
2DB
100
AcDbEntity
  8
0
100
AcDbLine
 62
7
  6
CONTINUOUS
 10
51.0776589731
 20
7.8416249619
 11
50.9394840235
 21
7.8416249619
  0
LINE
  5
2DC
100
AcDbEntity
  8
0
100
AcDbLine
 62
7
  6
CONTINUOUS
 10
42.597098682
 20
7.8416249619
 11
42.3447966144
 21
7.8416249619
  0
LINE
  5
2DD
100
AcDbEntity
  8
0
100
AcDbLine
 62
7
  6
CONTINUOUS
 10
33.8642363234
 20
7.8416249619
 11
34.0024112729
 21
7.8416249619
  0
LINE
  5
2DE
100
AcDbEntity
  8
0
100
AcDbLine
 62
7
  6
CONTINUOUS
 10
51.0581433402
 20
8.0601249619
 11
50.9394840235
 21
8.0601249619
  0
LINE
  5
2DF
100
AcDbEntity
  8
0
100
AcDbLine
 62
7
  6
CONTINUOUS
 10
33.8837519562
 20
8.0601249619
 11
34.0024112729
 21
8.0601249619
  0
LINE
  5
2E0
100
AcDbEntity
  8
0
100
AcDbLine
 62
7
  6
CONTINUOUS
 10
33.8642363234
 20
8.2786249619
 11
34.0024112729
 21
8.2786249619
  0
LINE
  5
2E1
100
AcDbEntity
  8
0
100
AcDbLine
 62
7
  6
CONTINUOUS
 10
42.3447966144
 20
8.2786249619
 11
42.597098682
 21
8.2786249619
  0
LINE
  5
2E2
100
AcDbEntity
  8
0
100
AcDbLine
 62
7
  6
CONTINUOUS
 10
50.9394840235
 20
8.2786249619
 11
51.0776589731
 21
8.2786249619
  0
LINE
  5
2E3
100
AcDbEntity
  8
0
100
AcDbLine
 62
7
  6
CONTINUOUS
 10
50.9359476482
 20
8.3256249619
 11
50.9059476482
 21
8.3256249619
  0
LINE
  5
2E4
100
AcDbEntity
  8
0
100
AcDbLine
 62
7
  6
CONTINUOUS
 10
34.0059476482
 20
8.3256249619
 11
34.0359476482
 21
8.3256249619
  0
LINE
  5
2E5
100
AcDbEntity
  8
0
100
AcDbLine
 62
7
  6
CONTINUOUS
 10
34.0752494448
 20
8.4251249619
 11
34.0359476482
 21
8.4251249619
  0
LINE
  5
2E6
100
AcDbEntity
  8
0
100
AcDbLine
 62
7
  6
CONTINUOUS
 10
50.8666458517
 20
8.4251249619
 11
50.9059476482
 21
8.4251249619
  0
LINE
  5
2E7
100
AcDbEntity
  8
0
100
AcDbLine
 62
7
  6
CONTINUOUS
 10
42.3447966144
 20
7.8416249619
 11
42.2186455806
 21
8.0601249619
  0
LINE
  5
2E8
100
AcDbEntity
  8
0
100
AcDbLine
 62
7
  6
CONTINUOUS
 10
41.9709476482
 20
6.5801249619
 11
41.9709476482
 21
6.8701249619
  0
LINE
  5
2E9
100
AcDbEntity
  8
0
100
AcDbLine
 62
7
  6
CONTINUOUS
 10
42.9709476482
 20
6.5801249619
 11
42.9709476482
 21
6.8701249619
  0
LINE
  5
2EA
100
AcDbEntity
  8
0
100
AcDbLine
 62
7
  6
CONTINUOUS
 10
42.2186455806
 20
8.0601249619
 11
42.3447966144
 21
8.2786249619
  0
LINE
  5
2EB
100
AcDbEntity
  8
0
100
AcDbLine
 62
7
  6
CONTINUOUS
 10
42.7232497159
 20
8.0601249619
 11
42.597098682
 21
7.8416249619
  0
LINE
  5
2EC
100
AcDbEntity
  8
0
100
AcDbLine
 62
7
  6
CONTINUOUS
 10
42.597098682
 20
8.2786249619
 11
42.7232497159
 21
8.0601249619
  0
LINE
  5
2ED
100
AcDbEntity
  8
0
100
AcDbLine
 62
7
  6
CONTINUOUS
 10
51.0779476482
 20
8.2781249619
 11
51.0776589731
 21
8.2786249619
  0
LINE
  5
2EE
100
AcDbEntity
  8
0
100
AcDbLine
 62
3
  6
CONTINUOUS
 10
50.2809476482
 20
6.8701249619
 11
50.2809476482
 21
6.6406249619
  0
LINE
  5
2EF
100
AcDbEntity
  8
0
100
AcDbLine
 62
7
  6
CONTINUOUS
 10
50.3509476482
 20
6.8701249619
 11
50.3509476482
 21
6.7201249619
  0
LINE
  5
2F0
100
AcDbEntity
  8
0
100
AcDbLine
 62
3
  6
CONTINUOUS
 10
50.3892319195
 20
0.9356249619
 11
50.3892319195
 21
-1.9593750381
  0
LINE
  5
2F1
100
AcDbEntity
  8
0
100
AcDbLine
 62
7
  6
CONTINUOUS
 10
50.4159476482
 20
6.8701249619
 11
50.4159476482
 21
6.7956249619
  0
LINE
  5
2F2
100
AcDbEntity
  8
0
100
AcDbLine
 62
7
  6
CONTINUOUS
 10
50.9485408121
 20
7.8416232893
 11
50.9359476482
 21
7.7946249619
  0
LINE
  5
2F3
100
AcDbEntity
  8
0
100
AcDbLine
 62
7
  6
CONTINUOUS
 10
51.0779476482
 20
7.8421249619
 11
51.0776589731
 21
7.8416249619
  0
LINE
  5
2F4
100
AcDbEntity
  8
0
100
AcDbLine
 62
7
  6
CONTINUOUS
 10
50.9485408121
 20
8.2786266345
 11
50.9359476482
 21
8.3256249619
  0
LINE
  5
2F5
100
AcDbEntity
  8
0
100
AcDbLine
 62
7
  6
CONTINUOUS
 10
50.9076777558
 20
7.2501249619
 11
50.8921380134
 21
7.6951249619
  0
LINE
  5
2F6
100
AcDbEntity
  8
0
100
AcDbLine
 62
7
  6
CONTINUOUS
 10
50.8666458517
 20
8.4251249619
 11
50.4994609798
 21
18.9399239553
  0
LINE
  5
2F7
100
AcDbEntity
  8
0
100
AcDbLine
 62
7
  6
CONTINUOUS
 10
50.9059476482
 20
8.4251249619
 11
50.9059476482
 21
7.6951249619
  0
LINE
  5
2F8
100
AcDbEntity
  8
0
100
AcDbLine
 62
7
  6
CONTINUOUS
 10
50.9359476482
 20
7.7946249619
 11
50.9359476482
 21
8.3256249619
  0
LINE
  5
2F9
100
AcDbEntity
  8
0
100
AcDbLine
 62
7
  6
CONTINUOUS
 10
51.0779476482
 20
7.8421275162
 11
51.0779476482
 21
8.2781224075
  0
LINE
  5
2FA
100
AcDbEntity
  8
0
100
AcDbLine
 62
7
  6
CONTINUOUS
 10
51.2809476482
 20
6.6501249619
 11
51.2809476482
 21
6.5801249619
  0
LINE
  5
2FB
100
AcDbEntity
  8
0
100
AcDbLine
 62
3
  6
CONTINUOUS
 10
51.9709476482
 20
-1.9593750381
 11
51.9709476482
 21
-3.4593750381
  0
LINE
  5
2FC
100
AcDbEntity
  8
0
100
AcDbLine
 62
7
  6
CONTINUOUS
 10
52.0209476482
 20
-2.0593750381
 11
52.0209476482
 21
-3.4593750381
  0
LINE
  5
2FD
100
AcDbEntity
  8
0
100
AcDbLine
 62
3
  6
CONTINUOUS
 10
52.0709476482
 20
-2.0593750381
 11
52.0709476482
 21
-3.4593750381
  0
LINE
  5
2FE
100
AcDbEntity
  8
0
100
AcDbLine
 62
7
  6
CONTINUOUS
 10
36.4412163628
 20
20.8701249619
 11
48.5006789336
 21
20.8701249619
  0
LINE
  5
2FF
100
AcDbEntity
  8
0
100
AcDbLine
 62
3
  6
CONTINUOUS
 10
54.8098435635
 20
3.794504608
 11
54.8922174559
 21
1.4356249619
  0
LINE
  5
300
100
AcDbEntity
  8
0
100
AcDbLine
 62
3
  6
CONTINUOUS
 10
-12.4744059521
 20
-22.4416831183
 11
-12.4744059521
 21
-41.4416831183
  0
LINE
  5
301
100
AcDbEntity
  8
0
100
AcDbLine
 62
3
  6
CONTINUOUS
 10
-12.3744059521
 20
-41.5416831183
 11
6.6255940479
 21
-41.5416831183
  0
LINE
  5
302
100
AcDbEntity
  8
0
100
AcDbLine
 62
7
  6
CONTINUOUS
 10
-12.3744059521
 20
-41.4916831183
 11
6.6255940479
 21
-41.4916831183
  0
LINE
  5
303
100
AcDbEntity
  8
0
100
AcDbLine
 62
7
  6
CONTINUOUS
 10
6.6255940479
 20
-41.4416831183
 11
6.7255940479
 21
-41.4416831183
  0
LINE
  5
304
100
AcDbEntity
  8
0
100
AcDbLine
 62
7
  6
CONTINUOUS
 10
-12.3744059521
 20
-41.4416831183
 11
-12.4744059521
 21
-41.4416831183
  0
LINE
  5
305
100
AcDbEntity
  8
0
100
AcDbLine
 62
7
  6
CONTINUOUS
 10
-12.4244059521
 20
-22.4416831183
 11
-12.4244059521
 21
-41.4416831183
  0
LINE
  5
306
100
AcDbEntity
  8
0
100
AcDbLine
 62
7
  6
CONTINUOUS
 10
-12.3744059521
 20
-22.3416831183
 11
-12.3744059521
 21
-22.4416831183
  0
LINE
  5
307
100
AcDbEntity
  8
0
100
AcDbLine
 62
7
  6
CONTINUOUS
 10
-12.3744059521
 20
-41.4416831183
 11
-12.3744059521
 21
-41.5416831183
  0
LINE
  5
308
100
AcDbEntity
  8
0
100
AcDbLine
 62
7
  6
CONTINUOUS
 10
-7.6473767251
 20
-36.9311602422
 11
-7.8348767251
 21
-36.8229070667
  0
LINE
  5
309
100
AcDbEntity
  8
0
100
AcDbLine
 62
7
  6
CONTINUOUS
 10
-7.6473767251
 20
-36.4981475403
 11
-7.4598767251
 21
-36.6064007158
  0
LINE
  5
30A
100
AcDbEntity
  8
0
100
AcDbLine
 62
7
  6
CONTINUOUS
 10
-6.940269944
 20
-36.224053461
 11
-7.127769944
 21
-36.1158002855
  0
LINE
  5
30B
100
AcDbEntity
  8
0
100
AcDbLine
 62
7
  6
CONTINUOUS
 10
-6.940269944
 20
-35.7910407591
 11
-6.752769944
 21
-35.8992939346
  0
LINE
  5
30C
100
AcDbEntity
  8
0
100
AcDbLine
 62
7
  6
CONTINUOUS
 10
-7.8348767251
 20
-36.8229070667
 11
-7.8348767251
 21
-36.6064007158
  0
LINE
  5
30D
100
AcDbEntity
  8
0
100
AcDbLine
 62
7
  6
CONTINUOUS
 10
-7.8348767251
 20
-27.2769655207
 11
-7.8348767251
 21
-27.0604591698
  0
LINE
  5
30E
100
AcDbEntity
  8
0
100
AcDbLine
 62
7
  6
CONTINUOUS
 10
-7.4598767251
 20
-27.0604591698
 11
-7.4598767251
 21
-27.2769655207
  0
LINE
  5
30F
100
AcDbEntity
  8
0
100
AcDbLine
 62
7
  6
CONTINUOUS
 10
-7.4598767251
 20
-36.6064007158
 11
-7.4598767251
 21
-36.8229070667
  0
LINE
  5
310
100
AcDbEntity
  8
0
100
AcDbLine
 62
7
  6
CONTINUOUS
 10
-7.127769944
 20
-36.1158002855
 11
-7.127769944
 21
-35.8992939346
  0
LINE
  5
311
100
AcDbEntity
  8
0
100
AcDbLine
 62
7
  6
CONTINUOUS
 10
-7.127769944
 20
-27.9840723019
 11
-7.127769944
 21
-27.767565951
  0
LINE
  5
312
100
AcDbEntity
  8
0
100
AcDbLine
 62
7
  6
CONTINUOUS
 10
-7.8348767251
 20
-27.0604591698
 11
-7.6473767251
 21
-26.9522059943
  0
LINE
  5
313
100
AcDbEntity
  8
0
100
AcDbLine
 62
7
  6
CONTINUOUS
 10
-6.752769944
 20
-27.767565951
 11
-6.752769944
 21
-27.9840723019
  0
LINE
  5
314
100
AcDbEntity
  8
0
100
AcDbLine
 62
7
  6
CONTINUOUS
 10
-6.752769944
 20
-35.8992939346
 11
-6.752769944
 21
-36.1158002855
  0
LINE
  5
315
100
AcDbEntity
  8
0
100
AcDbLine
 62
7
  6
CONTINUOUS
 10
-7.4598767251
 20
-27.2769655207
 11
-7.6473767251
 21
-27.3852186962
  0
LINE
  5
316
100
AcDbEntity
  8
0
100
AcDbLine
 62
7
  6
CONTINUOUS
 10
-7.127769944
 20
-27.767565951
 11
-6.940269944
 21
-27.6593127755
  0
LINE
  5
317
100
AcDbEntity
  8
0
100
AcDbLine
 62
7
  6
CONTINUOUS
 10
-6.752769944
 20
-27.9840723019
 11
-6.940269944
 21
-28.0923254774
  0
LINE
  5
318
100
AcDbEntity
  8
0
100
AcDbLine
 62
7
  6
CONTINUOUS
 10
1.8985648209
 20
-36.9311602422
 11
1.7110648209
 21
-36.8229070667
  0
LINE
  5
319
100
AcDbEntity
  8
0
100
AcDbLine
 62
7
  6
CONTINUOUS
 10
1.1914580397
 20
-36.224053461
 11
1.0039580397
 21
-36.1158002855
  0
LINE
  5
31A
100
AcDbEntity
  8
0
100
AcDbLine
 62
7
  6
CONTINUOUS
 10
1.8985648209
 20
-36.4981475403
 11
2.0860648209
 21
-36.6064007158
  0
LINE
  5
31B
100
AcDbEntity
  8
0
100
AcDbLine
 62
7
  6
CONTINUOUS
 10
1.1914580397
 20
-35.7910407591
 11
1.3789580397
 21
-35.8992939346
  0
LINE
  5
31C
100
AcDbEntity
  8
0
100
AcDbLine
 62
7
  6
CONTINUOUS
 10
-3.7404313559
 20
-32.6939851859
 11
-3.9589313559
 21
-32.5678341521
  0
LINE
  5
31D
100
AcDbEntity
  8
0
100
AcDbLine
 62
7
  6
CONTINUOUS
 10
-3.7404313559
 20
-32.1893810506
 11
-3.5219313559
 21
-32.3155320844
  0
LINE
  5
31E
100
AcDbEntity
  8
0
100
AcDbLine
 62
7
  6
CONTINUOUS
 10
-3.6922262752
 20
-31.7581894692
 11
-3.5078303606
 21
-31.8646505001
  0
LINE
  5
31F
100
AcDbEntity
  8
0
100
AcDbLine
 62
7
  6
CONTINUOUS
 10
-3.9626162095
 20
-31.5665185733
 11
-4.1432390528
 21
-31.4622359261
  0
LINE
  5
320
100
AcDbEntity
  8
0
100
AcDbLine
 62
7
  6
CONTINUOUS
 10
-2.0083805483
 20
-32.6939851859
 11
-2.2268805483
 21
-32.5678341521
  0
LINE
  5
321
100
AcDbEntity
  8
0
100
AcDbLine
 62
7
  6
CONTINUOUS
 10
-3.6385335068
 20
-31.7438025353
 11
-3.4893359295
 21
-31.8299417967
  0
LINE
  5
322
100
AcDbEntity
  8
0
100
AcDbLine
 62
7
  6
CONTINUOUS
 10
-3.6277063496
 20
-31.6857435145
 11
-3.9305146584
 21
-31.5109170558
  0
LINE
  5
323
100
AcDbEntity
  8
0
100
AcDbLine
 62
7
  6
CONTINUOUS
 10
-3.9589313559
 20
-32.5678341521
 11
-3.9589313559
 21
-32.3155320844
  0
LINE
  5
324
100
AcDbEntity
  8
0
100
AcDbLine
 62
7
  6
CONTINUOUS
 10
-3.5219313559
 20
-32.3155320844
 11
-3.5219313559
 21
-32.5678341521
  0
LINE
  5
325
100
AcDbEntity
  8
0
100
AcDbLine
 62
7
  6
CONTINUOUS
 10
-3.0929059521
 20
-31.0678341521
 11
-3.0929059521
 21
-30.8155320844
  0
LINE
  5
326
100
AcDbEntity
  8
0
100
AcDbLine
 62
7
  6
CONTINUOUS
 10
-3.6385335068
 20
-31.7438025353
 11
-3.6922262752
 21
-31.7581894692
  0
LINE
  5
327
100
AcDbEntity
  8
0
100
AcDbLine
 62
7
  6
CONTINUOUS
 10
-3.0581008418
 20
-31.6891831183
 11
-2.6907110624
 21
-31.6891831183
  0
LINE
  5
328
100
AcDbEntity
  8
0
100
AcDbLine
 62
7
  6
CONTINUOUS
 10
-3.8530146584
 20
-31.3766831183
 11
-4.0336375017
 21
-31.272400471
  0
LINE
  5
329
100
AcDbEntity
  8
0
100
AcDbLine
 62
7
  6
CONTINUOUS
 10
-3.0134123031
 20
-31.6824491807
 11
-3.032401175
 21
-31.6714859503
  0
LINE
  5
32A
100
AcDbEntity
  8
0
100
AcDbLine
 62
7
  6
CONTINUOUS
 10
-3.4727063496
 20
-31.4172756393
 11
-3.7755146584
 21
-31.2424491807
  0
LINE
  5
32B
100
AcDbEntity
  8
0
100
AcDbLine
 62
7
  6
CONTINUOUS
 10
-3.4278393412
 20
-31.3788695357
 11
-3.278641764
 21
-31.4650087971
  0
LINE
  5
32C
100
AcDbEntity
  8
0
100
AcDbLine
 62
7
  6
CONTINUOUS
 10
-2.0083805483
 20
-32.1893810506
 11
-1.7898805483
 21
-32.3155320844
  0
LINE
  5
32D
100
AcDbEntity
  8
0
100
AcDbLine
 62
7
  6
CONTINUOUS
 10
-3.7434131073
 20
-31.1868476632
 11
-3.9240359506
 21
-31.082565016
  0
LINE
  5
32E
100
AcDbEntity
  8
0
100
AcDbLine
 62
7
  6
CONTINUOUS
 10
-3.4422262752
 20
-31.3251767673
 11
-3.2578303606
 21
-31.4316377982
  0
LINE
  5
32F
100
AcDbEntity
  8
0
100
AcDbLine
 62
7
  6
CONTINUOUS
 10
-2.8744059521
 20
-31.1939851859
 11
-3.0929059521
 21
-31.0678341521
  0
LINE
  5
330
100
AcDbEntity
  8
0
100
AcDbLine
 62
7
  6
CONTINUOUS
 10
-2.8744059521
 20
-30.6893810506
 11
-2.6559059521
 21
-30.8155320844
  0
LINE
  5
331
100
AcDbEntity
  8
0
100
AcDbLine
 62
7
  6
CONTINUOUS
 10
-3.4422262752
 20
-31.3251767673
 11
-3.4278393412
 21
-31.3788695357
  0
LINE
  5
332
100
AcDbEntity
  8
0
100
AcDbLine
 62
7
  6
CONTINUOUS
 10
-2.6559059521
 20
-30.8155320844
 11
-2.6559059521
 21
-31.0678341521
  0
LINE
  5
333
100
AcDbEntity
  8
0
100
AcDbLine
 62
7
  6
CONTINUOUS
 10
-2.2268805483
 20
-32.5678341521
 11
-2.2268805483
 21
-32.3155320844
  0
LINE
  5
334
100
AcDbEntity
  8
0
100
AcDbLine
 62
7
  6
CONTINUOUS
 10
-1.7898805483
 20
-32.3155320844
 11
-1.7898805483
 21
-32.5678341521
  0
LINE
  5
335
100
AcDbEntity
  8
0
100
AcDbLine
 62
7
  6
CONTINUOUS
 10
-3.9626162095
 20
-31.5665185733
 11
-3.7434131073
 21
-31.1868476632
  0
LINE
  5
336
100
AcDbEntity
  8
0
100
AcDbLine
 62
7
  6
CONTINUOUS
 10
-3.6922262752
 20
-31.7581894692
 11
-3.6447262752
 21
-31.6759170558
  0
LINE
  5
337
100
AcDbEntity
  8
0
100
AcDbLine
 62
7
  6
CONTINUOUS
 10
-3.4897262752
 20
-31.4074491807
 11
-3.4422262752
 21
-31.3251767673
  0
LINE
  5
338
100
AcDbEntity
  8
0
100
AcDbLine
 62
7
  6
CONTINUOUS
 10
-3.4278393412
 20
-31.3788695357
 11
-3.6385335068
 21
-31.7438025353
  0
LINE
  5
339
100
AcDbEntity
  8
0
100
AcDbLine
 62
7
  6
CONTINUOUS
 10
-3.0134123031
 20
-31.6824491807
 11
-3.0173001438
 21
-31.6891831183
  0
LINE
  5
33A
100
AcDbEntity
  8
0
100
AcDbLine
 62
7
  6
CONTINUOUS
 10
1.7110648209
 20
-27.0604591698
 11
1.8985648209
 21
-26.9522059943
  0
LINE
  5
33B
100
AcDbEntity
  8
0
100
AcDbLine
 62
7
  6
CONTINUOUS
 10
1.0039580397
 20
-27.767565951
 11
1.1914580397
 21
-27.6593127755
  0
LINE
  5
33C
100
AcDbEntity
  8
0
100
AcDbLine
 62
7
  6
CONTINUOUS
 10
2.0860648209
 20
-27.2769655207
 11
1.8985648209
 21
-27.3852186962
  0
LINE
  5
33D
100
AcDbEntity
  8
0
100
AcDbLine
 62
7
  6
CONTINUOUS
 10
1.3789580397
 20
-27.9840723019
 11
1.1914580397
 21
-28.0923254774
  0
LINE
  5
33E
100
AcDbEntity
  8
0
100
AcDbLine
 62
7
  6
CONTINUOUS
 10
-3.0929059521
 20
-30.8155320844
 11
-2.8744059521
 21
-30.6893810506
  0
LINE
  5
33F
100
AcDbEntity
  8
0
100
AcDbLine
 62
7
  6
CONTINUOUS
 10
-6.940269944
 20
-28.0923254774
 11
-7.127769944
 21
-27.9840723019
  0
LINE
  5
340
100
AcDbEntity
  8
0
100
AcDbLine
 62
7
  6
CONTINUOUS
 10
-7.6473767251
 20
-27.3852186962
 11
-7.8348767251
 21
-27.2769655207
  0
LINE
  5
341
100
AcDbEntity
  8
0
100
AcDbLine
 62
7
  6
CONTINUOUS
 10
-6.940269944
 20
-27.6593127755
 11
-6.752769944
 21
-27.767565951
  0
LINE
  5
342
100
AcDbEntity
  8
0
100
AcDbLine
 62
7
  6
CONTINUOUS
 10
-7.6473767251
 20
-26.9522059943
 11
-7.4598767251
 21
-27.0604591698
  0
LINE
  5
343
100
AcDbEntity
  8
0
100
AcDbLine
 62
7
  6
CONTINUOUS
 10
-2.6559059521
 20
-31.0678341521
 11
-2.8744059521
 21
-31.1939851859
  0
LINE
  5
344
100
AcDbEntity
  8
0
100
AcDbLine
 62
7
  6
CONTINUOUS
 10
-3.9589313559
 20
-32.3155320844
 11
-3.7404313559
 21
-32.1893810506
  0
LINE
  5
345
100
AcDbEntity
  8
0
100
AcDbLine
 62
7
  6
CONTINUOUS
 10
-3.5219313559
 20
-32.5678341521
 11
-3.7404313559
 21
-32.6939851859
  0
LINE
  5
346
100
AcDbEntity
  8
0
100
AcDbLine
 62
7
  6
CONTINUOUS
 10
1.0039580397
 20
-36.1158002855
 11
1.0039580397
 21
-35.8992939346
  0
LINE
  5
347
100
AcDbEntity
  8
0
100
AcDbLine
 62
7
  6
CONTINUOUS
 10
1.0039580397
 20
-27.9840723019
 11
1.0039580397
 21
-27.767565951
  0
LINE
  5
348
100
AcDbEntity
  8
0
100
AcDbLine
 62
7
  6
CONTINUOUS
 10
-2.2268805483
 20
-32.3155320844
 11
-2.0083805483
 21
-32.1893810506
  0
LINE
  5
349
100
AcDbEntity
  8
0
100
AcDbLine
 62
7
  6
CONTINUOUS
 10
-1.7898805483
 20
-32.5678341521
 11
-2.0083805483
 21
-32.6939851859
  0
LINE
  5
34A
100
AcDbEntity
  8
0
100
AcDbLine
 62
7
  6
CONTINUOUS
 10
-7.127769944
 20
-35.8992939346
 11
-6.940269944
 21
-35.7910407591
  0
LINE
  5
34B
100
AcDbEntity
  8
0
100
AcDbLine
 62
7
  6
CONTINUOUS
 10
-7.8348767251
 20
-36.6064007158
 11
-7.6473767251
 21
-36.4981475403
  0
LINE
  5
34C
100
AcDbEntity
  8
0
100
AcDbLine
 62
7
  6
CONTINUOUS
 10
-6.752769944
 20
-36.1158002855
 11
-6.940269944
 21
-36.224053461
  0
LINE
  5
34D
100
AcDbEntity
  8
0
100
AcDbLine
 62
7
  6
CONTINUOUS
 10
1.1914580397
 20
-28.0923254774
 11
1.0039580397
 21
-27.9840723019
  0
LINE
  5
34E
100
AcDbEntity
  8
0
100
AcDbLine
 62
7
  6
CONTINUOUS
 10
1.3789580397
 20
-27.767565951
 11
1.3789580397
 21
-27.9840723019
  0
LINE
  5
34F
100
AcDbEntity
  8
0
100
AcDbLine
 62
7
  6
CONTINUOUS
 10
1.3789580397
 20
-35.8992939346
 11
1.3789580397
 21
-36.1158002855
  0
LINE
  5
350
100
AcDbEntity
  8
0
100
AcDbLine
 62
7
  6
CONTINUOUS
 10
1.7110648209
 20
-36.8229070667
 11
1.7110648209
 21
-36.6064007158
  0
LINE
  5
351
100
AcDbEntity
  8
0
100
AcDbLine
 62
7
  6
CONTINUOUS
 10
1.7110648209
 20
-27.2769655207
 11
1.7110648209
 21
-27.0604591698
  0
LINE
  5
352
100
AcDbEntity
  8
0
100
AcDbLine
 62
7
  6
CONTINUOUS
 10
2.0860648209
 20
-27.0604591698
 11
2.0860648209
 21
-27.2769655207
  0
LINE
  5
353
100
AcDbEntity
  8
0
100
AcDbLine
 62
7
  6
CONTINUOUS
 10
2.0860648209
 20
-36.6064007158
 11
2.0860648209
 21
-36.8229070667
  0
LINE
  5
354
100
AcDbEntity
  8
0
100
AcDbLine
 62
7
  6
CONTINUOUS
 10
-7.4598767251
 20
-36.8229070667
 11
-7.6473767251
 21
-36.9311602422
  0
LINE
  5
355
100
AcDbEntity
  8
0
100
AcDbLine
 62
7
  6
CONTINUOUS
 10
1.1914580397
 20
-27.6593127755
 11
1.3789580397
 21
-27.767565951
  0
LINE
  5
356
100
AcDbEntity
  8
0
100
AcDbLine
 62
7
  6
CONTINUOUS
 10
1.8985648209
 20
-27.3852186962
 11
1.7110648209
 21
-27.2769655207
  0
LINE
  5
357
100
AcDbEntity
  8
0
100
AcDbLine
 62
7
  6
CONTINUOUS
 10
1.8985648209
 20
-26.9522059943
 11
2.0860648209
 21
-27.0604591698
  0
LINE
  5
358
100
AcDbEntity
  8
0
100
AcDbLine
 62
7
  6
CONTINUOUS
 10
1.0039580397
 20
-35.8992939346
 11
1.1914580397
 21
-35.7910407591
  0
LINE
  5
359
100
AcDbEntity
  8
0
100
AcDbLine
 62
7
  6
CONTINUOUS
 10
1.3789580397
 20
-36.1158002855
 11
1.1914580397
 21
-36.224053461
  0
LINE
  5
35A
100
AcDbEntity
  8
0
100
AcDbLine
 62
7
  6
CONTINUOUS
 10
6.6255940479
 20
-22.3416831183
 11
6.6255940479
 21
-22.4416831183
  0
LINE
  5
35B
100
AcDbEntity
  8
0
100
AcDbLine
 62
7
  6
CONTINUOUS
 10
6.6255940479
 20
-41.4416831183
 11
6.6255940479
 21
-41.5416831183
  0
LINE
  5
35C
100
AcDbEntity
  8
0
100
AcDbLine
 62
7
  6
CONTINUOUS
 10
6.6755940479
 20
-41.4416831183
 11
6.6755940479
 21
-22.4416831183
  0
LINE
  5
35D
100
AcDbEntity
  8
0
100
AcDbLine
 62
3
  6
CONTINUOUS
 10
6.7255940479
 20
-41.4416831183
 11
6.7255940479
 21
-22.4416831183
  0
LINE
  5
35E
100
AcDbEntity
  8
0
100
AcDbLine
 62
7
  6
CONTINUOUS
 10
1.7110648209
 20
-36.6064007158
 11
1.8985648209
 21
-36.4981475403
  0
LINE
  5
35F
100
AcDbEntity
  8
0
100
AcDbLine
 62
7
  6
CONTINUOUS
 10
2.0860648209
 20
-36.8229070667
 11
1.8985648209
 21
-36.9311602422
  0
LINE
  5
360
100
AcDbEntity
  8
0
100
AcDbLine
 62
7
  6
CONTINUOUS
 10
6.6255940479
 20
-22.4416831183
 11
6.7255940479
 21
-22.4416831183
  0
LINE
  5
361
100
AcDbEntity
  8
0
100
AcDbLine
 62
7
  6
CONTINUOUS
 10
-12.3744059521
 20
-22.4416831183
 11
-12.4744059521
 21
-22.4416831183
  0
LINE
  5
362
100
AcDbEntity
  8
0
100
AcDbLine
 62
7
  6
CONTINUOUS
 10
6.6255940479
 20
-22.3916831183
 11
-12.3744059521
 21
-22.3916831183
  0
LINE
  5
363
100
AcDbEntity
  8
0
100
AcDbLine
 62
3
  6
CONTINUOUS
 10
6.6255940479
 20
-22.3416831183
 11
-12.3744059521
 21
-22.3416831183
  0
ARC
  5
364
100
AcDbEntity
  8
0
100
AcDbCircle
 62
3
  6
CONTINUOUS
 10
-12.5249405427
 20
3.7006249619
 40
2.69
100
AcDbArc
 50
90.0
 51
178.0
  0
ARC
  5
365
100
AcDbEntity
  8
0
100
AcDbCircle
 62
7
  6
CONTINUOUS
 10
-8.3719519024
 20
0.6744814263
 40
0.3633709341
100
AcDbArc
 50
134.0559206247
 51
140.804949358
  0
ARC
  5
366
100
AcDbEntity
  8
0
100
AcDbCircle
 62
7
  6
CONTINUOUS
 10
-8.6179169463
 20
-1.1641748123
 40
0.3037576204
100
AcDbArc
 50
20.5828164437
 51
22.2056546955
  0
ARC
  5
367
100
AcDbEntity
  8
0
100
AcDbCircle
 62
3
  6
CONTINUOUS
 10
-15.4915199369
 20
1.1856249619
 40
0.25
100
AcDbArc
 50
90.0
 51
270.0
  0
ARC
  5
368
100
AcDbEntity
  8
0
100
AcDbCircle
 62
3
  6
CONTINUOUS
 10
-10.9344059521
 20
6.6406249619
 40
0.25
100
AcDbArc
 50
270.0
 51
360.0
  0
ARC
  5
369
100
AcDbEntity
  8
0
100
AcDbCircle
 62
7
  6
CONTINUOUS
 10
-12.5644059521
 20
7.0601249619
 40
0.19
100
AcDbArc
 50
90.0
 51
270.0
  0
CIRCLE
  5
36A
100
AcDbEntity
  8
0
100
AcDbCircle
 62
3
  6
CONTINUOUS
 10
-7.6244059521
 20
-2.7093750381
 40
0.155
  0
ARC
  5
36B
100
AcDbEntity
  8
0
100
AcDbCircle
 62
3
  6
CONTINUOUS
 10
-10.8244059521
 20
6.7201249619
 40
0.14
100
AcDbArc
 50
270.0
 51
360.0
  0
ARC
  5
36C
100
AcDbEntity
  8
0
100
AcDbCircle
 62
3
  6
CONTINUOUS
 10
-12.3744059521
 20
-2.0593750381
 40
0.1
100
AcDbArc
 50
90.0
 51
180.0
  0
ARC
  5
36D
100
AcDbEntity
  8
0
100
AcDbCircle
 62
7
  6
CONTINUOUS
 10
-8.6656547306
 20
1.0280416265
 40
0.094416675
100
AcDbArc
 50
270.0268469029
 51
281.5699384866
  0
ARC
  5
36E
100
AcDbEntity
  8
0
100
AcDbCircle
 62
7
  6
CONTINUOUS
 10
-8.6655662495
 20
1.0280416265
 40
0.094416675
100
AcDbArc
 50
258.4300615134
 51
269.9731530971
  0
ARC
  5
36F
100
AcDbEntity
  8
0
100
AcDbCircle
 62
7
  6
CONTINUOUS
 10
-10.8244059521
 20
6.7201249619
 40
0.07
100
AcDbArc
 50
270.0
 51
360.0
  0
ARC
  5
370
100
AcDbEntity
  8
0
100
AcDbCircle
 62
7
  6
CONTINUOUS
 10
-12.3744059521
 20
-2.0593750381
 40
0.05
100
AcDbArc
 50
90.0
 51
180.0
  0
ARC
  5
371
100
AcDbEntity
  8
0
100
AcDbCircle
 62
7
  6
CONTINUOUS
 10
-8.9041376296
 20
18.8701249619
 40
2.0
100
AcDbArc
 50
90.0
 51
178.0
  0
ARC
  5
372
100
AcDbEntity
  8
0
100
AcDbCircle
 62
3
  6
CONTINUOUS
 10
6.7761286384
 20
3.7006249619
 40
2.69
100
AcDbArc
 50
2.0
 51
90.0
  0
ARC
  5
373
100
AcDbEntity
  8
0
100
AcDbCircle
 62
7
  6
CONTINUOUS
 10
2.9662148073
 20
-1.1793705878
 40
0.3676142316
100
AcDbArc
 50
179.9347993603
 51
180.1442010037
  0
ARC
  5
374
100
AcDbEntity
  8
0
100
AcDbCircle
 62
7
  6
CONTINUOUS
 10
-2.8744059521
 20
7.1606249619
 40
0.365
100
AcDbArc
 50
232.931535778
 51
307.068464222
  0
CIRCLE
  5
375
100
AcDbEntity
  8
0
100
AcDbCircle
 62
7
  6
CONTINUOUS
 10
-2.8744059521
 20
8.0601249619
 40
0.365
  0
ARC
  5
376
100
AcDbEntity
  8
0
100
AcDbCircle
 62
7
  6
CONTINUOUS
 10
2.6231399976
 20
0.6744814269
 40
0.3633709341
100
AcDbArc
 50
39.1950505158
 51
45.9440792491
  0
CIRCLE
  5
377
100
AcDbEntity
  8
0
100
AcDbCircle
 62
7
  6
CONTINUOUS
 10
-2.8744059521
 20
8.0601249619
 40
0.2655
  0
ARC
  5
378
100
AcDbEntity
  8
0
100
AcDbCircle
 62
3
  6
CONTINUOUS
 10
9.7427080327
 20
1.1856249619
 40
0.25
100
AcDbArc
 50
270.0
 51
90.0
  0
ARC
  5
379
100
AcDbEntity
  8
0
100
AcDbCircle
 62
3
  6
CONTINUOUS
 10
5.1855940479
 20
6.6406249619
 40
0.25
100
AcDbArc
 50
180.0
 51
270.0
  0
CIRCLE
  5
37A
100
AcDbEntity
  8
0
100
AcDbCircle
 62
7
  6
CONTINUOUS
 10
-2.8744059521
 20
8.0601249619
 40
0.218
  0
ARC
  5
37B
100
AcDbEntity
  8
0
100
AcDbCircle
 62
7
  6
CONTINUOUS
 10
6.8155940479
 20
7.0601249619
 40
0.19
100
AcDbArc
 50
270.0
 51
90.0
  0
CIRCLE
  5
37C
100
AcDbEntity
  8
0
100
AcDbCircle
 62
3
  6
CONTINUOUS
 10
1.8755940479
 20
-2.7093750381
 40
0.155
  0
ARC
  5
37D
100
AcDbEntity
  8
0
100
AcDbCircle
 62
3
  6
CONTINUOUS
 10
5.0755940479
 20
6.7201249619
 40
0.14
100
AcDbArc
 50
180.0
 51
270.0
  0
ARC
  5
37E
100
AcDbEntity
  8
0
100
AcDbCircle
 62
3
  6
CONTINUOUS
 10
6.6255940479
 20
-2.0593750381
 40
0.1
100
AcDbArc
 50
0.0
 51
90.0
  0
ARC
  5
37F
100
AcDbEntity
  8
0
100
AcDbCircle
 62
7
  6
CONTINUOUS
 10
2.9167543453
 20
1.0280416265
 40
0.094416675
100
AcDbArc
 50
270.0268469029
 51
281.5699384866
  0
ARC
  5
380
100
AcDbEntity
  8
0
100
AcDbCircle
 62
7
  6
CONTINUOUS
 10
2.9168428263
 20
1.0280416265
 40
0.094416675
100
AcDbArc
 50
258.4300615134
 51
269.9731530971
  0
ARC
  5
381
100
AcDbEntity
  8
0
100
AcDbCircle
 62
7
  6
CONTINUOUS
 10
5.0755940479
 20
6.7201249619
 40
0.07
100
AcDbArc
 50
180.0
 51
270.0
  0
ARC
  5
382
100
AcDbEntity
  8
0
100
AcDbCircle
 62
7
  6
CONTINUOUS
 10
6.6255940479
 20
-2.0593750381
 40
0.05
100
AcDbArc
 50
0.0
 51
90.0
  0
ARC
  5
383
100
AcDbEntity
  8
0
100
AcDbCircle
 62
7
  6
CONTINUOUS
 10
3.1553257254
 20
18.8701249619
 40
2.0
100
AcDbArc
 50
2.0
 51
90.0
  0
ARC
  5
384
100
AcDbEntity
  8
0
100
AcDbCircle
 62
3
  6
CONTINUOUS
 10
32.8204130577
 20
3.7006249619
 40
2.69
100
AcDbArc
 50
90.0
 51
178.0
  0
ARC
  5
385
100
AcDbEntity
  8
0
100
AcDbCircle
 62
7
  6
CONTINUOUS
 10
36.6303268951
 20
-1.1793794884
 40
0.3676142253
100
AcDbArc
 50
359.934799358
 51
0.144201005
  0
ARC
  5
386
100
AcDbEntity
  8
0
100
AcDbCircle
 62
7
  6
CONTINUOUS
 10
36.973401698
 20
0.6744814263
 40
0.3633709341
100
AcDbArc
 50
134.0559206246
 51
140.804949358
  0
ARC
  5
387
100
AcDbEntity
  8
0
100
AcDbCircle
 62
3
  6
CONTINUOUS
 10
29.8538336634
 20
1.1856249619
 40
0.25
100
AcDbArc
 50
90.0
 51
270.0
  0
ARC
  5
388
100
AcDbEntity
  8
0
100
AcDbCircle
 62
3
  6
CONTINUOUS
 10
34.4109476482
 20
6.6406249619
 40
0.25
100
AcDbArc
 50
270.0
 51
360.0
  0
ARC
  5
389
100
AcDbEntity
  8
0
100
AcDbCircle
 62
7
  6
CONTINUOUS
 10
32.7809476482
 20
7.0601249619
 40
0.19
100
AcDbArc
 50
90.0
 51
270.0
  0
CIRCLE
  5
38A
100
AcDbEntity
  8
0
100
AcDbCircle
 62
3
  6
CONTINUOUS
 10
37.7209476482
 20
-2.7093750381
 40
0.155
  0
ARC
  5
38B
100
AcDbEntity
  8
0
100
AcDbCircle
 62
3
  6
CONTINUOUS
 10
34.5209476482
 20
6.7201249619
 40
0.14
100
AcDbArc
 50
270.0
 51
360.0
  0
ARC
  5
38C
100
AcDbEntity
  8
0
100
AcDbCircle
 62
3
  6
CONTINUOUS
 10
32.9709476482
 20
-2.0593750381
 40
0.1
100
AcDbArc
 50
90.0
 51
180.0
  0
ARC
  5
38D
100
AcDbEntity
  8
0
100
AcDbCircle
 62
7
  6
CONTINUOUS
 10
36.6796988698
 20
1.0280416265
 40
0.094416675
100
AcDbArc
 50
270.0268469029
 51
281.5699384866
  0
ARC
  5
38E
100
AcDbEntity
  8
0
100
AcDbCircle
 62
7
  6
CONTINUOUS
 10
36.6797873508
 20
1.0280416265
 40
0.094416675
100
AcDbArc
 50
258.4300615134
 51
269.9731530971
  0
ARC
  5
38F
100
AcDbEntity
  8
0
100
AcDbCircle
 62
7
  6
CONTINUOUS
 10
34.5209476482
 20
6.7201249619
 40
0.07
100
AcDbArc
 50
270.0
 51
360.0
  0
ARC
  5
390
100
AcDbEntity
  8
0
100
AcDbCircle
 62
7
  6
CONTINUOUS
 10
32.9709476482
 20
-2.0593750381
 40
0.05
100
AcDbArc
 50
90.0
 51
180.0
  0
ARC
  5
391
100
AcDbEntity
  8
0
100
AcDbCircle
 62
7
  6
CONTINUOUS
 10
36.4412159707
 20
18.8701249619
 40
2.0
100
AcDbArc
 50
90.0
 51
178.0
  0
ARC
  5
392
100
AcDbEntity
  8
0
100
AcDbCircle
 62
3
  6
CONTINUOUS
 10
52.1214822388
 20
3.7006249619
 40
2.69
100
AcDbArc
 50
2.0
 51
90.0
  0
ARC
  5
393
100
AcDbEntity
  8
0
100
AcDbCircle
 62
7
  6
CONTINUOUS
 10
42.4709476482
 20
7.1606249619
 40
0.365
100
AcDbArc
 50
232.931535778
 51
307.068464222
  0
CIRCLE
  5
394
100
AcDbEntity
  8
0
100
AcDbCircle
 62
7
  6
CONTINUOUS
 10
42.4709476482
 20
8.0601249619
 40
0.365
  0
ARC
  5
395
100
AcDbEntity
  8
0
100
AcDbCircle
 62
7
  6
CONTINUOUS
 10
47.968493598
 20
0.6744814269
 40
0.3633709341
100
AcDbArc
 50
39.1950505158
 51
45.9440792491
  0
CIRCLE
  5
396
100
AcDbEntity
  8
0
100
AcDbCircle
 62
7
  6
CONTINUOUS
 10
42.4709476482
 20
8.0601249619
 40
0.2655
  0
ARC
  5
397
100
AcDbEntity
  8
0
100
AcDbCircle
 62
3
  6
CONTINUOUS
 10
55.088061633
 20
1.1856249619
 40
0.25
100
AcDbArc
 50
270.0
 51
90.0
  0
ARC
  5
398
100
AcDbEntity
  8
0
100
AcDbCircle
 62
3
  6
CONTINUOUS
 10
50.5309476482
 20
6.6406249619
 40
0.25
100
AcDbArc
 50
180.0
 51
270.0
  0
CIRCLE
  5
399
100
AcDbEntity
  8
0
100
AcDbCircle
 62
7
  6
CONTINUOUS
 10
42.4709476482
 20
8.0601249619
 40
0.218
  0
ARC
  5
39A
100
AcDbEntity
  8
0
100
AcDbCircle
 62
7
  6
CONTINUOUS
 10
52.1609476482
 20
7.0601249619
 40
0.19
100
AcDbArc
 50
270.0
 51
90.0
  0
CIRCLE
  5
39B
100
AcDbEntity
  8
0
100
AcDbCircle
 62
3
  6
CONTINUOUS
 10
47.2209476482
 20
-2.7093750381
 40
0.155
  0
ARC
  5
39C
100
AcDbEntity
  8
0
100
AcDbCircle
 62
3
  6
CONTINUOUS
 10
50.4209476482
 20
6.7201249619
 40
0.14
100
AcDbArc
 50
180.0
 51
270.0
  0
ARC
  5
39D
100
AcDbEntity
  8
0
100
AcDbCircle
 62
3
  6
CONTINUOUS
 10
51.9709476482
 20
-2.0593750381
 40
0.1
100
AcDbArc
 50
0.0
 51
90.0
  0
ARC
  5
39E
100
AcDbEntity
  8
0
100
AcDbCircle
 62
7
  6
CONTINUOUS
 10
48.2621079456
 20
1.0280416265
 40
0.094416675
100
AcDbArc
 50
270.0268469029
 51
281.5699384866
  0
ARC
  5
39F
100
AcDbEntity
  8
0
100
AcDbCircle
 62
7
  6
CONTINUOUS
 10
48.2621964267
 20
1.0280416265
 40
0.094416675
100
AcDbArc
 50
258.4300615134
 51
269.9731530971
  0
ARC
  5
3A0
100
AcDbEntity
  8
0
100
AcDbCircle
 62
7
  6
CONTINUOUS
 10
50.4209476482
 20
6.7201249619
 40
0.07
100
AcDbArc
 50
180.0
 51
270.0
  0
ARC
  5
3A1
100
AcDbEntity
  8
0
100
AcDbCircle
 62
7
  6
CONTINUOUS
 10
51.9709476482
 20
-2.0593750381
 40
0.05
100
AcDbArc
 50
0.0
 51
90.0
  0
ARC
  5
3A2
100
AcDbEntity
  8
0
100
AcDbCircle
 62
7
  6
CONTINUOUS
 10
48.5006793257
 20
18.8701249619
 40
2.0
100
AcDbArc
 50
2.0
 51
90.0
  0
CIRCLE
  5
3A3
100
AcDbEntity
  8
0
100
AcDbCircle
 62
7
  6
CONTINUOUS
 10
-7.6473767251
 20
-36.7146538913
 40
0.345
  0
CIRCLE
  5
3A4
100
AcDbEntity
  8
0
100
AcDbCircle
 62
7
  6
CONTINUOUS
 10
-6.940269944
 20
-36.0075471101
 40
0.345
  0
CIRCLE
  5
3A5
100
AcDbEntity
  8
0
100
AcDbCircle
 62
7
  6
CONTINUOUS
 10
-6.940269944
 20
-36.0075471101
 40
0.26
  0
CIRCLE
  5
3A6
100
AcDbEntity
  8
0
100
AcDbCircle
 62
7
  6
CONTINUOUS
 10
-7.6473767251
 20
-36.7146538913
 40
0.26
  0
CIRCLE
  5
3A7
100
AcDbEntity
  8
0
100
AcDbCircle
 62
7
  6
CONTINUOUS
 10
-6.940269944
 20
-36.0075471101
 40
0.187
  0
CIRCLE
  5
3A8
100
AcDbEntity
  8
0
100
AcDbCircle
 62
7
  6
CONTINUOUS
 10
-7.6473767251
 20
-36.7146538913
 40
0.187
  0
ARC
  5
3A9
100
AcDbEntity
  8
0
100
AcDbCircle
 62
7
  6
CONTINUOUS
 10
-3.3853609404
 20
-31.6466831183
 40
0.78
100
AcDbArc
 50
133.6783348578
 51
166.3216651422
  0
ARC
  5
3AA
100
AcDbEntity
  8
0
100
AcDbCircle
 62
7
  6
CONTINUOUS
 10
-3.6483239966
 20
-31.3714350387
 40
0.3993281503
100
AcDbArc
 50
133.6649142478
 51
138.6576625913
  0
CIRCLE
  5
3AB
100
AcDbEntity
  8
0
100
AcDbCircle
 62
7
  6
CONTINUOUS
 10
-7.6473767251
 20
-27.1687123452
 40
0.345
  0
CIRCLE
  5
3AC
100
AcDbEntity
  8
0
100
AcDbCircle
 62
7
  6
CONTINUOUS
 10
-6.940269944
 20
-27.8758191264
 40
0.345
  0
CIRCLE
  5
3AD
100
AcDbEntity
  8
0
100
AcDbCircle
 62
7
  6
CONTINUOUS
 10
-3.7404313559
 20
-32.4416831183
 40
0.2655
  0
CIRCLE
  5
3AE
100
AcDbEntity
  8
0
100
AcDbCircle
 62
7
  6
CONTINUOUS
 10
-7.6473767251
 20
-27.1687123452
 40
0.26
  0
CIRCLE
  5
3AF
100
AcDbEntity
  8
0
100
AcDbCircle
 62
7
  6
CONTINUOUS
 10
-6.940269944
 20
-27.8758191264
 40
0.26
  0
CIRCLE
  5
3B0
100
AcDbEntity
  8
0
100
AcDbCircle
 62
7
  6
CONTINUOUS
 10
-3.7404313559
 20
-32.4416831183
 40
0.218
  0
CIRCLE
  5
3B1
100
AcDbEntity
  8
0
100
AcDbCircle
 62
7
  6
CONTINUOUS
 10
-7.6473767251
 20
-27.1687123452
 40
0.187
  0
CIRCLE
  5
3B2
100
AcDbEntity
  8
0
100
AcDbCircle
 62
7
  6
CONTINUOUS
 10
-6.940269944
 20
-27.8758191264
 40
0.187
  0
CIRCLE
  5
3B3
100
AcDbEntity
  8
0
100
AcDbCircle
 62
7
  6
CONTINUOUS
 10
-0.4347990708
 20
-37.831415138
 40
0.55
  0
CIRCLE
  5
3B4
100
AcDbEntity
  8
0
100
AcDbCircle
 62
7
  6
CONTINUOUS
 10
-0.4347990708
 20
-37.831415138
 40
0.5
  0
CIRCLE
  5
3B5
100
AcDbEntity
  8
AXIS
100
AcDbCircle
 62
7
  6
CONTINUOUS
 10
-0.4347990708
 20
-37.831415138
 40
0.47
  0
CIRCLE
  5
3B6
100
AcDbEntity
  8
0
100
AcDbCircle
 62
7
  6
CONTINUOUS
 10
-0.4347990708
 20
-37.831415138
 40
0.46
  0
CIRCLE
  5
3B7
100
AcDbEntity
  8
0
100
AcDbCircle
 62
7
  6
CONTINUOUS
 10
-0.4347990708
 20
-37.831415138
 40
0.41
  0
CIRCLE
  5
3B8
100
AcDbEntity
  8
0
100
AcDbCircle
 62
7
  6
CONTINUOUS
 10
1.8985648209
 20
-36.7146538913
 40
0.345
  0
CIRCLE
  5
3B9
100
AcDbEntity
  8
0
100
AcDbCircle
 62
7
  6
CONTINUOUS
 10
1.1914580397
 20
-36.0075471101
 40
0.345
  0
CIRCLE
  5
3BA
100
AcDbEntity
  8
0
100
AcDbCircle
 62
7
  6
CONTINUOUS
 10
1.1914580397
 20
-36.0075471101
 40
0.26
  0
CIRCLE
  5
3BB
100
AcDbEntity
  8
0
100
AcDbCircle
 62
7
  6
CONTINUOUS
 10
1.8985648209
 20
-36.7146538913
 40
0.26
  0
CIRCLE
  5
3BC
100
AcDbEntity
  8
0
100
AcDbCircle
 62
7
  6
CONTINUOUS
 10
1.1914580397
 20
-36.0075471101
 40
0.187
  0
CIRCLE
  5
3BD
100
AcDbEntity
  8
0
100
AcDbCircle
 62
7
  6
CONTINUOUS
 10
1.8985648209
 20
-36.7146538913
 40
0.187
  0
ARC
  5
3BE
100
AcDbEntity
  8
0
100
AcDbCircle
 62
3
  6
CONTINUOUS
 10
-2.8744059521
 20
-31.9416831183
 40
12.8671139848
100
AcDbArc
 50
48.2547173745
 51
131.7452826255
  0
ARC
  5
3BF
100
AcDbEntity
  8
0
100
AcDbCircle
 62
3
  6
CONTINUOUS
 10
-2.8744059521
 20
-31.9416831183
 40
12.8671139848
100
AcDbArc
 50
138.2640329783
 51
221.7359670217
  0
ARC
  5
3C0
100
AcDbEntity
  8
0
100
AcDbCircle
 62
3
  6
CONTINUOUS
 10
-2.8744059521
 20
-31.9416831183
 40
12.8671139848
100
AcDbArc
 50
228.2547173745
 51
311.7452826255
  0
ARC
  5
3C1
100
AcDbEntity
  8
0
100
AcDbCircle
 62
3
  6
CONTINUOUS
 10
-2.8744059521
 20
-31.9416831183
 40
12.8671139848
100
AcDbArc
 50
318.2640329783
 51
41.7359670217
  0
ARC
  5
3C2
100
AcDbEntity
  8
0
100
AcDbCircle
 62
7
  6
CONTINUOUS
 10
-2.8744059521
 20
-31.9416831183
 40
12.3670383779
100
AcDbArc
 50
140.9274815227
 51
219.0725184773
  0
ARC
  5
3C3
100
AcDbEntity
  8
0
100
AcDbCircle
 62
7
  6
CONTINUOUS
 10
-2.8744059521
 20
-31.9416831183
 40
12.3670383779
100
AcDbArc
 50
230.9274815227
 51
309.0725184773
  0
ARC
  5
3C4
100
AcDbEntity
  8
0
100
AcDbCircle
 62
7
  6
CONTINUOUS
 10
-2.8744059521
 20
-31.9416831183
 40
12.3670383779
100
AcDbArc
 50
320.9274815227
 51
39.0725184773
  0
ARC
  5
3C5
100
AcDbEntity
  8
0
100
AcDbCircle
 62
7
  6
CONTINUOUS
 10
-2.8744059521
 20
-31.9416831183
 40
12.3670383779
100
AcDbArc
 50
50.9274815227
 51
129.0725184773
  0
CIRCLE
  5
3C6
100
AcDbEntity
  8
0
100
AcDbCircle
 62
7
  6
CONTINUOUS
 10
-2.8744059521
 20
-31.9416831183
 40
4.2684520257
  0
CIRCLE
  5
3C7
100
AcDbEntity
  8
0
100
AcDbCircle
 62
7
  6
CONTINUOUS
 10
-2.8744059521
 20
-31.9416831183
 40
3.9740660978
  0
CIRCLE
  5
3C8
100
AcDbEntity
  8
0
100
AcDbCircle
 62
7
  6
CONTINUOUS
 10
-2.8744059521
 20
-31.9416831183
 40
3.4126156044
  0
ARC
  5
3C9
100
AcDbEntity
  8
0
100
AcDbCircle
 62
7
  6
CONTINUOUS
 10
-2.8744059521
 20
-31.9416831183
 40
1.25
100
AcDbArc
 50
94.7539852488
 51
139.8964730224
  0
ARC
  5
3CA
100
AcDbEntity
  8
0
100
AcDbCircle
 62
7
  6
CONTINUOUS
 10
-2.8744059521
 20
-31.9416831183
 40
1.25
100
AcDbArc
 50
160.1235393399
 51
205.1891239858
  0
ARC
  5
3CB
100
AcDbEntity
  8
0
100
AcDbCircle
 62
7
  6
CONTINUOUS
 10
-2.8744059521
 20
-31.9416831183
 40
1.25
100
AcDbArc
 50
214.874742549
 51
325.1335038411
  0
ARC
  5
3CC
100
AcDbEntity
  8
0
100
AcDbCircle
 62
7
  6
CONTINUOUS
 10
-2.8744059521
 20
-31.9416831183
 40
1.25
100
AcDbArc
 50
334.7353544735
 51
85.4991229413
  0
ARC
  5
3CD
100
AcDbEntity
  8
0
100
AcDbCircle
 62
7
  6
CONTINUOUS
 10
-2.8744059521
 20
-31.9416831183
 40
1.2368456474
100
AcDbArc
 50
216.3295727514
 51
323.5754607678
  0
ARC
  5
3CE
100
AcDbEntity
  8
0
100
AcDbCircle
 62
7
  6
CONTINUOUS
 10
-2.8744059521
 20
-31.9416831183
 40
1.2368456474
100
AcDbArc
 50
160.2322042645
 51
203.7760638916
  0
ARC
  5
3CF
100
AcDbEntity
  8
0
100
AcDbCircle
 62
7
  6
CONTINUOUS
 10
-2.8744059521
 20
-31.9416831183
 40
1.2368456474
100
AcDbArc
 50
96.4195550169
 51
139.786641295
  0
ARC
  5
3D0
100
AcDbEntity
  8
0
100
AcDbCircle
 62
7
  6
CONTINUOUS
 10
-2.8744059521
 20
-31.9416831183
 40
1.2368456474
100
AcDbArc
 50
336.1405136236
 51
83.6750871004
  0
ARC
  5
3D1
100
AcDbEntity
  8
0
100
AcDbCircle
 62
7
  6
CONTINUOUS
 10
-2.8744059521
 20
-31.9416831183
 40
0.6380912987
100
AcDbArc
 50
173.0661400609
 51
126.9338599391
  0
ARC
  5
3D2
100
AcDbEntity
  8
0
100
AcDbCircle
 62
7
  6
CONTINUOUS
 10
-2.8744059521
 20
-31.9416831183
 40
0.625
100
AcDbArc
 50
169.7009376039
 51
130.2990623961
  0
CIRCLE
  5
3D3
100
AcDbEntity
  8
0
100
AcDbCircle
 62
7
  6
CONTINUOUS
 10
-2.8744059521
 20
-31.9416831183
 40
0.313
  0
ARC
  5
3D4
100
AcDbEntity
  8
0
100
AcDbCircle
 62
7
  6
CONTINUOUS
 10
-2.8744059521
 20
-31.9416831183
 40
0.31225
100
AcDbArc
 50
126.0360585143
 51
120.2129791883
  0
ARC
  5
3D5
100
AcDbEntity
  8
0
100
AcDbCircle
 62
7
  6
CONTINUOUS
 10
-2.8744059521
 20
-31.9416831183
 40
0.2822620834
100
AcDbArc
 50
116.5432889225
 51
63.4567110775
  0
CIRCLE
  5
3D6
100
AcDbEntity
  8
0
100
AcDbCircle
 62
7
  6
CONTINUOUS
 10
-2.8744059521
 20
-30.9416831183
 40
0.2655
  0
CIRCLE
  5
3D7
100
AcDbEntity
  8
0
100
AcDbCircle
 62
7
  6
CONTINUOUS
 10
-2.8744059521
 20
-30.9416831183
 40
0.218
  0
CIRCLE
  5
3D8
100
AcDbEntity
  8
0
100
AcDbCircle
 62
7
  6
CONTINUOUS
 10
-2.0083805483
 20
-32.4416831183
 40
0.2655
  0
CIRCLE
  5
3D9
100
AcDbEntity
  8
0
100
AcDbCircle
 62
7
  6
CONTINUOUS
 10
-2.0083805483
 20
-32.4416831183
 40
0.218
  0
CIRCLE
  5
3DA
100
AcDbEntity
  8
0
100
AcDbCircle
 62
7
  6
CONTINUOUS
 10
1.8985648209
 20
-27.1687123452
 40
0.345
  0
CIRCLE
  5
3DB
100
AcDbEntity
  8
0
100
AcDbCircle
 62
7
  6
CONTINUOUS
 10
1.1914580397
 20
-27.8758191264
 40
0.345
  0
CIRCLE
  5
3DC
100
AcDbEntity
  8
0
100
AcDbCircle
 62
7
  6
CONTINUOUS
 10
1.1914580397
 20
-27.8758191264
 40
0.26
  0
CIRCLE
  5
3DD
100
AcDbEntity
  8
0
100
AcDbCircle
 62
7
  6
CONTINUOUS
 10
1.8985648209
 20
-27.1687123452
 40
0.26
  0
CIRCLE
  5
3DE
100
AcDbEntity
  8
0
100
AcDbCircle
 62
7
  6
CONTINUOUS
 10
1.1914580397
 20
-27.8758191264
 40
0.187
  0
CIRCLE
  5
3DF
100
AcDbEntity
  8
0
100
AcDbCircle
 62
7
  6
CONTINUOUS
 10
1.8985648209
 20
-27.1687123452
 40
0.187
  0
SPLINE
  5
3E0
100
AcDbEntity
  8
0
100
AcDbSpline
 62
7
  6
CONTINUOUS
 70
0
 71
3
 72
21
 73
17
 74
0
 42
0.0000001
 43
0.0000001
 44
0.0000000001
 40
0.0
 40
0.0
 40
0.0
 40
0.0
 40
0.1256853361
 40
0.1883323231
 40
0.2508510309
 40
0.3132535003
 40
0.3755604261
 40
0.4377981636
 40
0.5
 40
0.5622018364
 40
0.6244395739
 40
0.6867464997
 40
0.7491489691
 40
0.8116676769
 40
0.8743146639
 40
1.0
 40
1.0
 40
1.0
 40
1.0
 10
-11.4616016441
 20
8.2786249619
 30
0.0
 10
-11.4645550093
 20
8.2697648665
 30
0.0
 10
-11.4686198449
 20
8.2563613282
 30
0.0
 10
-11.4731072865
 20
8.238266076
 30
0.0
 10
-11.4759486848
 20
8.2246171926
 30
0.0
 10
-11.4782210568
 20
8.2108873051
 30
0.0
 10
-11.4798801088
 20
8.1970902723
 30
0.0
 10
-11.4808904724
 20
8.1832451671
 30
0.0
 10
-11.4812306466
 20
8.1693749619
 30
0.0
 10
-11.4808904724
 20
8.1555047567
 30
0.0
 10
-11.4798801088
 20
8.1416596515
 30
0.0
 10
-11.4782210568
 20
8.1278626187
 30
0.0
 10
-11.4759486848
 20
8.1141327312
 30
0.0
 10
-11.4731072865
 20
8.1004838477
 30
0.0
 10
-11.4686198449
 20
8.0823885956
 30
0.0
 10
-11.4645550093
 20
8.0689850573
 30
0.0
 10
-11.4616016441
 20
8.0601249619
 30
0.0
  0
SPLINE
  5
3E1
100
AcDbEntity
  8
0
100
AcDbSpline
 62
7
  6
CONTINUOUS
 70
0
 71
3
 72
15
 73
11
 74
0
 42
0.0000001
 43
0.0000001
 44
0.0000000001
 40
0.0
 40
0.0
 40
0.0
 40
0.0
 40
0.1251627617
 40
0.2501974103
 40
0.3751281702
 40
0.5000000121
 40
0.6248718587
 40
0.7498026271
 40
0.8748372674
 40
1.0
 40
1.0
 40
1.0
 40
1.0
 10
-11.3429423275
 20
8.0601249619
 30
0.0
 10
-11.3443421024
 20
8.0510766746
 30
0.0
 10
-11.3468861047
 20
8.0329484732
 30
0.0
 10
-11.3497766864
 20
8.0056536973
 30
0.0
 10
-11.3515876508
 20
7.9782853806
 30
0.0
 10
-11.3522054725
 20
7.9508749589
 30
0.0
 10
-11.35158765
 20
7.9234645367
 30
0.0
 10
-11.3497766854
 20
7.8960962196
 30
0.0
 10
-11.346886103
 20
7.868801446
 30
0.0
 10
-11.344342102
 20
7.8506732471
 30
0.0
 10
-11.3429423275
 20
7.8416249619
 30
0.0
  0
SPLINE
  5
3E2
100
AcDbEntity
  8
0
100
AcDbSpline
 62
7
  6
CONTINUOUS
 70
0
 71
3
 72
21
 73
17
 74
0
 42
0.0000001
 43
0.0000001
 44
0.0000000001
 40
0.0
 40
0.0
 40
0.0
 40
0.0
 40
0.1256853361
 40
0.1883323231
 40
0.2508510309
 40
0.3132535003
 40
0.3755604261
 40
0.4377981636
 40
0.5
 40
0.5622018364
 40
0.6244395739
 40
0.6867464997
 40
0.7491489691
 40
0.8116676769
 40
0.8743146639
 40
1.0
 40
1.0
 40
1.0
 40
1.0
 10
-11.4616016441
 20
8.0601249619
 30
0.0
 10
-11.4645550093
 20
8.0512648665
 30
0.0
 10
-11.4686198449
 20
8.0378613282
 30
0.0
 10
-11.4731072865
 20
8.019766076
 30
0.0
 10
-11.4759486848
 20
8.0061171926
 30
0.0
 10
-11.4782210568
 20
7.9923873051
 30
0.0
 10
-11.4798801088
 20
7.9785902723
 30
0.0
 10
-11.4808904724
 20
7.9647451671
 30
0.0
 10
-11.4812306466
 20
7.9508749619
 30
0.0
 10
-11.4808904724
 20
7.9370047567
 30
0.0
 10
-11.4798801088
 20
7.9231596515
 30
0.0
 10
-11.4782210568
 20
7.9093626187
 30
0.0
 10
-11.4759486848
 20
7.8956327312
 30
0.0
 10
-11.4731072865
 20
7.8819838477
 30
0.0
 10
-11.4686198449
 20
7.8638885956
 30
0.0
 10
-11.4645550093
 20
7.8504850573
 30
0.0
 10
-11.4616016441
 20
7.8416249619
 30
0.0
  0
SPLINE
  5
3E3
100
AcDbEntity
  8
0
100
AcDbSpline
 62
7
  6
CONTINUOUS
 70
0
 71
3
 72
15
 73
11
 74
0
 42
0.0000001
 43
0.0000001
 44
0.0000000001
 40
0.0
 40
0.0
 40
0.0
 40
0.0
 40
0.1251627666
 40
0.250197413
 40
0.3751281672
 40
0.5000000062
 40
0.6248718446
 40
0.7498025984
 40
0.8748372369
 40
1.0
 40
1.0
 40
1.0
 40
1.0
 10
-11.3429423275
 20
8.2786249619
 30
0.0
 10
-11.3443421024
 20
8.2695766742
 30
0.0
 10
-11.3468861048
 20
8.2514484726
 30
0.0
 10
-11.3497766863
 20
8.2241536969
 30
0.0
 10
-11.3515876506
 20
8.196785381
 30
0.0
 10
-11.3522054724
 20
8.1693749606
 30
0.0
 10
-11.3515876504
 20
8.1419645402
 30
0.0
 10
-11.349776686
 20
8.1145962249
 30
0.0
 10
-11.3468861046
 20
8.0873014501
 30
0.0
 10
-11.3443421024
 20
8.0691732493
 30
0.0
 10
-11.3429423275
 20
8.0601249619
 30
0.0
  0
SPLINE
  5
3E4
100
AcDbEntity
  8
0
100
AcDbSpline
 62
7
  6
CONTINUOUS
 70
0
 71
3
 72
21
 73
17
 74
0
 42
0.0000001
 43
0.0000001
 44
0.0000000001
 40
0.0
 40
0.0
 40
0.0
 40
0.0
 40
0.1256853361
 40
0.1883323231
 40
0.2508510309
 40
0.3132535003
 40
0.3755604261
 40
0.4377981636
 40
0.5
 40
0.5622018364
 40
0.6244395739
 40
0.6867464997
 40
0.7491489691
 40
0.8116676769
 40
0.8743146639
 40
1.0
 40
1.0
 40
1.0
 40
1.0
 10
5.7127897399
 20
7.8416249619
 30
0.0
 10
5.715743105
 20
7.8504850573
 30
0.0
 10
5.7198079406
 20
7.8638885956
 30
0.0
 10
5.7242953822
 20
7.8819838477
 30
0.0
 10
5.7271367805
 20
7.8956327312
 30
0.0
 10
5.7294091526
 20
7.9093626187
 30
0.0
 10
5.7310682045
 20
7.9231596515
 30
0.0
 10
5.7320785681
 20
7.9370047567
 30
0.0
 10
5.7324187423
 20
7.9508749619
 30
0.0
 10
5.7320785681
 20
7.9647451671
 30
0.0
 10
5.7310682045
 20
7.9785902723
 30
0.0
 10
5.7294091526
 20
7.9923873051
 30
0.0
 10
5.7271367805
 20
8.0061171926
 30
0.0
 10
5.7242953822
 20
8.019766076
 30
0.0
 10
5.7198079406
 20
8.0378613282
 30
0.0
 10
5.715743105
 20
8.0512648665
 30
0.0
 10
5.7127897399
 20
8.0601249619
 30
0.0
  0
SPLINE
  5
3E5
100
AcDbEntity
  8
0
100
AcDbSpline
 62
7
  6
CONTINUOUS
 70
0
 71
3
 72
15
 73
11
 74
0
 42
0.0000001
 43
0.0000001
 44
0.0000000001
 40
0.0
 40
0.0
 40
0.0
 40
0.0
 40
0.1251627666
 40
0.250197413
 40
0.3751281672
 40
0.5000000062
 40
0.6248718446
 40
0.7498025984
 40
0.8748372369
 40
1.0
 40
1.0
 40
1.0
 40
1.0
 10
5.5941304232
 20
7.8416249619
 30
0.0
 10
5.5955301982
 20
7.8506732496
 30
0.0
 10
5.5980742006
 20
7.8688014512
 30
0.0
 10
5.6009647821
 20
7.8960962268
 30
0.0
 10
5.6027757464
 20
7.9234645428
 30
0.0
 10
5.6033935682
 20
7.9508749632
 30
0.0
 10
5.6027757461
 20
7.9782853836
 30
0.0
 10
5.6009647818
 20
8.0056536989
 30
0.0
 10
5.5980742003
 20
8.0329484737
 30
0.0
 10
5.5955301981
 20
8.0510766744
 30
0.0
 10
5.5941304232
 20
8.0601249619
 30
0.0
  0
SPLINE
  5
3E6
100
AcDbEntity
  8
0
100
AcDbSpline
 62
7
  6
CONTINUOUS
 70
0
 71
3
 72
15
 73
11
 74
0
 42
0.0000001
 43
0.0000001
 44
0.0000000001
 40
0.0
 40
0.0
 40
0.0
 40
0.0
 40
0.1251627617
 40
0.2501974103
 40
0.3751281702
 40
0.5000000121
 40
0.6248718587
 40
0.7498026271
 40
0.8748372674
 40
1.0
 40
1.0
 40
1.0
 40
1.0
 10
5.5941304232
 20
8.0601249619
 30
0.0
 10
5.5955301981
 20
8.0691732492
 30
0.0
 10
5.5980742004
 20
8.0873014506
 30
0.0
 10
5.6009647821
 20
8.1145962265
 30
0.0
 10
5.6027757465
 20
8.1419645432
 30
0.0
 10
5.6033935682
 20
8.1693749649
 30
0.0
 10
5.6027757457
 20
8.1967853871
 30
0.0
 10
5.6009647811
 20
8.2241537042
 30
0.0
 10
5.5980741987
 20
8.2514484778
 30
0.0
 10
5.5955301978
 20
8.2695766767
 30
0.0
 10
5.5941304232
 20
8.2786249619
 30
0.0
  0
SPLINE
  5
3E7
100
AcDbEntity
  8
0
100
AcDbSpline
 62
7
  6
CONTINUOUS
 70
0
 71
3
 72
21
 73
17
 74
0
 42
0.0000001
 43
0.0000001
 44
0.0000000001
 40
0.0
 40
0.0
 40
0.0
 40
0.0
 40
0.1256853361
 40
0.1883323231
 40
0.2508510309
 40
0.3132535003
 40
0.3755604261
 40
0.4377981636
 40
0.5
 40
0.5622018364
 40
0.6244395739
 40
0.6867464997
 40
0.7491489691
 40
0.8116676769
 40
0.8743146639
 40
1.0
 40
1.0
 40
1.0
 40
1.0
 10
5.7127897399
 20
8.0601249619
 30
0.0
 10
5.715743105
 20
8.0689850573
 30
0.0
 10
5.7198079406
 20
8.0823885956
 30
0.0
 10
5.7242953822
 20
8.1004838477
 30
0.0
 10
5.7271367805
 20
8.1141327312
 30
0.0
 10
5.7294091526
 20
8.1278626187
 30
0.0
 10
5.7310682045
 20
8.1416596515
 30
0.0
 10
5.7320785681
 20
8.1555047567
 30
0.0
 10
5.7324187423
 20
8.1693749619
 30
0.0
 10
5.7320785681
 20
8.1832451671
 30
0.0
 10
5.7310682045
 20
8.1970902723
 30
0.0
 10
5.7294091526
 20
8.2108873051
 30
0.0
 10
5.7271367805
 20
8.2246171926
 30
0.0
 10
5.7242953822
 20
8.238266076
 30
0.0
 10
5.7198079406
 20
8.2563613282
 30
0.0
 10
5.715743105
 20
8.2697648665
 30
0.0
 10
5.7127897399
 20
8.2786249619
 30
0.0
  0
SPLINE
  5
3E8
100
AcDbEntity
  8
0
100
AcDbSpline
 62
7
  6
CONTINUOUS
 70
0
 71
3
 72
15
 73
11
 74
0
 42
0.0000001
 43
0.0000001
 44
0.0000000001
 40
0.0
 40
0.0
 40
0.0
 40
0.0
 40
0.1453524083
 40
0.2868079831
 40
0.4230969843
 40
0.5529474777
 40
0.6754525845
 40
0.7903911539
 40
0.8982555593
 40
1.0
 40
1.0
 40
1.0
 40
1.0
 10
-8.6535645727
 20
-1.3958813891
 30
0.0
 10
-8.6606721885
 20
-1.3915288811
 30
0.0
 10
-8.6746117311
 20
-1.3827999311
 30
0.0
 10
-8.6948318686
 20
-1.3693885117
 30
0.0
 10
-8.713871042
 20
-1.3558246827
 30
0.0
 10
-8.7314805609
 20
-1.3421556685
 30
0.0
 10
-8.7474863679
 20
-1.3284540976
 30
0.0
 10
-8.7618426994
 20
-1.3148049966
 30
0.0
 10
-8.7746395709
 20
-1.3012829042
 30
0.0
 10
-8.7824573713
 20
-1.2921471827
 30
0.0
 10
-8.7861470942
 20
-1.2876282136
 30
0.0
  0
SPLINE
  5
3E9
100
AcDbEntity
  8
0
100
AcDbSpline
 62
7
  6
CONTINUOUS
 70
0
 71
3
 72
19
 73
15
 74
0
 42
0.0000001
 43
0.0000001
 44
0.0000000001
 40
0.0
 40
0.0
 40
0.0
 40
0.0
 40
0.1239135187
 40
0.2486584689
 40
0.3113153546
 40
0.3741210923
 40
0.4370327446
 40
0.5
 40
0.5629672554
 40
0.6258789077
 40
0.6886846454
 40
0.7513415311
 40
0.8760864813
 40
1.0
 40
1.0
 40
1.0
 40
1.0
 10
-8.7861470942
 20
-1.2876282136
 30
0.0
 10
-8.7879493153
 20
-1.2787991694
 30
0.0
 10
-8.7912482827
 20
-1.2610147127
 30
0.0
 10
-8.7944000939
 20
-1.2385865367
 30
0.0
 10
-8.7962337818
 20
-1.2204818886
 30
0.0
 10
-8.7972392862
 20
-1.2068182215
 30
0.0
 10
-8.7978515006
 20
-1.1931086107
 30
0.0
 10
-8.7980576111
 20
-1.1793750381
 30
0.0
 10
-8.7978515006
 20
-1.1656414655
 30
0.0
 10
-8.7972392862
 20
-1.1519318547
 30
0.0
 10
-8.7962337818
 20
-1.1382681876
 30
0.0
 10
-8.7944000939
 20
-1.1201635395
 30
0.0
 10
-8.7912482827
 20
-1.0977353635
 30
0.0
 10
-8.7879493153
 20
-1.0799509068
 30
0.0
 10
-8.7861470942
 20
-1.0711218626
 30
0.0
  0
SPLINE
  5
3EA
100
AcDbEntity
  8
0
100
AcDbSpline
 62
7
  6
CONTINUOUS
 70
0
 71
3
 72
15
 73
11
 74
0
 42
0.0000001
 43
0.0000001
 44
0.0000000001
 40
0.0
 40
0.0
 40
0.0
 40
0.0
 40
0.1017444407
 40
0.2096088461
 40
0.3245474155
 40
0.4470525223
 40
0.5769030157
 40
0.7131920169
 40
0.8546475917
 40
1.0
 40
1.0
 40
1.0
 40
1.0
 10
-8.7861470942
 20
-1.0711218626
 30
0.0
 10
-8.7824573713
 20
-1.0666028935
 30
0.0
 10
-8.7746395709
 20
-1.057467172
 30
0.0
 10
-8.7618426994
 20
-1.0439450796
 30
0.0
 10
-8.7474863679
 20
-1.0302959786
 30
0.0
 10
-8.7314805609
 20
-1.0165944078
 30
0.0
 10
-8.713871042
 20
-1.0029253935
 30
0.0
 10
-8.6948318686
 20
-0.9893615645
 30
0.0
 10
-8.6746117311
 20
-0.9759501451
 30
0.0
 10
-8.6606721885
 20
-0.9672211952
 30
0.0
 10
-8.6535645727
 20
-0.9628686872
 30
0.0
  0
SPLINE
  5
3EB
100
AcDbEntity
  8
0
100
AcDbSpline
 62
7
  6
CONTINUOUS
 70
0
 71
3
 72
18
 73
14
 74
0
 42
0.0000001
 43
0.0000001
 44
0.0000000001
 40
0.0
 40
0.0
 40
0.0
 40
0.0
 40
0.1218384541
 40
0.1838222222
 40
0.2463717814
 40
0.3093877431
 40
0.3727563337
 40
0.4363599145
 40
0.5000807622
 40
0.6273714929
 40
0.7537150461
 40
0.8782031505
 40
1.0
 40
1.0
 40
1.0
 40
1.0
 10
-8.3335496893
 20
-1.0573855101
 30
0.0
 10
-8.3299905145
 20
-1.0668602671
 30
0.0
 10
-8.325317941
 20
-1.081429531
 30
0.0
 10
-8.3204209627
 20
-1.1013057987
 30
0.0
 10
-8.3173797818
 20
-1.1165918361
 30
0.0
 10
-8.3150045196
 20
-1.132110964
 30
0.0
 10
-8.3133020275
 20
-1.1478063347
 30
0.0
 10
-8.3122806843
 20
-1.1636195829
 30
0.0
 10
-8.3118304652
 20
-1.1847712184
 30
0.0
 10
-8.3129755312
 20
-1.211144942
 30
0.0
 10
-8.3170582265
 20
-1.2423296083
 30
0.0
 10
-8.3237889473
 20
-1.2725843327
 30
0.0
 10
-8.3300602462
 20
-1.2920965406
 30
0.0
 10
-8.3336251812
 20
-1.301565439
 30
0.0
  0
SPLINE
  5
3EC
100
AcDbEntity
  8
0
100
AcDbSpline
 62
7
  6
CONTINUOUS
 70
0
 71
3
 72
21
 73
17
 74
0
 42
0.0000001
 43
0.0000001
 44
0.0000000001
 40
0.0
 40
0.0
 40
0.0
 40
0.0
 40
0.1439355433
 40
0.2139312198
 40
0.2824827661
 40
0.4149872126
 40
0.4789762404
 40
0.5414551152
 40
0.6024797335
 40
0.6621355159
 40
0.7205415975
 40
0.7778466918
 40
0.8342303628
 40
0.8898969689
 40
0.9450732004
 40
1.0
 40
1.0
 40
1.0
 40
1.0
 10
-8.3336251812
 20
-1.301565439
 30
0.0
 10
-8.3374513685
 20
-1.3117282553
 30
0.0
 10
-8.3439427436
 20
-1.3265532537
 30
0.0
 10
-8.3541610266
 20
-1.3452674099
 30
0.0
 10
-8.3650238409
 20
-1.3626037586
 30
0.0
 10
-8.3772061641
 20
-1.3785471061
 30
0.0
 10
-8.3906258021
 20
-1.3927659869
 30
0.0
 10
-8.4010600702
 20
-1.4023365201
 30
0.0
 10
-8.4119298148
 20
-1.410890791
 30
0.0
 10
-8.423187613
 20
-1.4183883779
 30
0.0
 10
-8.4347813976
 20
-1.4247952736
 30
0.0
 10
-8.4466593256
 20
-1.4300796945
 30
0.0
 10
-8.4587661773
 20
-1.4342176685
 30
0.0
 10
-8.4710470468
 20
-1.4371876053
 30
0.0
 10
-8.4834429623
 20
-1.4389762405
 30
0.0
 10
-8.4917551179
 20
-1.4393747593
 30
0.0
 10
-8.4958990694
 20
-1.4393748513
 30
0.0
  0
SPLINE
  5
3ED
100
AcDbEntity
  8
0
100
AcDbSpline
 62
7
  6
CONTINUOUS
 70
0
 71
3
 72
23
 73
19
 74
0
 42
0.0000001
 43
0.0000001
 44
0.0000000001
 40
0.0
 40
0.0
 40
0.0
 40
0.0
 40
0.0723863627
 40
0.1435277136
 40
0.2132914826
 40
0.2816143877
 40
0.3484651727
 40
0.4138258032
 40
0.4776964214
 40
0.5401091272
 40
0.6011236465
 40
0.6608295149
 40
0.7193435624
 40
0.7768121274
 40
0.8334073264
 40
0.8893251129
 40
0.9447799417
 40
1.0
 40
1.0
 40
1.0
 40
1.0
 10
-8.3366880293
 20
-1.0493750381
 30
0.0
 10
-8.338676065
 20
-1.0445053649
 30
0.0
 10
-8.3428725645
 20
-1.0349512371
 30
0.0
 10
-8.3498732027
 20
-1.0211153374
 30
0.0
 10
-8.3575008601
 20
-1.0079540729
 30
0.0
 10
-8.3657203066
 20
-0.9955256586
 30
0.0
 10
-8.3744984073
 20
-0.9838828193
 30
0.0
 10
-8.3837969308
 20
-0.9730736741
 30
0.0
 10
-8.3935781486
 20
-0.9631460999
 30
0.0
 10
-8.4037995021
 20
-0.9541421127
 30
0.0
 10
-8.4144186628
 20
-0.9461015317
 30
0.0
 10
-8.4253900054
 20
-0.9390585863
 30
0.0
 10
-8.4366674005
 20
-0.9330449472
 30
0.0
 10
-8.4482024111
 20
-0.9280870099
 30
0.0
 10
-8.4599454742
 20
-0.9242071862
 30
0.0
 10
-8.4718461478
 20
-0.9214233502
 30
0.0
 10
-8.4838511823
 20
-0.9197477316
 30
0.0
 10
-8.4918981717
 20
-0.9193751358
 30
0.0
 10
-8.4959106557
 20
-0.9193752249
 30
0.0
  0
SPLINE
  5
3EE
100
AcDbEntity
  8
0
100
AcDbSpline
 62
7
  6
CONTINUOUS
 70
0
 71
3
 72
11
 73
7
 74
0
 42
0.0000001
 43
0.0000001
 44
0.0000000001
 40
0.0
 40
0.0
 40
0.0
 40
0.0
 40
0.2401732686
 40
0.4850365616
 40
0.7374846583
 40
1.0
 40
1.0
 40
1.0
 40
1.0
 10
-8.5467458401
 20
-1.3958813891
 30
0.0
 10
-8.5461409703
 20
-1.3958813891
 30
0.0
 10
-8.5449165763
 20
-1.3960012569
 30
0.0
 10
-8.5431239359
 20
-1.3965233399
 30
0.0
 10
-8.5414010502
 20
-1.3973761152
 30
0.0
 10
-8.540338299
 20
-1.3981288481
 30
0.0
 10
-8.5398259294
 20
-1.3985466764
 30
0.0
  0
SPLINE
  5
3EF
100
AcDbEntity
  8
0
100
AcDbSpline
 62
7
  6
CONTINUOUS
 70
0
 71
3
 72
11
 73
7
 74
0
 42
0.0000001
 43
0.0000001
 44
0.0000000001
 40
0.0
 40
0.0
 40
0.0
 40
0.0
 40
0.2401732686
 40
0.4850365616
 40
0.7374846583
 40
1.0
 40
1.0
 40
1.0
 40
1.0
 10
-8.5467458401
 20
-0.9628686872
 30
0.0
 10
-8.5461409703
 20
-0.9628686872
 30
0.0
 10
-8.5449165763
 20
-0.9627488193
 30
0.0
 10
-8.5431239359
 20
-0.9622267363
 30
0.0
 10
-8.5414010502
 20
-0.961373961
 30
0.0
 10
-8.540338299
 20
-0.9606212281
 30
0.0
 10
-8.5398259294
 20
-0.9602033998
 30
0.0
  0
SPLINE
  5
3F0
100
AcDbEntity
  8
0
100
AcDbSpline
 62
7
  6
CONTINUOUS
 70
0
 71
3
 72
15
 73
11
 74
0
 42
0.0000001
 43
0.0000001
 44
0.0000000001
 40
0.0
 40
0.0
 40
0.0
 40
0.0
 40
0.119057511
 40
0.2387427078
 40
0.3596605012
 40
0.482372663
 40
0.6073780386
 40
0.7351040355
 40
0.8658915427
 40
1.0
 40
1.0
 40
1.0
 40
1.0
 10
-8.5312544085
 20
-1.4393748513
 30
0.0
 10
-8.5357258998
 20
-1.4393749506
 30
0.0
 10
-8.5446993226
 20
-1.4389117237
 30
0.0
 10
-8.5580683865
 20
-1.4368293996
 30
0.0
 10
-8.5712925253
 20
-1.4333735343
 30
0.0
 10
-8.5842976111
 20
-1.428561838
 30
0.0
 10
-8.5970152
 20
-1.4224241214
 30
0.0
 10
-8.6093765555
 20
-1.4149923212
 30
0.0
 10
-8.6213169807
 20
-1.4063105666
 30
0.0
 10
-8.6288583319
 20
-1.399801918
 30
0.0
 10
-8.6325402198
 20
-1.3963649554
 30
0.0
  0
SPLINE
  5
3F1
100
AcDbEntity
  8
0
100
AcDbSpline
 62
7
  6
CONTINUOUS
 70
0
 71
3
 72
17
 73
13
 74
0
 42
0.0000001
 43
0.0000001
 44
0.0000000001
 40
0.0
 40
0.0
 40
0.0
 40
0.0
 40
0.1189994808
 40
0.2386330948
 40
0.2988987019
 40
0.3595485145
 40
0.4822355288
 40
0.5444348928
 40
0.6072696525
 40
0.7350094912
 40
0.8658344983
 40
1.0
 40
1.0
 40
1.0
 40
1.0
 10
-8.5312659948
 20
-0.9193752249
 30
0.0
 10
-8.5357585643
 20
-0.9193753247
 30
0.0
 10
-8.5447741651
 20
-0.9198440375
 30
0.0
 10
-8.5559426923
 20
-0.9215929214
 30
0.0
 10
-8.5647856841
 20
-0.9236752446
 30
0.0
 10
-8.5736234608
 20
-0.9262307244
 30
0.0
 10
-8.5823283089
 20
-0.9294674357
 30
0.0
 10
-8.5908413562
 20
-0.9333456779
 30
0.0
 10
-8.5993331992
 20
-0.937706419
 30
0.0
 10
-8.6097332432
 20
-0.9439917255
 30
0.0
 10
-8.6217144835
 20
-0.9527541865
 30
0.0
 10
-8.6292791171
 20
-0.9593208563
 30
0.0
 10
-8.6329711812
 20
-0.96278845
 30
0.0
  0
SPLINE
  5
3F2
100
AcDbEntity
  8
0
100
AcDbSpline
 62
7
  6
CONTINUOUS
 70
0
 71
3
 72
19
 73
15
 74
0
 42
0.0000001
 43
0.0000001
 44
0.0000000001
 40
0.0
 40
0.0
 40
0.0
 40
0.0
 40
0.1239135187
 40
0.2486584689
 40
0.3113153546
 40
0.3741210923
 40
0.4370327446
 40
0.5
 40
0.5629672554
 40
0.6258789077
 40
0.6886846454
 40
0.7513415311
 40
0.8760864813
 40
1.0
 40
1.0
 40
1.0
 40
1.0
 10
-8.5209820512
 20
-1.0711218626
 30
0.0
 10
-8.5227842723
 20
-1.0799509068
 30
0.0
 10
-8.5260832397
 20
-1.0977353635
 30
0.0
 10
-8.529235051
 20
-1.1201635395
 30
0.0
 10
-8.5310687388
 20
-1.1382681876
 30
0.0
 10
-8.5320742433
 20
-1.1519318547
 30
0.0
 10
-8.5326864576
 20
-1.1656414655
 30
0.0
 10
-8.5328925682
 20
-1.1793750381
 30
0.0
 10
-8.5326864576
 20
-1.1931086107
 30
0.0
 10
-8.5320742433
 20
-1.2068182215
 30
0.0
 10
-8.5310687388
 20
-1.2204818886
 30
0.0
 10
-8.529235051
 20
-1.2385865367
 30
0.0
 10
-8.5260832397
 20
-1.2610147127
 30
0.0
 10
-8.5227842723
 20
-1.2787991694
 30
0.0
 10
-8.5209820512
 20
-1.2876282136
 30
0.0
  0
SPLINE
  5
3F3
100
AcDbEntity
  8
0
100
AcDbSpline
 62
7
  6
CONTINUOUS
 70
0
 71
3
 72
17
 73
13
 74
0
 42
0.0000001
 43
0.0000001
 44
0.0000000001
 40
0.0
 40
0.0
 40
0.0
 40
0.0
 40
0.0507521541
 40
0.1062279752
 40
0.1656818145
 40
0.2283685672
 40
0.3603916239
 40
0.4965882669
 40
0.6320482742
 40
0.7629485808
 40
0.8864675634
 40
1.0
 40
1.0
 40
1.0
 40
1.0
 10
-8.4141633187
 20
-1.2876282136
 30
0.0
 10
-8.4135890153
 20
-1.2876282136
 30
0.0
 10
-8.4123867292
 20
-1.2876828107
 30
0.0
 10
-8.4105230423
 20
-1.2878969593
 30
0.0
 10
-8.4085423839
 20
-1.2882447035
 30
0.0
 10
-8.4057377529
 20
-1.2888861681
 30
0.0
 10
-8.4021482672
 20
-1.2899686865
 30
0.0
 10
-8.3978805477
 20
-1.2916071248
 30
0.0
 10
-8.3937434608
 20
-1.2935214602
 30
0.0
 10
-8.3898642728
 20
-1.2956295852
 30
0.0
 10
-8.3863444235
 20
-1.2978594266
 30
0.0
 10
-8.3841871777
 20
-1.2994596593
 30
0.0
 10
-8.3831920416
 20
-1.3002721845
 30
0.0
  0
SPLINE
  5
3F4
100
AcDbEntity
  8
0
100
AcDbSpline
 62
7
  6
CONTINUOUS
 70
0
 71
3
 72
17
 73
13
 74
0
 42
0.0000001
 43
0.0000001
 44
0.0000000001
 40
0.0
 40
0.0
 40
0.0
 40
0.0
 40
0.0507521541
 40
0.1062279752
 40
0.1656818145
 40
0.2283685672
 40
0.3603916239
 40
0.4965882669
 40
0.6320482742
 40
0.7629485808
 40
0.8864675634
 40
1.0
 40
1.0
 40
1.0
 40
1.0
 10
-8.4141633187
 20
-1.0711218626
 30
0.0
 10
-8.4135890153
 20
-1.0711218626
 30
0.0
 10
-8.4123867292
 20
-1.0710672655
 30
0.0
 10
-8.4105230423
 20
-1.0708531169
 30
0.0
 10
-8.4085423839
 20
-1.0705053727
 30
0.0
 10
-8.4057377529
 20
-1.0698639081
 30
0.0
 10
-8.4021482672
 20
-1.0687813897
 30
0.0
 10
-8.3978805477
 20
-1.0671429514
 30
0.0
 10
-8.3937434608
 20
-1.065228616
 30
0.0
 10
-8.3898642728
 20
-1.063120491
 30
0.0
 10
-8.3863444235
 20
-1.0608906496
 30
0.0
 10
-8.3841871777
 20
-1.0592904169
 30
0.0
 10
-8.3831920416
 20
-1.0584778917
 30
0.0
  0
SPLINE
  5
3F5
100
AcDbEntity
  8
0
100
AcDbSpline
 62
7
  6
CONTINUOUS
 70
0
 71
3
 72
15
 73
11
 74
0
 42
0.0000001
 43
0.0000001
 44
0.0000000001
 40
0.0
 40
0.0
 40
0.0
 40
0.0
 40
0.1453524083
 40
0.2868079831
 40
0.4230969843
 40
0.5529474777
 40
0.6754525845
 40
0.7903911539
 40
0.8982555593
 40
1.0
 40
1.0
 40
1.0
 40
1.0
 10
-8.5209820512
 20
-1.2876282136
 30
0.0
 10
-8.528089667
 20
-1.2919807216
 30
0.0
 10
-8.5420292096
 20
-1.3007096715
 30
0.0
 10
-8.5622493471
 20
-1.314121091
 30
0.0
 10
-8.5812885205
 20
-1.3276849199
 30
0.0
 10
-8.5988980394
 20
-1.3413539342
 30
0.0
 10
-8.6149038464
 20
-1.355055505
 30
0.0
 10
-8.6292601779
 20
-1.368704606
 30
0.0
 10
-8.6420570494
 20
-1.3822266985
 30
0.0
 10
-8.6498748499
 20
-1.3913624199
 30
0.0
 10
-8.6535645727
 20
-1.3958813891
 30
0.0
  0
SPLINE
  5
3F6
100
AcDbEntity
  8
0
100
AcDbSpline
 62
7
  6
CONTINUOUS
 70
0
 71
3
 72
9
 73
5
 74
0
 42
0.0000001
 43
0.0000001
 44
0.0000000001
 40
0.0
 40
0.0
 40
0.0
 40
0.0
 40
0.5053692387
 40
1.0
 40
1.0
 40
1.0
 40
1.0
 10
-8.3720433683
 20
-1.0493750381
 30
0.0
 10
-8.3744335902
 20
-1.0435202142
 30
0.0
 10
-8.3795303042
 20
-1.0320810468
 30
0.0
 10
-8.3853730741
 20
-1.021002969
 30
0.0
 10
-8.3884514846
 20
-1.0156332388
 30
0.0
  0
SPLINE
  5
3F7
100
AcDbEntity
  8
0
100
AcDbSpline
 62
7
  6
CONTINUOUS
 70
0
 71
3
 72
21
 73
17
 74
0
 42
0.0000001
 43
0.0000001
 44
0.0000000001
 40
0.0
 40
0.0
 40
0.0
 40
0.0
 40
0.1409041298
 40
0.2094611482
 40
0.2767194308
 40
0.4072923491
 40
0.4707177245
 40
0.5329483315
 40
0.5940569821
 40
0.6541324635
 40
0.7132828325
 40
0.7716327105
 40
0.8293213619
 40
0.8865022518
 40
0.9433381497
 40
1.0
 40
1.0
 40
1.0
 40
1.0
 10
-8.3884514846
 20
-1.0156332388
 30
0.0
 10
-8.3926665756
 20
-1.0082807747
 30
0.0
 10
-8.3994657516
 20
-0.9976404481
 30
0.0
 10
-8.4095195542
 20
-0.9843678732
 30
0.0
 10
-8.4198802387
 20
-0.972138014
 30
0.0
 10
-8.4310436904
 20
-0.9610167513
 30
0.0
 10
-8.442931345
 20
-0.9511957073
 30
0.0
 10
-8.4520379911
 20
-0.9446044651
 30
0.0
 10
-8.4613905411
 20
-0.9387379726
 30
0.0
 10
-8.4709613728
 20
-0.9336153369
 30
0.0
 10
-8.4807206449
 20
-0.9292528281
 30
0.0
 10
-8.4906379071
 20
-0.925663493
 30
0.0
 10
-8.5006828269
 20
-0.9228606009
 30
0.0
 10
-8.510823694
 20
-0.9208512742
 30
0.0
 10
-8.521028317
 20
-0.9196436526
 30
0.0
 10
-8.5278579364
 20
-0.9193751492
 30
0.0
 10
-8.5312659948
 20
-0.9193752249
 30
0.0
  0
SPLINE
  5
3F8
100
AcDbEntity
  8
0
100
AcDbSpline
 62
7
  6
CONTINUOUS
 70
0
 71
3
 72
19
 73
15
 74
0
 42
0.0000001
 43
0.0000001
 44
0.0000000001
 40
0.0
 40
0.0
 40
0.0
 40
0.0
 40
0.0607988358
 40
0.1226152988
 40
0.1852674602
 40
0.2486089892
 40
0.3124831807
 40
0.3767134438
 40
0.5054796189
 40
0.6335147793
 40
0.7594193951
 40
0.8211929492
 40
0.8819712938
 40
1.0
 40
1.0
 40
1.0
 40
1.0
 10
-8.3720433683
 20
-1.0493750381
 30
0.0
 10
-8.3697265967
 20
-1.0550499464
 30
0.0
 10
-8.3654034364
 20
-1.0666403875
 30
0.0
 10
-8.3599043464
 20
-1.084500971
 30
0.0
 10
-8.3553665183
 20
-1.1028941693
 30
0.0
 10
-8.3518144612
 20
-1.1217133386
 30
0.0
 10
-8.3492675434
 20
-1.1408555984
 30
0.0
 10
-8.3472295996
 20
-1.1666824273
 30
0.0
 10
-8.3472563052
 20
-1.1991145676
 30
0.0
 10
-8.3513705744
 20
-1.2375480217
 30
0.0
 10
-8.3581726647
 20
-1.268715233
 30
0.0
 10
-8.3655886026
 20
-1.2926550165
 30
0.0
 10
-8.3741111214
 20
-1.315372522
 30
0.0
 10
-8.3819589555
 20
-1.3316711821
 30
0.0
 10
-8.3878277979
 20
-1.3420226131
 30
0.0
  0
SPLINE
  5
3F9
100
AcDbEntity
  8
0
100
AcDbSpline
 62
7
  6
CONTINUOUS
 70
0
 71
3
 72
20
 73
16
 74
0
 42
0.0000001
 43
0.0000001
 44
0.0000000001
 40
0.0
 40
0.0
 40
0.0
 40
0.0
 40
0.1410158749
 40
0.2768709764
 40
0.4075034945
 40
0.4709459353
 40
0.5331847257
 40
0.5942905624
 40
0.654354574
 40
0.7134839207
 40
0.7718046037
 40
0.8294572489
 40
0.8865960469
 40
0.9433862658
 40
1.0
 40
1.0
 40
1.0
 40
1.0
 10
-8.3878277979
 20
-1.3420226131
 30
0.0
 10
-8.3920397283
 20
-1.349451592
 30
0.0
 10
-8.4010214762
 20
-1.3636509257
 30
0.0
 10
-8.4163624956
 20
-1.3830397121
 30
0.0
 10
-8.4304977022
 20
-1.3972354046
 30
0.0
 10
-8.4424355811
 20
-1.4071704409
 30
0.0
 10
-8.4515826093
 20
-1.4138395956
 30
0.0
 10
-8.4609810701
 20
-1.4197748302
 30
0.0
 10
-8.470600931
 20
-1.4249591536
 30
0.0
 10
-8.4804129933
 20
-1.4293743321
 30
0.0
 10
-8.4903860459
 20
-1.4330069063
 30
0.0
 10
-8.5004887192
 20
-1.4358452133
 30
0.0
 10
-8.5106895707
 20
-1.4378786935
 30
0.0
 10
-8.5209550537
 20
-1.4391025255
 30
0.0
 10
-8.5278258848
 20
-1.4393747752
 30
0.0
 10
-8.5312544085
 20
-1.4393748513
 30
0.0
  0
SPLINE
  5
3FA
100
AcDbEntity
  8
0
100
AcDbSpline
 62
7
  6
CONTINUOUS
 70
0
 71
3
 72
45
 73
41
 74
0
 42
0.0000001
 43
0.0000001
 44
0.0000000001
 40
0.0
 40
0.0
 40
0.0
 40
0.0
 40
0.0128513267
 40
0.0257402646
 40
0.038691441
 40
0.051730823
 40
0.0648871307
 40
0.0781878531
 40
0.1053036192
 40
0.1332505709
 40
0.1621439873
 40
0.1920543393
 40
0.2230077703
 40
0.2549895349
 40
0.287948694
 40
0.3218028922
 40
0.3564428168
 40
0.3917370601
 40
0.4275370898
 40
0.4636814477
 40
0.5
 40
0.5363185523
 40
0.5724629102
 40
0.6082629399
 40
0.6435571832
 40
0.6781971078
 40
0.712051306
 40
0.7450104651
 40
0.7769922297
 40
0.8079456607
 40
0.8378560127
 40
0.8667494291
 40
0.8946963808
 40
0.9218121469
 40
0.9351128693
 40
0.948269177
 40
0.961308559
 40
0.9742597354
 40
0.9871486733
 40
1.0
 40
1.0
 40
1.0
 40
1.0
 10
-8.6656104901
 20
-0.9923750381
 30
0.0
 10
-8.6634472571
 20
-0.9923750381
 30
0.0
 10
-8.6591129708
 20
-0.9925260388
 30
0.0
 10
-8.652630473
 20
-0.9932029505
 30
0.0
 10
-8.6461783226
 20
-0.9943291244
 30
0.0
 10
-8.6397743643
 20
-0.9959026659
 30
0.0
 10
-8.63343373
 20
-0.9979185692
 30
0.0
 10
-8.625032401
 20
-1.0012103121
 30
0.0
 10
-8.6147440722
 20
-1.0064382602
 30
0.0
 10
-8.6029864507
 20
-1.0143355241
 30
0.0
 10
-8.5918425594
 20
-1.0238177256
 30
0.0
 10
-8.5814181258
 20
-1.0347902805
 30
0.0
 10
-8.5718102138
 20
-1.0471467045
 30
0.0
 10
-8.5631081975
 20
-1.0607673982
 30
0.0
 10
-8.5553931905
 20
-1.0755216499
 30
0.0
 10
-8.5487377772
 20
-1.0912684795
 30
0.0
 10
-8.5432046967
 20
-1.1078574344
 30
0.0
 10
-8.5388457827
 20
-1.1251298957
 30
0.0
 10
-8.5357022814
 20
-1.1429208804
 30
0.0
 10
-8.5338043575
 20
-1.1610604149
 30
0.0
 10
-8.5331697768
 20
-1.1793750381
 30
0.0
 10
-8.5338043575
 20
-1.1976896613
 30
0.0
 10
-8.5357022814
 20
-1.2158291958
 30
0.0
 10
-8.5388457827
 20
-1.2336201805
 30
0.0
 10
-8.5432046967
 20
-1.2508926418
 30
0.0
 10
-8.5487377772
 20
-1.2674815967
 30
0.0
 10
-8.5553931905
 20
-1.2832284263
 30
0.0
 10
-8.5631081975
 20
-1.297982678
 30
0.0
 10
-8.5718102138
 20
-1.3116033717
 30
0.0
 10
-8.5814181258
 20
-1.3239597957
 30
0.0
 10
-8.5918425594
 20
-1.3349323506
 30
0.0
 10
-8.6029864507
 20
-1.3444145521
 30
0.0
 10
-8.6147440722
 20
-1.352311816
 30
0.0
 10
-8.625032401
 20
-1.3575397641
 30
0.0
 10
-8.63343373
 20
-1.360831507
 30
0.0
 10
-8.6397743643
 20
-1.3628474103
 30
0.0
 10
-8.6461783226
 20
-1.3644209518
 30
0.0
 10
-8.652630473
 20
-1.3655471257
 30
0.0
 10
-8.6591129708
 20
-1.3662240374
 30
0.0
 10
-8.6634472571
 20
-1.3663750381
 30
0.0
 10
-8.6656104901
 20
-1.3663750381
 30
0.0
  0
SPLINE
  5
3FB
100
AcDbEntity
  8
0
100
AcDbSpline
 62
7
  6
CONTINUOUS
 70
0
 71
3
 72
15
 73
11
 74
0
 42
0.0000001
 43
0.0000001
 44
0.0000000001
 40
0.0
 40
0.0
 40
0.0
 40
0.0
 40
0.1093848924
 40
0.2247529651
 40
0.3455303054
 40
0.4709316038
 40
0.5999829275
 40
0.7318632405
 40
0.865594525
 40
1.0
 40
1.0
 40
1.0
 40
1.0
 10
-8.5398259294
 20
-1.3985466764
 30
0.0
 10
-8.5391220488
 20
-1.3991206785
 30
0.0
 10
-8.5377847403
 20
-1.4004372737
 30
0.0
 10
-8.5360635958
 20
-1.4027434068
 30
0.0
 10
-8.5345916337
 20
-1.4053683765
 30
0.0
 10
-8.5333792916
 20
-1.4082446486
 30
0.0
 10
-8.5324331187
 20
-1.4113148435
 30
0.0
 10
-8.5317564936
 20
-1.414525592
 30
0.0
 10
-8.5313506836
 20
-1.4178258482
 30
0.0
 10
-8.5312602016
 20
-1.4200533231
 30
0.0
 10
-8.5312602016
 20
-1.4211693308
 30
0.0
  0
SPLINE
  5
3FC
100
AcDbEntity
  8
0
100
AcDbSpline
 62
7
  6
CONTINUOUS
 70
0
 71
3
 72
15
 73
11
 74
0
 42
0.0000001
 43
0.0000001
 44
0.0000000001
 40
0.0
 40
0.0
 40
0.0
 40
0.0
 40
0.1017444407
 40
0.2096088461
 40
0.3245474155
 40
0.4470525223
 40
0.5769030157
 40
0.7131920169
 40
0.8546475917
 40
1.0
 40
1.0
 40
1.0
 40
1.0
 10
-8.6535645727
 20
-0.9628686872
 30
0.0
 10
-8.6498748499
 20
-0.9673876563
 30
0.0
 10
-8.6420570494
 20
-0.9765233778
 30
0.0
 10
-8.6292601779
 20
-0.9900454702
 30
0.0
 10
-8.6149038464
 20
-1.0036945712
 30
0.0
 10
-8.5988980394
 20
-1.017396142
 30
0.0
 10
-8.5812885205
 20
-1.0310651563
 30
0.0
 10
-8.5622493471
 20
-1.0446289852
 30
0.0
 10
-8.5420292096
 20
-1.0580404047
 30
0.0
 10
-8.528089667
 20
-1.0667693546
 30
0.0
 10
-8.5209820512
 20
-1.0711218626
 30
0.0
  0
SPLINE
  5
3FD
100
AcDbEntity
  8
0
100
AcDbSpline
 62
7
  6
CONTINUOUS
 70
0
 71
3
 72
15
 73
11
 74
0
 42
0.0000001
 43
0.0000001
 44
0.0000000001
 40
0.0
 40
0.0
 40
0.0
 40
0.0
 40
0.1093848924
 40
0.2247529651
 40
0.3455303054
 40
0.4709316038
 40
0.5999829275
 40
0.7318632405
 40
0.865594525
 40
1.0
 40
1.0
 40
1.0
 40
1.0
 10
-8.5398259294
 20
-0.9602033998
 30
0.0
 10
-8.5391220488
 20
-0.9596293977
 30
0.0
 10
-8.5377847403
 20
-0.9583128025
 30
0.0
 10
-8.5360635958
 20
-0.9560066694
 30
0.0
 10
-8.5345916337
 20
-0.9533816997
 30
0.0
 10
-8.5333792916
 20
-0.9505054276
 30
0.0
 10
-8.5324331187
 20
-0.9474352327
 30
0.0
 10
-8.5317564936
 20
-0.9442244842
 30
0.0
 10
-8.5313506836
 20
-0.940924228
 30
0.0
 10
-8.5312602016
 20
-0.9386967531
 30
0.0
 10
-8.5312602016
 20
-0.9375807454
 30
0.0
  0
SPLINE
  5
3FE
100
AcDbEntity
  8
0
100
AcDbSpline
 62
7
  6
CONTINUOUS
 70
0
 71
3
 72
45
 73
41
 74
0
 42
0.0000001
 43
0.0000001
 44
0.0000000001
 40
0.0
 40
0.0
 40
0.0
 40
0.0
 40
0.0128513267
 40
0.0257402646
 40
0.038691441
 40
0.051730823
 40
0.0648871307
 40
0.0781878531
 40
0.1053036192
 40
0.1332505709
 40
0.1621439873
 40
0.1920543393
 40
0.2230077703
 40
0.2549895349
 40
0.287948694
 40
0.3218028922
 40
0.3564428168
 40
0.3917370601
 40
0.4275370898
 40
0.4636814477
 40
0.5
 40
0.5363185523
 40
0.5724629102
 40
0.6082629399
 40
0.6435571832
 40
0.6781971078
 40
0.712051306
 40
0.7450104651
 40
0.7769922297
 40
0.8079456607
 40
0.8378560127
 40
0.8667494291
 40
0.8946963808
 40
0.9218121469
 40
0.9351128693
 40
0.948269177
 40
0.961308559
 40
0.9742597354
 40
0.9871486733
 40
1.0
 40
1.0
 40
1.0
 40
1.0
 10
-8.6656104901
 20
-1.3663750381
 30
0.0
 10
-8.667773723
 20
-1.3663750381
 30
0.0
 10
-8.6721080093
 20
-1.3662240374
 30
0.0
 10
-8.6785905071
 20
-1.3655471257
 30
0.0
 10
-8.6850426575
 20
-1.3644209518
 30
0.0
 10
-8.6914466158
 20
-1.3628474103
 30
0.0
 10
-8.6977872501
 20
-1.360831507
 30
0.0
 10
-8.7061885791
 20
-1.3575397641
 30
0.0
 10
-8.7164769079
 20
-1.352311816
 30
0.0
 10
-8.7282345294
 20
-1.3444145521
 30
0.0
 10
-8.7393784207
 20
-1.3349323506
 30
0.0
 10
-8.7498028543
 20
-1.3239597957
 30
0.0
 10
-8.7594107663
 20
-1.3116033717
 30
0.0
 10
-8.7681127826
 20
-1.297982678
 30
0.0
 10
-8.7758277896
 20
-1.2832284263
 30
0.0
 10
-8.7824832029
 20
-1.2674815967
 30
0.0
 10
-8.7880162834
 20
-1.2508926418
 30
0.0
 10
-8.7923751974
 20
-1.2336201805
 30
0.0
 10
-8.7955186987
 20
-1.2158291958
 30
0.0
 10
-8.7974166226
 20
-1.1976896613
 30
0.0
 10
-8.7980512033
 20
-1.1793750381
 30
0.0
 10
-8.7974166226
 20
-1.1610604149
 30
0.0
 10
-8.7955186987
 20
-1.1429208804
 30
0.0
 10
-8.7923751974
 20
-1.1251298957
 30
0.0
 10
-8.7880162834
 20
-1.1078574344
 30
0.0
 10
-8.7824832029
 20
-1.0912684795
 30
0.0
 10
-8.7758277896
 20
-1.0755216499
 30
0.0
 10
-8.7681127826
 20
-1.0607673982
 30
0.0
 10
-8.7594107663
 20
-1.0471467045
 30
0.0
 10
-8.7498028543
 20
-1.0347902805
 30
0.0
 10
-8.7393784207
 20
-1.0238177256
 30
0.0
 10
-8.7282345294
 20
-1.0143355241
 30
0.0
 10
-8.7164769079
 20
-1.0064382602
 30
0.0
 10
-8.7061885791
 20
-1.0012103121
 30
0.0
 10
-8.6977872501
 20
-0.9979185692
 30
0.0
 10
-8.6914466158
 20
-0.9959026659
 30
0.0
 10
-8.6850426575
 20
-0.9943291244
 30
0.0
 10
-8.6785905071
 20
-0.9932029505
 30
0.0
 10
-8.6721080093
 20
-0.9925260388
 30
0.0
 10
-8.667773723
 20
-0.9923750381
 30
0.0
 10
-8.6656104901
 20
-0.9923750381
 30
0.0
  0
SPLINE
  5
3FF
100
AcDbEntity
  8
0
100
AcDbSpline
 62
7
  6
CONTINUOUS
 70
0
 71
3
 72
9
 73
5
 74
0
 42
0.0000001
 43
0.0000001
 44
0.0000000001
 40
0.0
 40
0.0
 40
0.0
 40
0.0
 40
0.5084663508
 40
1.0
 40
1.0
 40
1.0
 40
1.0
 10
-8.6535645727
 20
0.9041186109
 30
0.0
 10
-8.661892046
 20
0.9092181261
 30
0.0
 10
-8.6781535163
 20
0.9194390595
 30
0.0
 10
-8.6940816479
 20
0.9301773779
 30
0.0
 10
-8.7017928378
 20
0.9356220485
 30
0.0
  0
SPLINE
  5
400
100
AcDbEntity
  8
0
100
AcDbSpline
 62
7
  6
CONTINUOUS
 70
0
 71
3
 72
20
 73
16
 74
0
 42
0.0000001
 43
0.0000001
 44
0.0000000001
 40
0.0
 40
0.0
 40
0.0
 40
0.0
 40
0.1385985849
 40
0.2725675714
 40
0.4020337648
 40
0.4651966383
 40
0.5273702468
 40
0.5886263382
 40
0.6490469601
 40
0.7087270383
 40
0.7677720097
 40
0.8262958673
 40
0.8844218539
 40
0.9422788188
 40
1.0
 40
1.0
 40
1.0
 40
1.0
 10
-8.3670088773
 20
0.9352293127
 30
0.0
 10
-8.371181384
 20
0.9294272927
 30
0.0
 10
-8.379910162
 20
0.9183800931
 30
0.0
 10
-8.3943188062
 20
0.9034301625
 30
0.0
 10
-8.4072445594
 20
0.8925775091
 30
0.0
 10
-8.4179942341
 20
0.885012866
 30
0.0
 10
-8.426176697
 20
0.879940598
 30
0.0
 10
-8.4345241354
 20
0.8754352233
 30
0.0
 10
-8.4430177509
 20
0.8715083613
 30
0.0
 10
-8.4516372725
 20
0.8681694479
 30
0.0
 10
-8.4603620564
 20
0.8654256622
 30
0.0
 10
-8.4691717979
 20
0.8632850524
 30
0.0
 10
-8.4780454114
 20
0.8617521293
 30
0.0
 10
-8.4869612133
 20
0.8608301683
 30
0.0
 10
-8.4929227938
 20
0.8606252148
 30
0.0
 10
-8.4958990694
 20
0.8606251487
 30
0.0
  0
SPLINE
  5
401
100
AcDbEntity
  8
0
100
AcDbSpline
 62
7
  6
CONTINUOUS
 70
0
 71
3
 72
11
 73
7
 74
0
 42
0.0000001
 43
0.0000001
 44
0.0000000001
 40
0.0
 40
0.0
 40
0.0
 40
0.0
 40
0.2401732686
 40
0.4850365616
 40
0.7374846583
 40
1.0
 40
1.0
 40
1.0
 40
1.0
 10
-8.5467458401
 20
0.9041186109
 30
0.0
 10
-8.5461409703
 20
0.9041186109
 30
0.0
 10
-8.5449165763
 20
0.9039987431
 30
0.0
 10
-8.5431239359
 20
0.9034766601
 30
0.0
 10
-8.5414010502
 20
0.9026238848
 30
0.0
 10
-8.540338299
 20
0.9018711519
 30
0.0
 10
-8.5398259294
 20
0.9014533236
 30
0.0
  0
SPLINE
  5
402
100
AcDbEntity
  8
0
100
AcDbSpline
 62
7
  6
CONTINUOUS
 70
0
 71
3
 72
15
 73
11
 74
0
 42
0.0000001
 43
0.0000001
 44
0.0000000001
 40
0.0
 40
0.0
 40
0.0
 40
0.0
 40
0.119057511
 40
0.2387427078
 40
0.3596605012
 40
0.482372663
 40
0.6073780386
 40
0.7351040355
 40
0.8658915427
 40
1.0
 40
1.0
 40
1.0
 40
1.0
 10
-8.5312544085
 20
0.8606251487
 30
0.0
 10
-8.5357258998
 20
0.8606250494
 30
0.0
 10
-8.5446993226
 20
0.8610882763
 30
0.0
 10
-8.5580683865
 20
0.8631706004
 30
0.0
 10
-8.5712925253
 20
0.8666264657
 30
0.0
 10
-8.5842976111
 20
0.871438162
 30
0.0
 10
-8.5970152
 20
0.8775758786
 30
0.0
 10
-8.6093765555
 20
0.8850076788
 30
0.0
 10
-8.6213169807
 20
0.8936894334
 30
0.0
 10
-8.6288583319
 20
0.900198082
 30
0.0
 10
-8.6325402198
 20
0.9036350446
 30
0.0
  0
SPLINE
  5
403
100
AcDbEntity
  8
0
100
AcDbSpline
 62
7
  6
CONTINUOUS
 70
0
 71
3
 72
20
 73
16
 74
0
 42
0.0000001
 43
0.0000001
 44
0.0000000001
 40
0.0
 40
0.0
 40
0.0
 40
0.0
 40
0.1385985849
 40
0.2725675714
 40
0.4020337648
 40
0.4651966383
 40
0.5273702468
 40
0.5886263382
 40
0.6490469601
 40
0.7087270383
 40
0.7677720097
 40
0.8262958673
 40
0.8844218539
 40
0.9422788188
 40
1.0
 40
1.0
 40
1.0
 40
1.0
 10
-8.4023642163
 20
0.9352293127
 30
0.0
 10
-8.406536723
 20
0.9294272927
 30
0.0
 10
-8.4152655011
 20
0.9183800931
 30
0.0
 10
-8.4296741453
 20
0.9034301625
 30
0.0
 10
-8.4425998984
 20
0.8925775091
 30
0.0
 10
-8.4533495731
 20
0.885012866
 30
0.0
 10
-8.461532036
 20
0.879940598
 30
0.0
 10
-8.4698794745
 20
0.8754352233
 30
0.0
 10
-8.4783730899
 20
0.8715083613
 30
0.0
 10
-8.4869926116
 20
0.8681694479
 30
0.0
 10
-8.4957173954
 20
0.8654256622
 30
0.0
 10
-8.5045271369
 20
0.8632850524
 30
0.0
 10
-8.5134007504
 20
0.8617521293
 30
0.0
 10
-8.5223165523
 20
0.8608301683
 30
0.0
 10
-8.5282781328
 20
0.8606252148
 30
0.0
 10
-8.5312544085
 20
0.8606251487
 30
0.0
  0
SPLINE
  5
404
100
AcDbEntity
  8
0
100
AcDbSpline
 62
7
  6
CONTINUOUS
 70
0
 71
3
 72
15
 73
11
 74
0
 42
0.0000001
 43
0.0000001
 44
0.0000000001
 40
0.0
 40
0.0
 40
0.0
 40
0.0
 40
0.1093848924
 40
0.2247529651
 40
0.3455303054
 40
0.4709316038
 40
0.5999829275
 40
0.7318632405
 40
0.865594525
 40
1.0
 40
1.0
 40
1.0
 40
1.0
 10
-8.5398259294
 20
0.9014533236
 30
0.0
 10
-8.5391220488
 20
0.9008793215
 30
0.0
 10
-8.5377847403
 20
0.8995627263
 30
0.0
 10
-8.5360635958
 20
0.8972565932
 30
0.0
 10
-8.5345916337
 20
0.8946316235
 30
0.0
 10
-8.5333792916
 20
0.8917553514
 30
0.0
 10
-8.5324331187
 20
0.8886851565
 30
0.0
 10
-8.5317564936
 20
0.885474408
 30
0.0
 10
-8.5313506836
 20
0.8821741518
 30
0.0
 10
-8.5312602016
 20
0.8799466769
 30
0.0
 10
-8.5312602016
 20
0.8788306692
 30
0.0
  0
SPLINE
  5
405
100
AcDbEntity
  8
0
100
AcDbSpline
 62
7
  6
CONTINUOUS
 70
0
 71
3
 72
15
 73
11
 74
0
 42
0.0000001
 43
0.0000001
 44
0.0000000001
 40
0.0
 40
0.0
 40
0.0
 40
0.0
 40
0.1453524083
 40
0.2868079831
 40
0.4230969843
 40
0.5529474777
 40
0.6754525845
 40
0.7903911539
 40
0.8982555593
 40
1.0
 40
1.0
 40
1.0
 40
1.0
 10
2.9047526685
 20
-0.9628686872
 30
0.0
 10
2.9118602842
 20
-0.9672211952
 30
0.0
 10
2.9257998268
 20
-0.9759501451
 30
0.0
 10
2.9460199643
 20
-0.9893615645
 30
0.0
 10
2.9650591377
 20
-1.0029253935
 30
0.0
 10
2.9826686566
 20
-1.0165944078
 30
0.0
 10
2.9986744636
 20
-1.0302959786
 30
0.0
 10
3.0130307951
 20
-1.0439450796
 30
0.0
 10
3.0258276666
 20
-1.057467172
 30
0.0
 10
3.0336454671
 20
-1.0666028935
 30
0.0
 10
3.0373351899
 20
-1.0711218626
 30
0.0
  0
SPLINE
  5
406
100
AcDbEntity
  8
0
100
AcDbSpline
 62
7
  6
CONTINUOUS
 70
0
 71
3
 72
19
 73
15
 74
0
 42
0.0000001
 43
0.0000001
 44
0.0000000001
 40
0.0
 40
0.0
 40
0.0
 40
0.0
 40
0.1239135187
 40
0.2486584689
 40
0.3113153546
 40
0.3741210923
 40
0.4370327446
 40
0.5
 40
0.5629672554
 40
0.6258789077
 40
0.6886846454
 40
0.7513415311
 40
0.8760864813
 40
1.0
 40
1.0
 40
1.0
 40
1.0
 10
3.0373351899
 20
-1.0711218626
 30
0.0
 10
3.039137411
 20
-1.0799509068
 30
0.0
 10
3.0424363784
 20
-1.0977353635
 30
0.0
 10
3.0455881896
 20
-1.1201635395
 30
0.0
 10
3.0474218775
 20
-1.1382681876
 30
0.0
 10
3.048427382
 20
-1.1519318547
 30
0.0
 10
3.0490395963
 20
-1.1656414655
 30
0.0
 10
3.0492457069
 20
-1.1793750381
 30
0.0
 10
3.0490395963
 20
-1.1931086107
 30
0.0
 10
3.048427382
 20
-1.2068182215
 30
0.0
 10
3.0474218775
 20
-1.2204818886
 30
0.0
 10
3.0455881896
 20
-1.2385865367
 30
0.0
 10
3.0424363784
 20
-1.2610147127
 30
0.0
 10
3.039137411
 20
-1.2787991694
 30
0.0
 10
3.0373351899
 20
-1.2876282136
 30
0.0
  0
SPLINE
  5
407
100
AcDbEntity
  8
0
100
AcDbSpline
 62
7
  6
CONTINUOUS
 70
0
 71
3
 72
15
 73
11
 74
0
 42
0.0000001
 43
0.0000001
 44
0.0000000001
 40
0.0
 40
0.0
 40
0.0
 40
0.0
 40
0.1017444407
 40
0.2096088461
 40
0.3245474155
 40
0.4470525223
 40
0.5769030157
 40
0.7131920169
 40
0.8546475917
 40
1.0
 40
1.0
 40
1.0
 40
1.0
 10
3.0373351899
 20
-1.2876282136
 30
0.0
 10
3.0336454671
 20
-1.2921471827
 30
0.0
 10
3.0258276666
 20
-1.3012829042
 30
0.0
 10
3.0130307951
 20
-1.3148049966
 30
0.0
 10
2.9986744636
 20
-1.3284540976
 30
0.0
 10
2.9826686566
 20
-1.3421556685
 30
0.0
 10
2.9650591377
 20
-1.3558246827
 30
0.0
 10
2.9460199643
 20
-1.3693885117
 30
0.0
 10
2.9257998268
 20
-1.3827999311
 30
0.0
 10
2.9118602842
 20
-1.3915288811
 30
0.0
 10
2.9047526685
 20
-1.3958813891
 30
0.0
  0
SPLINE
  5
408
100
AcDbEntity
  8
0
100
AcDbSpline
 62
7
  6
CONTINUOUS
 70
0
 71
3
 72
15
 73
11
 74
0
 42
0.0000001
 43
0.0000001
 44
0.0000000001
 40
0.0
 40
0.0
 40
0.0
 40
0.0
 40
0.1341084573
 40
0.2648959645
 40
0.3926219614
 40
0.517627337
 40
0.6403394988
 40
0.7612572922
 40
0.880942489
 40
1.0
 40
1.0
 40
1.0
 40
1.0
 10
2.8837283155
 20
-0.9623851208
 30
0.0
 10
2.8800464276
 20
-0.9589481582
 30
0.0
 10
2.8725050764
 20
-0.9524395096
 30
0.0
 10
2.8605646512
 20
-0.943757755
 30
0.0
 10
2.8482032957
 20
-0.9363259548
 30
0.0
 10
2.8354857069
 20
-0.9301882382
 30
0.0
 10
2.822480621
 20
-0.9253765419
 30
0.0
 10
2.8092564822
 20
-0.9219206766
 30
0.0
 10
2.7958874184
 20
-0.9198383525
 30
0.0
 10
2.7869139956
 20
-0.9193751256
 30
0.0
 10
2.7824425042
 20
-0.9193752249
 30
0.0
  0
SPLINE
  5
409
100
AcDbEntity
  8
0
100
AcDbSpline
 62
7
  6
CONTINUOUS
 70
0
 71
3
 72
17
 73
13
 74
0
 42
0.0000001
 43
0.0000001
 44
0.0000000001
 40
0.0
 40
0.0
 40
0.0
 40
0.0
 40
0.1341655017
 40
0.2649905088
 40
0.3927303475
 40
0.4555651072
 40
0.5177644712
 40
0.6404514855
 40
0.7011012981
 40
0.7613669052
 40
0.8810005192
 40
1.0
 40
1.0
 40
1.0
 40
1.0
 10
2.884159277
 20
-1.3959616262
 30
0.0
 10
2.8804672129
 20
-1.3994292199
 30
0.0
 10
2.8729025792
 20
-1.4059958897
 30
0.0
 10
2.8609213389
 20
-1.4147583507
 30
0.0
 10
2.8505212949
 20
-1.4210436572
 30
0.0
 10
2.842029452
 20
-1.4254043983
 30
0.0
 10
2.8335164046
 20
-1.4292826405
 30
0.0
 10
2.8248115565
 20
-1.4325193518
 30
0.0
 10
2.8159737798
 20
-1.4350748316
 30
0.0
 10
2.807130788
 20
-1.4371571548
 30
0.0
 10
2.7959622608
 20
-1.4389060387
 30
0.0
 10
2.7869466601
 20
-1.4393747515
 30
0.0
 10
2.7824540905
 20
-1.4393748513
 30
0.0
  0
SPLINE
  5
40A
100
AcDbEntity
  8
0
100
AcDbSpline
 62
7
  6
CONTINUOUS
 70
0
 71
3
 72
11
 73
7
 74
0
 42
0.0000001
 43
0.0000001
 44
0.0000000001
 40
0.0
 40
0.0
 40
0.0
 40
0.0
 40
0.2401732686
 40
0.4850365616
 40
0.7374846583
 40
1.0
 40
1.0
 40
1.0
 40
1.0
 10
2.7979339359
 20
-1.3958813891
 30
0.0
 10
2.7973290661
 20
-1.3958813891
 30
0.0
 10
2.796104672
 20
-1.3960012569
 30
0.0
 10
2.7943120316
 20
-1.3965233399
 30
0.0
 10
2.792589146
 20
-1.3973761152
 30
0.0
 10
2.7915263947
 20
-1.3981288481
 30
0.0
 10
2.7910140252
 20
-1.3985466764
 30
0.0
  0
SPLINE
  5
40B
100
AcDbEntity
  8
0
100
AcDbSpline
 62
7
  6
CONTINUOUS
 70
0
 71
3
 72
11
 73
7
 74
0
 42
0.0000001
 43
0.0000001
 44
0.0000000001
 40
0.0
 40
0.0
 40
0.0
 40
0.0
 40
0.2401732686
 40
0.4850365616
 40
0.7374846583
 40
1.0
 40
1.0
 40
1.0
 40
1.0
 10
2.7979339359
 20
-0.9628686872
 30
0.0
 10
2.7973290661
 20
-0.9628686872
 30
0.0
 10
2.796104672
 20
-0.9627488193
 30
0.0
 10
2.7943120316
 20
-0.9622267363
 30
0.0
 10
2.792589146
 20
-0.961373961
 30
0.0
 10
2.7915263947
 20
-0.9606212281
 30
0.0
 10
2.7910140252
 20
-0.9602033998
 30
0.0
  0
SPLINE
  5
40C
100
AcDbEntity
  8
0
100
AcDbSpline
 62
7
  6
CONTINUOUS
 70
0
 71
3
 72
23
 73
19
 74
0
 42
0.0000001
 43
0.0000001
 44
0.0000000001
 40
0.0
 40
0.0
 40
0.0
 40
0.0
 40
0.0552200583
 40
0.1106748871
 40
0.1665926736
 40
0.2231878726
 40
0.2806564376
 40
0.3391704851
 40
0.3988763535
 40
0.4598908728
 40
0.5223035786
 40
0.5861741968
 40
0.6515348273
 40
0.7183856123
 40
0.7867085174
 40
0.8564722864
 40
0.9276136373
 40
1.0
 40
1.0
 40
1.0
 40
1.0
 10
2.7470987514
 20
-1.4393748513
 30
0.0
 10
2.7430862674
 20
-1.4393749404
 30
0.0
 10
2.7350392781
 20
-1.4390023446
 30
0.0
 10
2.7230342436
 20
-1.437326726
 30
0.0
 10
2.7111335699
 20
-1.43454289
 30
0.0
 10
2.6993905068
 20
-1.4306630663
 30
0.0
 10
2.6878554963
 20
-1.4257051291
 30
0.0
 10
2.6765781011
 20
-1.4196914899
 30
0.0
 10
2.6656067586
 20
-1.4126485445
 30
0.0
 10
2.6549875978
 20
-1.4046079635
 30
0.0
 10
2.6447662444
 20
-1.3956039763
 30
0.0
 10
2.6349850265
 20
-1.3856764021
 30
0.0
 10
2.625686503
 20
-1.3748672569
 30
0.0
 10
2.6169084024
 20
-1.3632244177
 30
0.0
 10
2.6086889558
 20
-1.3507960033
 30
0.0
 10
2.6010612984
 20
-1.3376347388
 30
0.0
 10
2.5940606602
 20
-1.3237988391
 30
0.0
 10
2.5898641608
 20
-1.3142447113
 30
0.0
 10
2.587876125
 20
-1.3093750381
 30
0.0
  0
SPLINE
  5
40D
100
AcDbEntity
  8
0
100
AcDbSpline
 62
7
  6
CONTINUOUS
 70
0
 71
3
 72
33
 73
29
 74
0
 42
0.0000001
 43
0.0000001
 44
0.0000000001
 40
0.0
 40
0.0
 40
0.0
 40
0.0
 40
0.0248617031
 40
0.0498293083
 40
0.0750052916
 40
0.1004865152
 40
0.1263607673
 40
0.1527060222
 40
0.1795875392
 40
0.2070587667
 40
0.2351590604
 40
0.2639158084
 40
0.293342707
 40
0.3234424266
 40
0.3855854026
 40
0.4501825721
 40
0.5169033937
 40
0.585309275
 40
0.6548820701
 40
0.7250511664
 40
0.7601826356
 40
0.7952393726
 40
0.8301469022
 40
0.8648309296
 40
0.8992215798
 40
0.9332580601
 40
0.9668772299
 40
1.0
 40
1.0
 40
1.0
 40
1.0
 10
2.7470871652
 20
-0.9193752249
 30
0.0
 10
2.7430748622
 20
-0.919375314
 30
0.0
 10
2.7350282259
 20
-0.9197487676
 30
0.0
 10
2.7230238609
 20
-0.9214254324
 30
0.0
 10
2.7111237273
 20
-0.9242097421
 30
0.0
 10
2.6993815262
 20
-0.9280907343
 30
0.0
 10
2.6878469426
 20
-0.9330486922
 30
0.0
 10
2.6765706325
 20
-0.9390634246
 30
0.0
 10
2.6655995164
 20
-0.9461060434
 30
0.0
 10
2.6549816358
 20
-0.9541476055
 30
0.0
 10
2.6447603669
 20
-0.9631510861
 30
0.0
 10
2.6349806287
 20
-0.9730791573
 30
0.0
 10
2.6256817072
 20
-0.9838878288
 30
0.0
 10
2.6138554556
 20
-0.9995768145
 30
0.0
 10
2.6005342846
 20
-1.0211762655
 30
0.0
 10
2.5872273587
 20
-1.0494860991
 30
0.0
 10
2.5766408851
 20
-1.0799904017
 30
0.0
 10
2.5689515372
 20
-1.1121721826
 30
0.0
 10
2.5642862341
 20
-1.1454874155
 30
0.0
 10
2.5629833133
 20
-1.1737232709
 30
0.0
 10
2.5635074028
 20
-1.1963753286
 30
0.0
 10
2.5646847784
 20
-1.2133017045
 30
0.0
 10
2.5666422739
 20
-1.2300826683
 30
0.0
 10
2.5693698271
 20
-1.2466470902
 30
0.0
 10
2.5728576428
 20
-1.2629246269
 30
0.0
 10
2.5770901918
 20
-1.2788471945
 30
0.0
 10
2.5820501567
 20
-1.2943434202
 30
0.0
 10
2.5858557105
 20
-1.3044260535
 30
0.0
 10
2.587876125
 20
-1.3093750381
 30
0.0
  0
SPLINE
  5
40E
100
AcDbEntity
  8
0
100
AcDbSpline
 62
7
  6
CONTINUOUS
 70
0
 71
3
 72
17
 73
13
 74
0
 42
0.0000001
 43
0.0000001
 44
0.0000000001
 40
0.0
 40
0.0
 40
0.0
 40
0.0
 40
0.0507521541
 40
0.1062279752
 40
0.1656818145
 40
0.2283685672
 40
0.3603916239
 40
0.4965882669
 40
0.6320482742
 40
0.7629485808
 40
0.8864675634
 40
1.0
 40
1.0
 40
1.0
 40
1.0
 10
2.6653514144
 20
-1.2876282136
 30
0.0
 10
2.664777111
 20
-1.2876282136
 30
0.0
 10
2.6635748249
 20
-1.2876828107
 30
0.0
 10
2.6617111381
 20
-1.2878969593
 30
0.0
 10
2.6597304796
 20
-1.2882447035
 30
0.0
 10
2.6569258486
 20
-1.2888861681
 30
0.0
 10
2.6533363629
 20
-1.2899686865
 30
0.0
 10
2.6490686435
 20
-1.2916071248
 30
0.0
 10
2.6449315565
 20
-1.2935214602
 30
0.0
 10
2.6410523686
 20
-1.2956295852
 30
0.0
 10
2.6375325193
 20
-1.2978594266
 30
0.0
 10
2.6353752734
 20
-1.2994596593
 30
0.0
 10
2.6343801374
 20
-1.3002721845
 30
0.0
  0
SPLINE
  5
40F
100
AcDbEntity
  8
0
100
AcDbSpline
 62
7
  6
CONTINUOUS
 70
0
 71
3
 72
45
 73
41
 74
0
 42
0.0000001
 43
0.0000001
 44
0.0000000001
 40
0.0
 40
0.0
 40
0.0
 40
0.0
 40
0.0128513267
 40
0.0257402646
 40
0.038691441
 40
0.051730823
 40
0.0648871307
 40
0.0781878531
 40
0.1053036192
 40
0.1332505709
 40
0.1621439873
 40
0.1920543393
 40
0.2230077703
 40
0.2549895349
 40
0.287948694
 40
0.3218028922
 40
0.3564428168
 40
0.3917370601
 40
0.4275370898
 40
0.4636814477
 40
0.5
 40
0.5363185523
 40
0.5724629102
 40
0.6082629399
 40
0.6435571832
 40
0.6781971078
 40
0.712051306
 40
0.7450104651
 40
0.7769922297
 40
0.8079456607
 40
0.8378560127
 40
0.8667494291
 40
0.8946963808
 40
0.9218121469
 40
0.9351128693
 40
0.948269177
 40
0.961308559
 40
0.9742597354
 40
0.9871486733
 40
1.0
 40
1.0
 40
1.0
 40
1.0
 10
2.9167985858
 20
-0.9923750381
 30
0.0
 10
2.9189618187
 20
-0.9923750381
 30
0.0
 10
2.923296105
 20
-0.9925260388
 30
0.0
 10
2.9297786028
 20
-0.9932029505
 30
0.0
 10
2.9362307532
 20
-0.9943291244
 30
0.0
 10
2.9426347115
 20
-0.9959026659
 30
0.0
 10
2.9489753458
 20
-0.9979185692
 30
0.0
 10
2.9573766748
 20
-1.0012103121
 30
0.0
 10
2.9676650036
 20
-1.0064382602
 30
0.0
 10
2.9794226251
 20
-1.0143355241
 30
0.0
 10
2.9905665164
 20
-1.0238177256
 30
0.0
 10
3.0009909501
 20
-1.0347902805
 30
0.0
 10
3.010598862
 20
-1.0471467045
 30
0.0
 10
3.0193008783
 20
-1.0607673982
 30
0.0
 10
3.0270158853
 20
-1.0755216499
 30
0.0
 10
3.0336712987
 20
-1.0912684795
 30
0.0
 10
3.0392043792
 20
-1.1078574344
 30
0.0
 10
3.0435632931
 20
-1.1251298957
 30
0.0
 10
3.0467067945
 20
-1.1429208804
 30
0.0
 10
3.0486047183
 20
-1.1610604149
 30
0.0
 10
3.0492392991
 20
-1.1793750381
 30
0.0
 10
3.0486047183
 20
-1.1976896613
 30
0.0
 10
3.0467067945
 20
-1.2158291958
 30
0.0
 10
3.0435632931
 20
-1.2336201805
 30
0.0
 10
3.0392043792
 20
-1.2508926418
 30
0.0
 10
3.0336712987
 20
-1.2674815967
 30
0.0
 10
3.0270158853
 20
-1.2832284263
 30
0.0
 10
3.0193008783
 20
-1.297982678
 30
0.0
 10
3.010598862
 20
-1.3116033717
 30
0.0
 10
3.0009909501
 20
-1.3239597957
 30
0.0
 10
2.9905665164
 20
-1.3349323506
 30
0.0
 10
2.9794226251
 20
-1.3444145521
 30
0.0
 10
2.9676650036
 20
-1.352311816
 30
0.0
 10
2.9573766748
 20
-1.3575397641
 30
0.0
 10
2.9489753458
 20
-1.360831507
 30
0.0
 10
2.9426347115
 20
-1.3628474103
 30
0.0
 10
2.9362307532
 20
-1.3644209518
 30
0.0
 10
2.9297786028
 20
-1.3655471257
 30
0.0
 10
2.923296105
 20
-1.3662240374
 30
0.0
 10
2.9189618187
 20
-1.3663750381
 30
0.0
 10
2.9167985858
 20
-1.3663750381
 30
0.0
  0
SPLINE
  5
410
100
AcDbEntity
  8
0
100
AcDbSpline
 62
7
  6
CONTINUOUS
 70
0
 71
3
 72
17
 73
13
 74
0
 42
0.0000001
 43
0.0000001
 44
0.0000000001
 40
0.0
 40
0.0
 40
0.0
 40
0.0
 40
0.0507521541
 40
0.1062279752
 40
0.1656818145
 40
0.2283685672
 40
0.3603916239
 40
0.4965882669
 40
0.6320482742
 40
0.7629485808
 40
0.8864675634
 40
1.0
 40
1.0
 40
1.0
 40
1.0
 10
2.6653514144
 20
-1.0711218626
 30
0.0
 10
2.664777111
 20
-1.0711218626
 30
0.0
 10
2.6635748249
 20
-1.0710672655
 30
0.0
 10
2.6617111381
 20
-1.0708531169
 30
0.0
 10
2.6597304796
 20
-1.0705053727
 30
0.0
 10
2.6569258486
 20
-1.0698639081
 30
0.0
 10
2.6533363629
 20
-1.0687813897
 30
0.0
 10
2.6490686435
 20
-1.0671429514
 30
0.0
 10
2.6449315565
 20
-1.065228616
 30
0.0
 10
2.6410523686
 20
-1.063120491
 30
0.0
 10
2.6375325193
 20
-1.0608906496
 30
0.0
 10
2.6353752734
 20
-1.0592904169
 30
0.0
 10
2.6343801374
 20
-1.0584778917
 30
0.0
  0
SPLINE
  5
411
100
AcDbEntity
  8
0
100
AcDbSpline
 62
7
  6
CONTINUOUS
 70
0
 71
3
 72
15
 73
11
 74
0
 42
0.0000001
 43
0.0000001
 44
0.0000000001
 40
0.0
 40
0.0
 40
0.0
 40
0.0
 40
0.1017444407
 40
0.2096088461
 40
0.3245474155
 40
0.4470525223
 40
0.5769030157
 40
0.7131920169
 40
0.8546475917
 40
1.0
 40
1.0
 40
1.0
 40
1.0
 10
2.9047526685
 20
-1.3958813891
 30
0.0
 10
2.9010629456
 20
-1.3913624199
 30
0.0
 10
2.8932451452
 20
-1.3822266985
 30
0.0
 10
2.8804482736
 20
-1.368704606
 30
0.0
 10
2.8660919421
 20
-1.355055505
 30
0.0
 10
2.8500861352
 20
-1.3413539342
 30
0.0
 10
2.8324766162
 20
-1.3276849199
 30
0.0
 10
2.8134374428
 20
-1.314121091
 30
0.0
 10
2.7932173054
 20
-1.3007096715
 30
0.0
 10
2.7792777628
 20
-1.2919807216
 30
0.0
 10
2.772170147
 20
-1.2876282136
 30
0.0
  0
SPLINE
  5
412
100
AcDbEntity
  8
0
100
AcDbSpline
 62
7
  6
CONTINUOUS
 70
0
 71
3
 72
45
 73
41
 74
0
 42
0.0000001
 43
0.0000001
 44
0.0000000001
 40
0.0
 40
0.0
 40
0.0
 40
0.0
 40
0.0128513267
 40
0.0257402646
 40
0.038691441
 40
0.051730823
 40
0.0648871307
 40
0.0781878531
 40
0.1053036192
 40
0.1332505709
 40
0.1621439873
 40
0.1920543393
 40
0.2230077703
 40
0.2549895349
 40
0.287948694
 40
0.3218028922
 40
0.3564428168
 40
0.3917370601
 40
0.4275370898
 40
0.4636814477
 40
0.5
 40
0.5363185523
 40
0.5724629102
 40
0.6082629399
 40
0.6435571832
 40
0.6781971078
 40
0.712051306
 40
0.7450104651
 40
0.7769922297
 40
0.8079456607
 40
0.8378560127
 40
0.8667494291
 40
0.8946963808
 40
0.9218121469
 40
0.9351128693
 40
0.948269177
 40
0.961308559
 40
0.9742597354
 40
0.9871486733
 40
1.0
 40
1.0
 40
1.0
 40
1.0
 10
2.9167985858
 20
-1.3663750381
 30
0.0
 10
2.9146353529
 20
-1.3663750381
 30
0.0
 10
2.9103010665
 20
-1.3662240374
 30
0.0
 10
2.9038185687
 20
-1.3655471257
 30
0.0
 10
2.8973664183
 20
-1.3644209518
 30
0.0
 10
2.89096246
 20
-1.3628474103
 30
0.0
 10
2.8846218257
 20
-1.360831507
 30
0.0
 10
2.8762204968
 20
-1.3575397641
 30
0.0
 10
2.865932168
 20
-1.352311816
 30
0.0
 10
2.8541745465
 20
-1.3444145521
 30
0.0
 10
2.8430306552
 20
-1.3349323506
 30
0.0
 10
2.8326062215
 20
-1.3239597957
 30
0.0
 10
2.8229983095
 20
-1.3116033717
 30
0.0
 10
2.8142962933
 20
-1.297982678
 30
0.0
 10
2.8065812863
 20
-1.2832284263
 30
0.0
 10
2.7999258729
 20
-1.2674815967
 30
0.0
 10
2.7943927924
 20
-1.2508926418
 30
0.0
 10
2.7900338784
 20
-1.2336201805
 30
0.0
 10
2.7868903771
 20
-1.2158291958
 30
0.0
 10
2.7849924532
 20
-1.1976896613
 30
0.0
 10
2.7843578725
 20
-1.1793750381
 30
0.0
 10
2.7849924532
 20
-1.1610604149
 30
0.0
 10
2.7868903771
 20
-1.1429208804
 30
0.0
 10
2.7900338784
 20
-1.1251298957
 30
0.0
 10
2.7943927924
 20
-1.1078574344
 30
0.0
 10
2.7999258729
 20
-1.0912684795
 30
0.0
 10
2.8065812863
 20
-1.0755216499
 30
0.0
 10
2.8142962933
 20
-1.0607673982
 30
0.0
 10
2.8229983095
 20
-1.0471467045
 30
0.0
 10
2.8326062215
 20
-1.0347902805
 30
0.0
 10
2.8430306552
 20
-1.0238177256
 30
0.0
 10
2.8541745465
 20
-1.0143355241
 30
0.0
 10
2.865932168
 20
-1.0064382602
 30
0.0
 10
2.8762204968
 20
-1.0012103121
 30
0.0
 10
2.8846218257
 20
-0.9979185692
 30
0.0
 10
2.89096246
 20
-0.9959026659
 30
0.0
 10
2.8973664183
 20
-0.9943291244
 30
0.0
 10
2.9038185687
 20
-0.9932029505
 30
0.0
 10
2.9103010665
 20
-0.9925260388
 30
0.0
 10
2.9146353529
 20
-0.9923750381
 30
0.0
 10
2.9167985858
 20
-0.9923750381
 30
0.0
  0
SPLINE
  5
413
100
AcDbEntity
  8
0
100
AcDbSpline
 62
7
  6
CONTINUOUS
 70
0
 71
3
 72
19
 73
15
 74
0
 42
0.0000001
 43
0.0000001
 44
0.0000000001
 40
0.0
 40
0.0
 40
0.0
 40
0.0
 40
0.1239135187
 40
0.2486584689
 40
0.3113153546
 40
0.3741210923
 40
0.4370327446
 40
0.5
 40
0.5629672554
 40
0.6258789077
 40
0.6886846454
 40
0.7513415311
 40
0.8760864813
 40
1.0
 40
1.0
 40
1.0
 40
1.0
 10
2.772170147
 20
-1.2876282136
 30
0.0
 10
2.7739723681
 20
-1.2787991694
 30
0.0
 10
2.7772713355
 20
-1.2610147127
 30
0.0
 10
2.7804231467
 20
-1.2385865367
 30
0.0
 10
2.7822568346
 20
-1.2204818886
 30
0.0
 10
2.783262339
 20
-1.2068182215
 30
0.0
 10
2.7838745534
 20
-1.1931086107
 30
0.0
 10
2.7840806639
 20
-1.1793750381
 30
0.0
 10
2.7838745534
 20
-1.1656414655
 30
0.0
 10
2.783262339
 20
-1.1519318547
 30
0.0
 10
2.7822568346
 20
-1.1382681876
 30
0.0
 10
2.7804231467
 20
-1.1201635395
 30
0.0
 10
2.7772713355
 20
-1.0977353635
 30
0.0
 10
2.7739723681
 20
-1.0799509068
 30
0.0
 10
2.772170147
 20
-1.0711218626
 30
0.0
  0
SPLINE
  5
414
100
AcDbEntity
  8
0
100
AcDbSpline
 62
7
  6
CONTINUOUS
 70
0
 71
3
 72
21
 73
17
 74
0
 42
0.0000001
 43
0.0000001
 44
0.0000000001
 40
0.0
 40
0.0
 40
0.0
 40
0.0
 40
0.0566618503
 40
0.1134977482
 40
0.1706786381
 40
0.2283672895
 40
0.2867171675
 40
0.3458675365
 40
0.4059430179
 40
0.4670516685
 40
0.5292822755
 40
0.5927076509
 40
0.7232805692
 40
0.7905388518
 40
0.8590958702
 40
1.0
 40
1.0
 40
1.0
 40
1.0
 10
2.7824540905
 20
-1.4393748513
 30
0.0
 10
2.7790460321
 20
-1.439374927
 30
0.0
 10
2.7722164127
 20
-1.4391064236
 30
0.0
 10
2.7620117898
 20
-1.437898802
 30
0.0
 10
2.7518709227
 20
-1.4358894753
 30
0.0
 10
2.7418260029
 20
-1.4330865832
 30
0.0
 10
2.7319087406
 20
-1.4294972481
 30
0.0
 10
2.7221494686
 20
-1.4251347393
 30
0.0
 10
2.7125786368
 20
-1.4200121036
 30
0.0
 10
2.7032260868
 20
-1.4141456111
 30
0.0
 10
2.6941194408
 20
-1.4075543689
 30
0.0
 10
2.6822317861
 20
-1.397733325
 30
0.0
 10
2.6710683344
 20
-1.3866120622
 30
0.0
 10
2.6607076499
 20
-1.374382203
 30
0.0
 10
2.6506538474
 20
-1.3611096281
 30
0.0
 10
2.6438546714
 20
-1.3504693015
 30
0.0
 10
2.6396395803
 20
-1.3431168375
 30
0.0
  0
SPLINE
  5
415
100
AcDbEntity
  8
0
100
AcDbSpline
 62
7
  6
CONTINUOUS
 70
0
 71
3
 72
9
 73
5
 74
0
 42
0.0000001
 43
0.0000001
 44
0.0000000001
 40
0.0
 40
0.0
 40
0.0
 40
0.0
 40
0.4946307613
 40
1.0
 40
1.0
 40
1.0
 40
1.0
 10
2.6396395803
 20
-1.3431168375
 30
0.0
 10
2.6365611699
 20
-1.3377471072
 30
0.0
 10
2.6307183999
 20
-1.3266690294
 30
0.0
 10
2.6256216859
 20
-1.3152298621
 30
0.0
 10
2.6232314641
 20
-1.3093750381
 30
0.0
  0
SPLINE
  5
416
100
AcDbEntity
  8
0
100
AcDbSpline
 62
7
  6
CONTINUOUS
 70
0
 71
3
 72
15
 73
11
 74
0
 42
0.0000001
 43
0.0000001
 44
0.0000000001
 40
0.0
 40
0.0
 40
0.0
 40
0.0
 40
0.1453524083
 40
0.2868079831
 40
0.4230969843
 40
0.5529474777
 40
0.6754525845
 40
0.7903911539
 40
0.8982555593
 40
1.0
 40
1.0
 40
1.0
 40
1.0
 10
2.772170147
 20
-1.0711218626
 30
0.0
 10
2.7792777628
 20
-1.0667693546
 30
0.0
 10
2.7932173054
 20
-1.0580404047
 30
0.0
 10
2.8134374428
 20
-1.0446289852
 30
0.0
 10
2.8324766162
 20
-1.0310651563
 30
0.0
 10
2.8500861352
 20
-1.017396142
 30
0.0
 10
2.8660919421
 20
-1.0036945712
 30
0.0
 10
2.8804482736
 20
-0.9900454702
 30
0.0
 10
2.8932451452
 20
-0.9765233778
 30
0.0
 10
2.9010629456
 20
-0.9673876563
 30
0.0
 10
2.9047526685
 20
-0.9628686872
 30
0.0
  0
SPLINE
  5
417
100
AcDbEntity
  8
0
100
AcDbSpline
 62
7
  6
CONTINUOUS
 70
0
 71
3
 72
20
 73
16
 74
0
 42
0.0000001
 43
0.0000001
 44
0.0000000001
 40
0.0
 40
0.0
 40
0.0
 40
0.0
 40
0.0566137342
 40
0.1134039531
 40
0.1705427511
 40
0.2281953963
 40
0.2865160793
 40
0.345645426
 40
0.4057094376
 40
0.4668152743
 40
0.5290540647
 40
0.5924965055
 40
0.7231290236
 40
0.8589841251
 40
1.0
 40
1.0
 40
1.0
 40
1.0
 10
2.7824425042
 20
-0.9193752249
 30
0.0
 10
2.7790139805
 20
-0.919375301
 30
0.0
 10
2.7721431494
 20
-0.9196475507
 30
0.0
 10
2.7618776665
 20
-0.9208713827
 30
0.0
 10
2.751676815
 20
-0.922904863
 30
0.0
 10
2.7415741417
 20
-0.9257431699
 30
0.0
 10
2.7316010891
 20
-0.9293757441
 30
0.0
 10
2.7217890268
 20
-0.9337909226
 30
0.0
 10
2.7121691658
 20
-0.938975246
 30
0.0
 10
2.7027707051
 20
-0.9449104806
 30
0.0
 10
2.6936236768
 20
-0.9515796353
 30
0.0
 10
2.6816857979
 20
-0.9615146716
 30
0.0
 10
2.6675505913
 20
-0.9757103641
 30
0.0
 10
2.6522095719
 20
-0.9950991505
 30
0.0
 10
2.6432278241
 20
-1.0092984842
 30
0.0
 10
2.6390158937
 20
-1.0167274631
 30
0.0
  0
SPLINE
  5
418
100
AcDbEntity
  8
0
100
AcDbSpline
 62
7
  6
CONTINUOUS
 70
0
 71
3
 72
14
 73
10
 74
0
 42
0.0000001
 43
0.0000001
 44
0.0000000001
 40
0.0
 40
0.0
 40
0.0
 40
0.0
 40
0.2381042876
 40
0.3610735831
 40
0.4861790505
 40
0.6130445436
 40
0.7412619196
 40
0.8703974319
 40
1.0
 40
1.0
 40
1.0
 40
1.0
 10
2.6390158937
 20
-1.0167274631
 30
0.0
 10
2.6324026304
 20
-1.0283918992
 30
0.0
 10
2.6236983748
 20
-1.046866542
 30
0.0
 10
2.6145538104
 20
-1.07268509
 30
0.0
 10
2.6088071143
 20
-1.093019472
 30
0.0
 10
2.6042899719
 20
-1.1139612211
 30
0.0
 10
2.6010328745
 20
-1.1353655898
 30
0.0
 10
2.5990599839
 20
-1.157079782
 30
0.0
 10
2.5986091197
 20
-1.1716537473
 30
0.0
 10
2.5986008138
 20
-1.1789522554
 30
0.0
  0
SPLINE
  5
419
100
AcDbEntity
  8
0
100
AcDbSpline
 62
7
  6
CONTINUOUS
 70
0
 71
3
 72
13
 73
9
 74
0
 42
0.0000001
 43
0.0000001
 44
0.0000000001
 40
0.0
 40
0.0
 40
0.0
 40
0.0
 40
0.1277988676
 40
0.2553149622
 40
0.445452709
 40
0.6334695907
 40
0.8185951084
 40
1.0
 40
1.0
 40
1.0
 40
1.0
 10
2.59860174
 20
-1.1802957918
 30
0.0
 10
2.5986159119
 20
-1.1859268928
 30
0.0
 10
2.5989024681
 20
-1.1971778329
 30
0.0
 10
2.6003050493
 20
-1.2167613461
 30
0.0
 10
2.6031810174
 20
-1.2388754589
 30
0.0
 10
2.6081153882
 20
-1.2632210718
 30
0.0
 10
2.6146997397
 20
-1.2867737272
 30
0.0
 10
2.6202103463
 20
-1.301974841
 30
0.0
 10
2.6232314641
 20
-1.3093750381
 30
0.0
  0
SPLINE
  5
41A
100
AcDbEntity
  8
0
100
AcDbSpline
 62
7
  6
CONTINUOUS
 70
0
 71
3
 72
15
 73
11
 74
0
 42
0.0000001
 43
0.0000001
 44
0.0000000001
 40
0.0
 40
0.0
 40
0.0
 40
0.0
 40
0.1093848924
 40
0.2247529651
 40
0.3455303054
 40
0.4709316038
 40
0.5999829275
 40
0.7318632405
 40
0.865594525
 40
1.0
 40
1.0
 40
1.0
 40
1.0
 10
2.7910140252
 20
-1.3985466764
 30
0.0
 10
2.7903101446
 20
-1.3991206785
 30
0.0
 10
2.788972836
 20
-1.4004372737
 30
0.0
 10
2.7872516916
 20
-1.4027434068
 30
0.0
 10
2.7857797295
 20
-1.4053683765
 30
0.0
 10
2.7845673873
 20
-1.4082446486
 30
0.0
 10
2.7836212144
 20
-1.4113148435
 30
0.0
 10
2.7829445893
 20
-1.414525592
 30
0.0
 10
2.7825387794
 20
-1.4178258482
 30
0.0
 10
2.7824482974
 20
-1.4200533231
 30
0.0
 10
2.7824482974
 20
-1.4211693308
 30
0.0
  0
SPLINE
  5
41B
100
AcDbEntity
  8
0
100
AcDbSpline
 62
7
  6
CONTINUOUS
 70
0
 71
3
 72
15
 73
11
 74
0
 42
0.0000001
 43
0.0000001
 44
0.0000000001
 40
0.0
 40
0.0
 40
0.0
 40
0.0
 40
0.1093848924
 40
0.2247529651
 40
0.3455303054
 40
0.4709316038
 40
0.5999829275
 40
0.7318632405
 40
0.865594525
 40
1.0
 40
1.0
 40
1.0
 40
1.0
 10
2.7910140252
 20
-0.9602033998
 30
0.0
 10
2.7903101446
 20
-0.9596293977
 30
0.0
 10
2.788972836
 20
-0.9583128025
 30
0.0
 10
2.7872516916
 20
-0.9560066694
 30
0.0
 10
2.7857797295
 20
-0.9533816997
 30
0.0
 10
2.7845673873
 20
-0.9505054276
 30
0.0
 10
2.7836212144
 20
-0.9474352327
 30
0.0
 10
2.7829445893
 20
-0.9442244842
 30
0.0
 10
2.7825387794
 20
-0.940924228
 30
0.0
 10
2.7824482974
 20
-0.9386967531
 30
0.0
 10
2.7824482974
 20
-0.9375807454
 30
0.0
  0
SPLINE
  5
41C
100
AcDbEntity
  8
0
100
AcDbSpline
 62
7
  6
CONTINUOUS
 70
0
 71
3
 72
9
 73
5
 74
0
 42
0.0000001
 43
0.0000001
 44
0.0000000001
 40
0.0
 40
0.0
 40
0.0
 40
0.0
 40
0.4915336492
 40
1.0
 40
1.0
 40
1.0
 40
1.0
 10
2.9529809336
 20
0.9356220485
 30
0.0
 10
2.9452697437
 20
0.9301773779
 30
0.0
 10
2.929341612
 20
0.9194390595
 30
0.0
 10
2.9130801418
 20
0.9092181261
 30
0.0
 10
2.9047526685
 20
0.9041186109
 30
0.0
  0
SPLINE
  5
41D
100
AcDbEntity
  8
0
100
AcDbSpline
 62
7
  6
CONTINUOUS
 70
0
 71
3
 72
17
 73
13
 74
0
 42
0.0000001
 43
0.0000001
 44
0.0000000001
 40
0.0
 40
0.0
 40
0.0
 40
0.0
 40
0.1341655017
 40
0.2649905088
 40
0.3927303475
 40
0.4555651072
 40
0.5177644712
 40
0.6404514855
 40
0.7011012981
 40
0.7613669052
 40
0.8810005192
 40
1.0
 40
1.0
 40
1.0
 40
1.0
 10
2.884159277
 20
0.9040383738
 30
0.0
 10
2.8804672129
 20
0.9005707801
 30
0.0
 10
2.8729025792
 20
0.8940041103
 30
0.0
 10
2.8609213389
 20
0.8852416493
 30
0.0
 10
2.8505212949
 20
0.8789563428
 30
0.0
 10
2.842029452
 20
0.8745956017
 30
0.0
 10
2.8335164046
 20
0.8707173595
 30
0.0
 10
2.8248115565
 20
0.8674806482
 30
0.0
 10
2.8159737798
 20
0.8649251684
 30
0.0
 10
2.807130788
 20
0.8628428452
 30
0.0
 10
2.7959622608
 20
0.8610939613
 30
0.0
 10
2.7869466601
 20
0.8606252485
 30
0.0
 10
2.7824540905
 20
0.8606251487
 30
0.0
  0
SPLINE
  5
41E
100
AcDbEntity
  8
0
100
AcDbSpline
 62
7
  6
CONTINUOUS
 70
0
 71
3
 72
11
 73
7
 74
0
 42
0.0000001
 43
0.0000001
 44
0.0000000001
 40
0.0
 40
0.0
 40
0.0
 40
0.0
 40
0.2401732686
 40
0.4850365616
 40
0.7374846583
 40
1.0
 40
1.0
 40
1.0
 40
1.0
 10
2.7979339359
 20
0.9041186109
 30
0.0
 10
2.7973290661
 20
0.9041186109
 30
0.0
 10
2.796104672
 20
0.9039987431
 30
0.0
 10
2.7943120316
 20
0.9034766601
 30
0.0
 10
2.792589146
 20
0.9026238848
 30
0.0
 10
2.7915263947
 20
0.9018711519
 30
0.0
 10
2.7910140252
 20
0.9014533236
 30
0.0
  0
SPLINE
  5
41F
100
AcDbEntity
  8
0
100
AcDbSpline
 62
7
  6
CONTINUOUS
 70
0
 71
3
 72
19
 73
15
 74
0
 42
0.0000001
 43
0.0000001
 44
0.0000000001
 40
0.0
 40
0.0
 40
0.0
 40
0.0
 40
0.0577073035
 40
0.1155505714
 40
0.1736641662
 40
0.2321773502
 40
0.2912133042
 40
0.3508876793
 40
0.4113052323
 40
0.4725612675
 40
0.5978556224
 40
0.7273464982
 40
0.8613545526
 40
1.0
 40
1.0
 40
1.0
 40
1.0
 10
2.7470987514
 20
0.8606251487
 30
0.0
 10
2.7441151434
 20
0.8606250824
 30
0.0
 10
2.7381388638
 20
0.8608307421
 30
0.0
 10
2.7292010358
 20
0.861755668
 30
0.0
 10
2.7203058532
 20
0.8632959537
 30
0.0
 10
2.7114749613
 20
0.8654463318
 30
0.0
 10
2.7027293643
 20
0.8682022066
 30
0.0
 10
2.694090295
 20
0.871557267
 30
0.0
 10
2.6855774687
 20
0.8755022759
 30
0.0
 10
2.6743409394
 20
0.8815816406
 30
0.0
 10
2.6607008737
 20
0.8906528761
 30
0.0
 10
2.6452954718
 20
0.9036265646
 30
0.0
 10
2.6308657932
 20
0.9186444382
 30
0.0
 10
2.6221297554
 20
0.9297397103
 30
0.0
 10
2.6179546239
 20
0.9355666224
 30
0.0
  0
SPLINE
  5
420
100
AcDbEntity
  8
0
100
AcDbSpline
 62
7
  6
CONTINUOUS
 70
0
 71
3
 72
19
 73
15
 74
0
 42
0.0000001
 43
0.0000001
 44
0.0000000001
 40
0.0
 40
0.0
 40
0.0
 40
0.0
 40
0.0577073035
 40
0.1155505714
 40
0.1736641662
 40
0.2321773502
 40
0.2912133042
 40
0.3508876793
 40
0.4113052323
 40
0.4725612675
 40
0.5978556224
 40
0.7273464982
 40
0.8613545526
 40
1.0
 40
1.0
 40
1.0
 40
1.0
 10
2.7824540905
 20
0.8606251487
 30
0.0
 10
2.7794704824
 20
0.8606250824
 30
0.0
 10
2.7734942029
 20
0.8608307421
 30
0.0
 10
2.7645563748
 20
0.861755668
 30
0.0
 10
2.7556611923
 20
0.8632959537
 30
0.0
 10
2.7468303004
 20
0.8654463318
 30
0.0
 10
2.7380847033
 20
0.8682022066
 30
0.0
 10
2.729445634
 20
0.871557267
 30
0.0
 10
2.7209328078
 20
0.8755022759
 30
0.0
 10
2.7096962785
 20
0.8815816406
 30
0.0
 10
2.6960562127
 20
0.8906528761
 30
0.0
 10
2.6806508108
 20
0.9036265646
 30
0.0
 10
2.6662211323
 20
0.9186444382
 30
0.0
 10
2.6574850944
 20
0.9297397103
 30
0.0
 10
2.653309963
 20
0.9355666224
 30
0.0
  0
SPLINE
  5
421
100
AcDbEntity
  8
0
100
AcDbSpline
 62
7
  6
CONTINUOUS
 70
0
 71
3
 72
15
 73
11
 74
0
 42
0.0000001
 43
0.0000001
 44
0.0000000001
 40
0.0
 40
0.0
 40
0.0
 40
0.0
 40
0.1093848924
 40
0.2247529651
 40
0.3455303054
 40
0.4709316038
 40
0.5999829275
 40
0.7318632405
 40
0.865594525
 40
1.0
 40
1.0
 40
1.0
 40
1.0
 10
2.7910140252
 20
0.9014533236
 30
0.0
 10
2.7903101446
 20
0.9008793215
 30
0.0
 10
2.788972836
 20
0.8995627263
 30
0.0
 10
2.7872516916
 20
0.8972565932
 30
0.0
 10
2.7857797295
 20
0.8946316235
 30
0.0
 10
2.7845673873
 20
0.8917553514
 30
0.0
 10
2.7836212144
 20
0.8886851565
 30
0.0
 10
2.7829445893
 20
0.885474408
 30
0.0
 10
2.7825387794
 20
0.8821741518
 30
0.0
 10
2.7824482974
 20
0.8799466769
 30
0.0
 10
2.7824482974
 20
0.8788306692
 30
0.0
  0
SPLINE
  5
422
100
AcDbEntity
  8
0
100
AcDbSpline
 62
7
  6
CONTINUOUS
 70
0
 71
3
 72
9
 73
5
 74
0
 42
0.0000001
 43
0.0000001
 44
0.0000000001
 40
0.0
 40
0.0
 40
0.0
 40
0.0
 40
0.2458307554
 40
1.0
 40
1.0
 40
1.0
 40
1.0
 10
-8.3287615635
 20
-1.2881860641
 30
0.0
 10
-8.3278513082
 20
-1.2877347971
 30
0.0
 10
-8.3241925353
 20
-1.2858111414
 30
0.0
 10
-8.3207156408
 20
-1.283545757
 30
0.0
 10
-8.318216519
 20
-1.2816831931
 30
0.0
  0
SPLINE
  5
423
100
AcDbEntity
  8
0
100
AcDbSpline
 62
3
  6
CONTINUOUS
 70
0
 71
3
 72
23
 73
19
 74
0
 42
0.0000001
 43
0.0000001
 44
0.0000000001
 40
0.0
 40
0.0
 40
0.0
 40
0.0
 40
0.0557391309
 40
0.1136846023
 40
0.1746087534
 40
0.2380772329
 40
0.3033206259
 40
0.3692689926
 40
0.4349964924
 40
0.5004903438
 40
0.5659173094
 40
0.6314736909
 40
0.6971448232
 40
0.7620977231
 40
0.8254131818
 40
0.8863029061
 40
0.9443124325
 40
1.0
 40
1.0
 40
1.0
 40
1.0
 10
-8.3329782805
 20
-1.0583602514
 30
0.0
 10
-8.3297092448
 20
-1.0619929906
 30
0.0
 10
-8.3234548896
 20
-1.0697846353
 30
0.0
 10
-8.3151907496
 20
-1.0827016709
 30
0.0
 10
-8.3079154358
 20
-1.0969640734
 30
0.0
 10
-8.3017537812
 20
-1.1124328496
 30
0.0
 10
-8.2969220302
 20
-1.1288255366
 30
0.0
 10
-8.2934597433
 20
-1.145760808
 30
0.0
 10
-8.2914278787
 20
-1.162948543
 30
0.0
 10
-8.2908099464
 20
-1.1801974529
 30
0.0
 10
-8.2915593666
 20
-1.1974262359
 30
0.0
 10
-8.2937199516
 20
-1.2145525361
 30
0.0
 10
-8.2972932025
 20
-1.2313984553
 30
0.0
 10
-8.3022360082
 20
-1.2476920932
 30
0.0
 10
-8.3085028719
 20
-1.2630730677
 30
0.0
 10
-8.3158894712
 20
-1.2772668423
 30
0.0
 10
-8.3242838835
 20
-1.2900980023
 30
0.0
 10
-8.3306158251
 20
-1.2978278797
 30
0.0
 10
-8.3339179606
 20
-1.3014244226
 30
0.0
  0
SPLINE
  5
424
100
AcDbEntity
  8
0
100
AcDbSpline
 62
7
  6
CONTINUOUS
 70
0
 71
3
 72
21
 73
17
 74
0
 42
0.0000001
 43
0.0000001
 44
0.0000000001
 40
0.0
 40
0.0
 40
0.0
 40
0.0
 40
0.1256853361
 40
0.1883323231
 40
0.2508510309
 40
0.3132535003
 40
0.3755604261
 40
0.4377981636
 40
0.5
 40
0.5622018364
 40
0.6244395739
 40
0.6867464997
 40
0.7491489691
 40
0.8116676769
 40
0.8743146639
 40
1.0
 40
1.0
 40
1.0
 40
1.0
 10
33.8837519562
 20
8.2786249619
 30
0.0
 10
33.8807985911
 20
8.2697648665
 30
0.0
 10
33.8767337555
 20
8.2563613282
 30
0.0
 10
33.8722463139
 20
8.238266076
 30
0.0
 10
33.8694049156
 20
8.2246171926
 30
0.0
 10
33.8671325435
 20
8.2108873051
 30
0.0
 10
33.8654734916
 20
8.1970902723
 30
0.0
 10
33.864463128
 20
8.1832451671
 30
0.0
 10
33.8641229538
 20
8.1693749619
 30
0.0
 10
33.864463128
 20
8.1555047567
 30
0.0
 10
33.8654734916
 20
8.1416596515
 30
0.0
 10
33.8671325435
 20
8.1278626187
 30
0.0
 10
33.8694049156
 20
8.1141327312
 30
0.0
 10
33.8722463139
 20
8.1004838477
 30
0.0
 10
33.8767337555
 20
8.0823885956
 30
0.0
 10
33.8807985911
 20
8.0689850573
 30
0.0
 10
33.8837519562
 20
8.0601249619
 30
0.0
  0
SPLINE
  5
425
100
AcDbEntity
  8
0
100
AcDbSpline
 62
7
  6
CONTINUOUS
 70
0
 71
3
 72
15
 73
11
 74
0
 42
0.0000001
 43
0.0000001
 44
0.0000000001
 40
0.0
 40
0.0
 40
0.0
 40
0.0
 40
0.1251627617
 40
0.2501974103
 40
0.3751281702
 40
0.5000000121
 40
0.6248718587
 40
0.7498026271
 40
0.8748372674
 40
1.0
 40
1.0
 40
1.0
 40
1.0
 10
34.0024112729
 20
8.0601249619
 30
0.0
 10
34.001011498
 20
8.0510766746
 30
0.0
 10
33.9984674957
 20
8.0329484732
 30
0.0
 10
33.995576914
 20
8.0056536973
 30
0.0
 10
33.9937659496
 20
7.9782853806
 30
0.0
 10
33.9931481279
 20
7.9508749589
 30
0.0
 10
33.9937659504
 20
7.9234645367
 30
0.0
 10
33.995576915
 20
7.8960962196
 30
0.0
 10
33.9984674974
 20
7.868801446
 30
0.0
 10
34.0010114983
 20
7.8506732471
 30
0.0
 10
34.0024112729
 20
7.8416249619
 30
0.0
  0
SPLINE
  5
426
100
AcDbEntity
  8
0
100
AcDbSpline
 62
7
  6
CONTINUOUS
 70
0
 71
3
 72
21
 73
17
 74
0
 42
0.0000001
 43
0.0000001
 44
0.0000000001
 40
0.0
 40
0.0
 40
0.0
 40
0.0
 40
0.1256853361
 40
0.1883323231
 40
0.2508510309
 40
0.3132535003
 40
0.3755604261
 40
0.4377981636
 40
0.5
 40
0.5622018364
 40
0.6244395739
 40
0.6867464997
 40
0.7491489691
 40
0.8116676769
 40
0.8743146639
 40
1.0
 40
1.0
 40
1.0
 40
1.0
 10
33.8837519562
 20
8.0601249619
 30
0.0
 10
33.8807985911
 20
8.0512648665
 30
0.0
 10
33.8767337555
 20
8.0378613282
 30
0.0
 10
33.8722463139
 20
8.019766076
 30
0.0
 10
33.8694049156
 20
8.0061171926
 30
0.0
 10
33.8671325435
 20
7.9923873051
 30
0.0
 10
33.8654734916
 20
7.9785902723
 30
0.0
 10
33.864463128
 20
7.9647451671
 30
0.0
 10
33.8641229538
 20
7.9508749619
 30
0.0
 10
33.864463128
 20
7.9370047567
 30
0.0
 10
33.8654734916
 20
7.9231596515
 30
0.0
 10
33.8671325435
 20
7.9093626187
 30
0.0
 10
33.8694049156
 20
7.8956327312
 30
0.0
 10
33.8722463139
 20
7.8819838477
 30
0.0
 10
33.8767337555
 20
7.8638885956
 30
0.0
 10
33.8807985911
 20
7.8504850573
 30
0.0
 10
33.8837519562
 20
7.8416249619
 30
0.0
  0
SPLINE
  5
427
100
AcDbEntity
  8
0
100
AcDbSpline
 62
7
  6
CONTINUOUS
 70
0
 71
3
 72
15
 73
11
 74
0
 42
0.0000001
 43
0.0000001
 44
0.0000000001
 40
0.0
 40
0.0
 40
0.0
 40
0.0
 40
0.1251627666
 40
0.250197413
 40
0.3751281672
 40
0.5000000062
 40
0.6248718446
 40
0.7498025984
 40
0.8748372369
 40
1.0
 40
1.0
 40
1.0
 40
1.0
 10
34.0024112729
 20
8.2786249619
 30
0.0
 10
34.0010114979
 20
8.2695766742
 30
0.0
 10
33.9984674955
 20
8.2514484726
 30
0.0
 10
33.995576914
 20
8.2241536969
 30
0.0
 10
33.9937659497
 20
8.196785381
 30
0.0
 10
33.9931481279
 20
8.1693749606
 30
0.0
 10
33.99376595
 20
8.1419645402
 30
0.0
 10
33.9955769143
 20
8.1145962249
 30
0.0
 10
33.9984674958
 20
8.0873014501
 30
0.0
 10
34.001011498
 20
8.0691732493
 30
0.0
 10
34.0024112729
 20
8.0601249619
 30
0.0
  0
SPLINE
  5
428
100
AcDbEntity
  8
0
100
AcDbSpline
 62
7
  6
CONTINUOUS
 70
0
 71
3
 72
21
 73
17
 74
0
 42
0.0000001
 43
0.0000001
 44
0.0000000001
 40
0.0
 40
0.0
 40
0.0
 40
0.0
 40
0.1256853361
 40
0.1883323231
 40
0.2508510309
 40
0.3132535003
 40
0.3755604261
 40
0.4377981636
 40
0.5
 40
0.5622018364
 40
0.6244395739
 40
0.6867464997
 40
0.7491489691
 40
0.8116676769
 40
0.8743146639
 40
1.0
 40
1.0
 40
1.0
 40
1.0
 10
51.0581433402
 20
7.8416249619
 30
0.0
 10
51.0610967054
 20
7.8504850573
 30
0.0
 10
51.065161541
 20
7.8638885956
 30
0.0
 10
51.0696489826
 20
7.8819838477
 30
0.0
 10
51.0724903809
 20
7.8956327312
 30
0.0
 10
51.0747627529
 20
7.9093626187
 30
0.0
 10
51.0764218049
 20
7.9231596515
 30
0.0
 10
51.0774321684
 20
7.9370047567
 30
0.0
 10
51.0777723427
 20
7.9508749619
 30
0.0
 10
51.0774321684
 20
7.9647451671
 30
0.0
 10
51.0764218049
 20
7.9785902723
 30
0.0
 10
51.0747627529
 20
7.9923873051
 30
0.0
 10
51.0724903809
 20
8.0061171926
 30
0.0
 10
51.0696489826
 20
8.019766076
 30
0.0
 10
51.065161541
 20
8.0378613282
 30
0.0
 10
51.0610967054
 20
8.0512648665
 30
0.0
 10
51.0581433402
 20
8.0601249619
 30
0.0
  0
SPLINE
  5
429
100
AcDbEntity
  8
0
100
AcDbSpline
 62
7
  6
CONTINUOUS
 70
0
 71
3
 72
15
 73
11
 74
0
 42
0.0000001
 43
0.0000001
 44
0.0000000001
 40
0.0
 40
0.0
 40
0.0
 40
0.0
 40
0.1251627666
 40
0.250197413
 40
0.3751281672
 40
0.5000000062
 40
0.6248718446
 40
0.7498025984
 40
0.8748372369
 40
1.0
 40
1.0
 40
1.0
 40
1.0
 10
50.9394840235
 20
7.8416249619
 30
0.0
 10
50.9408837985
 20
7.8506732496
 30
0.0
 10
50.9434278009
 20
7.8688014512
 30
0.0
 10
50.9463183824
 20
7.8960962268
 30
0.0
 10
50.9481293467
 20
7.9234645428
 30
0.0
 10
50.9487471685
 20
7.9508749632
 30
0.0
 10
50.9481293465
 20
7.9782853836
 30
0.0
 10
50.9463183821
 20
8.0056536989
 30
0.0
 10
50.9434278007
 20
8.0329484737
 30
0.0
 10
50.9408837985
 20
8.0510766744
 30
0.0
 10
50.9394840235
 20
8.0601249619
 30
0.0
  0
SPLINE
  5
42A
100
AcDbEntity
  8
0
100
AcDbSpline
 62
7
  6
CONTINUOUS
 70
0
 71
3
 72
15
 73
11
 74
0
 42
0.0000001
 43
0.0000001
 44
0.0000000001
 40
0.0
 40
0.0
 40
0.0
 40
0.0
 40
0.1251627617
 40
0.2501974103
 40
0.3751281702
 40
0.5000000121
 40
0.6248718587
 40
0.7498026271
 40
0.8748372674
 40
1.0
 40
1.0
 40
1.0
 40
1.0
 10
50.9394840235
 20
8.0601249619
 30
0.0
 10
50.9408837985
 20
8.0691732492
 30
0.0
 10
50.9434278008
 20
8.0873014506
 30
0.0
 10
50.9463183825
 20
8.1145962265
 30
0.0
 10
50.9481293468
 20
8.1419645432
 30
0.0
 10
50.9487471686
 20
8.1693749649
 30
0.0
 10
50.9481293461
 20
8.1967853871
 30
0.0
 10
50.9463183815
 20
8.2241537042
 30
0.0
 10
50.9434277991
 20
8.2514484778
 30
0.0
 10
50.9408837981
 20
8.2695766767
 30
0.0
 10
50.9394840235
 20
8.2786249619
 30
0.0
  0
SPLINE
  5
42B
100
AcDbEntity
  8
0
100
AcDbSpline
 62
7
  6
CONTINUOUS
 70
0
 71
3
 72
21
 73
17
 74
0
 42
0.0000001
 43
0.0000001
 44
0.0000000001
 40
0.0
 40
0.0
 40
0.0
 40
0.0
 40
0.1256853361
 40
0.1883323231
 40
0.2508510309
 40
0.3132535003
 40
0.3755604261
 40
0.4377981636
 40
0.5
 40
0.5622018364
 40
0.6244395739
 40
0.6867464997
 40
0.7491489691
 40
0.8116676769
 40
0.8743146639
 40
1.0
 40
1.0
 40
1.0
 40
1.0
 10
51.0581433402
 20
8.0601249619
 30
0.0
 10
51.0610967054
 20
8.0689850573
 30
0.0
 10
51.065161541
 20
8.0823885956
 30
0.0
 10
51.0696489826
 20
8.1004838477
 30
0.0
 10
51.0724903809
 20
8.1141327312
 30
0.0
 10
51.0747627529
 20
8.1278626187
 30
0.0
 10
51.0764218049
 20
8.1416596515
 30
0.0
 10
51.0774321684
 20
8.1555047567
 30
0.0
 10
51.0777723427
 20
8.1693749619
 30
0.0
 10
51.0774321684
 20
8.1832451671
 30
0.0
 10
51.0764218049
 20
8.1970902723
 30
0.0
 10
51.0747627529
 20
8.2108873051
 30
0.0
 10
51.0724903809
 20
8.2246171926
 30
0.0
 10
51.0696489826
 20
8.238266076
 30
0.0
 10
51.065161541
 20
8.2563613282
 30
0.0
 10
51.0610967054
 20
8.2697648665
 30
0.0
 10
51.0581433402
 20
8.2786249619
 30
0.0
  0
SPLINE
  5
42C
100
AcDbEntity
  8
0
100
AcDbSpline
 62
7
  6
CONTINUOUS
 70
0
 71
3
 72
15
 73
11
 74
0
 42
0.0000001
 43
0.0000001
 44
0.0000000001
 40
0.0
 40
0.0
 40
0.0
 40
0.0
 40
0.1453524083
 40
0.2868079831
 40
0.4230969843
 40
0.5529474777
 40
0.6754525845
 40
0.7903911539
 40
0.8982555593
 40
1.0
 40
1.0
 40
1.0
 40
1.0
 10
48.2501062688
 20
-0.9628686872
 30
0.0
 10
48.2572138846
 20
-0.9672211952
 30
0.0
 10
48.2711534272
 20
-0.9759501451
 30
0.0
 10
48.2913735647
 20
-0.9893615645
 30
0.0
 10
48.3104127381
 20
-1.0029253935
 30
0.0
 10
48.328022257
 20
-1.0165944078
 30
0.0
 10
48.344028064
 20
-1.0302959786
 30
0.0
 10
48.3583843955
 20
-1.0439450796
 30
0.0
 10
48.371181267
 20
-1.057467172
 30
0.0
 10
48.3789990674
 20
-1.0666028935
 30
0.0
 10
48.3826887903
 20
-1.0711218626
 30
0.0
  0
SPLINE
  5
42D
100
AcDbEntity
  8
0
100
AcDbSpline
 62
7
  6
CONTINUOUS
 70
0
 71
3
 72
19
 73
15
 74
0
 42
0.0000001
 43
0.0000001
 44
0.0000000001
 40
0.0
 40
0.0
 40
0.0
 40
0.0
 40
0.1239135187
 40
0.2486584689
 40
0.3113153546
 40
0.3741210923
 40
0.4370327446
 40
0.5
 40
0.5629672554
 40
0.6258789077
 40
0.6886846454
 40
0.7513415311
 40
0.8760864813
 40
1.0
 40
1.0
 40
1.0
 40
1.0
 10
48.3826887903
 20
-1.0711218626
 30
0.0
 10
48.3844910114
 20
-1.0799509068
 30
0.0
 10
48.3877899788
 20
-1.0977353635
 30
0.0
 10
48.39094179
 20
-1.1201635395
 30
0.0
 10
48.3927754779
 20
-1.1382681876
 30
0.0
 10
48.3937809823
 20
-1.1519318547
 30
0.0
 10
48.3943931967
 20
-1.1656414655
 30
0.0
 10
48.3945993072
 20
-1.1793750381
 30
0.0
 10
48.3943931967
 20
-1.1931086107
 30
0.0
 10
48.3937809823
 20
-1.2068182215
 30
0.0
 10
48.3927754779
 20
-1.2204818886
 30
0.0
 10
48.39094179
 20
-1.2385865367
 30
0.0
 10
48.3877899788
 20
-1.2610147127
 30
0.0
 10
48.3844910114
 20
-1.2787991694
 30
0.0
 10
48.3826887903
 20
-1.2876282136
 30
0.0
  0
SPLINE
  5
42E
100
AcDbEntity
  8
0
100
AcDbSpline
 62
7
  6
CONTINUOUS
 70
0
 71
3
 72
15
 73
11
 74
0
 42
0.0000001
 43
0.0000001
 44
0.0000000001
 40
0.0
 40
0.0
 40
0.0
 40
0.0
 40
0.1017444407
 40
0.2096088461
 40
0.3245474155
 40
0.4470525223
 40
0.5769030157
 40
0.7131920169
 40
0.8546475917
 40
1.0
 40
1.0
 40
1.0
 40
1.0
 10
48.3826887903
 20
-1.2876282136
 30
0.0
 10
48.3789990674
 20
-1.2921471827
 30
0.0
 10
48.371181267
 20
-1.3012829042
 30
0.0
 10
48.3583843955
 20
-1.3148049966
 30
0.0
 10
48.344028064
 20
-1.3284540976
 30
0.0
 10
48.328022257
 20
-1.3421556685
 30
0.0
 10
48.3104127381
 20
-1.3558246827
 30
0.0
 10
48.2913735647
 20
-1.3693885117
 30
0.0
 10
48.2711534272
 20
-1.3827999311
 30
0.0
 10
48.2572138846
 20
-1.3915288811
 30
0.0
 10
48.2501062688
 20
-1.3958813891
 30
0.0
  0
SPLINE
  5
42F
100
AcDbEntity
  8
0
100
AcDbSpline
 62
7
  6
CONTINUOUS
 70
0
 71
3
 72
15
 73
11
 74
0
 42
0.0000001
 43
0.0000001
 44
0.0000000001
 40
0.0
 40
0.0
 40
0.0
 40
0.0
 40
0.1341084573
 40
0.2648959645
 40
0.3926219614
 40
0.517627337
 40
0.6403394988
 40
0.7612572922
 40
0.880942489
 40
1.0
 40
1.0
 40
1.0
 40
1.0
 10
48.2290819159
 20
-0.9623851208
 30
0.0
 10
48.225400028
 20
-0.9589481582
 30
0.0
 10
48.2178586768
 20
-0.9524395096
 30
0.0
 10
48.2059182516
 20
-0.943757755
 30
0.0
 10
48.1935568961
 20
-0.9363259548
 30
0.0
 10
48.1808393072
 20
-0.9301882382
 30
0.0
 10
48.1678342214
 20
-0.9253765419
 30
0.0
 10
48.1546100826
 20
-0.9219206766
 30
0.0
 10
48.1412410187
 20
-0.9198383525
 30
0.0
 10
48.1322675959
 20
-0.9193751256
 30
0.0
 10
48.1277961046
 20
-0.9193752249
 30
0.0
  0
SPLINE
  5
430
100
AcDbEntity
  8
0
100
AcDbSpline
 62
7
  6
CONTINUOUS
 70
0
 71
3
 72
17
 73
13
 74
0
 42
0.0000001
 43
0.0000001
 44
0.0000000001
 40
0.0
 40
0.0
 40
0.0
 40
0.0
 40
0.1341655017
 40
0.2649905088
 40
0.3927303475
 40
0.4555651072
 40
0.5177644712
 40
0.6404514855
 40
0.7011012981
 40
0.7613669052
 40
0.8810005192
 40
1.0
 40
1.0
 40
1.0
 40
1.0
 10
48.2295128773
 20
-1.3959616262
 30
0.0
 10
48.2258208132
 20
-1.3994292199
 30
0.0
 10
48.2182561796
 20
-1.4059958897
 30
0.0
 10
48.2062749393
 20
-1.4147583507
 30
0.0
 10
48.1958748953
 20
-1.4210436572
 30
0.0
 10
48.1873830523
 20
-1.4254043983
 30
0.0
 10
48.178870005
 20
-1.4292826405
 30
0.0
 10
48.1701651569
 20
-1.4325193518
 30
0.0
 10
48.1613273802
 20
-1.4350748316
 30
0.0
 10
48.1524843884
 20
-1.4371571548
 30
0.0
 10
48.1413158612
 20
-1.4389060387
 30
0.0
 10
48.1323002604
 20
-1.4393747515
 30
0.0
 10
48.1278076909
 20
-1.4393748513
 30
0.0
  0
SPLINE
  5
431
100
AcDbEntity
  8
0
100
AcDbSpline
 62
7
  6
CONTINUOUS
 70
0
 71
3
 72
11
 73
7
 74
0
 42
0.0000001
 43
0.0000001
 44
0.0000000001
 40
0.0
 40
0.0
 40
0.0
 40
0.0
 40
0.2401732686
 40
0.4850365616
 40
0.7374846583
 40
1.0
 40
1.0
 40
1.0
 40
1.0
 10
48.1432875362
 20
-1.3958813891
 30
0.0
 10
48.1426826664
 20
-1.3958813891
 30
0.0
 10
48.1414582724
 20
-1.3960012569
 30
0.0
 10
48.139665632
 20
-1.3965233399
 30
0.0
 10
48.1379427463
 20
-1.3973761152
 30
0.0
 10
48.1368799951
 20
-1.3981288481
 30
0.0
 10
48.1363676255
 20
-1.3985466764
 30
0.0
  0
SPLINE
  5
432
100
AcDbEntity
  8
0
100
AcDbSpline
 62
7
  6
CONTINUOUS
 70
0
 71
3
 72
11
 73
7
 74
0
 42
0.0000001
 43
0.0000001
 44
0.0000000001
 40
0.0
 40
0.0
 40
0.0
 40
0.0
 40
0.2401732686
 40
0.4850365616
 40
0.7374846583
 40
1.0
 40
1.0
 40
1.0
 40
1.0
 10
48.1432875362
 20
-0.9628686872
 30
0.0
 10
48.1426826664
 20
-0.9628686872
 30
0.0
 10
48.1414582724
 20
-0.9627488193
 30
0.0
 10
48.139665632
 20
-0.9622267363
 30
0.0
 10
48.1379427463
 20
-0.961373961
 30
0.0
 10
48.1368799951
 20
-0.9606212281
 30
0.0
 10
48.1363676255
 20
-0.9602033998
 30
0.0
  0
SPLINE
  5
433
100
AcDbEntity
  8
0
100
AcDbSpline
 62
7
  6
CONTINUOUS
 70
0
 71
3
 72
23
 73
19
 74
0
 42
0.0000001
 43
0.0000001
 44
0.0000000001
 40
0.0
 40
0.0
 40
0.0
 40
0.0
 40
0.0552200583
 40
0.1106748871
 40
0.1665926736
 40
0.2231878726
 40
0.2806564376
 40
0.3391704851
 40
0.3988763535
 40
0.4598908728
 40
0.5223035786
 40
0.5861741968
 40
0.6515348273
 40
0.7183856123
 40
0.7867085174
 40
0.8564722864
 40
0.9276136373
 40
1.0
 40
1.0
 40
1.0
 40
1.0
 10
48.0924523518
 20
-1.4393748513
 30
0.0
 10
48.0884398678
 20
-1.4393749404
 30
0.0
 10
48.0803928784
 20
-1.4390023446
 30
0.0
 10
48.0683878439
 20
-1.437326726
 30
0.0
 10
48.0564871703
 20
-1.43454289
 30
0.0
 10
48.0447441071
 20
-1.4306630663
 30
0.0
 10
48.0332090966
 20
-1.4257051291
 30
0.0
 10
48.0219317015
 20
-1.4196914899
 30
0.0
 10
48.0109603589
 20
-1.4126485445
 30
0.0
 10
48.0003411982
 20
-1.4046079635
 30
0.0
 10
47.9901198447
 20
-1.3956039763
 30
0.0
 10
47.9803386269
 20
-1.3856764021
 30
0.0
 10
47.9710401034
 20
-1.3748672569
 30
0.0
 10
47.9622620027
 20
-1.3632244177
 30
0.0
 10
47.9540425562
 20
-1.3507960033
 30
0.0
 10
47.9464148988
 20
-1.3376347388
 30
0.0
 10
47.9394142606
 20
-1.3237988391
 30
0.0
 10
47.9352177611
 20
-1.3142447113
 30
0.0
 10
47.9332297254
 20
-1.3093750381
 30
0.0
  0
SPLINE
  5
434
100
AcDbEntity
  8
0
100
AcDbSpline
 62
7
  6
CONTINUOUS
 70
0
 71
3
 72
33
 73
29
 74
0
 42
0.0000001
 43
0.0000001
 44
0.0000000001
 40
0.0
 40
0.0
 40
0.0
 40
0.0
 40
0.0248617031
 40
0.0498293083
 40
0.0750052916
 40
0.1004865152
 40
0.1263607673
 40
0.1527060222
 40
0.1795875392
 40
0.2070587667
 40
0.2351590604
 40
0.2639158084
 40
0.293342707
 40
0.3234424266
 40
0.3855854026
 40
0.4501825721
 40
0.5169033937
 40
0.585309275
 40
0.6548820701
 40
0.7250511664
 40
0.7601826356
 40
0.7952393726
 40
0.8301469022
 40
0.8648309296
 40
0.8992215798
 40
0.9332580601
 40
0.9668772299
 40
1.0
 40
1.0
 40
1.0
 40
1.0
 10
48.0924407655
 20
-0.9193752249
 30
0.0
 10
48.0884284625
 20
-0.919375314
 30
0.0
 10
48.0803818263
 20
-0.9197487676
 30
0.0
 10
48.0683774613
 20
-0.9214254324
 30
0.0
 10
48.0564773277
 20
-0.9242097421
 30
0.0
 10
48.0447351266
 20
-0.9280907343
 30
0.0
 10
48.033200543
 20
-0.9330486922
 30
0.0
 10
48.0219242328
 20
-0.9390634246
 30
0.0
 10
48.0109531167
 20
-0.9461060434
 30
0.0
 10
48.0003352362
 20
-0.9541476055
 30
0.0
 10
47.9901139673
 20
-0.9631510861
 30
0.0
 10
47.9803342291
 20
-0.9730791573
 30
0.0
 10
47.9710353076
 20
-0.9838878288
 30
0.0
 10
47.959209056
 20
-0.9995768145
 30
0.0
 10
47.945887885
 20
-1.0211762655
 30
0.0
 10
47.9325809591
 20
-1.0494860991
 30
0.0
 10
47.9219944854
 20
-1.0799904017
 30
0.0
 10
47.9143051375
 20
-1.1121721826
 30
0.0
 10
47.9096398345
 20
-1.1454874155
 30
0.0
 10
47.9083369136
 20
-1.1737232709
 30
0.0
 10
47.9088610032
 20
-1.1963753286
 30
0.0
 10
47.9100383788
 20
-1.2133017045
 30
0.0
 10
47.9119958742
 20
-1.2300826683
 30
0.0
 10
47.9147234274
 20
-1.2466470902
 30
0.0
 10
47.9182112432
 20
-1.2629246269
 30
0.0
 10
47.9224437922
 20
-1.2788471945
 30
0.0
 10
47.927403757
 20
-1.2943434202
 30
0.0
 10
47.9312093109
 20
-1.3044260535
 30
0.0
 10
47.9332297254
 20
-1.3093750381
 30
0.0
  0
SPLINE
  5
435
100
AcDbEntity
  8
0
100
AcDbSpline
 62
7
  6
CONTINUOUS
 70
0
 71
3
 72
17
 73
13
 74
0
 42
0.0000001
 43
0.0000001
 44
0.0000000001
 40
0.0
 40
0.0
 40
0.0
 40
0.0
 40
0.0507521541
 40
0.1062279752
 40
0.1656818145
 40
0.2283685672
 40
0.3603916239
 40
0.4965882669
 40
0.6320482742
 40
0.7629485808
 40
0.8864675634
 40
1.0
 40
1.0
 40
1.0
 40
1.0
 10
48.0107050148
 20
-1.2876282136
 30
0.0
 10
48.0101307114
 20
-1.2876282136
 30
0.0
 10
48.0089284253
 20
-1.2876828107
 30
0.0
 10
48.0070647384
 20
-1.2878969593
 30
0.0
 10
48.00508408
 20
-1.2882447035
 30
0.0
 10
48.002279449
 20
-1.2888861681
 30
0.0
 10
47.9986899633
 20
-1.2899686865
 30
0.0
 10
47.9944222438
 20
-1.2916071248
 30
0.0
 10
47.9902851569
 20
-1.2935214602
 30
0.0
 10
47.9864059689
 20
-1.2956295852
 30
0.0
 10
47.9828861196
 20
-1.2978594266
 30
0.0
 10
47.9807288738
 20
-1.2994596593
 30
0.0
 10
47.9797337377
 20
-1.3002721845
 30
0.0
  0
SPLINE
  5
436
100
AcDbEntity
  8
0
100
AcDbSpline
 62
7
  6
CONTINUOUS
 70
0
 71
3
 72
45
 73
41
 74
0
 42
0.0000001
 43
0.0000001
 44
0.0000000001
 40
0.0
 40
0.0
 40
0.0
 40
0.0
 40
0.0128513267
 40
0.0257402646
 40
0.038691441
 40
0.051730823
 40
0.0648871307
 40
0.0781878531
 40
0.1053036192
 40
0.1332505709
 40
0.1621439873
 40
0.1920543393
 40
0.2230077703
 40
0.2549895349
 40
0.287948694
 40
0.3218028922
 40
0.3564428168
 40
0.3917370601
 40
0.4275370898
 40
0.4636814477
 40
0.5
 40
0.5363185523
 40
0.5724629102
 40
0.6082629399
 40
0.6435571832
 40
0.6781971078
 40
0.712051306
 40
0.7450104651
 40
0.7769922297
 40
0.8079456607
 40
0.8378560127
 40
0.8667494291
 40
0.8946963808
 40
0.9218121469
 40
0.9351128693
 40
0.948269177
 40
0.961308559
 40
0.9742597354
 40
0.9871486733
 40
1.0
 40
1.0
 40
1.0
 40
1.0
 10
48.2621521861
 20
-0.9923750381
 30
0.0
 10
48.2643154191
 20
-0.9923750381
 30
0.0
 10
48.2686497054
 20
-0.9925260388
 30
0.0
 10
48.2751322032
 20
-0.9932029505
 30
0.0
 10
48.2815843536
 20
-0.9943291244
 30
0.0
 10
48.2879883119
 20
-0.9959026659
 30
0.0
 10
48.2943289462
 20
-0.9979185692
 30
0.0
 10
48.3027302752
 20
-1.0012103121
 30
0.0
 10
48.313018604
 20
-1.0064382602
 30
0.0
 10
48.3247762255
 20
-1.0143355241
 30
0.0
 10
48.3359201168
 20
-1.0238177256
 30
0.0
 10
48.3463445504
 20
-1.0347902805
 30
0.0
 10
48.3559524624
 20
-1.0471467045
 30
0.0
 10
48.3646544787
 20
-1.0607673982
 30
0.0
 10
48.3723694857
 20
-1.0755216499
 30
0.0
 10
48.379024899
 20
-1.0912684795
 30
0.0
 10
48.3845579795
 20
-1.1078574344
 30
0.0
 10
48.3889168935
 20
-1.1251298957
 30
0.0
 10
48.3920603948
 20
-1.1429208804
 30
0.0
 10
48.3939583187
 20
-1.1610604149
 30
0.0
 10
48.3945928994
 20
-1.1793750381
 30
0.0
 10
48.3939583187
 20
-1.1976896613
 30
0.0
 10
48.3920603948
 20
-1.2158291958
 30
0.0
 10
48.3889168935
 20
-1.2336201805
 30
0.0
 10
48.3845579795
 20
-1.2508926418
 30
0.0
 10
48.379024899
 20
-1.2674815967
 30
0.0
 10
48.3723694857
 20
-1.2832284263
 30
0.0
 10
48.3646544787
 20
-1.297982678
 30
0.0
 10
48.3559524624
 20
-1.3116033717
 30
0.0
 10
48.3463445504
 20
-1.3239597957
 30
0.0
 10
48.3359201168
 20
-1.3349323506
 30
0.0
 10
48.3247762255
 20
-1.3444145521
 30
0.0
 10
48.313018604
 20
-1.352311816
 30
0.0
 10
48.3027302752
 20
-1.3575397641
 30
0.0
 10
48.2943289462
 20
-1.360831507
 30
0.0
 10
48.2879883119
 20
-1.3628474103
 30
0.0
 10
48.2815843536
 20
-1.3644209518
 30
0.0
 10
48.2751322032
 20
-1.3655471257
 30
0.0
 10
48.2686497054
 20
-1.3662240374
 30
0.0
 10
48.2643154191
 20
-1.3663750381
 30
0.0
 10
48.2621521861
 20
-1.3663750381
 30
0.0
  0
SPLINE
  5
437
100
AcDbEntity
  8
0
100
AcDbSpline
 62
7
  6
CONTINUOUS
 70
0
 71
3
 72
17
 73
13
 74
0
 42
0.0000001
 43
0.0000001
 44
0.0000000001
 40
0.0
 40
0.0
 40
0.0
 40
0.0
 40
0.0507521541
 40
0.1062279752
 40
0.1656818145
 40
0.2283685672
 40
0.3603916239
 40
0.4965882669
 40
0.6320482742
 40
0.7629485808
 40
0.8864675634
 40
1.0
 40
1.0
 40
1.0
 40
1.0
 10
48.0107050148
 20
-1.0711218626
 30
0.0
 10
48.0101307114
 20
-1.0711218626
 30
0.0
 10
48.0089284253
 20
-1.0710672655
 30
0.0
 10
48.0070647384
 20
-1.0708531169
 30
0.0
 10
48.00508408
 20
-1.0705053727
 30
0.0
 10
48.002279449
 20
-1.0698639081
 30
0.0
 10
47.9986899633
 20
-1.0687813897
 30
0.0
 10
47.9944222438
 20
-1.0671429514
 30
0.0
 10
47.9902851569
 20
-1.065228616
 30
0.0
 10
47.9864059689
 20
-1.063120491
 30
0.0
 10
47.9828861196
 20
-1.0608906496
 30
0.0
 10
47.9807288738
 20
-1.0592904169
 30
0.0
 10
47.9797337377
 20
-1.0584778917
 30
0.0
  0
SPLINE
  5
438
100
AcDbEntity
  8
0
100
AcDbSpline
 62
7
  6
CONTINUOUS
 70
0
 71
3
 72
15
 73
11
 74
0
 42
0.0000001
 43
0.0000001
 44
0.0000000001
 40
0.0
 40
0.0
 40
0.0
 40
0.0
 40
0.1017444407
 40
0.2096088461
 40
0.3245474155
 40
0.4470525223
 40
0.5769030157
 40
0.7131920169
 40
0.8546475917
 40
1.0
 40
1.0
 40
1.0
 40
1.0
 10
48.2501062688
 20
-1.3958813891
 30
0.0
 10
48.246416546
 20
-1.3913624199
 30
0.0
 10
48.2385987455
 20
-1.3822266985
 30
0.0
 10
48.225801874
 20
-1.368704606
 30
0.0
 10
48.2114455425
 20
-1.355055505
 30
0.0
 10
48.1954397355
 20
-1.3413539342
 30
0.0
 10
48.1778302166
 20
-1.3276849199
 30
0.0
 10
48.1587910432
 20
-1.314121091
 30
0.0
 10
48.1385709057
 20
-1.3007096715
 30
0.0
 10
48.1246313631
 20
-1.2919807216
 30
0.0
 10
48.1175237473
 20
-1.2876282136
 30
0.0
  0
SPLINE
  5
439
100
AcDbEntity
  8
0
100
AcDbSpline
 62
7
  6
CONTINUOUS
 70
0
 71
3
 72
45
 73
41
 74
0
 42
0.0000001
 43
0.0000001
 44
0.0000000001
 40
0.0
 40
0.0
 40
0.0
 40
0.0
 40
0.0128513267
 40
0.0257402646
 40
0.038691441
 40
0.051730823
 40
0.0648871307
 40
0.0781878531
 40
0.1053036192
 40
0.1332505709
 40
0.1621439873
 40
0.1920543393
 40
0.2230077703
 40
0.2549895349
 40
0.287948694
 40
0.3218028922
 40
0.3564428168
 40
0.3917370601
 40
0.4275370898
 40
0.4636814477
 40
0.5
 40
0.5363185523
 40
0.5724629102
 40
0.6082629399
 40
0.6435571832
 40
0.6781971078
 40
0.712051306
 40
0.7450104651
 40
0.7769922297
 40
0.8079456607
 40
0.8378560127
 40
0.8667494291
 40
0.8946963808
 40
0.9218121469
 40
0.9351128693
 40
0.948269177
 40
0.961308559
 40
0.9742597354
 40
0.9871486733
 40
1.0
 40
1.0
 40
1.0
 40
1.0
 10
48.2621521861
 20
-1.3663750381
 30
0.0
 10
48.2599889532
 20
-1.3663750381
 30
0.0
 10
48.2556546669
 20
-1.3662240374
 30
0.0
 10
48.2491721691
 20
-1.3655471257
 30
0.0
 10
48.2427200187
 20
-1.3644209518
 30
0.0
 10
48.2363160604
 20
-1.3628474103
 30
0.0
 10
48.2299754261
 20
-1.360831507
 30
0.0
 10
48.2215740971
 20
-1.3575397641
 30
0.0
 10
48.2112857683
 20
-1.352311816
 30
0.0
 10
48.1995281468
 20
-1.3444145521
 30
0.0
 10
48.1883842555
 20
-1.3349323506
 30
0.0
 10
48.1779598219
 20
-1.3239597957
 30
0.0
 10
48.1683519099
 20
-1.3116033717
 30
0.0
 10
48.1596498936
 20
-1.297982678
 30
0.0
 10
48.1519348866
 20
-1.2832284263
 30
0.0
 10
48.1452794733
 20
-1.2674815967
 30
0.0
 10
48.1397463928
 20
-1.2508926418
 30
0.0
 10
48.1353874788
 20
-1.2336201805
 30
0.0
 10
48.1322439774
 20
-1.2158291958
 30
0.0
 10
48.1303460536
 20
-1.1976896613
 30
0.0
 10
48.1297114729
 20
-1.1793750381
 30
0.0
 10
48.1303460536
 20
-1.1610604149
 30
0.0
 10
48.1322439774
 20
-1.1429208804
 30
0.0
 10
48.1353874788
 20
-1.1251298957
 30
0.0
 10
48.1397463928
 20
-1.1078574344
 30
0.0
 10
48.1452794733
 20
-1.0912684795
 30
0.0
 10
48.1519348866
 20
-1.0755216499
 30
0.0
 10
48.1596498936
 20
-1.0607673982
 30
0.0
 10
48.1683519099
 20
-1.0471467045
 30
0.0
 10
48.1779598219
 20
-1.0347902805
 30
0.0
 10
48.1883842555
 20
-1.0238177256
 30
0.0
 10
48.1995281468
 20
-1.0143355241
 30
0.0
 10
48.2112857683
 20
-1.0064382602
 30
0.0
 10
48.2215740971
 20
-1.0012103121
 30
0.0
 10
48.2299754261
 20
-0.9979185692
 30
0.0
 10
48.2363160604
 20
-0.9959026659
 30
0.0
 10
48.2427200187
 20
-0.9943291244
 30
0.0
 10
48.2491721691
 20
-0.9932029505
 30
0.0
 10
48.2556546669
 20
-0.9925260388
 30
0.0
 10
48.2599889532
 20
-0.9923750381
 30
0.0
 10
48.2621521861
 20
-0.9923750381
 30
0.0
  0
SPLINE
  5
43A
100
AcDbEntity
  8
0
100
AcDbSpline
 62
7
  6
CONTINUOUS
 70
0
 71
3
 72
19
 73
15
 74
0
 42
0.0000001
 43
0.0000001
 44
0.0000000001
 40
0.0
 40
0.0
 40
0.0
 40
0.0
 40
0.1239135187
 40
0.2486584689
 40
0.3113153546
 40
0.3741210923
 40
0.4370327446
 40
0.5
 40
0.5629672554
 40
0.6258789077
 40
0.6886846454
 40
0.7513415311
 40
0.8760864813
 40
1.0
 40
1.0
 40
1.0
 40
1.0
 10
48.1175237473
 20
-1.2876282136
 30
0.0
 10
48.1193259684
 20
-1.2787991694
 30
0.0
 10
48.1226249358
 20
-1.2610147127
 30
0.0
 10
48.1257767471
 20
-1.2385865367
 30
0.0
 10
48.1276104349
 20
-1.2204818886
 30
0.0
 10
48.1286159394
 20
-1.2068182215
 30
0.0
 10
48.1292281537
 20
-1.1931086107
 30
0.0
 10
48.1294342643
 20
-1.1793750381
 30
0.0
 10
48.1292281537
 20
-1.1656414655
 30
0.0
 10
48.1286159394
 20
-1.1519318547
 30
0.0
 10
48.1276104349
 20
-1.1382681876
 30
0.0
 10
48.1257767471
 20
-1.1201635395
 30
0.0
 10
48.1226249358
 20
-1.0977353635
 30
0.0
 10
48.1193259684
 20
-1.0799509068
 30
0.0
 10
48.1175237473
 20
-1.0711218626
 30
0.0
  0
SPLINE
  5
43B
100
AcDbEntity
  8
0
100
AcDbSpline
 62
7
  6
CONTINUOUS
 70
0
 71
3
 72
23
 73
19
 74
0
 42
0.0000001
 43
0.0000001
 44
0.0000000001
 40
0.0
 40
0.0
 40
0.0
 40
0.0
 40
0.0552200583
 40
0.1106748871
 40
0.1665926736
 40
0.2231878726
 40
0.2806564376
 40
0.3391704851
 40
0.3988763535
 40
0.4598908728
 40
0.5223035786
 40
0.5861741968
 40
0.6515348273
 40
0.7183856123
 40
0.7867085174
 40
0.8564722864
 40
0.9276136373
 40
1.0
 40
1.0
 40
1.0
 40
1.0
 10
48.1278076909
 20
-1.4393748513
 30
0.0
 10
48.1237952068
 20
-1.4393749404
 30
0.0
 10
48.1157482175
 20
-1.4390023446
 30
0.0
 10
48.103743183
 20
-1.437326726
 30
0.0
 10
48.0918425094
 20
-1.43454289
 30
0.0
 10
48.0800994462
 20
-1.4306630663
 30
0.0
 10
48.0685644357
 20
-1.4257051291
 30
0.0
 10
48.0572870406
 20
-1.4196914899
 30
0.0
 10
48.046315698
 20
-1.4126485445
 30
0.0
 10
48.0356965372
 20
-1.4046079635
 30
0.0
 10
48.0254751838
 20
-1.3956039763
 30
0.0
 10
48.0156939659
 20
-1.3856764021
 30
0.0
 10
48.0063954424
 20
-1.3748672569
 30
0.0
 10
47.9976173418
 20
-1.3632244177
 30
0.0
 10
47.9893978953
 20
-1.3507960033
 30
0.0
 10
47.9817702378
 20
-1.3376347388
 30
0.0
 10
47.9747695996
 20
-1.3237988391
 30
0.0
 10
47.9705731002
 20
-1.3142447113
 30
0.0
 10
47.9685850644
 20
-1.3093750381
 30
0.0
  0
SPLINE
  5
43C
100
AcDbEntity
  8
0
100
AcDbSpline
 62
7
  6
CONTINUOUS
 70
0
 71
3
 72
15
 73
11
 74
0
 42
0.0000001
 43
0.0000001
 44
0.0000000001
 40
0.0
 40
0.0
 40
0.0
 40
0.0
 40
0.1453524083
 40
0.2868079831
 40
0.4230969843
 40
0.5529474777
 40
0.6754525845
 40
0.7903911539
 40
0.8982555593
 40
1.0
 40
1.0
 40
1.0
 40
1.0
 10
48.1175237473
 20
-1.0711218626
 30
0.0
 10
48.1246313631
 20
-1.0667693546
 30
0.0
 10
48.1385709057
 20
-1.0580404047
 30
0.0
 10
48.1587910432
 20
-1.0446289852
 30
0.0
 10
48.1778302166
 20
-1.0310651563
 30
0.0
 10
48.1954397355
 20
-1.017396142
 30
0.0
 10
48.2114455425
 20
-1.0036945712
 30
0.0
 10
48.225801874
 20
-0.9900454702
 30
0.0
 10
48.2385987455
 20
-0.9765233778
 30
0.0
 10
48.246416546
 20
-0.9673876563
 30
0.0
 10
48.2501062688
 20
-0.9628686872
 30
0.0
  0
SPLINE
  5
43D
100
AcDbEntity
  8
0
100
AcDbSpline
 62
7
  6
CONTINUOUS
 70
0
 71
3
 72
33
 73
29
 74
0
 42
0.0000001
 43
0.0000001
 44
0.0000000001
 40
0.0
 40
0.0
 40
0.0
 40
0.0
 40
0.0248617031
 40
0.0498293083
 40
0.0750052916
 40
0.1004865152
 40
0.1263607673
 40
0.1527060222
 40
0.1795875392
 40
0.2070587667
 40
0.2351590604
 40
0.2639158084
 40
0.293342707
 40
0.3234424266
 40
0.3855854026
 40
0.4501825721
 40
0.5169033937
 40
0.585309275
 40
0.6548820701
 40
0.7250511664
 40
0.7601826356
 40
0.7952393726
 40
0.8301469022
 40
0.8648309296
 40
0.8992215798
 40
0.9332580601
 40
0.9668772299
 40
1.0
 40
1.0
 40
1.0
 40
1.0
 10
48.1277961046
 20
-0.9193752249
 30
0.0
 10
48.1237838016
 20
-0.919375314
 30
0.0
 10
48.1157371653
 20
-0.9197487676
 30
0.0
 10
48.1037328004
 20
-0.9214254324
 30
0.0
 10
48.0918326667
 20
-0.9242097421
 30
0.0
 10
48.0800904657
 20
-0.9280907343
 30
0.0
 10
48.068555882
 20
-0.9330486922
 30
0.0
 10
48.0572795719
 20
-0.9390634246
 30
0.0
 10
48.0463084558
 20
-0.9461060434
 30
0.0
 10
48.0356905752
 20
-0.9541476055
 30
0.0
 10
48.0254693063
 20
-0.9631510861
 30
0.0
 10
48.0156895681
 20
-0.9730791573
 30
0.0
 10
48.0063906466
 20
-0.9838878288
 30
0.0
 10
47.9945643951
 20
-0.9995768145
 30
0.0
 10
47.981243224
 20
-1.0211762655
 30
0.0
 10
47.9679362982
 20
-1.0494860991
 30
0.0
 10
47.9573498245
 20
-1.0799904017
 30
0.0
 10
47.9496604766
 20
-1.1121721826
 30
0.0
 10
47.9449951736
 20
-1.1454874155
 30
0.0
 10
47.9436922527
 20
-1.1737232709
 30
0.0
 10
47.9442163422
 20
-1.1963753286
 30
0.0
 10
47.9453937179
 20
-1.2133017045
 30
0.0
 10
47.9473512133
 20
-1.2300826683
 30
0.0
 10
47.9500787665
 20
-1.2466470902
 30
0.0
 10
47.9535665822
 20
-1.2629246269
 30
0.0
 10
47.9577991313
 20
-1.2788471945
 30
0.0
 10
47.9627590961
 20
-1.2943434202
 30
0.0
 10
47.9665646499
 20
-1.3044260535
 30
0.0
 10
47.9685850644
 20
-1.3093750381
 30
0.0
  0
SPLINE
  5
43E
100
AcDbEntity
  8
0
100
AcDbSpline
 62
7
  6
CONTINUOUS
 70
0
 71
3
 72
15
 73
11
 74
0
 42
0.0000001
 43
0.0000001
 44
0.0000000001
 40
0.0
 40
0.0
 40
0.0
 40
0.0
 40
0.1093848924
 40
0.2247529651
 40
0.3455303054
 40
0.4709316038
 40
0.5999829275
 40
0.7318632405
 40
0.865594525
 40
1.0
 40
1.0
 40
1.0
 40
1.0
 10
48.1363676255
 20
-1.3985466764
 30
0.0
 10
48.1356637449
 20
-1.3991206785
 30
0.0
 10
48.1343264364
 20
-1.4004372737
 30
0.0
 10
48.1326052919
 20
-1.4027434068
 30
0.0
 10
48.1311333298
 20
-1.4053683765
 30
0.0
 10
48.1299209877
 20
-1.4082446486
 30
0.0
 10
48.1289748148
 20
-1.4113148435
 30
0.0
 10
48.1282981897
 20
-1.414525592
 30
0.0
 10
48.1278923797
 20
-1.4178258482
 30
0.0
 10
48.1278018977
 20
-1.4200533231
 30
0.0
 10
48.1278018977
 20
-1.4211693308
 30
0.0
  0
SPLINE
  5
43F
100
AcDbEntity
  8
0
100
AcDbSpline
 62
7
  6
CONTINUOUS
 70
0
 71
3
 72
15
 73
11
 74
0
 42
0.0000001
 43
0.0000001
 44
0.0000000001
 40
0.0
 40
0.0
 40
0.0
 40
0.0
 40
0.1093848924
 40
0.2247529651
 40
0.3455303054
 40
0.4709316038
 40
0.5999829275
 40
0.7318632405
 40
0.865594525
 40
1.0
 40
1.0
 40
1.0
 40
1.0
 10
48.1363676255
 20
-0.9602033998
 30
0.0
 10
48.1356637449
 20
-0.9596293977
 30
0.0
 10
48.1343264364
 20
-0.9583128025
 30
0.0
 10
48.1326052919
 20
-0.9560066694
 30
0.0
 10
48.1311333298
 20
-0.9533816997
 30
0.0
 10
48.1299209877
 20
-0.9505054276
 30
0.0
 10
48.1289748148
 20
-0.9474352327
 30
0.0
 10
48.1282981897
 20
-0.9442244842
 30
0.0
 10
48.1278923797
 20
-0.940924228
 30
0.0
 10
48.1278018977
 20
-0.9386967531
 30
0.0
 10
48.1278018977
 20
-0.9375807454
 30
0.0
  0
SPLINE
  5
440
100
AcDbEntity
  8
0
100
AcDbSpline
 62
7
  6
CONTINUOUS
 70
0
 71
3
 72
15
 73
11
 74
0
 42
0.0000001
 43
0.0000001
 44
0.0000000001
 40
0.0
 40
0.0
 40
0.0
 40
0.0
 40
0.1453524083
 40
0.2868079831
 40
0.4230969843
 40
0.5529474777
 40
0.6754525845
 40
0.7903911539
 40
0.8982555593
 40
1.0
 40
1.0
 40
1.0
 40
1.0
 10
36.6917890276
 20
-1.3958813891
 30
0.0
 10
36.6846814119
 20
-1.3915288811
 30
0.0
 10
36.6707418693
 20
-1.3827999311
 30
0.0
 10
36.6505217318
 20
-1.3693885117
 30
0.0
 10
36.6314825584
 20
-1.3558246827
 30
0.0
 10
36.6138730395
 20
-1.3421556685
 30
0.0
 10
36.5978672325
 20
-1.3284540976
 30
0.0
 10
36.583510901
 20
-1.3148049966
 30
0.0
 10
36.5707140295
 20
-1.3012829042
 30
0.0
 10
36.562896229
 20
-1.2921471827
 30
0.0
 10
36.5592065062
 20
-1.2876282136
 30
0.0
  0
SPLINE
  5
441
100
AcDbEntity
  8
0
100
AcDbSpline
 62
7
  6
CONTINUOUS
 70
0
 71
3
 72
19
 73
15
 74
0
 42
0.0000001
 43
0.0000001
 44
0.0000000001
 40
0.0
 40
0.0
 40
0.0
 40
0.0
 40
0.1239135187
 40
0.2486584689
 40
0.3113153546
 40
0.3741210923
 40
0.4370327446
 40
0.5
 40
0.5629672554
 40
0.6258789077
 40
0.6886846454
 40
0.7513415311
 40
0.8760864813
 40
1.0
 40
1.0
 40
1.0
 40
1.0
 10
36.5592065062
 20
-1.2876282136
 30
0.0
 10
36.5574042851
 20
-1.2787991694
 30
0.0
 10
36.5541053177
 20
-1.2610147127
 30
0.0
 10
36.5509535065
 20
-1.2385865367
 30
0.0
 10
36.5491198186
 20
-1.2204818886
 30
0.0
 10
36.5481143141
 20
-1.2068182215
 30
0.0
 10
36.5475020998
 20
-1.1931086107
 30
0.0
 10
36.5472959892
 20
-1.1793750381
 30
0.0
 10
36.5475020998
 20
-1.1656414655
 30
0.0
 10
36.5481143141
 20
-1.1519318547
 30
0.0
 10
36.5491198186
 20
-1.1382681876
 30
0.0
 10
36.5509535065
 20
-1.1201635395
 30
0.0
 10
36.5541053177
 20
-1.0977353635
 30
0.0
 10
36.5574042851
 20
-1.0799509068
 30
0.0
 10
36.5592065062
 20
-1.0711218626
 30
0.0
  0
SPLINE
  5
442
100
AcDbEntity
  8
0
100
AcDbSpline
 62
7
  6
CONTINUOUS
 70
0
 71
3
 72
15
 73
11
 74
0
 42
0.0000001
 43
0.0000001
 44
0.0000000001
 40
0.0
 40
0.0
 40
0.0
 40
0.0
 40
0.1017444407
 40
0.2096088461
 40
0.3245474155
 40
0.4470525223
 40
0.5769030157
 40
0.7131920169
 40
0.8546475917
 40
1.0
 40
1.0
 40
1.0
 40
1.0
 10
36.5592065062
 20
-1.0711218626
 30
0.0
 10
36.562896229
 20
-1.0666028935
 30
0.0
 10
36.5707140295
 20
-1.057467172
 30
0.0
 10
36.583510901
 20
-1.0439450796
 30
0.0
 10
36.5978672325
 20
-1.0302959786
 30
0.0
 10
36.6138730395
 20
-1.0165944078
 30
0.0
 10
36.6314825584
 20
-1.0029253935
 30
0.0
 10
36.6505217318
 20
-0.9893615645
 30
0.0
 10
36.6707418693
 20
-0.9759501451
 30
0.0
 10
36.6846814119
 20
-0.9672211952
 30
0.0
 10
36.6917890276
 20
-0.9628686872
 30
0.0
  0
SPLINE
  5
443
100
AcDbEntity
  8
0
100
AcDbSpline
 62
7
  6
CONTINUOUS
 70
0
 71
3
 72
33
 73
29
 74
0
 42
0.0000001
 43
0.0000001
 44
0.0000000001
 40
0.0
 40
0.0
 40
0.0
 40
0.0
 40
0.0331227701
 40
0.0667419399
 40
0.1007784202
 40
0.1351690704
 40
0.1698530978
 40
0.2047606274
 40
0.2398173644
 40
0.2749488336
 40
0.3451179299
 40
0.414690725
 40
0.4830966063
 40
0.5498174279
 40
0.6144145974
 40
0.6765575734
 40
0.706657293
 40
0.7360841916
 40
0.7648409396
 40
0.7929412333
 40
0.8204124608
 40
0.8472939778
 40
0.8736392327
 40
0.8995134848
 40
0.9249947084
 40
0.9501706917
 40
0.9751382969
 40
1.0
 40
1.0
 40
1.0
 40
1.0
 10
37.0086655711
 20
-1.0493750381
 30
0.0
 10
37.0106859856
 20
-1.0543240227
 30
0.0
 10
37.0144915394
 20
-1.064406656
 30
0.0
 10
37.0194515043
 20
-1.0799028817
 30
0.0
 10
37.0236840533
 20
-1.0958254493
 30
0.0
 10
37.027171869
 20
-1.112102986
 30
0.0
 10
37.0298994222
 20
-1.1286674079
 30
0.0
 10
37.0318569177
 20
-1.1454483717
 30
0.0
 10
37.0330342933
 20
-1.1623747476
 30
0.0
 10
37.0335583828
 20
-1.1850268053
 30
0.0
 10
37.0322554619
 20
-1.2132626607
 30
0.0
 10
37.0275901589
 20
-1.2465778936
 30
0.0
 10
37.019900811
 20
-1.2787596745
 30
0.0
 10
37.0093143374
 20
-1.3092639771
 30
0.0
 10
36.9960074115
 20
-1.3375738108
 30
0.0
 10
36.9826862405
 20
-1.3591732617
 30
0.0
 10
36.9708599889
 20
-1.3748622474
 30
0.0
 10
36.9615610674
 20
-1.3856709189
 30
0.0
 10
36.9517813292
 20
-1.3955989902
 30
0.0
 10
36.9415600603
 20
-1.4046024707
 30
0.0
 10
36.9309421797
 20
-1.4126440328
 30
0.0
 10
36.9199710636
 20
-1.4196866517
 30
0.0
 10
36.9086947535
 20
-1.4257013841
 30
0.0
 10
36.8971601699
 20
-1.4306593419
 30
0.0
 10
36.8854179688
 20
-1.4345403341
 30
0.0
 10
36.8735178352
 20
-1.4373246438
 30
0.0
 10
36.8615134702
 20
-1.4390013087
 30
0.0
 10
36.8534668339
 20
-1.4393747622
 30
0.0
 10
36.8494545309
 20
-1.4393748513
 30
0.0
  0
SPLINE
  5
444
100
AcDbEntity
  8
0
100
AcDbSpline
 62
7
  6
CONTINUOUS
 70
0
 71
3
 72
23
 73
19
 74
0
 42
0.0000001
 43
0.0000001
 44
0.0000000001
 40
0.0
 40
0.0
 40
0.0
 40
0.0
 40
0.0723863627
 40
0.1435277136
 40
0.2132914826
 40
0.2816143877
 40
0.3484651727
 40
0.4138258032
 40
0.4776964214
 40
0.5401091272
 40
0.6011236465
 40
0.6608295149
 40
0.7193435624
 40
0.7768121274
 40
0.8334073264
 40
0.8893251129
 40
0.9447799417
 40
1.0
 40
1.0
 40
1.0
 40
1.0
 10
37.0086655711
 20
-1.0493750381
 30
0.0
 10
37.0066775353
 20
-1.0445053649
 30
0.0
 10
37.0024810359
 20
-1.0349512371
 30
0.0
 10
36.9954803977
 20
-1.0211153374
 30
0.0
 10
36.9878527403
 20
-1.0079540729
 30
0.0
 10
36.9796332937
 20
-0.9955256586
 30
0.0
 10
36.9708551931
 20
-0.9838828193
 30
0.0
 10
36.9615566696
 20
-0.9730736741
 30
0.0
 10
36.9517754517
 20
-0.9631460999
 30
0.0
 10
36.9415540983
 20
-0.9541421127
 30
0.0
 10
36.9309349375
 20
-0.9461015317
 30
0.0
 10
36.919963595
 20
-0.9390585863
 30
0.0
 10
36.9086861998
 20
-0.9330449472
 30
0.0
 10
36.8971511893
 20
-0.9280870099
 30
0.0
 10
36.8854081262
 20
-0.9242071862
 30
0.0
 10
36.8735074525
 20
-0.9214233502
 30
0.0
 10
36.861502418
 20
-0.9197477316
 30
0.0
 10
36.8534554287
 20
-0.9193751358
 30
0.0
 10
36.8494429447
 20
-0.9193752249
 30
0.0
  0
SPLINE
  5
445
100
AcDbEntity
  8
0
100
AcDbSpline
 62
7
  6
CONTINUOUS
 70
0
 71
3
 72
11
 73
7
 74
0
 42
0.0000001
 43
0.0000001
 44
0.0000000001
 40
0.0
 40
0.0
 40
0.0
 40
0.0
 40
0.2401732686
 40
0.4850365616
 40
0.7374846583
 40
1.0
 40
1.0
 40
1.0
 40
1.0
 10
36.7986077602
 20
-1.3958813891
 30
0.0
 10
36.79921263
 20
-1.3958813891
 30
0.0
 10
36.8004370241
 20
-1.3960012569
 30
0.0
 10
36.8022296645
 20
-1.3965233399
 30
0.0
 10
36.8039525501
 20
-1.3973761152
 30
0.0
 10
36.8050153014
 20
-1.3981288481
 30
0.0
 10
36.8055276709
 20
-1.3985466764
 30
0.0
  0
SPLINE
  5
446
100
AcDbEntity
  8
0
100
AcDbSpline
 62
7
  6
CONTINUOUS
 70
0
 71
3
 72
11
 73
7
 74
0
 42
0.0000001
 43
0.0000001
 44
0.0000000001
 40
0.0
 40
0.0
 40
0.0
 40
0.0
 40
0.2401732686
 40
0.4850365616
 40
0.7374846583
 40
1.0
 40
1.0
 40
1.0
 40
1.0
 10
36.7986077602
 20
-0.9628686872
 30
0.0
 10
36.79921263
 20
-0.9628686872
 30
0.0
 10
36.8004370241
 20
-0.9627488193
 30
0.0
 10
36.8022296645
 20
-0.9622267363
 30
0.0
 10
36.8039525501
 20
-0.961373961
 30
0.0
 10
36.8050153014
 20
-0.9606212281
 30
0.0
 10
36.8055276709
 20
-0.9602033998
 30
0.0
  0
SPLINE
  5
447
100
AcDbEntity
  8
0
100
AcDbSpline
 62
7
  6
CONTINUOUS
 70
0
 71
3
 72
15
 73
11
 74
0
 42
0.0000001
 43
0.0000001
 44
0.0000000001
 40
0.0
 40
0.0
 40
0.0
 40
0.0
 40
0.119057511
 40
0.2387427078
 40
0.3596605012
 40
0.482372663
 40
0.6073780386
 40
0.7351040355
 40
0.8658915427
 40
1.0
 40
1.0
 40
1.0
 40
1.0
 10
36.8140991919
 20
-1.4393748513
 30
0.0
 10
36.8096277005
 20
-1.4393749506
 30
0.0
 10
36.8006542777
 20
-1.4389117237
 30
0.0
 10
36.7872852139
 20
-1.4368293996
 30
0.0
 10
36.7740610751
 20
-1.4333735343
 30
0.0
 10
36.7610559892
 20
-1.428561838
 30
0.0
 10
36.7483384004
 20
-1.4224241214
 30
0.0
 10
36.7359770449
 20
-1.4149923212
 30
0.0
 10
36.7240366197
 20
-1.4063105666
 30
0.0
 10
36.7164952685
 20
-1.399801918
 30
0.0
 10
36.7128133806
 20
-1.3963649554
 30
0.0
  0
SPLINE
  5
448
100
AcDbEntity
  8
0
100
AcDbSpline
 62
7
  6
CONTINUOUS
 70
0
 71
3
 72
17
 73
13
 74
0
 42
0.0000001
 43
0.0000001
 44
0.0000000001
 40
0.0
 40
0.0
 40
0.0
 40
0.0
 40
0.1189994808
 40
0.2386330948
 40
0.2988987019
 40
0.3595485145
 40
0.4822355288
 40
0.5444348928
 40
0.6072696525
 40
0.7350094912
 40
0.8658344983
 40
1.0
 40
1.0
 40
1.0
 40
1.0
 10
36.8140876056
 20
-0.9193752249
 30
0.0
 10
36.809595036
 20
-0.9193753247
 30
0.0
 10
36.8005794353
 20
-0.9198440375
 30
0.0
 10
36.7894109081
 20
-0.9215929214
 30
0.0
 10
36.7805679163
 20
-0.9236752446
 30
0.0
 10
36.7717301396
 20
-0.9262307244
 30
0.0
 10
36.7630252915
 20
-0.9294674357
 30
0.0
 10
36.7545122441
 20
-0.9333456779
 30
0.0
 10
36.7460204012
 20
-0.937706419
 30
0.0
 10
36.7356203572
 20
-0.9439917255
 30
0.0
 10
36.7236391169
 20
-0.9527541865
 30
0.0
 10
36.7160744832
 20
-0.9593208563
 30
0.0
 10
36.7123824191
 20
-0.96278845
 30
0.0
  0
SPLINE
  5
449
100
AcDbEntity
  8
0
100
AcDbSpline
 62
7
  6
CONTINUOUS
 70
0
 71
3
 72
19
 73
15
 74
0
 42
0.0000001
 43
0.0000001
 44
0.0000000001
 40
0.0
 40
0.0
 40
0.0
 40
0.0
 40
0.1239135187
 40
0.2486584689
 40
0.3113153546
 40
0.3741210923
 40
0.4370327446
 40
0.5
 40
0.5629672554
 40
0.6258789077
 40
0.6886846454
 40
0.7513415311
 40
0.8760864813
 40
1.0
 40
1.0
 40
1.0
 40
1.0
 10
36.8243715491
 20
-1.0711218626
 30
0.0
 10
36.822569328
 20
-1.0799509068
 30
0.0
 10
36.8192703606
 20
-1.0977353635
 30
0.0
 10
36.8161185494
 20
-1.1201635395
 30
0.0
 10
36.8142848615
 20
-1.1382681876
 30
0.0
 10
36.8132793571
 20
-1.1519318547
 30
0.0
 10
36.8126671427
 20
-1.1656414655
 30
0.0
 10
36.8124610322
 20
-1.1793750381
 30
0.0
 10
36.8126671427
 20
-1.1931086107
 30
0.0
 10
36.8132793571
 20
-1.2068182215
 30
0.0
 10
36.8142848615
 20
-1.2204818886
 30
0.0
 10
36.8161185494
 20
-1.2385865367
 30
0.0
 10
36.8192703606
 20
-1.2610147127
 30
0.0
 10
36.822569328
 20
-1.2787991694
 30
0.0
 10
36.8243715491
 20
-1.2876282136
 30
0.0
  0
SPLINE
  5
44A
100
AcDbEntity
  8
0
100
AcDbSpline
 62
7
  6
CONTINUOUS
 70
0
 71
3
 72
17
 73
13
 74
0
 42
0.0000001
 43
0.0000001
 44
0.0000000001
 40
0.0
 40
0.0
 40
0.0
 40
0.0
 40
0.0507521541
 40
0.1062279752
 40
0.1656818145
 40
0.2283685672
 40
0.3603916239
 40
0.4965882669
 40
0.6320482742
 40
0.7629485808
 40
0.8864675634
 40
1.0
 40
1.0
 40
1.0
 40
1.0
 10
36.9311902817
 20
-1.2876282136
 30
0.0
 10
36.9317645851
 20
-1.2876282136
 30
0.0
 10
36.9329668712
 20
-1.2876828107
 30
0.0
 10
36.934830558
 20
-1.2878969593
 30
0.0
 10
36.9368112165
 20
-1.2882447035
 30
0.0
 10
36.9396158474
 20
-1.2888861681
 30
0.0
 10
36.9432053332
 20
-1.2899686865
 30
0.0
 10
36.9474730526
 20
-1.2916071248
 30
0.0
 10
36.9516101396
 20
-1.2935214602
 30
0.0
 10
36.9554893275
 20
-1.2956295852
 30
0.0
 10
36.9590091768
 20
-1.2978594266
 30
0.0
 10
36.9611664227
 20
-1.2994596593
 30
0.0
 10
36.9621615587
 20
-1.3002721845
 30
0.0
  0
SPLINE
  5
44B
100
AcDbEntity
  8
0
100
AcDbSpline
 62
7
  6
CONTINUOUS
 70
0
 71
3
 72
17
 73
13
 74
0
 42
0.0000001
 43
0.0000001
 44
0.0000000001
 40
0.0
 40
0.0
 40
0.0
 40
0.0
 40
0.0507521541
 40
0.1062279752
 40
0.1656818145
 40
0.2283685672
 40
0.3603916239
 40
0.4965882669
 40
0.6320482742
 40
0.7629485808
 40
0.8864675634
 40
1.0
 40
1.0
 40
1.0
 40
1.0
 10
36.9311902817
 20
-1.0711218626
 30
0.0
 10
36.9317645851
 20
-1.0711218626
 30
0.0
 10
36.9329668712
 20
-1.0710672655
 30
0.0
 10
36.934830558
 20
-1.0708531169
 30
0.0
 10
36.9368112165
 20
-1.0705053727
 30
0.0
 10
36.9396158474
 20
-1.0698639081
 30
0.0
 10
36.9432053332
 20
-1.0687813897
 30
0.0
 10
36.9474730526
 20
-1.0671429514
 30
0.0
 10
36.9516101396
 20
-1.065228616
 30
0.0
 10
36.9554893275
 20
-1.063120491
 30
0.0
 10
36.9590091768
 20
-1.0608906496
 30
0.0
 10
36.9611664227
 20
-1.0592904169
 30
0.0
 10
36.9621615587
 20
-1.0584778917
 30
0.0
  0
SPLINE
  5
44C
100
AcDbEntity
  8
0
100
AcDbSpline
 62
7
  6
CONTINUOUS
 70
0
 71
3
 72
15
 73
11
 74
0
 42
0.0000001
 43
0.0000001
 44
0.0000000001
 40
0.0
 40
0.0
 40
0.0
 40
0.0
 40
0.1453524083
 40
0.2868079831
 40
0.4230969843
 40
0.5529474777
 40
0.6754525845
 40
0.7903911539
 40
0.8982555593
 40
1.0
 40
1.0
 40
1.0
 40
1.0
 10
36.8243715491
 20
-1.2876282136
 30
0.0
 10
36.8172639333
 20
-1.2919807216
 30
0.0
 10
36.8033243907
 20
-1.3007096715
 30
0.0
 10
36.7831042533
 20
-1.314121091
 30
0.0
 10
36.7640650799
 20
-1.3276849199
 30
0.0
 10
36.7464555609
 20
-1.3413539342
 30
0.0
 10
36.730449754
 20
-1.355055505
 30
0.0
 10
36.7160934225
 20
-1.368704606
 30
0.0
 10
36.7032965509
 20
-1.3822266985
 30
0.0
 10
36.6954787505
 20
-1.3913624199
 30
0.0
 10
36.6917890276
 20
-1.3958813891
 30
0.0
  0
SPLINE
  5
44D
100
AcDbEntity
  8
0
100
AcDbSpline
 62
7
  6
CONTINUOUS
 70
0
 71
3
 72
9
 73
5
 74
0
 42
0.0000001
 43
0.0000001
 44
0.0000000001
 40
0.0
 40
0.0
 40
0.0
 40
0.0
 40
0.5053692387
 40
1.0
 40
1.0
 40
1.0
 40
1.0
 10
36.973310232
 20
-1.0493750381
 30
0.0
 10
36.9709200101
 20
-1.0435202142
 30
0.0
 10
36.9658232962
 20
-1.0320810468
 30
0.0
 10
36.9599805262
 20
-1.021002969
 30
0.0
 10
36.9569021158
 20
-1.0156332388
 30
0.0
  0
SPLINE
  5
44E
100
AcDbEntity
  8
0
100
AcDbSpline
 62
7
  6
CONTINUOUS
 70
0
 71
3
 72
21
 73
17
 74
0
 42
0.0000001
 43
0.0000001
 44
0.0000000001
 40
0.0
 40
0.0
 40
0.0
 40
0.0
 40
0.1409041298
 40
0.2094611482
 40
0.2767194308
 40
0.4072923491
 40
0.4707177245
 40
0.5329483315
 40
0.5940569821
 40
0.6541324635
 40
0.7132828325
 40
0.7716327105
 40
0.8293213619
 40
0.8865022518
 40
0.9433381497
 40
1.0
 40
1.0
 40
1.0
 40
1.0
 10
36.9569021158
 20
-1.0156332388
 30
0.0
 10
36.9526870247
 20
-1.0082807747
 30
0.0
 10
36.9458878487
 20
-0.9976404481
 30
0.0
 10
36.9358340462
 20
-0.9843678732
 30
0.0
 10
36.9254733617
 20
-0.972138014
 30
0.0
 10
36.91430991
 20
-0.9610167513
 30
0.0
 10
36.9024222553
 20
-0.9511957073
 30
0.0
 10
36.8933156093
 20
-0.9446044651
 30
0.0
 10
36.8839630593
 20
-0.9387379726
 30
0.0
 10
36.8743922275
 20
-0.9336153369
 30
0.0
 10
36.8646329555
 20
-0.9292528281
 30
0.0
 10
36.8547156932
 20
-0.925663493
 30
0.0
 10
36.8446707734
 20
-0.9228606009
 30
0.0
 10
36.8345299063
 20
-0.9208512742
 30
0.0
 10
36.8243252834
 20
-0.9196436526
 30
0.0
 10
36.817495664
 20
-0.9193751492
 30
0.0
 10
36.8140876056
 20
-0.9193752249
 30
0.0
  0
SPLINE
  5
44F
100
AcDbEntity
  8
0
100
AcDbSpline
 62
7
  6
CONTINUOUS
 70
0
 71
3
 72
12
 73
8
 74
0
 42
0.0000001
 43
0.0000001
 44
0.0000000001
 40
0.0
 40
0.0
 40
0.0
 40
0.0
 40
0.1205191725
 40
0.2428344148
 40
0.4290465437
 40
0.6179052566
 40
1.0
 40
1.0
 40
1.0
 40
1.0
 10
36.973310232
 20
-1.0493750381
 30
0.0
 10
36.975316907
 20
-1.0542903678
 30
0.0
 10
36.9790982654
 20
-1.0643034216
 30
0.0
 10
36.9848711959
 20
-1.082307692
 30
0.0
 10
36.9902573001
 20
-1.1035697525
 30
0.0
 10
36.9961089866
 20
-1.1364264138
 30
0.0
 10
36.9978975942
 20
-1.1616221342
 30
0.0
 10
36.9979399561
 20
-1.1784542844
 30
0.0
  0
SPLINE
  5
450
100
AcDbEntity
  8
0
100
AcDbSpline
 62
7
  6
CONTINUOUS
 70
0
 71
3
 72
14
 73
10
 74
0
 42
0.0000001
 43
0.0000001
 44
0.0000000001
 40
0.0
 40
0.0
 40
0.0
 40
0.0
 40
0.1296025681
 40
0.2587380804
 40
0.3869554564
 40
0.5138209495
 40
0.6389264169
 40
0.7618957124
 40
1.0
 40
1.0
 40
1.0
 40
1.0
 10
36.9979408823
 20
-1.1797978208
 30
0.0
 10
36.9979325764
 20
-1.1870963289
 30
0.0
 10
36.9974817122
 20
-1.2016702942
 30
0.0
 10
36.9955088216
 20
-1.2233844864
 30
0.0
 10
36.9922517242
 20
-1.2447888551
 30
0.0
 10
36.9877345818
 20
-1.2657306042
 30
0.0
 10
36.9819878857
 20
-1.2860649862
 30
0.0
 10
36.9728433213
 20
-1.3118835342
 30
0.0
 10
36.9641390657
 20
-1.330358177
 30
0.0
 10
36.9575258024
 20
-1.3420226131
 30
0.0
  0
SPLINE
  5
451
100
AcDbEntity
  8
0
100
AcDbSpline
 62
7
  6
CONTINUOUS
 70
0
 71
3
 72
20
 73
16
 74
0
 42
0.0000001
 43
0.0000001
 44
0.0000000001
 40
0.0
 40
0.0
 40
0.0
 40
0.0
 40
0.1410158749
 40
0.2768709764
 40
0.4075034945
 40
0.4709459353
 40
0.5331847257
 40
0.5942905624
 40
0.654354574
 40
0.7134839207
 40
0.7718046037
 40
0.8294572489
 40
0.8865960469
 40
0.9433862658
 40
1.0
 40
1.0
 40
1.0
 40
1.0
 10
36.9575258024
 20
-1.3420226131
 30
0.0
 10
36.953313872
 20
-1.349451592
 30
0.0
 10
36.9443321242
 20
-1.3636509257
 30
0.0
 10
36.9289911048
 20
-1.3830397121
 30
0.0
 10
36.9148558982
 20
-1.3972354046
 30
0.0
 10
36.9029180193
 20
-1.4071704409
 30
0.0
 10
36.893770991
 20
-1.4138395956
 30
0.0
 10
36.8843725303
 20
-1.4197748302
 30
0.0
 10
36.8747526693
 20
-1.4249591536
 30
0.0
 10
36.864940607
 20
-1.4293743321
 30
0.0
 10
36.8549675544
 20
-1.4330069063
 30
0.0
 10
36.8448648811
 20
-1.4358452133
 30
0.0
 10
36.8346640296
 20
-1.4378786935
 30
0.0
 10
36.8243985467
 20
-1.4391025255
 30
0.0
 10
36.8175277156
 20
-1.4393747752
 30
0.0
 10
36.8140991919
 20
-1.4393748513
 30
0.0
  0
SPLINE
  5
452
100
AcDbEntity
  8
0
100
AcDbSpline
 62
7
  6
CONTINUOUS
 70
0
 71
3
 72
45
 73
41
 74
0
 42
0.0000001
 43
0.0000001
 44
0.0000000001
 40
0.0
 40
0.0
 40
0.0
 40
0.0
 40
0.0128513267
 40
0.0257402646
 40
0.038691441
 40
0.051730823
 40
0.0648871307
 40
0.0781878531
 40
0.1053036192
 40
0.1332505709
 40
0.1621439873
 40
0.1920543393
 40
0.2230077703
 40
0.2549895349
 40
0.287948694
 40
0.3218028922
 40
0.3564428168
 40
0.3917370601
 40
0.4275370898
 40
0.4636814477
 40
0.5
 40
0.5363185523
 40
0.5724629102
 40
0.6082629399
 40
0.6435571832
 40
0.6781971078
 40
0.712051306
 40
0.7450104651
 40
0.7769922297
 40
0.8079456607
 40
0.8378560127
 40
0.8667494291
 40
0.8946963808
 40
0.9218121469
 40
0.9351128693
 40
0.948269177
 40
0.961308559
 40
0.9742597354
 40
0.9871486733
 40
1.0
 40
1.0
 40
1.0
 40
1.0
 10
36.6797431103
 20
-0.9923750381
 30
0.0
 10
36.6819063432
 20
-0.9923750381
 30
0.0
 10
36.6862406296
 20
-0.9925260388
 30
0.0
 10
36.6927231274
 20
-0.9932029505
 30
0.0
 10
36.6991752778
 20
-0.9943291244
 30
0.0
 10
36.705579236
 20
-0.9959026659
 30
0.0
 10
36.7119198704
 20
-0.9979185692
 30
0.0
 10
36.7203211993
 20
-1.0012103121
 30
0.0
 10
36.7306095281
 20
-1.0064382602
 30
0.0
 10
36.7423671496
 20
-1.0143355241
 30
0.0
 10
36.7535110409
 20
-1.0238177256
 30
0.0
 10
36.7639354746
 20
-1.0347902805
 30
0.0
 10
36.7735433866
 20
-1.0471467045
 30
0.0
 10
36.7822454028
 20
-1.0607673982
 30
0.0
 10
36.7899604098
 20
-1.0755216499
 30
0.0
 10
36.7966158232
 20
-1.0912684795
 30
0.0
 10
36.8021489037
 20
-1.1078574344
 30
0.0
 10
36.8065078177
 20
-1.1251298957
 30
0.0
 10
36.809651319
 20
-1.1429208804
 30
0.0
 10
36.8115492429
 20
-1.1610604149
 30
0.0
 10
36.8121838236
 20
-1.1793750381
 30
0.0
 10
36.8115492429
 20
-1.1976896613
 30
0.0
 10
36.809651319
 20
-1.2158291958
 30
0.0
 10
36.8065078177
 20
-1.2336201805
 30
0.0
 10
36.8021489037
 20
-1.2508926418
 30
0.0
 10
36.7966158232
 20
-1.2674815967
 30
0.0
 10
36.7899604098
 20
-1.2832284263
 30
0.0
 10
36.7822454028
 20
-1.297982678
 30
0.0
 10
36.7735433866
 20
-1.3116033717
 30
0.0
 10
36.7639354746
 20
-1.3239597957
 30
0.0
 10
36.7535110409
 20
-1.3349323506
 30
0.0
 10
36.7423671496
 20
-1.3444145521
 30
0.0
 10
36.7306095281
 20
-1.352311816
 30
0.0
 10
36.7203211993
 20
-1.3575397641
 30
0.0
 10
36.7119198704
 20
-1.360831507
 30
0.0
 10
36.705579236
 20
-1.3628474103
 30
0.0
 10
36.6991752778
 20
-1.3644209518
 30
0.0
 10
36.6927231274
 20
-1.3655471257
 30
0.0
 10
36.6862406296
 20
-1.3662240374
 30
0.0
 10
36.6819063432
 20
-1.3663750381
 30
0.0
 10
36.6797431103
 20
-1.3663750381
 30
0.0
  0
SPLINE
  5
453
100
AcDbEntity
  8
0
100
AcDbSpline
 62
7
  6
CONTINUOUS
 70
0
 71
3
 72
15
 73
11
 74
0
 42
0.0000001
 43
0.0000001
 44
0.0000000001
 40
0.0
 40
0.0
 40
0.0
 40
0.0
 40
0.1093848924
 40
0.2247529651
 40
0.3455303054
 40
0.4709316038
 40
0.5999829275
 40
0.7318632405
 40
0.865594525
 40
1.0
 40
1.0
 40
1.0
 40
1.0
 10
36.8055276709
 20
-1.3985466764
 30
0.0
 10
36.8062315515
 20
-1.3991206785
 30
0.0
 10
36.8075688601
 20
-1.4004372737
 30
0.0
 10
36.8092900045
 20
-1.4027434068
 30
0.0
 10
36.8107619666
 20
-1.4053683765
 30
0.0
 10
36.8119743088
 20
-1.4082446486
 30
0.0
 10
36.8129204817
 20
-1.4113148435
 30
0.0
 10
36.8135971068
 20
-1.414525592
 30
0.0
 10
36.8140029167
 20
-1.4178258482
 30
0.0
 10
36.8140933987
 20
-1.4200533231
 30
0.0
 10
36.8140933987
 20
-1.4211693308
 30
0.0
  0
SPLINE
  5
454
100
AcDbEntity
  8
0
100
AcDbSpline
 62
7
  6
CONTINUOUS
 70
0
 71
3
 72
15
 73
11
 74
0
 42
0.0000001
 43
0.0000001
 44
0.0000000001
 40
0.0
 40
0.0
 40
0.0
 40
0.0
 40
0.1017444407
 40
0.2096088461
 40
0.3245474155
 40
0.4470525223
 40
0.5769030157
 40
0.7131920169
 40
0.8546475917
 40
1.0
 40
1.0
 40
1.0
 40
1.0
 10
36.6917890276
 20
-0.9628686872
 30
0.0
 10
36.6954787505
 20
-0.9673876563
 30
0.0
 10
36.7032965509
 20
-0.9765233778
 30
0.0
 10
36.7160934225
 20
-0.9900454702
 30
0.0
 10
36.730449754
 20
-1.0036945712
 30
0.0
 10
36.7464555609
 20
-1.017396142
 30
0.0
 10
36.7640650799
 20
-1.0310651563
 30
0.0
 10
36.7831042533
 20
-1.0446289852
 30
0.0
 10
36.8033243907
 20
-1.0580404047
 30
0.0
 10
36.8172639333
 20
-1.0667693546
 30
0.0
 10
36.8243715491
 20
-1.0711218626
 30
0.0
  0
SPLINE
  5
455
100
AcDbEntity
  8
0
100
AcDbSpline
 62
7
  6
CONTINUOUS
 70
0
 71
3
 72
15
 73
11
 74
0
 42
0.0000001
 43
0.0000001
 44
0.0000000001
 40
0.0
 40
0.0
 40
0.0
 40
0.0
 40
0.1093848924
 40
0.2247529651
 40
0.3455303054
 40
0.4709316038
 40
0.5999829275
 40
0.7318632405
 40
0.865594525
 40
1.0
 40
1.0
 40
1.0
 40
1.0
 10
36.8055276709
 20
-0.9602033998
 30
0.0
 10
36.8062315515
 20
-0.9596293977
 30
0.0
 10
36.8075688601
 20
-0.9583128025
 30
0.0
 10
36.8092900045
 20
-0.9560066694
 30
0.0
 10
36.8107619666
 20
-0.9533816997
 30
0.0
 10
36.8119743088
 20
-0.9505054276
 30
0.0
 10
36.8129204817
 20
-0.9474352327
 30
0.0
 10
36.8135971068
 20
-0.9442244842
 30
0.0
 10
36.8140029167
 20
-0.940924228
 30
0.0
 10
36.8140933987
 20
-0.9386967531
 30
0.0
 10
36.8140933987
 20
-0.9375807454
 30
0.0
  0
SPLINE
  5
456
100
AcDbEntity
  8
0
100
AcDbSpline
 62
7
  6
CONTINUOUS
 70
0
 71
3
 72
45
 73
41
 74
0
 42
0.0000001
 43
0.0000001
 44
0.0000000001
 40
0.0
 40
0.0
 40
0.0
 40
0.0
 40
0.0128513267
 40
0.0257402646
 40
0.038691441
 40
0.051730823
 40
0.0648871307
 40
0.0781878531
 40
0.1053036192
 40
0.1332505709
 40
0.1621439873
 40
0.1920543393
 40
0.2230077703
 40
0.2549895349
 40
0.287948694
 40
0.3218028922
 40
0.3564428168
 40
0.3917370601
 40
0.4275370898
 40
0.4636814477
 40
0.5
 40
0.5363185523
 40
0.5724629102
 40
0.6082629399
 40
0.6435571832
 40
0.6781971078
 40
0.712051306
 40
0.7450104651
 40
0.7769922297
 40
0.8079456607
 40
0.8378560127
 40
0.8667494291
 40
0.8946963808
 40
0.9218121469
 40
0.9351128693
 40
0.948269177
 40
0.961308559
 40
0.9742597354
 40
0.9871486733
 40
1.0
 40
1.0
 40
1.0
 40
1.0
 10
36.6797431103
 20
-1.3663750381
 30
0.0
 10
36.6775798774
 20
-1.3663750381
 30
0.0
 10
36.673245591
 20
-1.3662240374
 30
0.0
 10
36.6667630933
 20
-1.3655471257
 30
0.0
 10
36.6603109429
 20
-1.3644209518
 30
0.0
 10
36.6539069846
 20
-1.3628474103
 30
0.0
 10
36.6475663503
 20
-1.360831507
 30
0.0
 10
36.6391650213
 20
-1.3575397641
 30
0.0
 10
36.6288766925
 20
-1.352311816
 30
0.0
 10
36.617119071
 20
-1.3444145521
 30
0.0
 10
36.6059751797
 20
-1.3349323506
 30
0.0
 10
36.595550746
 20
-1.3239597957
 30
0.0
 10
36.5859428341
 20
-1.3116033717
 30
0.0
 10
36.5772408178
 20
-1.297982678
 30
0.0
 10
36.5695258108
 20
-1.2832284263
 30
0.0
 10
36.5628703974
 20
-1.2674815967
 30
0.0
 10
36.5573373169
 20
-1.2508926418
 30
0.0
 10
36.552978403
 20
-1.2336201805
 30
0.0
 10
36.5498349016
 20
-1.2158291958
 30
0.0
 10
36.5479369777
 20
-1.1976896613
 30
0.0
 10
36.547302397
 20
-1.1793750381
 30
0.0
 10
36.5479369777
 20
-1.1610604149
 30
0.0
 10
36.5498349016
 20
-1.1429208804
 30
0.0
 10
36.552978403
 20
-1.1251298957
 30
0.0
 10
36.5573373169
 20
-1.1078574344
 30
0.0
 10
36.5628703974
 20
-1.0912684795
 30
0.0
 10
36.5695258108
 20
-1.0755216499
 30
0.0
 10
36.5772408178
 20
-1.0607673982
 30
0.0
 10
36.5859428341
 20
-1.0471467045
 30
0.0
 10
36.595550746
 20
-1.0347902805
 30
0.0
 10
36.6059751797
 20
-1.0238177256
 30
0.0
 10
36.617119071
 20
-1.0143355241
 30
0.0
 10
36.6288766925
 20
-1.0064382602
 30
0.0
 10
36.6391650213
 20
-1.0012103121
 30
0.0
 10
36.6475663503
 20
-0.9979185692
 30
0.0
 10
36.6539069846
 20
-0.9959026659
 30
0.0
 10
36.6603109429
 20
-0.9943291244
 30
0.0
 10
36.6667630933
 20
-0.9932029505
 30
0.0
 10
36.673245591
 20
-0.9925260388
 30
0.0
 10
36.6775798774
 20
-0.9923750381
 30
0.0
 10
36.6797431103
 20
-0.9923750381
 30
0.0
  0
SPLINE
  5
457
100
AcDbEntity
  8
0
100
AcDbSpline
 62
7
  6
CONTINUOUS
 70
0
 71
3
 72
9
 73
5
 74
0
 42
0.0000001
 43
0.0000001
 44
0.0000000001
 40
0.0
 40
0.0
 40
0.0
 40
0.0
 40
0.5084663508
 40
1.0
 40
1.0
 40
1.0
 40
1.0
 10
36.6917890276
 20
0.9041186109
 30
0.0
 10
36.6834615543
 20
0.9092181261
 30
0.0
 10
36.6672000841
 20
0.9194390595
 30
0.0
 10
36.6512719524
 20
0.9301773779
 30
0.0
 10
36.6435607625
 20
0.9356220485
 30
0.0
  0
SPLINE
  5
458
100
AcDbEntity
  8
0
100
AcDbSpline
 62
7
  6
CONTINUOUS
 70
0
 71
3
 72
20
 73
16
 74
0
 42
0.0000001
 43
0.0000001
 44
0.0000000001
 40
0.0
 40
0.0
 40
0.0
 40
0.0
 40
0.1385985849
 40
0.2725675714
 40
0.4020337648
 40
0.4651966383
 40
0.5273702468
 40
0.5886263382
 40
0.6490469601
 40
0.7087270383
 40
0.7677720097
 40
0.8262958673
 40
0.8844218539
 40
0.9422788188
 40
1.0
 40
1.0
 40
1.0
 40
1.0
 10
36.9783447231
 20
0.9352293127
 30
0.0
 10
36.9741722164
 20
0.9294272927
 30
0.0
 10
36.9654434383
 20
0.9183800931
 30
0.0
 10
36.9510347941
 20
0.9034301625
 30
0.0
 10
36.938109041
 20
0.8925775091
 30
0.0
 10
36.9273593663
 20
0.885012866
 30
0.0
 10
36.9191769034
 20
0.879940598
 30
0.0
 10
36.910829465
 20
0.8754352233
 30
0.0
 10
36.9023358495
 20
0.8715083613
 30
0.0
 10
36.8937163278
 20
0.8681694479
 30
0.0
 10
36.884991544
 20
0.8654256622
 30
0.0
 10
36.8761818025
 20
0.8632850524
 30
0.0
 10
36.867308189
 20
0.8617521293
 30
0.0
 10
36.8583923871
 20
0.8608301683
 30
0.0
 10
36.8524308066
 20
0.8606252148
 30
0.0
 10
36.8494545309
 20
0.8606251487
 30
0.0
  0
SPLINE
  5
459
100
AcDbEntity
  8
0
100
AcDbSpline
 62
7
  6
CONTINUOUS
 70
0
 71
3
 72
11
 73
7
 74
0
 42
0.0000001
 43
0.0000001
 44
0.0000000001
 40
0.0
 40
0.0
 40
0.0
 40
0.0
 40
0.2401732686
 40
0.4850365616
 40
0.7374846583
 40
1.0
 40
1.0
 40
1.0
 40
1.0
 10
36.7986077602
 20
0.9041186109
 30
0.0
 10
36.79921263
 20
0.9041186109
 30
0.0
 10
36.8004370241
 20
0.9039987431
 30
0.0
 10
36.8022296645
 20
0.9034766601
 30
0.0
 10
36.8039525501
 20
0.9026238848
 30
0.0
 10
36.8050153014
 20
0.9018711519
 30
0.0
 10
36.8055276709
 20
0.9014533236
 30
0.0
  0
SPLINE
  5
45A
100
AcDbEntity
  8
0
100
AcDbSpline
 62
7
  6
CONTINUOUS
 70
0
 71
3
 72
15
 73
11
 74
0
 42
0.0000001
 43
0.0000001
 44
0.0000000001
 40
0.0
 40
0.0
 40
0.0
 40
0.0
 40
0.119057511
 40
0.2387427078
 40
0.3596605012
 40
0.482372663
 40
0.6073780386
 40
0.7351040355
 40
0.8658915427
 40
1.0
 40
1.0
 40
1.0
 40
1.0
 10
36.8140991919
 20
0.8606251487
 30
0.0
 10
36.8096277005
 20
0.8606250494
 30
0.0
 10
36.8006542777
 20
0.8610882763
 30
0.0
 10
36.7872852139
 20
0.8631706004
 30
0.0
 10
36.7740610751
 20
0.8666264657
 30
0.0
 10
36.7610559892
 20
0.871438162
 30
0.0
 10
36.7483384004
 20
0.8775758786
 30
0.0
 10
36.7359770449
 20
0.8850076788
 30
0.0
 10
36.7240366197
 20
0.8936894334
 30
0.0
 10
36.7164952685
 20
0.900198082
 30
0.0
 10
36.7128133806
 20
0.9036350446
 30
0.0
  0
SPLINE
  5
45B
100
AcDbEntity
  8
0
100
AcDbSpline
 62
7
  6
CONTINUOUS
 70
0
 71
3
 72
20
 73
16
 74
0
 42
0.0000001
 43
0.0000001
 44
0.0000000001
 40
0.0
 40
0.0
 40
0.0
 40
0.0
 40
0.1385985849
 40
0.2725675714
 40
0.4020337648
 40
0.4651966383
 40
0.5273702468
 40
0.5886263382
 40
0.6490469601
 40
0.7087270383
 40
0.7677720097
 40
0.8262958673
 40
0.8844218539
 40
0.9422788188
 40
1.0
 40
1.0
 40
1.0
 40
1.0
 10
36.942989384
 20
0.9352293127
 30
0.0
 10
36.9388168773
 20
0.9294272927
 30
0.0
 10
36.9300880993
 20
0.9183800931
 30
0.0
 10
36.9156794551
 20
0.9034301625
 30
0.0
 10
36.9027537019
 20
0.8925775091
 30
0.0
 10
36.8920040272
 20
0.885012866
 30
0.0
 10
36.8838215643
 20
0.879940598
 30
0.0
 10
36.8754741259
 20
0.8754352233
 30
0.0
 10
36.8669805104
 20
0.8715083613
 30
0.0
 10
36.8583609888
 20
0.8681694479
 30
0.0
 10
36.8496362049
 20
0.8654256622
 30
0.0
 10
36.8408264634
 20
0.8632850524
 30
0.0
 10
36.8319528499
 20
0.8617521293
 30
0.0
 10
36.823037048
 20
0.8608301683
 30
0.0
 10
36.8170754675
 20
0.8606252148
 30
0.0
 10
36.8140991919
 20
0.8606251487
 30
0.0
  0
SPLINE
  5
45C
100
AcDbEntity
  8
0
100
AcDbSpline
 62
7
  6
CONTINUOUS
 70
0
 71
3
 72
15
 73
11
 74
0
 42
0.0000001
 43
0.0000001
 44
0.0000000001
 40
0.0
 40
0.0
 40
0.0
 40
0.0
 40
0.1093848924
 40
0.2247529651
 40
0.3455303054
 40
0.4709316038
 40
0.5999829275
 40
0.7318632405
 40
0.865594525
 40
1.0
 40
1.0
 40
1.0
 40
1.0
 10
36.8055276709
 20
0.9014533236
 30
0.0
 10
36.8062315515
 20
0.9008793215
 30
0.0
 10
36.8075688601
 20
0.8995627263
 30
0.0
 10
36.8092900045
 20
0.8972565932
 30
0.0
 10
36.8107619666
 20
0.8946316235
 30
0.0
 10
36.8119743088
 20
0.8917553514
 30
0.0
 10
36.8129204817
 20
0.8886851565
 30
0.0
 10
36.8135971068
 20
0.885474408
 30
0.0
 10
36.8140029167
 20
0.8821741518
 30
0.0
 10
36.8140933987
 20
0.8799466769
 30
0.0
 10
36.8140933987
 20
0.8788306692
 30
0.0
  0
SPLINE
  5
45D
100
AcDbEntity
  8
0
100
AcDbSpline
 62
7
  6
CONTINUOUS
 70
0
 71
3
 72
9
 73
5
 74
0
 42
0.0000001
 43
0.0000001
 44
0.0000000001
 40
0.0
 40
0.0
 40
0.0
 40
0.0
 40
0.4915336492
 40
1.0
 40
1.0
 40
1.0
 40
1.0
 10
48.2983345339
 20
0.9356220485
 30
0.0
 10
48.290623344
 20
0.9301773779
 30
0.0
 10
48.2746952124
 20
0.9194390595
 30
0.0
 10
48.2584337421
 20
0.9092181261
 30
0.0
 10
48.2501062688
 20
0.9041186109
 30
0.0
  0
SPLINE
  5
45E
100
AcDbEntity
  8
0
100
AcDbSpline
 62
7
  6
CONTINUOUS
 70
0
 71
3
 72
17
 73
13
 74
0
 42
0.0000001
 43
0.0000001
 44
0.0000000001
 40
0.0
 40
0.0
 40
0.0
 40
0.0
 40
0.1341655017
 40
0.2649905088
 40
0.3927303475
 40
0.4555651072
 40
0.5177644712
 40
0.6404514855
 40
0.7011012981
 40
0.7613669052
 40
0.8810005192
 40
1.0
 40
1.0
 40
1.0
 40
1.0
 10
48.2295128773
 20
0.9040383738
 30
0.0
 10
48.2258208132
 20
0.9005707801
 30
0.0
 10
48.2182561796
 20
0.8940041103
 30
0.0
 10
48.2062749393
 20
0.8852416493
 30
0.0
 10
48.1958748953
 20
0.8789563428
 30
0.0
 10
48.1873830523
 20
0.8745956017
 30
0.0
 10
48.178870005
 20
0.8707173595
 30
0.0
 10
48.1701651569
 20
0.8674806482
 30
0.0
 10
48.1613273802
 20
0.8649251684
 30
0.0
 10
48.1524843884
 20
0.8628428452
 30
0.0
 10
48.1413158612
 20
0.8610939613
 30
0.0
 10
48.1323002604
 20
0.8606252485
 30
0.0
 10
48.1278076909
 20
0.8606251487
 30
0.0
  0
SPLINE
  5
45F
100
AcDbEntity
  8
0
100
AcDbSpline
 62
7
  6
CONTINUOUS
 70
0
 71
3
 72
11
 73
7
 74
0
 42
0.0000001
 43
0.0000001
 44
0.0000000001
 40
0.0
 40
0.0
 40
0.0
 40
0.0
 40
0.2401732686
 40
0.4850365616
 40
0.7374846583
 40
1.0
 40
1.0
 40
1.0
 40
1.0
 10
48.1432875362
 20
0.9041186109
 30
0.0
 10
48.1426826664
 20
0.9041186109
 30
0.0
 10
48.1414582724
 20
0.9039987431
 30
0.0
 10
48.139665632
 20
0.9034766601
 30
0.0
 10
48.1379427463
 20
0.9026238848
 30
0.0
 10
48.1368799951
 20
0.9018711519
 30
0.0
 10
48.1363676255
 20
0.9014533236
 30
0.0
  0
SPLINE
  5
460
100
AcDbEntity
  8
0
100
AcDbSpline
 62
7
  6
CONTINUOUS
 70
0
 71
3
 72
19
 73
15
 74
0
 42
0.0000001
 43
0.0000001
 44
0.0000000001
 40
0.0
 40
0.0
 40
0.0
 40
0.0
 40
0.0577073035
 40
0.1155505714
 40
0.1736641662
 40
0.2321773502
 40
0.2912133042
 40
0.3508876793
 40
0.4113052323
 40
0.4725612675
 40
0.5978556224
 40
0.7273464982
 40
0.8613545526
 40
1.0
 40
1.0
 40
1.0
 40
1.0
 10
48.0924523518
 20
0.8606251487
 30
0.0
 10
48.0894687437
 20
0.8606250824
 30
0.0
 10
48.0834924642
 20
0.8608307421
 30
0.0
 10
48.0745546361
 20
0.861755668
 30
0.0
 10
48.0656594536
 20
0.8632959537
 30
0.0
 10
48.0568285617
 20
0.8654463318
 30
0.0
 10
48.0480829646
 20
0.8682022066
 30
0.0
 10
48.0394438953
 20
0.871557267
 30
0.0
 10
48.0309310691
 20
0.8755022759
 30
0.0
 10
48.0196945398
 20
0.8815816406
 30
0.0
 10
48.006054474
 20
0.8906528761
 30
0.0
 10
47.9906490721
 20
0.9036265646
 30
0.0
 10
47.9762193936
 20
0.9186444382
 30
0.0
 10
47.9674833557
 20
0.9297397103
 30
0.0
 10
47.9633082243
 20
0.9355666224
 30
0.0
  0
SPLINE
  5
461
100
AcDbEntity
  8
0
100
AcDbSpline
 62
7
  6
CONTINUOUS
 70
0
 71
3
 72
19
 73
15
 74
0
 42
0.0000001
 43
0.0000001
 44
0.0000000001
 40
0.0
 40
0.0
 40
0.0
 40
0.0
 40
0.0577073035
 40
0.1155505714
 40
0.1736641662
 40
0.2321773502
 40
0.2912133042
 40
0.3508876793
 40
0.4113052323
 40
0.4725612675
 40
0.5978556224
 40
0.7273464982
 40
0.8613545526
 40
1.0
 40
1.0
 40
1.0
 40
1.0
 10
48.1278076909
 20
0.8606251487
 30
0.0
 10
48.1248240828
 20
0.8606250824
 30
0.0
 10
48.1188478033
 20
0.8608307421
 30
0.0
 10
48.1099099752
 20
0.861755668
 30
0.0
 10
48.1010147926
 20
0.8632959537
 30
0.0
 10
48.0921839007
 20
0.8654463318
 30
0.0
 10
48.0834383037
 20
0.8682022066
 30
0.0
 10
48.0747992344
 20
0.871557267
 30
0.0
 10
48.0662864081
 20
0.8755022759
 30
0.0
 10
48.0550498788
 20
0.8815816406
 30
0.0
 10
48.0414098131
 20
0.8906528761
 30
0.0
 10
48.0260044112
 20
0.9036265646
 30
0.0
 10
48.0115747326
 20
0.9186444382
 30
0.0
 10
48.0028386948
 20
0.9297397103
 30
0.0
 10
47.9986635633
 20
0.9355666224
 30
0.0
  0
SPLINE
  5
462
100
AcDbEntity
  8
0
100
AcDbSpline
 62
7
  6
CONTINUOUS
 70
0
 71
3
 72
15
 73
11
 74
0
 42
0.0000001
 43
0.0000001
 44
0.0000000001
 40
0.0
 40
0.0
 40
0.0
 40
0.0
 40
0.1093848924
 40
0.2247529651
 40
0.3455303054
 40
0.4709316038
 40
0.5999829275
 40
0.7318632405
 40
0.865594525
 40
1.0
 40
1.0
 40
1.0
 40
1.0
 10
48.1363676255
 20
0.9014533236
 30
0.0
 10
48.1356637449
 20
0.9008793215
 30
0.0
 10
48.1343264364
 20
0.8995627263
 30
0.0
 10
48.1326052919
 20
0.8972565932
 30
0.0
 10
48.1311333298
 20
0.8946316235
 30
0.0
 10
48.1299209877
 20
0.8917553514
 30
0.0
 10
48.1289748148
 20
0.8886851565
 30
0.0
 10
48.1282981897
 20
0.885474408
 30
0.0
 10
48.1278923797
 20
0.8821741518
 30
0.0
 10
48.1278018977
 20
0.8799466769
 30
0.0
 10
48.1278018977
 20
0.8788306692
 30
0.0
  0
LINE
  5
463
100
AcDbEntity
  8
0
100
AcDbLine
 62
7
  6
CONTINUOUS
 10
1.3789580397
 20
-27.9840723019
 11
1.4008580397
 21
-27.9967162728
  0
LINE
  5
464
100
AcDbEntity
  8
0
100
AcDbLine
 62
7
  6
CONTINUOUS
 10
1.1914580397
 20
-28.0923254774
 11
1.1914580397
 21
-28.1176134192
  0
LINE
  5
465
100
AcDbEntity
  8
0
100
AcDbLine
 62
7
  6
CONTINUOUS
 10
1.3789580397
 20
-27.767565951
 11
1.4008580397
 21
-27.7549219801
  0
LINE
  5
466
100
AcDbEntity
  8
0
100
AcDbLine
 62
7
  6
CONTINUOUS
 10
1.1914580397
 20
-27.6593127755
 11
1.1914580397
 21
-27.6340248337
  0
LINE
  5
467
100
AcDbEntity
  8
0
100
AcDbLine
 62
7
  6
CONTINUOUS
 10
1.0039580397
 20
-27.767565951
 11
0.9820580397
 21
-27.7549219801
  0
LINE
  5
468
100
AcDbEntity
  8
0
100
AcDbLine
 62
7
  6
CONTINUOUS
 10
1.0039580397
 20
-27.9840723019
 11
0.9820580397
 21
-27.9967162728
  0
LINE
  5
469
100
AcDbEntity
  8
0
100
AcDbLine
 62
7
  6
CONTINUOUS
 10
1.3789580397
 20
-36.1158002855
 11
1.4008580397
 21
-36.1284442564
  0
LINE
  5
46A
100
AcDbEntity
  8
0
100
AcDbLine
 62
7
  6
CONTINUOUS
 10
1.1914580397
 20
-36.224053461
 11
1.1914580397
 21
-36.2493414028
  0
LINE
  5
46B
100
AcDbEntity
  8
0
100
AcDbLine
 62
7
  6
CONTINUOUS
 10
1.3789580397
 20
-35.8992939346
 11
1.4008580397
 21
-35.8866499637
  0
LINE
  5
46C
100
AcDbEntity
  8
0
100
AcDbLine
 62
7
  6
CONTINUOUS
 10
1.1914580397
 20
-35.7910407591
 11
1.1914580397
 21
-35.7657528173
  0
LINE
  5
46D
100
AcDbEntity
  8
0
100
AcDbLine
 62
7
  6
CONTINUOUS
 10
1.0039580397
 20
-35.8992939346
 11
0.9820580397
 21
-35.8866499637
  0
LINE
  5
46E
100
AcDbEntity
  8
0
100
AcDbLine
 62
7
  6
CONTINUOUS
 10
1.0039580397
 20
-36.1158002855
 11
0.9820580397
 21
-36.1284442564
  0
LINE
  5
46F
100
AcDbEntity
  8
0
100
AcDbLine
 62
7
  6
CONTINUOUS
 10
2.0860648209
 20
-27.2769655207
 11
2.1079648209
 21
-27.2896094916
  0
LINE
  5
470
100
AcDbEntity
  8
0
100
AcDbLine
 62
7
  6
CONTINUOUS
 10
1.8985648209
 20
-27.3852186962
 11
1.8985648209
 21
-27.410506638
  0
LINE
  5
471
100
AcDbEntity
  8
0
100
AcDbLine
 62
7
  6
CONTINUOUS
 10
2.0860648209
 20
-27.0604591698
 11
2.1079648209
 21
-27.0478151989
  0
LINE
  5
472
100
AcDbEntity
  8
0
100
AcDbLine
 62
7
  6
CONTINUOUS
 10
1.8985648209
 20
-26.9522059943
 11
1.8985648209
 21
-26.9269180525
  0
LINE
  5
473
100
AcDbEntity
  8
0
100
AcDbLine
 62
7
  6
CONTINUOUS
 10
1.7110648209
 20
-27.0604591698
 11
1.6891648209
 21
-27.0478151989
  0
LINE
  5
474
100
AcDbEntity
  8
0
100
AcDbLine
 62
7
  6
CONTINUOUS
 10
1.7110648209
 20
-27.2769655207
 11
1.6891648209
 21
-27.2896094916
  0
LINE
  5
475
100
AcDbEntity
  8
0
100
AcDbLine
 62
7
  6
CONTINUOUS
 10
-7.4598767251
 20
-27.2769655207
 11
-7.4379767251
 21
-27.2896094916
  0
LINE
  5
476
100
AcDbEntity
  8
0
100
AcDbLine
 62
7
  6
CONTINUOUS
 10
-7.6473767251
 20
-27.3852186962
 11
-7.6473767251
 21
-27.410506638
  0
LINE
  5
477
100
AcDbEntity
  8
0
100
AcDbLine
 62
7
  6
CONTINUOUS
 10
-7.4598767251
 20
-27.0604591698
 11
-7.4379767251
 21
-27.0478151989
  0
LINE
  5
478
100
AcDbEntity
  8
0
100
AcDbLine
 62
7
  6
CONTINUOUS
 10
-7.6473767251
 20
-26.9522059943
 11
-7.6473767251
 21
-26.9269180525
  0
LINE
  5
479
100
AcDbEntity
  8
0
100
AcDbLine
 62
7
  6
CONTINUOUS
 10
-7.8348767251
 20
-27.0604591698
 11
-7.8567767251
 21
-27.0478151989
  0
LINE
  5
47A
100
AcDbEntity
  8
0
100
AcDbLine
 62
7
  6
CONTINUOUS
 10
-7.8348767251
 20
-27.2769655207
 11
-7.8567767251
 21
-27.2896094916
  0
LINE
  5
47B
100
AcDbEntity
  8
0
100
AcDbLine
 62
7
  6
CONTINUOUS
 10
-6.752769944
 20
-36.1158002855
 11
-6.730869944
 21
-36.1284442564
  0
LINE
  5
47C
100
AcDbEntity
  8
0
100
AcDbLine
 62
7
  6
CONTINUOUS
 10
-6.940269944
 20
-36.224053461
 11
-6.940269944
 21
-36.2493414028
  0
LINE
  5
47D
100
AcDbEntity
  8
0
100
AcDbLine
 62
7
  6
CONTINUOUS
 10
-6.752769944
 20
-35.8992939346
 11
-6.730869944
 21
-35.8866499637
  0
LINE
  5
47E
100
AcDbEntity
  8
0
100
AcDbLine
 62
7
  6
CONTINUOUS
 10
-6.940269944
 20
-35.7910407591
 11
-6.940269944
 21
-35.7657528173
  0
LINE
  5
47F
100
AcDbEntity
  8
0
100
AcDbLine
 62
7
  6
CONTINUOUS
 10
-7.127769944
 20
-35.8992939346
 11
-7.149669944
 21
-35.8866499637
  0
LINE
  5
480
100
AcDbEntity
  8
0
100
AcDbLine
 62
7
  6
CONTINUOUS
 10
-7.127769944
 20
-36.1158002855
 11
-7.149669944
 21
-36.1284442564
  0
LINE
  5
481
100
AcDbEntity
  8
0
100
AcDbLine
 62
7
  6
CONTINUOUS
 10
-6.752769944
 20
-27.9840723019
 11
-6.730869944
 21
-27.9967162728
  0
LINE
  5
482
100
AcDbEntity
  8
0
100
AcDbLine
 62
7
  6
CONTINUOUS
 10
-6.940269944
 20
-28.0923254774
 11
-6.940269944
 21
-28.1176134192
  0
LINE
  5
483
100
AcDbEntity
  8
0
100
AcDbLine
 62
7
  6
CONTINUOUS
 10
-6.752769944
 20
-27.767565951
 11
-6.730869944
 21
-27.7549219801
  0
LINE
  5
484
100
AcDbEntity
  8
0
100
AcDbLine
 62
7
  6
CONTINUOUS
 10
-6.940269944
 20
-27.6593127755
 11
-6.940269944
 21
-27.6340248337
  0
LINE
  5
485
100
AcDbEntity
  8
0
100
AcDbLine
 62
7
  6
CONTINUOUS
 10
-7.127769944
 20
-27.767565951
 11
-7.149669944
 21
-27.7549219801
  0
LINE
  5
486
100
AcDbEntity
  8
0
100
AcDbLine
 62
7
  6
CONTINUOUS
 10
-7.127769944
 20
-27.9840723019
 11
-7.149669944
 21
-27.9967162728
  0
LINE
  5
487
100
AcDbEntity
  8
0
100
AcDbLine
 62
7
  6
CONTINUOUS
 10
2.0860648209
 20
-36.8229070667
 11
2.1079648209
 21
-36.8355510376
  0
LINE
  5
488
100
AcDbEntity
  8
0
100
AcDbLine
 62
7
  6
CONTINUOUS
 10
1.8985648209
 20
-36.9311602422
 11
1.8985648209
 21
-36.956448184
  0
LINE
  5
489
100
AcDbEntity
  8
0
100
AcDbLine
 62
7
  6
CONTINUOUS
 10
2.0860648209
 20
-36.6064007158
 11
2.1079648209
 21
-36.5937567449
  0
LINE
  5
48A
100
AcDbEntity
  8
0
100
AcDbLine
 62
7
  6
CONTINUOUS
 10
1.8985648209
 20
-36.4981475403
 11
1.8985648209
 21
-36.4728595985
  0
LINE
  5
48B
100
AcDbEntity
  8
0
100
AcDbLine
 62
7
  6
CONTINUOUS
 10
1.7110648209
 20
-36.6064007158
 11
1.6891648209
 21
-36.5937567449
  0
LINE
  5
48C
100
AcDbEntity
  8
0
100
AcDbLine
 62
7
  6
CONTINUOUS
 10
1.7110648209
 20
-36.8229070667
 11
1.6891648209
 21
-36.8355510376
  0
LINE
  5
48D
100
AcDbEntity
  8
0
100
AcDbLine
 62
7
  6
CONTINUOUS
 10
-7.4598767251
 20
-36.8229070667
 11
-7.4379767251
 21
-36.8355510376
  0
LINE
  5
48E
100
AcDbEntity
  8
0
100
AcDbLine
 62
7
  6
CONTINUOUS
 10
-7.6473767251
 20
-36.9311602422
 11
-7.6473767251
 21
-36.956448184
  0
LINE
  5
48F
100
AcDbEntity
  8
0
100
AcDbLine
 62
7
  6
CONTINUOUS
 10
-7.4598767251
 20
-36.6064007158
 11
-7.4379767251
 21
-36.5937567449
  0
LINE
  5
490
100
AcDbEntity
  8
0
100
AcDbLine
 62
7
  6
CONTINUOUS
 10
-7.6473767251
 20
-36.4981475403
 11
-7.6473767251
 21
-36.4728595985
  0
LINE
  5
491
100
AcDbEntity
  8
0
100
AcDbLine
 62
7
  6
CONTINUOUS
 10
-7.8348767251
 20
-36.6064007158
 11
-7.8567767251
 21
-36.5937567449
  0
LINE
  5
492
100
AcDbEntity
  8
0
100
AcDbLine
 62
7
  6
CONTINUOUS
 10
-7.8348767251
 20
-36.8229070667
 11
-7.8567767251
 21
-36.8355510376
  0
SPLINE
  5
493
100
AcDbEntity
  8
0
100
AcDbSpline
 62
7
  6
CONTINUOUS
 70
0
 71
3
 72
15
 73
11
 74
0
 42
0.0000001
 43
0.0000001
 44
0.0000000001
 40
0.0
 40
0.0
 40
0.0
 40
0.0
 40
0.1252146822
 40
0.2499116931
 40
0.3743170529
 40
0.498661262
 40
0.6231754954
 40
0.7480888588
 40
0.8736249174
 40
1.0
 40
1.0
 40
1.0
 40
1.0
 10
-3.948130082
 20
-31.1076561866
 30
0.0
 10
-3.9532960328
 20
-31.1135303079
 30
0.0
 10
-3.96325943
 20
-31.1255651131
 30
0.0
 10
-3.9770646128
 20
-31.1444570016
 30
0.0
 10
-3.9896668302
 20
-31.1641082955
 30
0.0
 10
-4.0010416791
 20
-31.1844813199
 30
0.0
 10
-4.0111680216
 20
-31.2055380029
 30
0.0
 10
-4.0200269275
 20
-31.2272390281
 30
0.0
 10
-4.0276016892
 20
-31.2495426659
 30
0.0
 10
-4.0317705538
 20
-31.2647293379
 30
0.0
 10
-4.0336375017
 20
-31.272400471
 30
0.0
  0
SPLINE
  5
494
100
AcDbEntity
  8
0
100
AcDbSpline
 62
7
  6
CONTINUOUS
 70
0
 71
3
 72
15
 73
11
 74
0
 42
0.0000001
 43
0.0000001
 44
0.0000000001
 40
0.0
 40
0.0
 40
0.0
 40
0.0
 40
0.1261099833
 40
0.2512738785
 40
0.3757984041
 40
0.5
 40
0.6242015959
 40
0.7487261215
 40
0.8738900167
 40
1.0
 40
1.0
 40
1.0
 40
1.0
 10
-4.0336375017
 20
-31.272400471
 30
0.0
 10
-4.0403927968
 20
-31.278851086
 30
0.0
 10
-4.0534135928
 20
-31.292173685
 30
0.0
 10
-4.0714297674
 20
-31.3134196433
 30
0.0
 10
-4.0877994226
 20
-31.3357858818
 30
0.0
 10
-4.1024778822
 20
-31.3592124289
 30
0.0
 10
-4.1154266373
 20
-31.3836376213
 30
0.0
 10
-4.1266115404
 20
-31.4089972778
 30
0.0
 10
-4.1360029927
 20
-31.4352227219
 30
0.0
 10
-4.1410303039
 20
-31.4531603614
 30
0.0
 10
-4.1432390528
 20
-31.4622359261
 30
0.0
  0
ELLIPSE
  5
495
100
AcDbEntity
  8
0
100
AcDbEllipse
 62
7
  6
CONTINUOUS
 10
-3.5502063496
 20
-31.5515095769
 30
0.0
 11
0.0775
 21
0.1342339376
 31
0.0
 40
0.0524077793
 41
-3.1415926536
 42
-0.0
  0
ELLIPSE
  5
496
100
AcDbEntity
  8
0
100
AcDbEllipse
 62
7
  6
CONTINUOUS
 10
-2.7704817705
 20
-31.7616811555
 30
0.0
 11
0.312026085
 21
0.5404450325
 31
0.0
 40
0.942904759
 41
1.5031998078
 42
1.5662361117
  0
ELLIPSE
  5
497
100
AcDbEntity
  8
0
100
AcDbEllipse
 62
7
  6
CONTINUOUS
 10
-2.9783301338
 20
-32.121685081
 30
0.0
 11
0.312026085
 21
0.5404450325
 31
0.0
 40
0.942904759
 41
-4.7078287653
 42
-4.6447924614
  0
ENDSEC
  0
SECTION
  2
OBJECTS
  0
DICTIONARY
  5
C
100
AcDbDictionary
280
0
281
1
  3
ACAD_GROUP
350
D
  3
ACAD_MLINESTYLE
350
17
  3
ACAD_LAYOUT
350
1A
  3
ACAD_PLOTSETTINGS
350
19
  3
ACAD_PLOTSTYLENAME
350
E
  0
DICTIONARY
  5
D
102
{ACAD_REACTORS
330
C
102
}
100
AcDbDictionary
280
0
281
1
  0
ACDBDICTIONARYWDFLT
  5
E
102
{ACAD_REACTORS
330
C
102
}
100
AcDbDictionary
281
1
  3
Normal
350
F
100
AcDbDictionaryWithDefault
340
F
  0
DICTIONARY
  5
17
102
{ACAD_REACTORS
330
C
102
}
100
AcDbDictionary
280
0
281
1
  3
Standard
350
18
  0
DICTIONARY
  5
19
102
{ACAD_REACTORS
330
C
102
}
100
AcDbDictionary
281
1
  0
DICTIONARY
  5
1A
102
{ACAD_REACTORS
330
C
102
}
100
AcDbDictionary
281
1
  3
Model
350
498
  3
Layout1
350
499
  0
ACDBPLACEHOLDER
  5
F
102
{ACAD_REACTORS
330
E
102
}
  0
MLINESTYLE
  5
18
102
{ACAD_REACTORS
330
17
102
}
100
AcDbMlineStyle
  2
STANDARD
 70
0
  3

 62
256
 51
90.0
 52
90.0
 71
2
 49
0.5
 62
256
  6
BYLAYER
 49
-0.5
 62
256
  6
BYLAYER
  0
LAYOUT
  5
498
102
{ACAD_REACTORS
330
1A
102
}
100
AcDbPlotSettings
  1

  2
none_device
  4

  6

 40
0.0
 41
0.0
 42
0.0
 43
0.0
 44
431.8
 45
279.4
 46
0.0
 47
0.0
 48
0.0
 49
0.0
140
0.0
141
0.0
142
1.0
143
1.0
 70
1024
 72
0
 73
0
 74
0
  7

 75
0
147
1.0
148
0.0
149
0.0
100
AcDbLayout
  1
Model
 70
0
 71
0
 10
0.0
 20
0.0
 11
17.0
 21
11.0
 12
0.0
 22
0.0
 32
0.0
 14
0.0
 24
0.0
 34
0.0
 15
0.0
 25
0.0
 35
0.0
146
0.0
 13
0.0
 23
0.0
 33
0.0
 16
1.0
 26
0.0
 36
0.0
 17
0.0
 27
1.0
 37
0.0
 76
0
330
239
345
0
346
0
  0
LAYOUT
  5
499
102
{ACAD_REACTORS
330
1A
102
}
100
AcDbPlotSettings
  1

  2
none_device
  4

  6

 40
0.0
 41
0.0
 42
0.0
 43
0.0
 44
431.8
 45
279.4
 46
0.0
 47
0.0
 48
0.0
 49
0.0
140
0.0
141
0.0
142
1.0
143
1.0
 70
0
 72
0
 73
0
 74
0
  7

 75
0
147
1.0
148
0.0
149
0.0
100
AcDbLayout
  1
Layout1
 70
0
 71
1
 10
0.0
 20
0.0
 11
17.0
 21
11.0
 12
0.0
 22
0.0
 32
0.0
 14
0.0
 24
0.0
 34
0.0
 15
0.0
 25
0.0
 35
0.0
146
0.0
 13
0.0
 23
0.0
 33
0.0
 16
1.0
 26
0.0
 36
0.0
 17
0.0
 27
1.0
 37
0.0
 76
0
330
23A
345
0
346
0
  0
ENDSEC
  0
EOF
