999
DXF file: N:\Master\master\M3_ProE_files\Lenexa\MADAM DXF\46005.dxf
999
Pro/ENGINEER 2010280 by Parametric Technology Corporation
  0
SECTION
  2
HEADER
  9
$ACADVER
  1
AC1021
  9
$DWGCODEPAGE
  3
ANSI_1252
  9
$EXTMAX
 10
17.0
 20
11.0
 30
0.0
  9
$EXTMIN
 10
0.0
 20
-0.0
 30
0.0
  9
$LIMMIN
 10
0.0
 20
-0.0
  9
$LIMMAX
 10
17.0
 20
11.0
  9
$VIEWCTR
 10
8.5
 20
5.5
  9
$VIEWSIZE
 40
11.0
  9
$CLAYER
  8
0
  9
$LTSCALE
 40
0.935
  9
$CELTYPE
  6
BYLAYER
  9
$DIMSCALE
 40
1.0
  9
$DIMASZ
 40
0.125
  9
$DIMEXO
 40
0.10625
  9
$DIMDLI
 40
0.646
  9
$DIMEXE
 40
0.306
  9
$DIMCEN
 40
0.153
  9
$DIMLFAC
 40
1.0
  9
$DIMBLK
  1
_FILLED
  9
$DIMTXT
 40
0.125
  9
$DIMTOL
 70
1
  9
$DIMLIM
 70
0
  9
$DIMTFAC
 40
1.0
  9
$DIMTP
 40
0.01
  9
$DIMTM
 40
0.01
  9
$PDMODE
 70
3
  9
$PDSIZE
 40
0.3125
  9
$HANDSEED
  5
833
  9
$TILEMODE
 70
1
  9
$MEASUREMENT
 70
0
  9
$INSUNITS
 70
1
  0
ENDSEC
  0
SECTION
  2
CLASSES
  0
CLASS
  1
ACDBDICTIONARYWDFLT
  2
AcDbDictionaryWithDefault
  3
AutoCAD 2000
 90
0
 91
1
280
0
281
0
  0
CLASS
  1
ACDBPLACEHOLDER
  2
AcDbPlaceHolder
  3
AutoCAD 2000
 90
0
 91
1
280
0
281
0
  0
CLASS
  1
LAYOUT
  2
AcDbLayout
  3
AutoCAD 2000
 90
0
 91
0
280
0
281
0
  0
ENDSEC
  0
SECTION
  2
TABLES
  0
TABLE
  2
VPORT
  5
8
100
AcDbSymbolTable
 70
2
  0
VPORT
  5
1F4
100
AcDbSymbolTableRecord
100
AcDbViewportTableRecord
  2
*ACTIVE
 70
0
 10
0.0
 20
0.0
 11
1.0
 21
1.0
 12
8.5
 22
5.5
 13
0.0
 23
0.0
 14
1.0
 24
1.0
 15
0.0
 25
0.0
 16
0.0
 26
0.0
 36
1.0
 17
0.0
 27
0.0
 37
0.0
 40
11.0
 41
1.5454545455
 42
50.0
 43
0.0
 44
0.0
 50
0.0
 51
0.0
 71
0
 72
100
 73
1
 74
1
 75
0
 76
0
 77
0
 78
0
  0
ENDTAB
  0
TABLE
  2
LTYPE
  5
5
100
AcDbSymbolTable
 70
6
  0
LTYPE
  5
14
100
AcDbSymbolTableRecord
100
AcDbLinetypeTableRecord
  2
BYBLOCK
 70
0
  3

 72
65
 73
0
 40
0.0
  0
LTYPE
  5
15
100
AcDbSymbolTableRecord
100
AcDbLinetypeTableRecord
  2
BYLAYER
 70
0
  3

 72
65
 73
0
 40
0.0
  0
LTYPE
  5
16
100
AcDbSymbolTableRecord
100
AcDbLinetypeTableRecord
  2
CONTINUOUS
 70
64
  3
Solid line
 72
65
 73
0
 40
0.0
  0
LTYPE
  5
1F5
100
AcDbSymbolTableRecord
100
AcDbLinetypeTableRecord
  2
CENTER
 70
64
  3
____ _ ____ _ ____ _ ____ _ ____ _ ____ _ ____
 72
65
 73
4
 40
0.6
 49
0.375
 74
0
 49
-0.075
 74
0
 49
0.075
 74
0
 49
-0.075
 74
0
  0
LTYPE
  5
1F6
100
AcDbSymbolTableRecord
100
AcDbLinetypeTableRecord
  2
HIDDEN
 70
64
  3
- - - - - - - - - - - - - - - - - - - -
 72
65
 73
2
 40
0.2
 49
0.1
 74
0
 49
-0.1
 74
0
  0
LTYPE
  5
1F7
100
AcDbSymbolTableRecord
100
AcDbLinetypeTableRecord
  2
PHANTOM
 70
64
  3
_____ _ _ _____ _ _ _____ _ _ _____
 72
65
 73
6
 40
0.8
 49
0.45
 74
0
 49
-0.05
 74
0
 49
0.1
 74
0
 49
-0.05
 74
0
 49
0.1
 74
0
 49
-0.05
 74
0
  0
LTYPE
  5
1F8
100
AcDbSymbolTableRecord
100
AcDbLinetypeTableRecord
  2
DOT
 70
64
  3
. . . . . . . . . . . . . . . . . . . .
 72
65
 73
2
 40
0.2
 49
0.1
 74
0
 49
-0.1
 74
0
  0
LTYPE
  5
1F9
100
AcDbSymbolTableRecord
100
AcDbLinetypeTableRecord
  2
DASHED
 70
64
  3
- - - - - - - - - - - - - - - - - - - -
 72
65
 73
2
 40
0.2
 49
0.1
 74
0
 49
-0.1
 74
0
  0
ENDTAB
  0
TABLE
  2
LAYER
  5
2
100
AcDbSymbolTable
 70
36
  0
LAYER
  5
10
100
AcDbSymbolTableRecord
100
AcDbLayerTableRecord
  2
0
 70
0
 62
7
  6
CONTINUOUS
370
-3
390
F
  0
LAYER
  5
1FA
100
AcDbSymbolTableRecord
100
AcDbLayerTableRecord
  2
DEFAULT_1
 70
0
 62
7
  6
CENTER
370
-3
390
F
  0
LAYER
  5
1FB
100
AcDbSymbolTableRecord
100
AcDbLayerTableRecord
  2
DEFAULT_2
 70
0
 62
8
  6
HIDDEN
370
-3
390
F
  0
LAYER
  5
1FC
100
AcDbSymbolTableRecord
100
AcDbLayerTableRecord
  2
DEFAULT_3
 70
0
 62
7
  6
PHANTOM
370
-3
390
F
  0
LAYER
  5
1FD
100
AcDbSymbolTableRecord
100
AcDbLayerTableRecord
  2
01_ALL_DTM_PLN
 70
0
 62
7
  6
CONTINUOUS
370
-3
390
F
  0
LAYER
  5
1FE
100
AcDbSymbolTableRecord
100
AcDbLayerTableRecord
  2
01__ASM_ALL_DTM_PLN
 70
0
 62
7
  6
CONTINUOUS
370
-3
390
F
  0
LAYER
  5
1FF
100
AcDbSymbolTableRecord
100
AcDbLayerTableRecord
  2
01__ASM_DEF_DTM_PLN
 70
0
 62
7
  6
CONTINUOUS
370
-3
390
F
  0
LAYER
  5
200
100
AcDbSymbolTableRecord
100
AcDbLayerTableRecord
  2
01___PRT_ALL_DTM_PLN
 70
0
 62
7
  6
CONTINUOUS
370
-3
390
F
  0
LAYER
  5
201
100
AcDbSymbolTableRecord
100
AcDbLayerTableRecord
  2
01___PRT_DEF_DTM_PLN
 70
0
 62
7
  6
CONTINUOUS
370
-3
390
F
  0
LAYER
  5
202
100
AcDbSymbolTableRecord
100
AcDbLayerTableRecord
  2
02_ALL_AXES
 70
0
 62
7
  6
CONTINUOUS
370
-3
390
F
  0
LAYER
  5
203
100
AcDbSymbolTableRecord
100
AcDbLayerTableRecord
  2
02__ASM_ALL_AXES
 70
0
 62
7
  6
CONTINUOUS
370
-3
390
F
  0
LAYER
  5
204
100
AcDbSymbolTableRecord
100
AcDbLayerTableRecord
  2
02___PRT_ALL_AXES
 70
0
 62
7
  6
CONTINUOUS
370
-3
390
F
  0
LAYER
  5
205
100
AcDbSymbolTableRecord
100
AcDbLayerTableRecord
  2
03_ALL_CURVES
 70
0
 62
7
  6
CONTINUOUS
370
-3
390
F
  0
LAYER
  5
206
100
AcDbSymbolTableRecord
100
AcDbLayerTableRecord
  2
03__ASM_ALL_CURVES
 70
0
 62
7
  6
CONTINUOUS
370
-3
390
F
  0
LAYER
  5
207
100
AcDbSymbolTableRecord
100
AcDbLayerTableRecord
  2
03___PRT_ALL_CURVES
 70
0
 62
7
  6
CONTINUOUS
370
-3
390
F
  0
LAYER
  5
208
100
AcDbSymbolTableRecord
100
AcDbLayerTableRecord
  2
04_ALL_DTM_PNT
 70
0
 62
7
  6
CONTINUOUS
370
-3
390
F
  0
LAYER
  5
209
100
AcDbSymbolTableRecord
100
AcDbLayerTableRecord
  2
04__ASM_ALL_DTM_PNT
 70
0
 62
7
  6
CONTINUOUS
370
-3
390
F
  0
LAYER
  5
20A
100
AcDbSymbolTableRecord
100
AcDbLayerTableRecord
  2
04___PRT_ALL_DTM_PNT
 70
0
 62
7
  6
CONTINUOUS
370
-3
390
F
  0
LAYER
  5
20B
100
AcDbSymbolTableRecord
100
AcDbLayerTableRecord
  2
05_ALL_DTM_CSYS
 70
0
 62
7
  6
CONTINUOUS
370
-3
390
F
  0
LAYER
  5
20C
100
AcDbSymbolTableRecord
100
AcDbLayerTableRecord
  2
05__ASM_ALL_DTM_CSYS
 70
0
 62
7
  6
CONTINUOUS
370
-3
390
F
  0
LAYER
  5
20D
100
AcDbSymbolTableRecord
100
AcDbLayerTableRecord
  2
05__ASM_DEF_DTM_CSYS
 70
0
 62
7
  6
CONTINUOUS
370
-3
390
F
  0
LAYER
  5
20E
100
AcDbSymbolTableRecord
100
AcDbLayerTableRecord
  2
05___PRT_ALL_DTM_CSYS
 70
0
 62
7
  6
CONTINUOUS
370
-3
390
F
  0
LAYER
  5
20F
100
AcDbSymbolTableRecord
100
AcDbLayerTableRecord
  2
05___PRT_DEF_DTM_CSYS
 70
0
 62
7
  6
CONTINUOUS
370
-3
390
F
  0
LAYER
  5
210
100
AcDbSymbolTableRecord
100
AcDbLayerTableRecord
  2
06_ALL_SURFS
 70
0
 62
7
  6
CONTINUOUS
370
-3
390
F
  0
LAYER
  5
211
100
AcDbSymbolTableRecord
100
AcDbLayerTableRecord
  2
06__ASM_ALL_SURFS
 70
0
 62
7
  6
CONTINUOUS
370
-3
390
F
  0
LAYER
  5
212
100
AcDbSymbolTableRecord
100
AcDbLayerTableRecord
  2
06___PRT_ALL_SURFS
 70
0
 62
7
  6
CONTINUOUS
370
-3
390
F
  0
LAYER
  5
213
100
AcDbSymbolTableRecord
100
AcDbLayerTableRecord
  2
07__ASM_ALL_SKELETONS
 70
0
 62
7
  6
CONTINUOUS
370
-3
390
F
  0
LAYER
  5
214
100
AcDbSymbolTableRecord
100
AcDbLayerTableRecord
  2
1_ALL_PLANES
 70
0
 62
7
  6
CONTINUOUS
370
-3
390
F
  0
LAYER
  5
215
100
AcDbSymbolTableRecord
100
AcDbLayerTableRecord
  2
1__DEF_PLANES
 70
0
 62
7
  6
CONTINUOUS
370
-3
390
F
  0
LAYER
  5
216
100
AcDbSymbolTableRecord
100
AcDbLayerTableRecord
  2
2_ALL_CSYS
 70
0
 62
7
  6
CONTINUOUS
370
-3
390
F
  0
LAYER
  5
217
100
AcDbSymbolTableRecord
100
AcDbLayerTableRecord
  2
2__DEF_CSYS
 70
0
 62
7
  6
CONTINUOUS
370
-3
390
F
  0
LAYER
  5
218
100
AcDbSymbolTableRecord
100
AcDbLayerTableRecord
  2
AXIS
 70
0
 62
7
  6
CONTINUOUS
370
-3
390
F
  0
LAYER
  5
219
100
AcDbSymbolTableRecord
100
AcDbLayerTableRecord
  2
CS
 70
0
 62
7
  6
CONTINUOUS
370
-3
390
F
  0
LAYER
  5
21A
100
AcDbSymbolTableRecord
100
AcDbLayerTableRecord
  2
DEF_DTMS
 70
0
 62
7
  6
CONTINUOUS
370
-3
390
F
  0
ENDTAB
  0
TABLE
  2
STYLE
  5
3
100
AcDbSymbolTable
 70
1
  0
STYLE
  5
11
100
AcDbSymbolTableRecord
100
AcDbTextStyleTableRecord
  2
STANDARD
 70
0
 40
0.0
 41
0.8
 50
0.0
 71
0
 42
0.2
  3
txt
  4

  0
STYLE
  5
21B
100
AcDbSymbolTableRecord
100
AcDbTextStyleTableRecord
  2
TEXTSTYLE_1
 70
0
 40
0.0
 41
0.8
 50
0.0
 71
0
 42
0.2
  3
gdt
  4

  0
ENDTAB
  0
TABLE
  2
VIEW
  5
6
100
AcDbSymbolTable
 70
0
  0
ENDTAB
  0
TABLE
  2
UCS
  5
7
100
AcDbSymbolTable
 70
0
  0
ENDTAB
  0
TABLE
  2
APPID
  5
9
100
AcDbSymbolTable
 70
1
  0
APPID
  5
21C
100
AcDbSymbolTableRecord
100
AcDbRegAppTableRecord
  2
ACAD
 70
0
  0
ENDTAB
  0
TABLE
  2
BLOCK_RECORD
  5
1
100
AcDbSymbolTable
 70
0
  0
BLOCK_RECORD
  5
21D
100
AcDbSymbolTableRecord
100
AcDbBlockTableRecord
  2
*Model_Space
  0
BLOCK_RECORD
  5
21E
100
AcDbSymbolTableRecord
100
AcDbBlockTableRecord
  2
*Paper_Space
  0
ENDTAB
  0
TABLE
  2
DIMSTYLE
  5
A
100
AcDbSymbolTable
 70
1
100
AcDbDimStyleTable
 71
0
  0
DIMSTYLE
105
21F
100
AcDbSymbolTableRecord
100
AcDbDimStyleTableRecord
  2
STANDARD
 70
0
  3

  4

 40
1.0
 41
0.125
 42
0.0625
 43
0.38
 44
0.18
 45
0.0
 46
0.0
 47
0.01
 48
0.01
140
0.125
141
0.09
142
0.0
143
25.4
144
1.0
145
0.0
146
1.0
147
0.09
 71
1.0
 72
0.0
 73
1
 74
1
 75
0
 76
0
 77
0
 78
4
170
0
171
2
172
0
173
0
174
0
175
0
176
0
177
0
178
0
270
2
271
2
272
2
273
2
274
2
275
0
280
0
281
0
282
0
283
1
284
4
285
0
286
0
287
3
288
0
340
11
  0
ENDTAB
  0
ENDSEC
  0
SECTION
  2
BLOCKS
  0
BLOCK
  5
20
100
AcDbEntity
  8
0
100
AcDbBlockBegin
  2
*Model_Space
 70
0
 10
0.0
 20
0.0
 30
0.0
  3
*Model_Space
  1

  0
ENDBLK
  5
21
100
AcDbEntity
  8
0
100
AcDbBlockEnd
  0
BLOCK
  5
1C
100
AcDbEntity
  8
0
100
AcDbBlockBegin
  2
*Paper_Space
 70
0
 10
0.0
 20
0.0
 30
0.0
  3
*Paper_Space
  1

  0
ENDBLK
  5
1D
100
AcDbEntity
  8
0
100
AcDbBlockEnd
  0
ENDSEC
  0
SECTION
  2
ENTITIES
  0
MTEXT
  5
220
100
AcDbEntity
  8
0
100
AcDbMText
 62
2
  6
CONTINUOUS
  7
STANDARD
 71
1
 72
1
 10
18.5409190323
 20
-13.5115755057
 30
0.0
 11
1.0
 21
0.0
 31
0.0
 44
0.9
  1
46005
 40
3.0
 41
12.0
  0
LINE
  5
221
100
AcDbEntity
  8
0
100
AcDbLine
 62
7
  6
CONTINUOUS
 10
-0.9041650504
 20
-3.4302953308
 11
-2.2841650504
 21
-3.4302953308
  0
LINE
  5
222
100
AcDbEntity
  8
0
100
AcDbLine
 62
7
  6
CONTINUOUS
 10
9.7140334236
 20
-3.4302953308
 11
11.7140334236
 21
-3.4302953308
  0
LINE
  5
223
100
AcDbEntity
  8
0
100
AcDbLine
 62
7
  6
CONTINUOUS
 10
5.2709487985
 20
-2.9294392142
 11
5.0509487985
 21
-2.9294392142
  0
LINE
  5
224
100
AcDbEntity
  8
06___PRT_ALL_SURFS
100
AcDbLine
 62
7
  6
CONTINUOUS
 10
4.6109487985
 20
-2.9194392142
 11
5.6109487985
 21
-2.9194392142
  0
LINE
  5
225
100
AcDbEntity
  8
0
100
AcDbLine
 62
7
  6
CONTINUOUS
 10
4.6109487985
 20
-2.8987992678
 11
3.1452373606
 21
-2.8987992678
  0
LINE
  5
226
100
AcDbEntity
  8
0
100
AcDbLine
 62
7
  6
CONTINUOUS
 10
5.6109487985
 20
-2.8987992678
 11
7.0428294865
 21
-2.8987992678
  0
LINE
  5
227
100
AcDbEntity
  8
06___PRT_ALL_SURFS
100
AcDbLine
 62
7
  6
CONTINUOUS
 10
4.6109487985
 20
-1.9194392142
 11
5.6109487985
 21
-1.9194392142
  0
LINE
  5
228
100
AcDbEntity
  8
0
100
AcDbLine
 62
7
  6
CONTINUOUS
 10
-2.2841650504
 20
-3.4302953308
 11
-2.2841650504
 21
0.5697046692
  0
LINE
  5
229
100
AcDbEntity
  8
0
100
AcDbLine
 62
7
  6
CONTINUOUS
 10
7.6913134975
 20
-1.7806890316
 11
2.4967756618
 21
-1.7806890316
  0
LINE
  5
22A
100
AcDbEntity
  8
0
100
AcDbLine
 62
7
  6
CONTINUOUS
 10
9.1727274279
 20
-1.3476181655
 11
1.0153394192
 21
-1.3476181655
  0
LINE
  5
22B
100
AcDbEntity
  8
0
100
AcDbLine
 62
7
  6
CONTINUOUS
 10
1.8656263522
 20
-1.388951894
 11
2.3657476218
 21
-1.7393553313
  0
LINE
  5
22C
100
AcDbEntity
  8
0
100
AcDbLine
 62
7
  6
CONTINUOUS
 10
-0.9041650504
 20
0.5697046692
 11
-0.9041650504
 21
-3.4302953308
  0
LINE
  5
22D
100
AcDbEntity
  8
0
100
AcDbLine
 62
7
  6
CONTINUOUS
 10
9.6809121605
 20
0.1445078188
 11
9.671398263
 21
0.1445078188
  0
LINE
  5
22E
100
AcDbEntity
  8
0
100
AcDbLine
 62
7
  6
CONTINUOUS
 10
9.6858815454
 20
0.3512007322
 11
9.7140334236
 21
0.3512007322
  0
LINE
  5
22F
100
AcDbEntity
  8
0
100
AcDbLine
 62
7
  6
CONTINUOUS
 10
0.4478366844
 20
0.9927947714
 11
0.5833234885
 21
-0.9447567961
  0
LINE
  5
230
100
AcDbEntity
  8
0
100
AcDbLine
 62
7
  6
CONTINUOUS
 10
10.5253016282
 20
2.1597377096
 11
10.2897861462
 21
2.1094944068
  0
LINE
  5
231
100
AcDbEntity
  8
0
100
AcDbLine
 62
7
  6
CONTINUOUS
 10
9.6984942967
 20
0.5312007322
 11
9.7140334236
 21
0.5312007322
  0
LINE
  5
232
100
AcDbEntity
  8
0
100
AcDbLine
 62
7
  6
CONTINUOUS
 10
-2.2841650504
 20
0.5697046692
 11
-0.9041650504
 21
0.5697046692
  0
LINE
  5
233
100
AcDbEntity
  8
0
100
AcDbLine
 62
7
  6
CONTINUOUS
 10
0.3027338874
 20
1.0697046692
 11
11.7140334236
 21
1.0697046692
  0
LINE
  5
234
100
AcDbEntity
  8
0
100
AcDbLine
 62
7
  6
CONTINUOUS
 10
11.2868016282
 20
1.1421243762
 11
10.2268016282
 21
1.1421243762
  0
LINE
  5
235
100
AcDbEntity
  8
0
100
AcDbLine
 62
7
  6
CONTINUOUS
 10
0.2515137385
 20
1.2488385275
 11
0.2515137385
 21
1.1208857716
  0
LINE
  5
236
100
AcDbEntity
  8
0
100
AcDbLine
 62
7
  6
CONTINUOUS
 10
0.6026972101
 20
1.8902007322
 11
0.6026972101
 21
1.2488385275
  0
LINE
  5
237
100
AcDbEntity
  8
0
100
AcDbLine
 62
7
  6
CONTINUOUS
 10
0.5068529627
 20
1.8322458997
 11
0.4660571451
 21
1.2488385275
  0
LINE
  5
238
100
AcDbEntity
  8
0
100
AcDbLine
 62
7
  6
CONTINUOUS
 10
0.2515137385
 20
1.2488385275
 11
9.9365531086
 21
1.2488385275
  0
LINE
  5
239
100
AcDbEntity
  8
0
100
AcDbLine
 62
7
  6
CONTINUOUS
 10
10.2739285132
 20
1.3381243762
 11
11.2396139381
 21
1.3381243762
  0
LINE
  5
23A
100
AcDbEntity
  8
0
100
AcDbLine
 62
7
  6
CONTINUOUS
 10
11.2396443406
 20
1.4271243762
 11
10.2739589157
 21
1.4271243762
  0
LINE
  5
23B
100
AcDbEntity
  8
0
100
AcDbLine
 62
7
  6
CONTINUOUS
 10
10.9883016282
 20
2.1597377096
 11
10.5253016282
 21
2.1597377096
  0
LINE
  5
23C
100
AcDbEntity
  8
0
100
AcDbLine
 62
7
  6
CONTINUOUS
 10
10.9883016282
 20
2.1597377096
 11
11.2238171101
 21
2.1094944068
  0
LINE
  5
23D
100
AcDbEntity
  8
0
100
AcDbLine
 62
7
  6
CONTINUOUS
 10
3.1235373606
 20
5.4702007322
 11
3.1235373606
 21
4.4586725607
  0
LINE
  5
23E
100
AcDbEntity
  8
0
100
AcDbLine
 62
7
  6
CONTINUOUS
 10
3.1452145259
 20
-1.9381693466
 11
3.1452145259
 21
-2.8987992678
  0
LWPOLYLINE
  5
23F
100
AcDbEntity
  8
0
100
AcDbPolyline
 62
7
  6
CONTINUOUS
 90
35
 70
0
 10
11.2993015115
 20
4.9946243763
 10
11.3129802881
 20
4.9952573948
 10
11.3292045294
 20
4.9976708211
 10
11.3450298456
 20
5.0018516062
 10
11.3600973186
 20
5.0076574634
 10
11.3740676375
 20
5.0148450237
 10
11.3866711502
 20
5.0230761194
 10
11.3977601257
 20
5.0319869151
 10
11.4073255091
 20
5.0412434913
 10
11.4154096696
 20
5.0505299891
 10
11.4221365631
 20
5.059602237
 10
11.427674123
 20
5.0682985027
 10
11.432206943
 20
5.0765415172
 10
11.435908005
 20
5.0843000294
 10
11.4388859528
 20
5.0914639545
 10
11.4412503783
 20
5.0979527186
 10
11.4431269744
 20
5.1037835047
 10
11.4446425568
 20
5.1090708405
 10
11.4458932231
 20
5.1139306936
 10
11.4469486491
 20
5.1184655008
 10
11.4478589549
 20
5.1227614899
 10
11.4486600332
 20
5.1268883837
 10
11.4493782304
 20
5.1309044639
 10
11.4500346708
 20
5.1348686217
 10
11.4506448029
 20
5.1388298572
 10
11.4512199738
 20
5.1428287131
 10
11.4517686481
 20
5.1468992899
 10
11.4522972246
 20
5.1510706903
 10
11.4528106009
 20
5.1553681074
 10
11.4533125669
 20
5.1598136457
 10
11.4538060929
 20
5.1644270126
 10
11.4542935747
 20
5.1692264412
 10
11.4547768612
 20
5.1742279155
 10
11.4552574253
 20
5.1794460091
 10
11.4562154716
 20
5.1905918332
  0
LWPOLYLINE
  5
240
100
AcDbEntity
  8
0
100
AcDbPolyline
 62
7
  6
CONTINUOUS
 90
32
 70
0
 10
10.9893015119
 20
4.9946243763
 10
11.0029580525
 20
4.995255336
 10
11.019160271
 20
4.9976617173
 10
11.0349654738
 20
5.0018307591
 10
11.050016487
 20
5.0076211773
 10
11.0639751854
 20
5.0147911494
 10
11.0765728319
 20
5.0230046228
 10
11.0876606172
 20
5.0318989141
 10
11.0972286241
 20
5.0411411133
 10
11.1053177527
 20
5.0504153482
 10
11.1120510843
 20
5.0594776447
 10
11.1175964216
 20
5.068167036
 10
11.1221381245
 20
5.0764070099
 10
11.1258491171
 20
5.0841676122
 10
11.1288364886
 20
5.0913366383
 10
11.1312075224
 20
5.0978273432
 10
11.133087438
 20
5.1036531372
 10
11.1346048331
 20
5.108931803
 10
11.135857555
 20
5.1137848641
 10
11.1369159566
 20
5.1183182435
 10
11.1378304586
 20
5.122620964
 10
11.1386371488
 20
5.1267655411
 10
11.1393625851
 20
5.1308135255
 10
11.1400284337
 20
5.1348295456
 10
11.1406507085
 20
5.1388695774
 10
11.1412412705
 20
5.1429819496
 10
11.1418090883
 20
5.1472096098
 10
11.1423610672
 20
5.151591701
 10
11.142902616
 20
5.156164733
 10
11.1434377143
 20
5.1609604532
 10
11.1439684018
 20
5.1659979426
 10
11.1443017594
 20
5.1693426546
  0
LINE
  5
241
100
AcDbEntity
  8
06___PRT_ALL_SURFS
100
AcDbLine
 62
7
  6
CONTINUOUS
 10
4.6021725955
 20
4.4904373551
 11
5.6021725955
 21
4.4904373551
  0
LINE
  5
242
100
AcDbEntity
  8
0
100
AcDbLine
 62
7
  6
CONTINUOUS
 10
10.3447756411
 20
1.3632906369
 11
10.3608725314
 21
1.353034022
  0
LINE
  5
243
100
AcDbEntity
  8
0
100
AcDbLine
 62
7
  6
CONTINUOUS
 10
10.3447756411
 20
1.3932906369
 11
10.3608725314
 21
1.383034022
  0
LINE
  5
244
100
AcDbEntity
  8
0
100
AcDbLine
 62
7
  6
CONTINUOUS
 10
10.3447756411
 20
1.4232906369
 11
10.3608725314
 21
1.413034022
  0
LINE
  5
245
100
AcDbEntity
  8
06___PRT_ALL_SURFS
100
AcDbLine
 62
7
  6
CONTINUOUS
 10
4.6021725955
 20
5.4904373551
 11
4.6021725955
 21
4.4904373551
  0
LINE
  5
246
100
AcDbEntity
  8
06___PRT_ALL_SURFS
100
AcDbLine
 62
7
  6
CONTINUOUS
 10
4.6109487985
 20
-1.9194392142
 11
4.6109487985
 21
-2.9194392142
  0
LINE
  5
247
100
AcDbEntity
  8
0
100
AcDbLine
 62
7
  6
CONTINUOUS
 10
11.1953827067
 20
14.5101080413
 11
11.1783016282
 21
14.4871530008
  0
LINE
  5
248
100
AcDbEntity
  8
0
100
AcDbLine
 62
7
  6
CONTINUOUS
 10
11.1183016282
 20
14.4065197772
 11
11.0093497042
 21
14.2601006963
  0
LINE
  5
249
100
AcDbEntity
  8
0
100
AcDbLine
 62
7
  6
CONTINUOUS
 10
3.0802605942
 20
4.3567188882
 11
0.54024414
 21
1.9038535105
  0
LINE
  5
24A
100
AcDbEntity
  8
0
100
AcDbLine
 62
7
  6
CONTINUOUS
 10
7.0645294865
 20
5.4702007322
 11
5.6021725955
 21
5.4702007322
  0
LINE
  5
24B
100
AcDbEntity
  8
0
100
AcDbLine
 62
7
  6
CONTINUOUS
 10
4.6021725955
 20
5.4702007322
 11
3.1235373606
 21
5.4702007322
  0
LINE
  5
24C
100
AcDbEntity
  8
06___PRT_ALL_SURFS
100
AcDbLine
 62
7
  6
CONTINUOUS
 10
4.6021725955
 20
5.4904373551
 11
5.6021725955
 21
5.4904373551
  0
LINE
  5
24D
100
AcDbEntity
  8
0
100
AcDbLine
 62
7
  6
CONTINUOUS
 10
5.0421725955
 20
5.5004373551
 11
5.2621725955
 21
5.5004373551
  0
LINE
  5
24E
100
AcDbEntity
  8
0
100
AcDbLine
 62
7
  6
CONTINUOUS
 10
11.1528016282
 20
1.3586305501
 11
11.1688957508
 21
1.3483774632
  0
LINE
  5
24F
100
AcDbEntity
  8
0
100
AcDbLine
 62
7
  6
CONTINUOUS
 10
11.1688276152
 20
1.3784642894
 11
11.1527307249
 21
1.3887209043
  0
LINE
  5
250
100
AcDbEntity
  8
0
100
AcDbLine
 62
7
  6
CONTINUOUS
 10
11.1688276152
 20
1.4084642894
 11
11.1527307249
 21
1.4187209043
  0
LINE
  5
251
100
AcDbEntity
  8
0
100
AcDbLine
 62
7
  6
CONTINUOUS
 10
5.0421725955
 20
5.4904373551
 11
5.0421725955
 21
5.5004373551
  0
LINE
  5
252
100
AcDbEntity
  8
0
100
AcDbLine
 62
7
  6
CONTINUOUS
 10
5.046853446
 20
5.4904373551
 11
5.046853446
 21
5.5004373551
  0
LINE
  5
253
100
AcDbEntity
  8
0
100
AcDbLine
 62
7
  6
CONTINUOUS
 10
5.0509487985
 20
-2.9194392142
 11
5.0509487985
 21
-2.9294392142
  0
LINE
  5
254
100
AcDbEntity
  8
0
100
AcDbLine
 62
7
  6
CONTINUOUS
 10
5.056215147
 20
5.4904373551
 11
5.056215147
 21
5.5004373551
  0
LINE
  5
255
100
AcDbEntity
  8
0
100
AcDbLine
 62
7
  6
CONTINUOUS
 10
5.0749385491
 20
5.4904373551
 11
5.0749385491
 21
5.5004373551
  0
LINE
  5
256
100
AcDbEntity
  8
0
100
AcDbLine
 62
7
  6
CONTINUOUS
 10
5.0790339015
 20
-2.9194392142
 11
5.0790339015
 21
-2.9294392142
  0
LINE
  5
257
100
AcDbEntity
  8
0
100
AcDbLine
 62
7
  6
CONTINUOUS
 10
5.0936619511
 20
5.4904373551
 11
5.0936619511
 21
5.5004373551
  0
LINE
  5
258
100
AcDbEntity
  8
0
100
AcDbLine
 62
7
  6
CONTINUOUS
 10
5.1170662167
 20
5.4904373551
 11
5.1170662167
 21
5.5004373551
  0
LINE
  5
259
100
AcDbEntity
  8
0
100
AcDbLine
 62
7
  6
CONTINUOUS
 10
5.1398849712
 20
-2.9194392142
 11
5.1398849712
 21
-2.9294392142
  0
LINE
  5
25A
100
AcDbEntity
  8
0
100
AcDbLine
 62
7
  6
CONTINUOUS
 10
5.1679700742
 20
-2.9194392142
 11
5.1679700742
 21
-2.9294392142
  0
LINE
  5
25B
100
AcDbEntity
  8
0
100
AcDbLine
 62
7
  6
CONTINUOUS
 10
5.1872789809
 20
5.4904373551
 11
5.1872789809
 21
5.5004373551
  0
LINE
  5
25C
100
AcDbEntity
  8
0
100
AcDbLine
 62
7
  6
CONTINUOUS
 10
5.2106832334
 20
5.4904373551
 11
5.2106832334
 21
5.5004373551
  0
LINE
  5
25D
100
AcDbEntity
  8
0
100
AcDbLine
 62
7
  6
CONTINUOUS
 10
5.2294066387
 20
5.4904373551
 11
5.2294066387
 21
5.5004373551
  0
LINE
  5
25E
100
AcDbEntity
  8
0
100
AcDbLine
 62
7
  6
CONTINUOUS
 10
5.2428636922
 20
-2.9194392142
 11
5.2428636922
 21
-2.9294392142
  0
LINE
  5
25F
100
AcDbEntity
  8
0
100
AcDbLine
 62
7
  6
CONTINUOUS
 10
5.2481300424
 20
5.4904373551
 11
5.2481300424
 21
5.5004373551
  0
LINE
  5
260
100
AcDbEntity
  8
0
100
AcDbLine
 62
7
  6
CONTINUOUS
 10
5.2574917446
 20
5.4904373551
 11
5.2574917446
 21
5.5004373551
  0
LINE
  5
261
100
AcDbEntity
  8
0
100
AcDbLine
 62
7
  6
CONTINUOUS
 10
5.2621725955
 20
5.4904373551
 11
5.2621725955
 21
5.5004373551
  0
LINE
  5
262
100
AcDbEntity
  8
0
100
AcDbLine
 62
7
  6
CONTINUOUS
 10
5.2709487985
 20
-2.9194392142
 11
5.2709487985
 21
-2.9294392142
  0
LINE
  5
263
100
AcDbEntity
  8
06___PRT_ALL_SURFS
100
AcDbLine
 62
7
  6
CONTINUOUS
 10
5.6021725955
 20
5.4904373551
 11
5.6021725955
 21
4.4904373551
  0
LINE
  5
264
100
AcDbEntity
  8
06___PRT_ALL_SURFS
100
AcDbLine
 62
7
  6
CONTINUOUS
 10
5.6109487985
 20
-1.9194392142
 11
5.6109487985
 21
-2.9194392142
  0
LINE
  5
265
100
AcDbEntity
  8
0
100
AcDbLine
 62
7
  6
CONTINUOUS
 10
7.1078062529
 20
4.3567188882
 11
9.6478227071
 21
1.9038535105
  0
LINE
  5
266
100
AcDbEntity
  8
0
100
AcDbLine
 62
7
  6
CONTINUOUS
 10
7.0428523212
 20
-1.9381693466
 11
7.0428523212
 21
-2.8987992678
  0
LINE
  5
267
100
AcDbEntity
  8
0
100
AcDbLine
 62
7
  6
CONTINUOUS
 10
7.0645294865
 20
5.4702007322
 11
7.0645294865
 21
4.4586725607
  0
LINE
  5
268
100
AcDbEntity
  8
0
100
AcDbLine
 62
7
  6
CONTINUOUS
 10
10.3608725314
 20
1.353034022
 11
10.3608016282
 21
1.3531243762
  0
LINE
  5
269
100
AcDbEntity
  8
0
100
AcDbLine
 62
7
  6
CONTINUOUS
 10
10.3608725314
 20
1.383034022
 11
10.3608016282
 21
1.3831243762
  0
LINE
  5
26A
100
AcDbEntity
  8
0
100
AcDbLine
 62
7
  6
CONTINUOUS
 10
10.3608725314
 20
1.413034022
 11
10.3608016282
 21
1.4131243762
  0
LINE
  5
26B
100
AcDbEntity
  8
0
100
AcDbLine
 62
7
  6
CONTINUOUS
 10
11.1528016282
 20
1.3886305501
 11
11.1527307249
 21
1.3887209043
  0
LINE
  5
26C
100
AcDbEntity
  8
0
100
AcDbLine
 62
7
  6
CONTINUOUS
 10
11.1528016282
 20
1.4186305501
 11
11.1527307249
 21
1.4187209043
  0
LINE
  5
26D
100
AcDbEntity
  8
0
100
AcDbLine
 62
7
  6
CONTINUOUS
 10
9.6812138844
 20
1.8322458997
 11
9.722009702
 21
1.2488385275
  0
LINE
  5
26E
100
AcDbEntity
  8
0
100
AcDbLine
 62
7
  6
CONTINUOUS
 10
9.6026972101
 20
1.8902007322
 11
9.6026972101
 21
1.2488385275
  0
LINE
  5
26F
100
AcDbEntity
  8
0
100
AcDbLine
 62
7
  6
CONTINUOUS
 10
9.7140334236
 20
1.0697046692
 11
9.7140334236
 21
-3.4302953308
  0
LINE
  5
270
100
AcDbEntity
  8
0
100
AcDbLine
 62
7
  6
CONTINUOUS
 10
9.9365531086
 20
1.2488385275
 11
9.9365531086
 21
1.1208857716
  0
LINE
  5
271
100
AcDbEntity
  8
0
100
AcDbLine
 62
7
  6
CONTINUOUS
 10
10.2268016282
 20
1.1421243762
 11
10.2268016282
 21
1.0697046692
  0
LINE
  5
272
100
AcDbEntity
  8
0
100
AcDbLine
 62
7
  6
CONTINUOUS
 10
10.2739285132
 20
1.3381243762
 11
10.2739285132
 21
1.1421243762
  0
LINE
  5
273
100
AcDbEntity
  8
0
100
AcDbLine
 62
7
  6
CONTINUOUS
 10
10.2739589157
 20
1.4271243762
 11
10.2739589157
 21
2.08993455
  0
LINE
  5
274
100
AcDbEntity
  8
0
100
AcDbLine
 62
7
  6
CONTINUOUS
 10
9.6809121605
 20
0.1445078188
 11
9.6681060446
 21
-0.0386281712
  0
LINE
  5
275
100
AcDbEntity
  8
0
100
AcDbLine
 62
7
  6
CONTINUOUS
 10
9.6606807797
 20
-0.1448144068
 11
9.6463948689
 21
-0.3491124483
  0
LINE
  5
276
100
AcDbEntity
  8
0
100
AcDbLine
 62
7
  6
CONTINUOUS
 10
9.6328389188
 20
-0.5429715672
 11
9.6047433587
 21
-0.9447567961
  0
LINE
  5
277
100
AcDbEntity
  8
0
100
AcDbLine
 62
7
  6
CONTINUOUS
 10
10.6769369608
 20
11.0880641926
 11
10.6758832137
 21
11.0741099838
  0
LWPOLYLINE
  5
278
100
AcDbEntity
  8
0
100
AcDbPolyline
 62
7
  6
CONTINUOUS
 90
35
 70
0
 10
10.8343017398
 20
11.2896243762
 10
10.8203778212
 20
11.2889684352
 10
10.8041231637
 20
11.2865209314
 10
10.7882735845
 20
11.282299619
 10
10.7731917886
 20
11.2764497117
 10
10.7592188548
 20
11.2692184664
 10
10.746626166
 20
11.2609493659
 10
10.7355574722
 20
11.2520083372
 10
10.7260173129
 20
11.2427291014
 10
10.717957989
 20
11.2334238722
 10
10.7112538531
 20
11.2243351268
 10
10.7057388145
 20
11.2156269712
 10
10.7012281602
 20
11.2073772189
 10
10.6975498422
 20
11.1996203591
 10
10.6945947342
 20
11.1924679603
 10
10.6922518866
 20
11.1859993211
 10
10.6903941594
 20
11.180193318
 10
10.688893391
 20
11.1749288083
 10
10.6876531102
 20
11.1700843806
 10
10.6866039212
 20
11.1655540313
 10
10.6856961611
 20
11.1612489262
 10
10.684894321
 20
11.1570968413
 10
10.6841721842
 20
11.1530359631
 10
10.6835084366
 20
11.1490018569
 10
10.682887407
 20
11.1449392382
 10
10.6822974764
 20
11.1408003281
 10
10.6817298594
 20
11.1365426944
 10
10.681177794
 20
11.1321277114
 10
10.6806359881
 20
11.1275194178
 10
10.6801005231
 20
11.1226863436
 10
10.6795692345
 20
11.1176080601
 10
10.6790406454
 20
11.1122682966
 10
10.678513736
 20
11.1066538988
 10
10.6779877954
 20
11.1007541066
 10
10.6769369608
 20
11.0880641926
  0
LWPOLYLINE
  5
279
100
AcDbEntity
  8
0
100
AcDbPolyline
 62
7
  6
CONTINUOUS
 90
32
 70
0
 10
11.1443017388
 20
11.2896243762
 10
11.130433283
 20
11.288973657
 10
11.1142326001
 20
11.2865436336
 10
11.098431835
 20
11.2823511822
 10
11.0833898839
 20
11.2765390896
 10
11.0694453171
 20
11.2693510216
 10
11.0568675786
 20
11.261125642
 10
11.045802842
 20
11.2522261632
 10
11.0362564896
 20
11.2429827725
 10
11.028183639
 20
11.2337063426
 10
11.0214610032
 20
11.2246382124
 10
11.0159255566
 20
11.215944191
 10
11.0113947914
 20
11.207704257
 10
11.0076962825
 20
11.1999510446
 10
11.0047203782
 20
11.1927927211
 10
11.0023583925
 20
11.1863121843
 10
11.00048494
 20
11.1804938274
 10
10.9989722402
 20
11.1752204908
 10
10.9977229483
 20
11.1703709147
 10
10.9966670089
 20
11.165839167
 10
10.995754218
 20
11.1615362116
 10
10.9949486431
 20
11.1573894907
 10
10.9942238968
 20
11.1533377194
 10
10.9935585293
 20
11.1493170687
 10
10.9929366711
 20
11.1452722547
 10
10.9923465722
 20
11.1411556612
 10
10.9917793541
 20
11.1369251068
 10
10.9912281899
 20
11.1325423022
 10
10.9906877425
 20
11.1279717064
 10
10.9901539632
 20
11.1231814092
 10
10.9896245077
 20
11.1181497557
 10
10.9893015021
 20
11.1149055996
  0
LWPOLYLINE
  5
27A
100
AcDbEntity
  8
0
100
AcDbPolyline
 62
7
  6
CONTINUOUS
 90
33
 70
0
 10
10.833785962
 20
5.1746574867
 10
10.8342646188
 20
5.1696824721
 10
10.8347485266
 20
5.1648949358
 10
10.8352393798
 20
5.1602819511
 10
10.8357394181
 20
5.155828021
 10
10.8362514548
 20
5.1515158514
 10
10.836779109
 20
5.1473255343
 10
10.8373270916
 20
5.1432338415
 10
10.8379015908
 20
5.1392134395
 10
10.8385108201
 20
5.1352318561
 10
10.839165808
 20
5.1312501175
 10
10.8398815639
 20
5.1272208882
 10
10.8406787235
 20
5.12308645
 10
10.8415832734
 20
5.118788419
 10
10.8426306008
 20
5.1142570998
 10
10.8438701721
 20
5.1094061828
 10
10.8453708743
 20
5.1041328193
 10
10.8472277599
 20
5.0983205799
 10
10.849567276
 20
5.0918520376
 10
10.8525167123
 20
5.084703487
 10
10.8561887325
 20
5.076949195
 10
10.8606940059
 20
5.0686981579
 10
10.8662046761
 20
5.0599858086
 10
10.8729054458
 20
5.0508908538
 10
10.8809620979
 20
5.0415783805
 10
10.8905006657
 20
5.0322909823
 10
10.9015698156
 20
5.0233406403
 10
10.9141656942
 20
5.0150614802
 10
10.9281452464
 20
5.0078200908
 10
10.9432365415
 20
5.0019612316
 10
10.9590977592
 20
4.9977331036
 10
10.9753651152
 20
4.9952815165
 10
10.9893017401
 20
4.9946243763
  0
LINE
  5
27B
100
AcDbEntity
  8
0
100
AcDbLine
 62
7
  6
CONTINUOUS
 10
10.8328393585
 20
5.18521385
 11
10.833785962
 21
5.1746574867
  0
LINE
  5
27C
100
AcDbEntity
  8
0
100
AcDbLine
 62
7
  6
CONTINUOUS
 10
10.831898568
 20
5.1966712351
 11
10.8328393585
 21
5.18521385
  0
LINE
  5
27D
100
AcDbEntity
  8
0
100
AcDbLine
 62
7
  6
CONTINUOUS
 10
10.8309526495
 20
5.2091809825
 11
10.831898568
 21
5.1966712351
  0
LINE
  5
27E
100
AcDbEntity
  8
0
100
AcDbLine
 62
7
  6
CONTINUOUS
 10
10.82999247
 20
5.2229081187
 11
10.8309526495
 21
5.2091809825
  0
LINE
  5
27F
100
AcDbEntity
  8
0
100
AcDbLine
 62
7
  6
CONTINUOUS
 10
10.6987391965
 20
11.0498916393
 11
10.6996948308
 21
11.0358361598
  0
LINE
  5
280
100
AcDbEntity
  8
0
100
AcDbLine
 62
7
  6
CONTINUOUS
 10
10.8290102354
 20
5.238032452
 11
10.82999247
 21
5.2229081187
  0
LINE
  5
281
100
AcDbEntity
  8
0
100
AcDbLine
 62
7
  6
CONTINUOUS
 10
10.6996948308
 20
11.0358361598
 11
10.7006921567
 21
11.0199463552
  0
LINE
  5
282
100
AcDbEntity
  8
0
100
AcDbLine
 62
7
  6
CONTINUOUS
 10
10.8279990232
 20
5.2547520311
 11
10.8290102354
 21
5.238032452
  0
LINE
  5
283
100
AcDbEntity
  8
0
100
AcDbLine
 62
7
  6
CONTINUOUS
 10
10.7006921567
 20
11.0199463552
 11
10.7017292658
 21
11.0021216604
  0
LINE
  5
284
100
AcDbEntity
  8
0
100
AcDbLine
 62
7
  6
CONTINUOUS
 10
10.8269515034
 20
5.2733041866
 11
10.8279990232
 21
5.2547520311
  0
LINE
  5
285
100
AcDbEntity
  8
0
100
AcDbLine
 62
7
  6
CONTINUOUS
 10
10.7017292658
 20
11.0021216604
 11
10.7028066997
 21
10.9822193385
  0
LINE
  5
286
100
AcDbEntity
  8
0
100
AcDbLine
 62
7
  6
CONTINUOUS
 10
10.8258557862
 20
5.2940518721
 11
10.8269515034
 21
5.2733041866
  0
LINE
  5
287
100
AcDbEntity
  8
0
100
AcDbLine
 62
7
  6
CONTINUOUS
 10
10.7028066997
 20
10.9822193385
 11
10.7039255178
 21
10.9600790734
  0
LINE
  5
288
100
AcDbEntity
  8
0
100
AcDbLine
 62
7
  6
CONTINUOUS
 10
10.8247014405
 20
5.3173908775
 11
10.8258557862
 21
5.2940518721
  0
LINE
  5
289
100
AcDbEntity
  8
0
100
AcDbLine
 62
7
  6
CONTINUOUS
 10
10.7039255178
 20
10.9600790734
 11
10.7050871277
 21
10.9355236705
  0
LINE
  5
28A
100
AcDbEntity
  8
0
100
AcDbLine
 62
7
  6
CONTINUOUS
 10
10.8234906857
 20
5.3434968875
 11
10.8247014405
 21
5.3173908775
  0
LINE
  5
28B
100
AcDbEntity
  8
0
100
AcDbLine
 62
7
  6
CONTINUOUS
 10
10.7050871277
 20
10.9355236705
 11
10.7062926017
 21
10.9083728411
  0
LINE
  5
28C
100
AcDbEntity
  8
0
100
AcDbLine
 62
7
  6
CONTINUOUS
 10
10.8222294113
 20
5.3724528804
 11
10.8234906857
 21
5.3434968875
  0
LINE
  5
28D
100
AcDbEntity
  8
0
100
AcDbLine
 62
7
  6
CONTINUOUS
 10
10.7062926017
 20
10.9083728411
 11
10.7075419252
 21
10.8784643726
  0
LINE
  5
28E
100
AcDbEntity
  8
0
100
AcDbLine
 62
7
  6
CONTINUOUS
 10
10.8209232821
 20
5.4043179574
 11
10.8222294113
 21
5.3724528804
  0
LINE
  5
28F
100
AcDbEntity
  8
0
100
AcDbLine
 62
7
  6
CONTINUOUS
 10
10.7075419252
 20
10.8784643726
 11
10.708835041
 21
10.8456352079
  0
LINE
  5
290
100
AcDbEntity
  8
0
100
AcDbLine
 62
7
  6
CONTINUOUS
 10
10.8195725031
 20
5.4392650177
 11
10.8209232821
 21
5.4043179574
  0
LINE
  5
291
100
AcDbEntity
  8
0
100
AcDbLine
 62
7
  6
CONTINUOUS
 10
10.708835041
 20
10.8456352079
 11
10.7101719831
 21
10.8097188955
  0
LINE
  5
292
100
AcDbEntity
  8
0
100
AcDbLine
 62
7
  6
CONTINUOUS
 10
10.8181718711
 20
5.4776181081
 11
10.8195725031
 21
5.4392650177
  0
LINE
  5
293
100
AcDbEntity
  8
0
100
AcDbLine
 62
7
  6
CONTINUOUS
 10
10.7101719831
 20
10.8097188955
 11
10.7115525193
 21
10.7705561657
  0
LINE
  5
294
100
AcDbEntity
  8
0
100
AcDbLine
 62
7
  6
CONTINUOUS
 10
10.8167160289
 20
5.5197375884
 11
10.8181718711
 21
5.4776181081
  0
LINE
  5
295
100
AcDbEntity
  8
0
100
AcDbLine
 62
7
  6
CONTINUOUS
 10
10.7115525193
 20
10.7705561657
 11
10.7129758212
 21
10.7280080054
  0
LINE
  5
296
100
AcDbEntity
  8
0
100
AcDbLine
 62
7
  6
CONTINUOUS
 10
10.8151999795
 20
5.5660059249
 11
10.8167160289
 21
5.5197375884
  0
LINE
  5
297
100
AcDbEntity
  8
0
100
AcDbLine
 62
7
  6
CONTINUOUS
 10
10.7129758212
 20
10.7280080054
 11
10.7144410301
 21
10.6819431121
  0
LINE
  5
298
100
AcDbEntity
  8
0
100
AcDbLine
 62
7
  6
CONTINUOUS
 10
10.8136209794
 20
5.616762775
 11
10.8151999795
 21
5.5660059249
  0
LINE
  5
299
100
AcDbEntity
  8
0
100
AcDbLine
 62
7
  6
CONTINUOUS
 10
10.7144410301
 20
10.6819431121
 11
10.7159473224
 21
10.6322370625
  0
LINE
  5
29A
100
AcDbEntity
  8
0
100
AcDbLine
 62
7
  6
CONTINUOUS
 10
10.8119773078
 20
5.6723285775
 11
10.8136209794
 21
5.616762775
  0
LINE
  5
29B
100
AcDbEntity
  8
0
100
AcDbLine
 62
7
  6
CONTINUOUS
 10
10.7159473224
 20
10.6322370625
 11
10.717493904
 21
10.5787734109
  0
LINE
  5
29C
100
AcDbEntity
  8
0
100
AcDbLine
 62
7
  6
CONTINUOUS
 10
10.810267334
 20
5.7330283754
 11
10.8119773078
 21
5.6723285775
  0
LINE
  5
29D
100
AcDbEntity
  8
0
100
AcDbLine
 62
7
  6
CONTINUOUS
 10
10.717493904
 20
10.5787734109
 11
10.7190813208
 21
10.5213962279
  0
LINE
  5
29E
100
AcDbEntity
  8
0
100
AcDbLine
 62
7
  6
CONTINUOUS
 10
10.8084904448
 20
5.7991535896
 11
10.810267334
 21
5.7330283754
  0
LINE
  5
29F
100
AcDbEntity
  8
0
100
AcDbLine
 62
7
  6
CONTINUOUS
 10
10.7190813208
 20
10.5213962279
 11
10.7207154604
 21
10.4597465557
  0
LINE
  5
2A0
100
AcDbEntity
  8
0
100
AcDbLine
 62
7
  6
CONTINUOUS
 10
10.8066468507
 20
5.8709583079
 11
10.8084904448
 21
5.7991535896
  0
LINE
  5
2A1
100
AcDbEntity
  8
0
100
AcDbLine
 62
7
  6
CONTINUOUS
 10
10.7207154604
 20
10.4597465557
 11
10.7224035787
 21
10.3933806614
  0
LINE
  5
2A2
100
AcDbEntity
  8
0
100
AcDbLine
 62
7
  6
CONTINUOUS
 10
10.8047367984
 20
5.9486816991
 11
10.8066468507
 21
5.8709583079
  0
LINE
  5
2A3
100
AcDbEntity
  8
0
100
AcDbLine
 62
7
  6
CONTINUOUS
 10
10.7224035787
 20
10.3933806614
 11
10.7241529504
 21
10.3218167929
  0
LINE
  5
2A4
100
AcDbEntity
  8
0
100
AcDbLine
 62
7
  6
CONTINUOUS
 10
10.8027599092
 20
6.0325728571
 11
10.8047367984
 21
5.9486816991
  0
LINE
  5
2A5
100
AcDbEntity
  8
0
100
AcDbLine
 62
7
  6
CONTINUOUS
 10
10.7241529504
 20
10.3218167929
 11
10.7259709811
 21
10.2445320321
  0
LINE
  5
2A6
100
AcDbEntity
  8
0
100
AcDbLine
 62
7
  6
CONTINUOUS
 10
10.8007074287
 20
6.1232415731
 11
10.8027599092
 21
6.0325728571
  0
LINE
  5
2A7
100
AcDbEntity
  8
0
100
AcDbLine
 62
7
  6
CONTINUOUS
 10
10.7259709811
 20
10.2445320321
 11
10.7278689825
 21
10.1607941976
  0
LINE
  5
2A8
100
AcDbEntity
  8
0
100
AcDbLine
 62
7
  6
CONTINUOUS
 10
10.7278689825
 20
10.1607941976
 11
10.7298630103
 21
10.069594936
  0
LINE
  5
2A9
100
AcDbEntity
  8
0
100
AcDbLine
 62
7
  6
CONTINUOUS
 10
10.7985646991
 20
6.2216106443
 11
10.8007074287
 21
6.1232415731
  0
LINE
  5
2AA
100
AcDbEntity
  8
0
100
AcDbLine
 62
7
  6
CONTINUOUS
 10
10.7298630103
 20
10.069594936
 11
10.7319711085
 21
9.9697488525
  0
LINE
  5
2AB
100
AcDbEntity
  8
0
100
AcDbLine
 62
7
  6
CONTINUOUS
 10
10.7963169347
 20
6.3286799378
 11
10.7985646991
 21
6.2216106443
  0
LINE
  5
2AC
100
AcDbEntity
  8
0
100
AcDbLine
 62
7
  6
CONTINUOUS
 10
10.7319711085
 20
9.9697488525
 11
10.73422288
 21
9.859407907
  0
LINE
  5
2AD
100
AcDbEntity
  8
0
100
AcDbLine
 62
7
  6
CONTINUOUS
 10
10.793945744
 20
6.4456921068
 11
10.7963169347
 21
6.3286799378
  0
LINE
  5
2AE
100
AcDbEntity
  8
0
100
AcDbLine
 62
7
  6
CONTINUOUS
 10
10.73422288
 20
9.859407907
 11
10.7366518229
 21
9.7363722396
  0
LINE
  5
2AF
100
AcDbEntity
  8
0
100
AcDbLine
 62
7
  6
CONTINUOUS
 10
10.7914246771
 20
6.574379809
 11
10.793945744
 21
6.4456921068
  0
LINE
  5
2B0
100
AcDbEntity
  8
0
100
AcDbLine
 62
7
  6
CONTINUOUS
 10
10.7887179225
 20
6.7170808844
 11
10.7914246771
 21
6.574379809
  0
LINE
  5
2B1
100
AcDbEntity
  8
0
100
AcDbLine
 62
7
  6
CONTINUOUS
 10
10.7366518229
 20
9.7363722396
 11
10.7392752325
 21
9.5991448704
  0
LINE
  5
2B2
100
AcDbEntity
  8
0
100
AcDbLine
 62
7
  6
CONTINUOUS
 10
10.7392752325
 20
9.5991448704
 11
10.7420923069
 21
9.4472008442
  0
LINE
  5
2B3
100
AcDbEntity
  8
0
100
AcDbLine
 62
7
  6
CONTINUOUS
 10
10.7857641209
 20
6.8776717879
 11
10.7887179225
 21
6.7170808844
  0
LINE
  5
2B4
100
AcDbEntity
  8
0
100
AcDbLine
 62
7
  6
CONTINUOUS
 10
10.7420923069
 20
9.4472008442
 11
10.7450876333
 21
9.2809764907
  0
LINE
  5
2B5
100
AcDbEntity
  8
0
100
AcDbLine
 62
7
  6
CONTINUOUS
 10
10.7825298487
 20
7.0586729742
 11
10.7857641209
 21
6.8776717879
  0
LINE
  5
2B6
100
AcDbEntity
  8
0
100
AcDbLine
 62
7
  6
CONTINUOUS
 10
10.7450876333
 20
9.2809764907
 11
10.7482434605
 21
9.1013055068
  0
LINE
  5
2B7
100
AcDbEntity
  8
0
100
AcDbLine
 62
7
  6
CONTINUOUS
 10
10.7790310508
 20
7.2596798525
 11
10.7825298487
 21
7.0586729742
  0
LINE
  5
2B8
100
AcDbEntity
  8
0
100
AcDbLine
 62
7
  6
CONTINUOUS
 10
10.7482434605
 20
9.1013055068
 11
10.7515575588
 21
8.9084014916
  0
LINE
  5
2B9
100
AcDbEntity
  8
0
100
AcDbLine
 62
7
  6
CONTINUOUS
 10
10.7752174241
 20
7.4837752321
 11
10.7790310508
 21
7.2596798525
  0
LINE
  5
2BA
100
AcDbEntity
  8
0
100
AcDbLine
 62
7
  6
CONTINUOUS
 10
10.7515575588
 20
8.9084014916
 11
10.7550452328
 21
8.7016652822
  0
LINE
  5
2BB
100
AcDbEntity
  8
0
100
AcDbLine
 62
7
  6
CONTINUOUS
 10
10.7710567676
 20
7.7326822536
 11
10.7752174241
 21
7.4837752321
  0
LINE
  5
2BC
100
AcDbEntity
  8
0
100
AcDbLine
 62
7
  6
CONTINUOUS
 10
10.7606423611
 20
8.364460861
 11
10.7710567676
 21
7.7326822536
  0
LINE
  5
2BD
100
AcDbEntity
  8
0
100
AcDbLine
 62
7
  6
CONTINUOUS
 10
10.7550452328
 20
8.7016652822
 11
10.7606423611
 21
8.364460861
  0
LINE
  5
2BE
100
AcDbEntity
  8
0
100
AcDbLine
 62
7
  6
CONTINUOUS
 10
10.2880706488
 20
1.3381243762
 11
10.2880706488
 21
1.1421243762
  0
LINE
  5
2BF
100
AcDbEntity
  8
0
100
AcDbLine
 62
7
  6
CONTINUOUS
 10
10.3447756411
 20
1.3632906369
 11
10.3447756411
 21
1.3634642894
  0
LINE
  5
2C0
100
AcDbEntity
  8
0
100
AcDbLine
 62
7
  6
CONTINUOUS
 10
10.3447756411
 20
1.3932906369
 11
10.3447756411
 21
1.3934642894
  0
LINE
  5
2C1
100
AcDbEntity
  8
02___PRT_ALL_AXES
100
AcDbLine
 62
7
  6
CONTINUOUS
 10
10.3613016282
 20
1.3381243762
 11
10.3613016282
 21
1.3531243762
  0
LINE
  5
2C2
100
AcDbEntity
  8
02___PRT_ALL_AXES
100
AcDbLine
 62
7
  6
CONTINUOUS
 10
10.3613016282
 20
1.3736305501
 11
10.3613016282
 21
1.3831243762
  0
LINE
  5
2C3
100
AcDbEntity
  8
02___PRT_ALL_AXES
100
AcDbLine
 62
7
  6
CONTINUOUS
 10
10.3613016282
 20
1.4036305501
 11
10.3613016282
 21
1.4131243762
  0
LINE
  5
2C4
100
AcDbEntity
  8
0
100
AcDbLine
 62
7
  6
CONTINUOUS
 10
10.54262909
 20
1.3381243762
 11
10.54262909
 21
1.1421243762
  0
LINE
  5
2C5
100
AcDbEntity
  8
0
100
AcDbLine
 62
7
  6
CONTINUOUS
 10
10.5767712256
 20
1.3381243762
 11
10.5767712256
 21
1.1421243762
  0
LINE
  5
2C6
100
AcDbEntity
  8
02___PRT_ALL_AXES
100
AcDbLine
 62
7
  6
CONTINUOUS
 10
10.6093016282
 20
8.1420789408
 11
10.6093016282
 21
2.1597377096
  0
LINE
  5
2C7
100
AcDbEntity
  8
0
100
AcDbLine
 62
7
  6
CONTINUOUS
 10
10.7518016282
 20
0.8476065831
 11
10.7518016282
 21
0.3217428673
  0
LINE
  5
2C8
100
AcDbEntity
  8
0
100
AcDbLine
 62
7
  6
CONTINUOUS
 10
10.8618016282
 20
0.8476065831
 11
10.8618016282
 21
0.3217428673
  0
LINE
  5
2C9
100
AcDbEntity
  8
02___PRT_ALL_AXES
100
AcDbLine
 62
7
  6
CONTINUOUS
 10
10.9043016282
 20
5.0215450439
 11
10.9043016282
 21
2.1597377096
  0
LINE
  5
2CA
100
AcDbEntity
  8
0
100
AcDbLine
 62
7
  6
CONTINUOUS
 10
10.9367712256
 20
1.3381243762
 11
10.9367712256
 21
1.1421243762
  0
LINE
  5
2CB
100
AcDbEntity
  8
0
100
AcDbLine
 62
7
  6
CONTINUOUS
 10
10.9709133613
 20
1.3381243762
 11
10.9709133613
 21
1.1421243762
  0
LINE
  5
2CC
100
AcDbEntity
  8
0
100
AcDbLine
 62
7
  6
CONTINUOUS
 10
11.0033016282
 20
14.2431801002
 11
11.0033016282
 21
13.2049069853
  0
LINE
  5
2CD
100
AcDbEntity
  8
0
100
AcDbLine
 62
7
  6
CONTINUOUS
 10
10.61829754
 20
8.6860911135
 11
10.6093020017
 21
8.1421016523
  0
LINE
  5
2CE
100
AcDbEntity
  8
0
100
AcDbLine
 62
7
  6
CONTINUOUS
 10
10.6220685992
 20
8.9098242127
 11
10.61829754
 21
8.6860911135
  0
LINE
  5
2CF
100
AcDbEntity
  8
0
100
AcDbLine
 62
7
  6
CONTINUOUS
 10
10.6255217685
 20
9.1108109186
 11
10.6220685992
 21
8.9098242127
  0
LINE
  5
2D0
100
AcDbEntity
  8
0
100
AcDbLine
 62
7
  6
CONTINUOUS
 10
10.6287346274
 20
9.2935838379
 11
10.6255217685
 21
9.1108109186
  0
LINE
  5
2D1
100
AcDbEntity
  8
0
100
AcDbLine
 62
7
  6
CONTINUOUS
 10
10.6317582503
 20
9.4611587791
 11
10.6287346274
 21
9.2935838379
  0
LINE
  5
2D2
100
AcDbEntity
  8
0
100
AcDbLine
 62
7
  6
CONTINUOUS
 10
10.6346253551
 20
9.6155061742
 11
10.6317582503
 21
9.4611587791
  0
LINE
  5
2D3
100
AcDbEntity
  8
0
100
AcDbLine
 62
7
  6
CONTINUOUS
 10
10.6373379166
 20
9.7569745515
 11
10.6346253551
 21
9.6155061742
  0
LINE
  5
2D4
100
AcDbEntity
  8
0
100
AcDbLine
 62
7
  6
CONTINUOUS
 10
10.6398951113
 20
9.8858898382
 11
10.6373379166
 21
9.7569745515
  0
LINE
  5
2D5
100
AcDbEntity
  8
0
100
AcDbLine
 62
7
  6
CONTINUOUS
 10
10.6422996959
 20
10.0028563357
 11
10.6398951113
 21
9.8858898382
  0
LINE
  5
2D6
100
AcDbEntity
  8
0
100
AcDbLine
 62
7
  6
CONTINUOUS
 10
10.6445570759
 20
10.1086567882
 11
10.6422996959
 21
10.0028563357
  0
LINE
  5
2D7
100
AcDbEntity
  8
0
100
AcDbLine
 62
7
  6
CONTINUOUS
 10
10.6466796208
 20
10.204397795
 11
10.6445570759
 21
10.1086567882
  0
LINE
  5
2D8
100
AcDbEntity
  8
0
100
AcDbLine
 62
7
  6
CONTINUOUS
 10
10.6486854727
 20
10.2913815458
 11
10.6466796208
 21
10.204397795
  0
LINE
  5
2D9
100
AcDbEntity
  8
0
100
AcDbLine
 62
7
  6
CONTINUOUS
 10
10.6505828753
 20
10.3704064718
 11
10.6486854727
 21
10.2913815458
  0
LINE
  5
2DA
100
AcDbEntity
  8
0
100
AcDbLine
 62
7
  6
CONTINUOUS
 10
10.6523536335
 20
10.4411972097
 11
10.6505828753
 21
10.3704064718
  0
LINE
  5
2DB
100
AcDbEntity
  8
0
100
AcDbLine
 62
7
  6
CONTINUOUS
 10
10.6539830237
 20
10.5037328002
 11
10.6523536335
 21
10.4411972097
  0
LINE
  5
2DC
100
AcDbEntity
  8
0
100
AcDbLine
 62
7
  6
CONTINUOUS
 10
10.6555006527
 20
10.5596738926
 11
10.6539830237
 21
10.5037328002
  0
LINE
  5
2DD
100
AcDbEntity
  8
0
100
AcDbLine
 62
7
  6
CONTINUOUS
 10
10.656936521
 20
10.6105064207
 11
10.6555006527
 21
10.5596738926
  0
LINE
  5
2DE
100
AcDbEntity
  8
0
100
AcDbLine
 62
7
  6
CONTINUOUS
 10
10.6583075815
 20
10.657104445
 11
10.656936521
 21
10.6105064207
  0
LINE
  5
2DF
100
AcDbEntity
  8
0
100
AcDbLine
 62
7
  6
CONTINUOUS
 10
10.6602789525
 20
10.7207130078
 11
10.6583075815
 21
10.657104445
  0
LINE
  5
2E0
100
AcDbEntity
  8
0
100
AcDbLine
 62
7
  6
CONTINUOUS
 10
10.661556228
 20
10.7597493211
 11
10.6602789525
 21
10.7207130078
  0
LINE
  5
2E1
100
AcDbEntity
  8
0
100
AcDbLine
 62
7
  6
CONTINUOUS
 10
10.6628085608
 20
10.7963335595
 11
10.661556228
 21
10.7597493211
  0
LINE
  5
2E2
100
AcDbEntity
  8
0
100
AcDbLine
 62
7
  6
CONTINUOUS
 10
10.6640374792
 20
10.8305862588
 11
10.6628085608
 21
10.7963335595
  0
LINE
  5
2E3
100
AcDbEntity
  8
0
100
AcDbLine
 62
7
  6
CONTINUOUS
 10
10.6652445565
 20
10.8626229179
 11
10.6640374792
 21
10.8305862588
  0
LINE
  5
2E4
100
AcDbEntity
  8
0
100
AcDbLine
 62
7
  6
CONTINUOUS
 10
10.6664314247
 20
10.8925539292
 11
10.6652445565
 21
10.8626229179
  0
LINE
  5
2E5
100
AcDbEntity
  8
0
100
AcDbLine
 62
7
  6
CONTINUOUS
 10
10.6675997929
 20
10.9204845907
 11
10.6664314247
 21
10.8925539292
  0
LINE
  5
2E6
100
AcDbEntity
  8
0
100
AcDbLine
 62
7
  6
CONTINUOUS
 10
10.6687514744
 20
10.9465152107
 11
10.6675997929
 21
10.9204845907
  0
LINE
  5
2E7
100
AcDbEntity
  8
0
100
AcDbLine
 62
7
  6
CONTINUOUS
 10
10.6698879828
 20
10.9707321987
 11
10.6687514744
 21
10.9465152107
  0
LINE
  5
2E8
100
AcDbEntity
  8
0
100
AcDbLine
 62
7
  6
CONTINUOUS
 10
10.6710095072
 20
10.9931902976
 11
10.6698879828
 21
10.9707321987
  0
LINE
  5
2E9
100
AcDbEntity
  8
0
100
AcDbLine
 62
7
  6
CONTINUOUS
 10
10.6721161547
 20
11.0139437286
 11
10.6710095072
 21
10.9931902976
  0
LINE
  5
2EA
100
AcDbEntity
  8
0
100
AcDbLine
 62
7
  6
CONTINUOUS
 10
10.6732083594
 20
11.0330537916
 11
10.6721161547
 21
11.0139437286
  0
LINE
  5
2EB
100
AcDbEntity
  8
0
100
AcDbLine
 62
7
  6
CONTINUOUS
 10
10.6742870126
 20
11.0505891955
 11
10.6732083594
 21
11.0330537916
  0
LWPOLYLINE
  5
2EC
100
AcDbEntity
  8
0
100
AcDbPolyline
 62
7
  6
CONTINUOUS
 90
3
 70
0
 10
10.6758832137
 20
11.0741099838
 10
10.6753536597
 20
11.0666266321
 10
10.6742870126
 20
11.0505891955
  0
LWPOLYLINE
  5
2ED
100
AcDbEntity
  8
0
100
AcDbPolyline
 62
7
  6
CONTINUOUS
 90
14
 70
0
 10
11.1299320418
 20
5.1808136889
 10
11.1299339771
 20
5.1808030966
 10
11.1299111346
 20
5.1809359121
 10
11.1298260565
 20
5.1814596017
 10
11.129690752
 20
5.1823493073
 10
11.1295142234
 20
5.1835867137
 10
11.1293033076
 20
5.1851586485
 10
11.1290632608
 20
5.1870560069
 10
11.1287981713
 20
5.1892729276
 10
11.1285112527
 20
5.1918061589
 10
11.1282050588
 20
5.1946545511
 10
11.1278816347
 20
5.1978187149
 10
11.1275425349
 20
5.2013017577
 10
11.1271889805
 20
5.2051084706
  0
LWPOLYLINE
  5
2EE
100
AcDbEntity
  8
0
100
AcDbPolyline
 62
7
  6
CONTINUOUS
 90
33
 70
0
 10
11.1435039613
 20
5.1777017922
 10
11.144031488
 20
5.1720755284
 10
11.1445597486
 20
5.1667339725
 10
11.1450901766
 20
5.1616585873
 10
11.1456246923
 20
5.1568283945
 10
11.1461658668
 20
5.152219508
 10
11.1467176522
 20
5.1478007088
 10
11.1472852564
 20
5.143537181
 10
11.1478753509
 20
5.139391301
 10
11.1484966177
 20
5.1353215314
 10
11.1491605471
 20
5.1312809368
 10
11.1498826308
 20
5.1272151157
 10
11.1506840076
 20
5.1230601842
 10
11.1515908335
 20
5.11875409
 10
11.1526385272
 20
5.1142244259
 10
11.1538766412
 20
5.1093821397
 10
11.1553744667
 20
5.1041208721
 10
11.1572284188
 20
5.0983186355
 10
11.1595669181
 20
5.0918529669
 10
11.1625175218
 20
5.0847016509
 10
11.1661915468
 20
5.076943648
 10
11.1706978351
 20
5.068691627
 10
11.1762083024
 20
5.0599804828
 10
11.1829082181
 20
5.050887371
 10
11.1909644679
 20
5.0415758584
 10
11.2005032365
 20
5.0322886928
 10
11.2115728242
 20
5.0233384367
 10
11.224168822
 20
5.0150596441
 10
11.2381480054
 20
5.0078188424
 10
11.2532385793
 20
5.0019605658
 10
11.2690989265
 20
4.9977328607
 10
11.285365517
 20
4.9952814786
 10
11.29930174
 20
4.9946243763
  0
LWPOLYLINE
  5
2EF
100
AcDbEntity
  8
0
100
AcDbPolyline
 62
7
  6
CONTINUOUS
 90
34
 70
0
 10
10.9906162603
 20
11.1007449118
 10
10.9900740683
 20
11.1068227418
 10
10.9895358733
 20
11.1125453831
 10
10.9889999946
 20
11.1179419078
 10
10.9884643284
 20
11.1230424107
 10
10.9879262456
 20
11.1278781318
 10
10.9873825245
 20
11.1324810957
 10
10.9868288978
 20
11.1368866075
 10
10.9862599316
 20
11.1411322199
 10
10.9856687057
 20
11.1452579596
 10
10.985046248
 20
11.1493075245
 10
10.9843807074
 20
11.1533298761
 10
10.9836560911
 20
11.1573815518
 10
10.9828508123
 20
11.1615274585
 10
10.9819384653
 20
11.1658291721
 10
10.9808831228
 20
11.1703594003
 10
10.9796345539
 20
11.1752074422
 10
10.9781225835
 20
11.1804797439
 10
10.9762494845
 20
11.1862986517
 10
10.9738862
 20
11.192784161
 10
10.9709067759
 20
11.1999514901
 10
10.9672032862
 20
11.2077143907
 10
10.9626692479
 20
11.215958507
 10
10.9571319277
 20
11.2246532788
 10
10.9504060318
 20
11.2337233049
 10
10.9423223197
 20
11.2430086344
 10
10.9327566799
 20
11.2522648874
 10
10.9216671906
 20
11.2611755149
 10
10.9090635687
 20
11.2694061017
 10
10.8950937392
 20
11.2765928971
 10
10.8800271883
 20
11.2823980075
 10
10.8642029815
 20
11.28657825
 10
10.8479797299
 20
11.2889914094
 10
10.8343015115
 20
11.2896243762
  0
LINE
  5
2F0
100
AcDbEntity
  8
0
100
AcDbLine
 62
7
  6
CONTINUOUS
 10
10.696191997
 20
11.0815541818
 11
10.6969793579
 21
11.0726950164
  0
LINE
  5
2F1
100
AcDbEntity
  8
0
100
AcDbLine
 62
7
  6
CONTINUOUS
 10
11.4373819764
 20
5.2030085956
 11
11.4366048264
 21
5.2117788841
  0
LWPOLYLINE
  5
2F2
100
AcDbEntity
  8
0
100
AcDbPolyline
 62
7
  6
CONTINUOUS
 90
33
 70
0
 10
11.3009776413
 20
11.0965171553
 10
11.3004230302
 20
11.1029472931
 10
11.2998655192
 20
11.1090766499
 10
11.2993036146
 20
11.1149208913
 10
11.2987353316
 20
11.1204982317
 10
11.2981579924
 20
11.1258302287
 10
11.2975679623
 20
11.1309425991
 10
11.2969604846
 20
11.135864543
 10
11.2963291708
 20
11.140630325
 10
11.2956653624
 20
11.1452804964
 10
11.294957691
 20
11.1498604672
 10
11.2941920965
 20
11.1544159502
 10
11.2933494798
 20
11.1590018961
 10
11.2924034985
 20
11.1636852815
 10
11.2913168758
 20
11.1685502096
 10
11.2900387747
 20
11.1736921625
 10
11.2884991647
 20
11.1792202637
 10
11.2866025099
 20
11.1852536525
 10
11.2842207797
 20
11.1919146432
 10
11.2812203523
 20
11.1992409041
 10
11.2774606372
 20
11.2072085912
 10
11.2728000604
 20
11.2157365331
 10
11.2670917484
 20
11.2247118697
 10
11.2602266934
 20
11.2339467503
 10
11.2521286679
 20
11.2432130607
 10
11.2426601692
 20
11.2523502342
 10
11.2317120131
 20
11.2611428815
 10
11.2191880312
 20
11.2693334387
 10
11.2052079274
 20
11.2765415414
 10
11.1900722574
 20
11.2823833932
 10
11.1741675944
 20
11.2865855298
 10
11.1579097403
 20
11.2889978783
 10
11.1443015109
 20
11.2896243762
  0
LINE
  5
2F3
100
AcDbEntity
  8
0
100
AcDbLine
 62
7
  6
CONTINUOUS
 10
11.1271889805
 20
5.2051084706
 11
11.12644222
 21
5.2137184176
  0
LINE
  5
2F4
100
AcDbEntity
  8
0
100
AcDbLine
 62
7
  6
CONTINUOUS
 10
11.0063651451
 20
11.0796798036
 11
11.0071827637
 21
11.0702684788
  0
LINE
  5
2F5
100
AcDbEntity
  8
0
100
AcDbLine
 62
7
  6
CONTINUOUS
 10
11.1424469402
 20
5.189874608
 11
11.1435039613
 21
5.1777017922
  0
LINE
  5
2F6
100
AcDbEntity
  8
0
100
AcDbLine
 62
7
  6
CONTINUOUS
 10
10.9917146563
 20
11.087450894
 11
10.9906162603
 21
11.1007449118
  0
LINE
  5
2F7
100
AcDbEntity
  8
0
100
AcDbLine
 62
7
  6
CONTINUOUS
 10
10.6969793579
 20
11.0726950164
 11
10.6978314713
 21
11.062160774
  0
LINE
  5
2F8
100
AcDbEntity
  8
0
100
AcDbLine
 62
7
  6
CONTINUOUS
 10
11.4366048264
 20
5.2117788841
 11
11.4357804513
 21
5.2219760025
  0
LINE
  5
2F9
100
AcDbEntity
  8
0
100
AcDbLine
 62
7
  6
CONTINUOUS
 10
11.12644222
 20
5.2137184176
 11
11.1256470563
 21
5.2237104846
  0
LINE
  5
2FA
100
AcDbEntity
  8
0
100
AcDbLine
 62
7
  6
CONTINUOUS
 10
11.3020823392
 20
11.0827029878
 11
11.3009776413
 21
11.0965171553
  0
LINE
  5
2FB
100
AcDbEntity
  8
0
100
AcDbLine
 62
7
  6
CONTINUOUS
 10
11.0071827637
 20
11.0702684788
 11
11.0080460336
 21
11.0593570977
  0
LINE
  5
2FC
100
AcDbEntity
  8
0
100
AcDbLine
 62
7
  6
CONTINUOUS
 10
11.1413822792
 20
5.2033751417
 11
11.1424469402
 21
5.189874608
  0
LINE
  5
2FD
100
AcDbEntity
  8
0
100
AcDbLine
 62
7
  6
CONTINUOUS
 10
10.9928314254
 20
11.072562255
 11
10.9917146563
 21
11.087450894
  0
LINE
  5
2FE
100
AcDbEntity
  8
0
100
AcDbLine
 62
7
  6
CONTINUOUS
 10
11.4357804513
 20
5.2219760025
 11
11.434916263
 21
5.2336227278
  0
LINE
  5
2FF
100
AcDbEntity
  8
0
100
AcDbLine
 62
7
  6
CONTINUOUS
 10
10.6978314713
 20
11.062160774
 11
10.6987391965
 21
11.0498916393
  0
LINE
  5
300
100
AcDbEntity
  8
0
100
AcDbLine
 62
7
  6
CONTINUOUS
 10
11.1256470563
 20
5.2237104846
 11
11.1248066274
 21
5.2351690895
  0
LINE
  5
301
100
AcDbEntity
  8
0
100
AcDbLine
 62
7
  6
CONTINUOUS
 10
11.3031855078
 20
11.0675491414
 11
11.3020823392
 21
11.0827029878
  0
LINE
  5
302
100
AcDbEntity
  8
0
100
AcDbLine
 62
7
  6
CONTINUOUS
 10
11.0080460336
 20
11.0593570977
 11
11.0089497223
 21
11.0468946715
  0
LINE
  5
303
100
AcDbEntity
  8
0
100
AcDbLine
 62
7
  6
CONTINUOUS
 10
11.1403053933
 20
5.2183199455
 11
11.1413822792
 21
5.2033751417
  0
LINE
  5
304
100
AcDbEntity
  8
0
100
AcDbLine
 62
7
  6
CONTINUOUS
 10
11.434916263
 20
5.2336227278
 11
11.4340176848
 21
5.2467472326
  0
LINE
  5
305
100
AcDbEntity
  8
0
100
AcDbLine
 62
7
  6
CONTINUOUS
 10
10.9939645927
 20
11.0560192147
 11
10.9928314254
 21
11.072562255
  0
LINE
  5
306
100
AcDbEntity
  8
0
100
AcDbLine
 62
7
  6
CONTINUOUS
 10
11.1248066274
 20
5.2351690895
 11
11.1239180975
 21
5.2482645645
  0
LINE
  5
307
100
AcDbEntity
  8
0
100
AcDbLine
 62
7
  6
CONTINUOUS
 10
11.0089497223
 20
11.0468946715
 11
11.0098917423
 21
11.0327970089
  0
LINE
  5
308
100
AcDbEntity
  8
0
100
AcDbLine
 62
7
  6
CONTINUOUS
 10
11.304292069
 20
11.0509669956
 11
11.3031855078
 21
11.0675491414
  0
LINE
  5
309
100
AcDbEntity
  8
0
100
AcDbLine
 62
7
  6
CONTINUOUS
 10
11.1392134917
 20
5.2348126238
 11
11.1403053933
 21
5.2183199455
  0
LINE
  5
30A
100
AcDbEntity
  8
0
100
AcDbLine
 62
7
  6
CONTINUOUS
 10
11.4340176848
 20
5.2467472326
 11
11.4330888383
 21
5.2613802112
  0
LINE
  5
30B
100
AcDbEntity
  8
0
100
AcDbLine
 62
7
  6
CONTINUOUS
 10
11.1239180975
 20
5.2482645645
 11
11.1229750477
 21
5.2632465393
  0
LINE
  5
30C
100
AcDbEntity
  8
0
100
AcDbLine
 62
7
  6
CONTINUOUS
 10
10.9951108324
 20
11.037800584
 11
10.9939645927
 21
11.0560192147
  0
LINE
  5
30D
100
AcDbEntity
  8
0
100
AcDbLine
 62
7
  6
CONTINUOUS
 10
11.0098917423
 20
11.0327970089
 11
11.0108714782
 21
11.0169586662
  0
LINE
  5
30E
100
AcDbEntity
  8
0
100
AcDbLine
 62
7
  6
CONTINUOUS
 10
11.305406796
 20
11.0328529425
 11
11.304292069
 21
11.0509669956
  0
LINE
  5
30F
100
AcDbEntity
  8
0
100
AcDbLine
 62
7
  6
CONTINUOUS
 10
11.1381051116
 20
5.2529431039
 11
11.1392134917
 21
5.2348126238
  0
LINE
  5
310
100
AcDbEntity
  8
0
100
AcDbLine
 62
7
  6
CONTINUOUS
 10
11.4330888383
 20
5.2613802112
 11
11.4321329622
 21
5.2775529857
  0
LINE
  5
311
100
AcDbEntity
  8
0
100
AcDbLine
 62
7
  6
CONTINUOUS
 10
11.1229750477
 20
5.2632465393
 11
11.1219702217
 21
5.2804178691
  0
LINE
  5
312
100
AcDbEntity
  8
0
100
AcDbLine
 62
7
  6
CONTINUOUS
 10
10.9962690398
 20
11.0178680711
 11
10.9951108324
 21
11.037800584
  0
LINE
  5
313
100
AcDbEntity
  8
0
100
AcDbLine
 62
7
  6
CONTINUOUS
 10
11.0108714782
 20
11.0169586662
 11
11.0118892678
 21
10.9992548559
  0
LINE
  5
314
100
AcDbEntity
  8
0
100
AcDbLine
 62
7
  6
CONTINUOUS
 10
11.3065332362
 20
11.0131065008
 11
11.305406796
 21
11.0328529425
  0
LINE
  5
315
100
AcDbEntity
  8
0
100
AcDbLine
 62
7
  6
CONTINUOUS
 10
11.1369797036
 20
5.2727883148
 11
11.1381051116
 21
5.2529431039
  0
LINE
  5
316
100
AcDbEntity
  8
0
100
AcDbLine
 62
7
  6
CONTINUOUS
 10
11.4321329622
 20
5.2775529857
 11
11.4311526832
 21
5.2952961149
  0
LINE
  5
317
100
AcDbEntity
  8
0
100
AcDbLine
 62
7
  6
CONTINUOUS
 10
11.1219702217
 20
5.2804178691
 11
11.1208957315
 21
5.3001389999
  0
LINE
  5
318
100
AcDbEntity
  8
0
100
AcDbLine
 62
7
  6
CONTINUOUS
 10
10.9974416838
 20
10.9961249417
 11
10.9962690398
 21
11.0178680711
  0
LINE
  5
319
100
AcDbEntity
  8
0
100
AcDbLine
 62
7
  6
CONTINUOUS
 10
11.0118892678
 20
10.9992548559
 11
11.0129459044
 21
10.9795460048
  0
LINE
  5
31A
100
AcDbEntity
  8
0
100
AcDbLine
 62
7
  6
CONTINUOUS
 10
11.3076741013
 20
10.9916289586
 11
11.3065332362
 21
11.0131065008
  0
LINE
  5
31B
100
AcDbEntity
  8
0
100
AcDbLine
 62
7
  6
CONTINUOUS
 10
11.1358373316
 20
5.2944130515
 11
11.1369797036
 21
5.2727883148
  0
LINE
  5
31C
100
AcDbEntity
  8
0
100
AcDbLine
 62
7
  6
CONTINUOUS
 10
11.4311526832
 20
5.2952961149
 11
11.4301501952
 21
5.3146383466
  0
LINE
  5
31D
100
AcDbEntity
  8
0
100
AcDbLine
 62
7
  6
CONTINUOUS
 10
11.1208957315
 20
5.3001389999
 11
11.1197438196
 21
5.3228206297
  0
LINE
  5
31E
100
AcDbEntity
  8
0
100
AcDbLine
 62
7
  6
CONTINUOUS
 10
10.9986308721
 20
10.9724721436
 11
10.9974416838
 21
10.9961249417
  0
LINE
  5
31F
100
AcDbEntity
  8
0
100
AcDbLine
 62
7
  6
CONTINUOUS
 10
11.0129459044
 20
10.9795460048
 11
11.0140417598
 21
10.9576934355
  0
LINE
  5
320
100
AcDbEntity
  8
0
100
AcDbLine
 62
7
  6
CONTINUOUS
 10
11.3088315438
 20
10.9683220085
 11
11.3076741013
 21
10.9916289586
  0
LINE
  5
321
100
AcDbEntity
  8
0
100
AcDbLine
 62
7
  6
CONTINUOUS
 10
11.1346746388
 20
5.3179507754
 11
11.1358373316
 21
5.2944130515
  0
LINE
  5
322
100
AcDbEntity
  8
0
100
AcDbLine
 62
7
  6
CONTINUOUS
 10
11.4301501952
 20
5.3146383466
 11
11.4291263058
 21
5.3356284885
  0
LINE
  5
323
100
AcDbEntity
  8
0
100
AcDbLine
 62
7
  6
CONTINUOUS
 10
11.1197438196
 20
5.3228206297
 11
11.1185161032
 21
5.3487256364
  0
LINE
  5
324
100
AcDbEntity
  8
0
100
AcDbLine
 62
7
  6
CONTINUOUS
 10
10.9998382496
 20
10.9468121699
 11
10.9986308721
 21
10.9724721436
  0
LINE
  5
325
100
AcDbEntity
  8
0
100
AcDbLine
 62
7
  6
CONTINUOUS
 10
11.0140417598
 20
10.9576934355
 11
11.0151772468
 21
10.9335524228
  0
LINE
  5
326
100
AcDbEntity
  8
0
100
AcDbLine
 62
7
  6
CONTINUOUS
 10
11.3100073313
 20
10.9430868718
 11
11.3088315438
 21
10.9683220085
  0
LINE
  5
327
100
AcDbEntity
  8
0
100
AcDbLine
 62
7
  6
CONTINUOUS
 10
11.1334807544
 20
5.3437178856
 11
11.1346746388
 21
5.3179507754
  0
LINE
  5
328
100
AcDbEntity
  8
0
100
AcDbLine
 62
7
  6
CONTINUOUS
 10
11.4291263058
 20
5.3356284885
 11
11.4280734924
 21
5.3584982812
  0
LINE
  5
329
100
AcDbEntity
  8
0
100
AcDbLine
 62
7
  6
CONTINUOUS
 10
11.1185161032
 20
5.3487256364
 11
11.1172215023
 21
5.377950771
  0
LINE
  5
32A
100
AcDbEntity
  8
0
100
AcDbLine
 62
7
  6
CONTINUOUS
 10
11.0010651401
 20
10.9190484163
 11
10.9998382496
 21
10.9468121699
  0
LINE
  5
32B
100
AcDbEntity
  8
0
100
AcDbLine
 62
7
  6
CONTINUOUS
 10
11.0151772468
 20
10.9335524228
 11
11.0163529876
 21
10.9069684697
  0
LINE
  5
32C
100
AcDbEntity
  8
0
100
AcDbLine
 62
7
  6
CONTINUOUS
 10
11.3112029605
 20
10.9158237548
 11
11.3100073313
 21
10.9430868718
  0
LINE
  5
32D
100
AcDbEntity
  8
0
100
AcDbLine
 62
7
  6
CONTINUOUS
 10
11.1322441854
 20
5.3721033491
 11
11.1334807544
 21
5.3437178856
  0
LINE
  5
32E
100
AcDbEntity
  8
0
100
AcDbLine
 62
7
  6
CONTINUOUS
 10
11.4280734924
 20
5.3584982812
 11
11.4269802995
 21
5.383610262
  0
LINE
  5
32F
100
AcDbEntity
  8
0
100
AcDbLine
 62
7
  6
CONTINUOUS
 10
11.0023126394
 20
10.8890848115
 11
11.0010651401
 21
10.9190484163
  0
LINE
  5
330
100
AcDbEntity
  8
0
100
AcDbLine
 62
7
  6
CONTINUOUS
 10
11.0163529876
 20
10.9069684697
 11
11.0175698951
 21
10.8777743408
  0
LINE
  5
331
100
AcDbEntity
  8
0
100
AcDbLine
 62
7
  6
CONTINUOUS
 10
11.1172215023
 20
5.377950771
 11
11.1158686503
 21
5.4105559652
  0
LINE
  5
332
100
AcDbEntity
  8
0
100
AcDbLine
 62
7
  6
CONTINUOUS
 10
11.3124198293
 20
10.8864291403
 11
11.3112029605
 21
10.9158237548
  0
LINE
  5
333
100
AcDbEntity
  8
0
100
AcDbLine
 62
7
  6
CONTINUOUS
 10
11.4269802995
 20
5.383610262
 11
11.4258350558
 21
5.4113922292
  0
LINE
  5
334
100
AcDbEntity
  8
0
100
AcDbLine
 62
7
  6
CONTINUOUS
 10
11.130953671
 20
5.403554971
 11
11.1322441854
 21
5.3721033491
  0
LINE
  5
335
100
AcDbEntity
  8
0
100
AcDbLine
 62
7
  6
CONTINUOUS
 10
11.0035816784
 20
10.8568256414
 11
11.0023126394
 21
10.8890848115
  0
LINE
  5
336
100
AcDbEntity
  8
0
100
AcDbLine
 62
7
  6
CONTINUOUS
 10
11.0175698951
 20
10.8777743408
 11
11.0188310477
 21
10.8457394927
  0
LINE
  5
337
100
AcDbEntity
  8
0
100
AcDbLine
 62
7
  6
CONTINUOUS
 10
11.4258350558
 20
5.4113922292
 11
11.4246255103
 21
5.4423520521
  0
LINE
  5
338
100
AcDbEntity
  8
0
100
AcDbLine
 62
7
  6
CONTINUOUS
 10
11.3136595099
 20
10.8547891676
 11
11.3124198293
 21
10.8864291403
  0
LINE
  5
339
100
AcDbEntity
  8
0
100
AcDbLine
 62
7
  6
CONTINUOUS
 10
11.1158686503
 20
5.4105559652
 11
11.1144586772
 21
5.4467516096
  0
LINE
  5
33A
100
AcDbEntity
  8
0
100
AcDbLine
 62
7
  6
CONTINUOUS
 10
11.1295963601
 20
5.4386303406
 11
11.130953671
 21
5.403554971
  0
LINE
  5
33B
100
AcDbEntity
  8
0
100
AcDbLine
 62
7
  6
CONTINUOUS
 10
11.0048730664
 20
10.8221755179
 11
11.0035816784
 21
10.8568256414
  0
LINE
  5
33C
100
AcDbEntity
  8
0
100
AcDbLine
 62
7
  6
CONTINUOUS
 10
11.0188310477
 20
10.8457394927
 11
11.0201412215
 21
10.8105676377
  0
LINE
  5
33D
100
AcDbEntity
  8
0
100
AcDbLine
 62
7
  6
CONTINUOUS
 10
11.3149235309
 20
10.8207844142
 11
11.3136595099
 21
10.8547891676
  0
LINE
  5
33E
100
AcDbEntity
  8
0
100
AcDbLine
 62
7
  6
CONTINUOUS
 10
11.4246255103
 20
5.4423520521
 11
11.4233323496
 21
5.4772663502
  0
LINE
  5
33F
100
AcDbEntity
  8
0
100
AcDbLine
 62
7
  6
CONTINUOUS
 10
11.1144586772
 20
5.4467516096
 11
11.1129867092
 21
5.4869125333
  0
LINE
  5
340
100
AcDbEntity
  8
0
100
AcDbLine
 62
7
  6
CONTINUOUS
 10
11.1281468433
 20
5.4783228699
 11
11.1295963601
 21
5.4386303406
  0
LINE
  5
341
100
AcDbEntity
  8
0
100
AcDbLine
 62
7
  6
CONTINUOUS
 10
11.0061877541
 20
10.785032698
 11
11.0048730664
 21
10.8221755179
  0
LINE
  5
342
100
AcDbEntity
  8
0
100
AcDbLine
 62
7
  6
CONTINUOUS
 10
11.3162133422
 20
10.7842912378
 11
11.3149235309
 21
10.8207844142
  0
LINE
  5
343
100
AcDbEntity
  8
0
100
AcDbLine
 62
7
  6
CONTINUOUS
 10
11.0201412215
 20
10.8105676377
 11
11.0215053173
 21
10.7719296382
  0
LINE
  5
344
100
AcDbEntity
  8
0
100
AcDbLine
 62
7
  6
CONTINUOUS
 10
11.4233323496
 20
5.4772663502
 11
11.4219391171
 21
5.5169501288
  0
LINE
  5
345
100
AcDbEntity
  8
0
100
AcDbLine
 62
7
  6
CONTINUOUS
 10
11.1129867092
 20
5.4869125333
 11
11.1114476071
 21
5.5314554088
  0
LINE
  5
346
100
AcDbEntity
  8
0
100
AcDbLine
 62
7
  6
CONTINUOUS
 10
11.1265903537
 20
5.5234802425
 11
11.1281468433
 21
5.4783228699
  0
LINE
  5
347
100
AcDbEntity
  8
0
100
AcDbLine
 62
7
  6
CONTINUOUS
 10
11.0075284865
 20
10.7452380174
 11
11.0061877541
 21
10.785032698
  0
LINE
  5
348
100
AcDbEntity
  8
0
100
AcDbLine
 62
7
  6
CONTINUOUS
 10
11.3175303339
 20
10.7451818626
 11
11.3162133422
 21
10.7842912378
  0
LINE
  5
349
100
AcDbEntity
  8
0
100
AcDbLine
 62
7
  6
CONTINUOUS
 10
11.0215053173
 20
10.7719296382
 11
11.0229278625
 21
10.7294771896
  0
LINE
  5
34A
100
AcDbEntity
  8
0
100
AcDbLine
 62
7
  6
CONTINUOUS
 10
11.4219391171
 20
5.5169501288
 11
11.4204553179
 21
5.5615337012
  0
LINE
  5
34B
100
AcDbEntity
  8
0
100
AcDbLine
 62
7
  6
CONTINUOUS
 10
11.1114476071
 20
5.5314554088
 11
11.1098371522
 21
5.5808038845
  0
LINE
  5
34C
100
AcDbEntity
  8
0
100
AcDbLine
 62
7
  6
CONTINUOUS
 10
11.1249391374
 20
5.5742112934
 11
11.1265903537
 21
5.5234802425
  0
LINE
  5
34D
100
AcDbEntity
  8
0
100
AcDbLine
 62
7
  6
CONTINUOUS
 10
11.0088988435
 20
10.7025927281
 11
11.0075284865
 21
10.7452380174
  0
LINE
  5
34E
100
AcDbEntity
  8
0
100
AcDbLine
 62
7
  6
CONTINUOUS
 10
11.3188758499
 20
10.7033245609
 11
11.3175303339
 21
10.7451818626
  0
LINE
  5
34F
100
AcDbEntity
  8
0
100
AcDbLine
 62
7
  6
CONTINUOUS
 10
11.0229278625
 20
10.7294771896
 11
11.0244078418
 21
10.6830116399
  0
LINE
  5
350
100
AcDbEntity
  8
0
100
AcDbLine
 62
7
  6
CONTINUOUS
 10
11.4204553179
 20
5.5615337012
 11
11.4188951345
 21
5.6109469758
  0
LINE
  5
351
100
AcDbEntity
  8
0
100
AcDbLine
 62
7
  6
CONTINUOUS
 10
11.1098371522
 20
5.5808038845
 11
11.1081538948
 21
5.6353188347
  0
LINE
  5
352
100
AcDbEntity
  8
0
100
AcDbLine
 62
7
  6
CONTINUOUS
 10
11.1232063864
 20
5.6305180375
 11
11.1249391374
 21
5.5742112934
  0
LINE
  5
353
100
AcDbEntity
  8
0
100
AcDbLine
 62
7
  6
CONTINUOUS
 10
11.0103023652
 20
10.6568817178
 11
11.0088988435
 21
10.7025927281
  0
LINE
  5
354
100
AcDbEntity
  8
0
100
AcDbLine
 62
7
  6
CONTINUOUS
 10
11.3202512089
 20
10.6585835601
 11
11.3188758499
 21
10.7033245609
  0
LINE
  5
355
100
AcDbEntity
  8
0
100
AcDbLine
 62
7
  6
CONTINUOUS
 10
11.0244078418
 20
10.6830116399
 11
11.0259403864
 21
10.6324713299
  0
LINE
  5
356
100
AcDbEntity
  8
0
100
AcDbLine
 62
7
  6
CONTINUOUS
 10
11.4188951345
 20
5.6109469758
 11
11.41726221
 21
5.665390949
  0
LINE
  5
357
100
AcDbEntity
  8
0
100
AcDbLine
 62
7
  6
CONTINUOUS
 10
11.3216580075
 20
10.6108090845
 11
11.3202512089
 21
10.6585835601
  0
LINE
  5
358
100
AcDbEntity
  8
0
100
AcDbLine
 62
7
  6
CONTINUOUS
 10
11.0117425577
 20
10.6078738076
 11
11.0103023652
 21
10.6568817178
  0
LINE
  5
359
100
AcDbEntity
  8
0
100
AcDbLine
 62
7
  6
CONTINUOUS
 10
11.1081538948
 20
5.6353188347
 11
11.1063968453
 21
5.6953532928
  0
LINE
  5
35A
100
AcDbEntity
  8
0
100
AcDbLine
 62
7
  6
CONTINUOUS
 10
11.1213894236
 20
5.6928676605
 11
11.1232063864
 21
5.6305180375
  0
LINE
  5
35B
100
AcDbEntity
  8
0
100
AcDbLine
 62
7
  6
CONTINUOUS
 10
11.0259403864
 20
10.6324713299
 11
11.0275205718
 21
10.5778302723
  0
LINE
  5
35C
100
AcDbEntity
  8
0
100
AcDbLine
 62
7
  6
CONTINUOUS
 10
11.41726221
 20
5.665390949
 11
11.4155487157
 21
5.7254530944
  0
LINE
  5
35D
100
AcDbEntity
  8
0
100
AcDbLine
 62
7
  6
CONTINUOUS
 10
11.3230981575
 20
10.5598344601
 11
11.3216580075
 21
10.6108090845
  0
LINE
  5
35E
100
AcDbEntity
  8
0
100
AcDbLine
 62
7
  6
CONTINUOUS
 10
11.0132229493
 20
10.5553202811
 11
11.0117425577
 21
10.6078738076
  0
LINE
  5
35F
100
AcDbEntity
  8
0
100
AcDbLine
 62
7
  6
CONTINUOUS
 10
11.1063968453
 20
5.6953532928
 11
11.1045655229
 21
5.7612437395
  0
LINE
  5
360
100
AcDbEntity
  8
0
100
AcDbLine
 62
7
  6
CONTINUOUS
 10
11.1194763092
 20
5.762086455
 11
11.1213894236
 21
5.6928676605
  0
LINE
  5
361
100
AcDbEntity
  8
0
100
AcDbLine
 62
7
  6
CONTINUOUS
 10
11.0275205718
 20
10.5778302723
 11
11.029145922
 21
10.5190084055
  0
LINE
  5
362
100
AcDbEntity
  8
0
100
AcDbLine
 62
7
  6
CONTINUOUS
 10
11.4155487157
 20
5.7254530944
 11
11.4137463175
 21
5.7917908366
  0
LINE
  5
363
100
AcDbEntity
  8
0
100
AcDbLine
 62
7
  6
CONTINUOUS
 10
11.3245735697
 20
10.5054862554
 11
11.3230981575
 21
10.5598344601
  0
LINE
  5
364
100
AcDbEntity
  8
0
100
AcDbLine
 62
7
  6
CONTINUOUS
 10
11.0147478952
 20
10.4989248779
 11
11.0132229493
 21
10.5553202811
  0
LINE
  5
365
100
AcDbEntity
  8
0
100
AcDbLine
 62
7
  6
CONTINUOUS
 10
11.029145922
 20
10.5190084055
 11
11.0308194297
 21
10.4557370842
  0
LINE
  5
366
100
AcDbEntity
  8
0
100
AcDbLine
 62
7
  6
CONTINUOUS
 10
11.1045655229
 20
5.7612437395
 11
11.1026610409
 21
5.8332600559
  0
LINE
  5
367
100
AcDbEntity
  8
0
100
AcDbLine
 62
7
  6
CONTINUOUS
 10
11.1174560487
 20
5.8390466076
 11
11.1194763092
 21
5.762086455
  0
LINE
  5
368
100
AcDbEntity
  8
0
100
AcDbLine
 62
7
  6
CONTINUOUS
 10
11.3260861401
 20
10.4475854827
 11
11.3245735697
 21
10.5054862554
  0
LINE
  5
369
100
AcDbEntity
  8
0
100
AcDbLine
 62
7
  6
CONTINUOUS
 10
11.016322451
 20
10.4383432676
 11
11.0147478952
 21
10.4989248779
  0
LINE
  5
36A
100
AcDbEntity
  8
0
100
AcDbLine
 62
7
  6
CONTINUOUS
 10
11.4137463175
 20
5.7917908366
 11
11.4118496369
 21
5.8649983484
  0
LINE
  5
36B
100
AcDbEntity
  8
0
100
AcDbLine
 62
7
  6
CONTINUOUS
 10
11.0308194297
 20
10.4557370842
 11
11.0325448484
 21
10.3877057919
  0
LINE
  5
36C
100
AcDbEntity
  8
0
100
AcDbLine
 62
7
  6
CONTINUOUS
 10
11.1026610409
 20
5.8332600559
 11
11.1006847968
 21
5.9116400274
  0
LINE
  5
36D
100
AcDbEntity
  8
0
100
AcDbLine
 62
7
  6
CONTINUOUS
 10
11.3276377526
 20
10.3859483953
 11
11.3260861401
 21
10.4475854827
  0
LINE
  5
36E
100
AcDbEntity
  8
0
100
AcDbLine
 62
7
  6
CONTINUOUS
 10
11.0179516812
 20
10.3732068408
 11
11.016322451
 21
10.4383432676
  0
LINE
  5
36F
100
AcDbEntity
  8
0
100
AcDbLine
 62
7
  6
CONTINUOUS
 10
11.1153230487
 20
5.9244723149
 11
11.1174560487
 21
5.8390466076
  0
LINE
  5
370
100
AcDbEntity
  8
0
100
AcDbLine
 62
7
  6
CONTINUOUS
 10
11.4118496369
 20
5.8649983484
 11
11.4098567324
 21
5.9455571499
  0
LINE
  5
371
100
AcDbEntity
  8
0
100
AcDbLine
 62
7
  6
CONTINUOUS
 10
11.0325448484
 20
10.3877057919
 11
11.0343259484
 21
10.3145888245
  0
LINE
  5
372
100
AcDbEntity
  8
0
100
AcDbLine
 62
7
  6
CONTINUOUS
 10
11.3292319536
 20
10.3203174052
 11
11.3276377526
 21
10.3859483953
  0
LINE
  5
373
100
AcDbEntity
  8
0
100
AcDbLine
 62
7
  6
CONTINUOUS
 10
11.0196406395
 20
10.3031246858
 11
11.0179516812
 21
10.3732068408
  0
LINE
  5
374
100
AcDbEntity
  8
0
100
AcDbLine
 62
7
  6
CONTINUOUS
 10
11.1006847968
 20
5.9116400274
 11
11.0986381607
 21
5.9965956313
  0
LINE
  5
375
100
AcDbEntity
  8
0
100
AcDbLine
 62
7
  6
CONTINUOUS
 10
11.1130735875
 20
6.0190328064
 11
11.1153230487
 21
5.9244723149
  0
LINE
  5
376
100
AcDbEntity
  8
0
100
AcDbLine
 62
7
  6
CONTINUOUS
 10
11.4098567324
 20
5.9455571499
 11
11.4077661785
 21
6.0339254706
  0
LINE
  5
377
100
AcDbEntity
  8
0
100
AcDbLine
 62
7
  6
CONTINUOUS
 10
11.0343259484
 20
10.3145888245
 11
11.0361665139
 21
10.2360474378
  0
LINE
  5
378
100
AcDbEntity
  8
0
100
AcDbLine
 62
7
  6
CONTINUOUS
 10
11.3308844655
 20
10.2498946922
 11
11.3292319536
 21
10.3203174052
  0
LINE
  5
379
100
AcDbEntity
  8
0
100
AcDbLine
 62
7
  6
CONTINUOUS
 10
11.0213957485
 20
10.2276249618
 11
11.0196406395
 21
10.3031246858
  0
LINE
  5
37A
100
AcDbEntity
  8
0
100
AcDbLine
 62
7
  6
CONTINUOUS
 10
11.0986381607
 20
5.9965956313
 11
11.0965179037
 21
6.0885112705
  0
LINE
  5
37B
100
AcDbEntity
  8
0
100
AcDbLine
 62
7
  6
CONTINUOUS
 10
11.3326163904
 20
10.1735597178
 11
11.3308844655
 21
10.2498946922
  0
LINE
  5
37C
100
AcDbEntity
  8
0
100
AcDbLine
 62
7
  6
CONTINUOUS
 10
11.1107065098
 20
6.1232829577
 11
11.1130735875
 21
6.0190328064
  0
LINE
  5
37D
100
AcDbEntity
  8
0
100
AcDbLine
 62
7
  6
CONTINUOUS
 10
11.0361665139
 20
10.2360474378
 11
11.0380706207
 21
10.1517198559
  0
LINE
  5
37E
100
AcDbEntity
  8
0
100
AcDbLine
 62
7
  6
CONTINUOUS
 10
11.4077661785
 20
6.0339254706
 11
11.4055788976
 21
6.1304439841
  0
LINE
  5
37F
100
AcDbEntity
  8
0
100
AcDbLine
 62
7
  6
CONTINUOUS
 10
11.023228324
 20
10.1459870837
 11
11.0213957485
 21
10.2276249618
  0
LINE
  5
380
100
AcDbEntity
  8
0
100
AcDbLine
 62
7
  6
CONTINUOUS
 10
11.0965179037
 20
6.0885112705
 11
11.0943090794
 21
6.1883090689
  0
LINE
  5
381
100
AcDbEntity
  8
0
100
AcDbLine
 62
7
  6
CONTINUOUS
 10
11.3344487608
 20
10.0900828478
 11
11.3326163904
 21
10.1735597178
  0
LINE
  5
382
100
AcDbEntity
  8
0
100
AcDbLine
 62
7
  6
CONTINUOUS
 10
11.0380706207
 20
10.1517198559
 11
11.0400490351
 21
10.0609235269
  0
LINE
  5
383
100
AcDbEntity
  8
0
100
AcDbLine
 62
7
  6
CONTINUOUS
 10
11.0251507809
 20
10.0573849389
 11
11.023228324
 21
10.1459870837
  0
LINE
  5
384
100
AcDbEntity
  8
0
100
AcDbLine
 62
7
  6
CONTINUOUS
 10
11.108223341
 20
6.2376202081
 11
11.1107065098
 21
6.1232829577
  0
LINE
  5
385
100
AcDbEntity
  8
0
100
AcDbLine
 62
7
  6
CONTINUOUS
 10
11.4055788976
 20
6.1304439841
 11
11.4032968256
 21
6.2353686132
  0
LINE
  5
386
100
AcDbEntity
  8
0
100
AcDbLine
 62
7
  6
CONTINUOUS
 10
11.0943090794
 20
6.1883090689
 11
11.0919948828
 21
6.2970761955
  0
LINE
  5
387
100
AcDbEntity
  8
0
100
AcDbLine
 62
7
  6
CONTINUOUS
 10
11.3363987996
 20
9.9983056326
 11
11.3344487608
 21
10.0900828478
  0
LINE
  5
388
100
AcDbEntity
  8
0
100
AcDbLine
 62
7
  6
CONTINUOUS
 10
11.0271792206
 20
9.9607573725
 11
11.0251507809
 21
10.0573849389
  0
LINE
  5
389
100
AcDbEntity
  8
0
100
AcDbLine
 62
7
  6
CONTINUOUS
 10
11.0400490351
 20
10.0609235269
 11
11.0421193403
 21
9.9626000889
  0
LINE
  5
38A
100
AcDbEntity
  8
0
100
AcDbLine
 62
7
  6
CONTINUOUS
 10
11.1056249686
 20
6.3624068898
 11
11.108223341
 21
6.2376202081
  0
LINE
  5
38B
100
AcDbEntity
  8
0
100
AcDbLine
 62
7
  6
CONTINUOUS
 10
11.4032968256
 20
6.2353686132
 11
11.4009216115
 21
6.3489161313
  0
LINE
  5
38C
100
AcDbEntity
  8
0
100
AcDbLine
 62
7
  6
CONTINUOUS
 10
11.3384774661
 20
9.8972943562
 11
11.3363987996
 21
9.9983056326
  0
LINE
  5
38D
100
AcDbEntity
  8
0
100
AcDbLine
 62
7
  6
CONTINUOUS
 10
11.0919948828
 20
6.2970761955
 11
11.0895572796
 21
6.4160394245
  0
LINE
  5
38E
100
AcDbEntity
  8
0
100
AcDbLine
 62
7
  6
CONTINUOUS
 10
11.0421193403
 20
9.9626000889
 11
11.0442948591
 21
9.8558204092
  0
LINE
  5
38F
100
AcDbEntity
  8
0
100
AcDbLine
 62
7
  6
CONTINUOUS
 10
11.0293378735
 20
9.8545639085
 11
11.0271792206
 21
9.9607573725
  0
LINE
  5
390
100
AcDbEntity
  8
0
100
AcDbLine
 62
7
  6
CONTINUOUS
 10
11.4009216115
 20
6.3489161313
 11
11.3984434916
 21
6.4718197069
  0
LINE
  5
391
100
AcDbEntity
  8
0
100
AcDbLine
 62
7
  6
CONTINUOUS
 10
11.1028936489
 20
6.4988781711
 11
11.1056249686
 21
6.3624068898
  0
LINE
  5
392
100
AcDbEntity
  8
0
100
AcDbLine
 62
7
  6
CONTINUOUS
 10
11.3406865476
 20
9.7865443915
 11
11.3384774661
 21
9.8972943562
  0
LINE
  5
393
100
AcDbEntity
  8
0
100
AcDbLine
 62
7
  6
CONTINUOUS
 10
11.0895572796
 20
6.4160394245
 11
11.0869666512
 21
6.5470932998
  0
LINE
  5
394
100
AcDbEntity
  8
0
100
AcDbLine
 62
7
  6
CONTINUOUS
 10
11.0316504878
 20
9.7371746775
 11
11.0293378735
 21
9.8545639085
  0
LINE
  5
395
100
AcDbEntity
  8
0
100
AcDbLine
 62
7
  6
CONTINUOUS
 10
11.0442948591
 20
9.8558204092
 11
11.0465735424
 21
9.7403994848
  0
LINE
  5
396
100
AcDbEntity
  8
0
100
AcDbLine
 62
7
  6
CONTINUOUS
 10
11.3984434916
 20
6.4718197069
 11
11.3958376875
 21
6.6056056457
  0
LINE
  5
397
100
AcDbEntity
  8
0
100
AcDbLine
 62
7
  6
CONTINUOUS
 10
11.3430229118
 20
9.6658405791
 11
11.3406865476
 21
9.7865443915
  0
LINE
  5
398
100
AcDbEntity
  8
0
100
AcDbLine
 62
7
  6
CONTINUOUS
 10
11.0999924902
 20
6.6493258913
 11
11.1028936489
 21
6.4988781711
  0
LINE
  5
399
100
AcDbEntity
  8
0
100
AcDbLine
 62
7
  6
CONTINUOUS
 10
11.0465735424
 20
9.7403994848
 11
11.0489501153
 21
9.6163835113
  0
LINE
  5
39A
100
AcDbEntity
  8
0
100
AcDbLine
 62
7
  6
CONTINUOUS
 10
11.0869666512
 20
6.5470932998
 11
11.0841841174
 21
6.6927545023
  0
LINE
  5
39B
100
AcDbEntity
  8
0
100
AcDbLine
 62
7
  6
CONTINUOUS
 10
11.0341267547
 20
9.6076105071
 11
11.0316504878
 21
9.7371746775
  0
LINE
  5
39C
100
AcDbEntity
  8
0
100
AcDbLine
 62
7
  6
CONTINUOUS
 10
11.3958376875
 20
6.6056056457
 11
11.3930780436
 21
6.7519654307
  0
LINE
  5
39D
100
AcDbEntity
  8
0
100
AcDbLine
 62
7
  6
CONTINUOUS
 10
11.3454884237
 20
9.5347746972
 11
11.3430229118
 21
9.6658405791
  0
LINE
  5
39E
100
AcDbEntity
  8
0
100
AcDbLine
 62
7
  6
CONTINUOUS
 10
11.0968838233
 20
6.8162330365
 11
11.0999924902
 21
6.6493258913
  0
LINE
  5
39F
100
AcDbEntity
  8
0
100
AcDbLine
 62
7
  6
CONTINUOUS
 10
11.0489501153
 20
9.6163835113
 11
11.051419519
 21
9.4838953579
  0
LINE
  5
3A0
100
AcDbEntity
  8
0
100
AcDbLine
 62
7
  6
CONTINUOUS
 10
11.0841841174
 20
6.6927545023
 11
11.0811449542
 21
6.8571122553
  0
LINE
  5
3A1
100
AcDbEntity
  8
0
100
AcDbLine
 62
7
  6
CONTINUOUS
 10
11.0367671211
 20
9.4654127053
 11
11.0341267547
 21
9.6076105071
  0
LINE
  5
3A2
100
AcDbEntity
  8
0
100
AcDbLine
 62
7
  6
CONTINUOUS
 10
11.3930780436
 20
6.7519654307
 11
11.3901266964
 21
6.9133040431
  0
LINE
  5
3A3
100
AcDbEntity
  8
0
100
AcDbLine
 62
7
  6
CONTINUOUS
 10
11.3481183484
 20
9.3911539597
 11
11.3454884237
 21
9.5347746972
  0
LINE
  5
3A4
100
AcDbEntity
  8
0
100
AcDbLine
 62
7
  6
CONTINUOUS
 10
11.0395651988
 20
9.3106056802
 11
11.0367671211
 21
9.4654127053
  0
LINE
  5
3A5
100
AcDbEntity
  8
0
100
AcDbLine
 62
7
  6
CONTINUOUS
 10
11.051419519
 20
9.4838953579
 11
11.0539840952
 21
9.3427392962
  0
LINE
  5
3A6
100
AcDbEntity
  8
0
100
AcDbLine
 62
7
  6
CONTINUOUS
 10
11.0811449542
 20
6.8571122553
 11
11.0777822832
 21
7.0446336862
  0
LINE
  5
3A7
100
AcDbEntity
  8
0
100
AcDbLine
 62
7
  6
CONTINUOUS
 10
11.0935294379
 20
7.0022003062
 11
11.0968838233
 21
6.8162330365
  0
LINE
  5
3A8
100
AcDbEntity
  8
0
100
AcDbLine
 62
7
  6
CONTINUOUS
 10
11.0539840952
 20
9.3427392962
 11
11.0566552716
 21
9.1922643032
  0
LINE
  5
3A9
100
AcDbEntity
  8
0
100
AcDbLine
 62
7
  6
CONTINUOUS
 10
11.3901266964
 20
6.9133040431
 11
11.3869274308
 21
7.0931548451
  0
LINE
  5
3AA
100
AcDbEntity
  8
0
100
AcDbLine
 62
7
  6
CONTINUOUS
 10
11.3509593896
 20
9.2320401655
 11
11.3481183484
 21
9.3911539597
  0
LINE
  5
3AB
100
AcDbEntity
  8
0
100
AcDbLine
 62
7
  6
CONTINUOUS
 10
11.042513028
 20
9.1434698856
 11
11.0395651988
 21
9.3106056802
  0
LINE
  5
3AC
100
AcDbEntity
  8
0
100
AcDbLine
 62
7
  6
CONTINUOUS
 10
11.0777822832
 20
7.0446336862
 11
11.0740805751
 21
7.2569360628
  0
LINE
  5
3AD
100
AcDbEntity
  8
0
100
AcDbLine
 62
7
  6
CONTINUOUS
 10
11.0898057783
 20
7.2147545817
 11
11.0935294379
 21
7.0022003062
  0
LINE
  5
3AE
100
AcDbEntity
  8
0
100
AcDbLine
 62
7
  6
CONTINUOUS
 10
11.0566552716
 20
9.1922643032
 11
11.0594450363
 21
9.0318213566
  0
LINE
  5
3AF
100
AcDbEntity
  8
0
100
AcDbLine
 62
7
  6
CONTINUOUS
 10
11.3869274308
 20
7.0931548451
 11
11.3833804853
 21
7.2976866489
  0
LINE
  5
3B0
100
AcDbEntity
  8
0
100
AcDbLine
 62
7
  6
CONTINUOUS
 10
11.3540458524
 20
9.0551156151
 11
11.3509593896
 21
9.2320401655
  0
LINE
  5
3B1
100
AcDbEntity
  8
0
100
AcDbLine
 62
7
  6
CONTINUOUS
 10
11.0456046335
 20
8.9643647784
 11
11.042513028
 21
9.1434698856
  0
LINE
  5
3B2
100
AcDbEntity
  8
0
100
AcDbLine
 62
7
  6
CONTINUOUS
 10
11.0740805751
 20
7.2569360628
 11
11.0700734308
 21
7.4923498102
  0
LINE
  5
3B3
100
AcDbEntity
  8
0
100
AcDbLine
 62
7
  6
CONTINUOUS
 10
11.0855885056
 20
7.4617761683
 11
11.0898057783
 21
7.2147545817
  0
LINE
  5
3B4
100
AcDbEntity
  8
0
100
AcDbLine
 62
7
  6
CONTINUOUS
 10
11.0594450363
 20
9.0318213566
 11
11.0623650758
 21
8.860839155
  0
LINE
  5
3B5
100
AcDbEntity
  8
0
100
AcDbLine
 62
7
  6
CONTINUOUS
 10
11.3574171034
 20
8.857822165
 11
11.3540458524
 21
9.0551156151
  0
LINE
  5
3B6
100
AcDbEntity
  8
0
100
AcDbLine
 62
7
  6
CONTINUOUS
 10
11.3833804853
 20
7.2976866489
 11
11.3794019073
 21
7.5322642237
  0
LINE
  5
3B7
100
AcDbEntity
  8
0
100
AcDbLine
 62
7
  6
CONTINUOUS
 10
11.0700734308
 20
7.4923498102
 11
11.0658363292
 21
7.7459188055
  0
LINE
  5
3B8
100
AcDbEntity
  8
0
100
AcDbLine
 62
7
  6
CONTINUOUS
 10
11.0522121812
 20
8.5716966538
 11
11.0456046335
 21
8.9643647784
  0
LINE
  5
3B9
100
AcDbEntity
  8
0
100
AcDbLine
 62
7
  6
CONTINUOUS
 10
11.0814138055
 20
7.7111841007
 11
11.0855885056
 21
7.4617761683
  0
LINE
  5
3BA
100
AcDbEntity
  8
0
100
AcDbLine
 62
7
  6
CONTINUOUS
 10
11.0623650758
 20
8.860839155
 11
11.0670128933
 21
8.5837240506
  0
LINE
  5
3BB
100
AcDbEntity
  8
0
100
AcDbLine
 62
7
  6
CONTINUOUS
 10
11.3794019073
 20
7.5322642237
 11
11.3749422667
 21
7.7998626883
  0
LINE
  5
3BC
100
AcDbEntity
  8
0
100
AcDbLine
 62
7
  6
CONTINUOUS
 10
11.0658363292
 20
7.7459188055
 11
11.0557609524
 21
8.357191434
  0
LINE
  5
3BD
100
AcDbEntity
  8
0
100
AcDbLine
 62
7
  6
CONTINUOUS
 10
11.0557609524
 20
8.357191434
 11
11.0522121812
 21
8.5716966538
  0
LINE
  5
3BE
100
AcDbEntity
  8
0
100
AcDbLine
 62
7
  6
CONTINUOUS
 10
11.0774782106
 20
7.9491459437
 11
11.0814138055
 21
7.7111841007
  0
LWPOLYLINE
  5
3BF
100
AcDbEntity
  8
0
100
AcDbPolyline
 62
7
  6
CONTINUOUS
 90
3
 70
0
 10
11.0670128933
 20
8.5837240506
 10
11.0703065883
 20
8.3848147928
 10
11.0774782106
 20
7.9491459437
  0
LWPOLYLINE
  5
3C0
100
AcDbEntity
  8
0
100
AcDbPolyline
 62
7
  6
CONTINUOUS
 90
3
 70
0
 10
11.3749422667
 20
7.7998626883
 10
11.3631446834
 20
8.5155004849
 10
11.3574171034
 20
8.857822165
  0
LINE
  5
3C1
100
AcDbEntity
  8
0
100
AcDbLine
 62
7
  6
CONTINUOUS
 10
11.1183016282
 20
14.1111767574
 11
11.1183016282
 21
14.727347383
  0
LINE
  5
3C2
100
AcDbEntity
  8
0
100
AcDbLine
 62
7
  6
CONTINUOUS
 10
11.1483016282
 20
14.7608460168
 11
11.1483016282
 21
14.6630843205
  0
LINE
  5
3C3
100
AcDbEntity
  8
02___PRT_ALL_AXES
100
AcDbLine
 62
7
  6
CONTINUOUS
 10
11.1523016282
 20
1.3381243762
 11
11.1523016282
 21
1.368034022
  0
LINE
  5
3C4
100
AcDbEntity
  8
02___PRT_ALL_AXES
100
AcDbLine
 62
7
  6
CONTINUOUS
 10
11.1523016282
 20
1.3887209043
 11
11.1523016282
 21
1.398034022
  0
LINE
  5
3C5
100
AcDbEntity
  8
02___PRT_ALL_AXES
100
AcDbLine
 62
7
  6
CONTINUOUS
 10
11.1523016282
 20
1.4187209043
 11
11.1523016282
 21
1.4271243762
  0
LINE
  5
3C6
100
AcDbEntity
  8
0
100
AcDbLine
 62
7
  6
CONTINUOUS
 10
11.1528016282
 20
1.3381243762
 11
11.1528016282
 21
1.3586305501
  0
LINE
  5
3C7
100
AcDbEntity
  8
0
100
AcDbLine
 62
7
  6
CONTINUOUS
 10
11.1688276152
 20
1.3782906369
 11
11.1688276152
 21
1.3784642894
  0
LINE
  5
3C8
100
AcDbEntity
  8
0
100
AcDbLine
 62
7
  6
CONTINUOUS
 10
11.1688276152
 20
1.4082906369
 11
11.1688276152
 21
1.4084642894
  0
LINE
  5
3C9
100
AcDbEntity
  8
0
100
AcDbLine
 62
7
  6
CONTINUOUS
 10
11.1783016282
 20
14.1111767574
 11
11.1783016282
 21
14.7273470576
  0
LINE
  5
3CA
100
AcDbEntity
  8
0
100
AcDbLine
 62
7
  6
CONTINUOUS
 10
11.2254718025
 20
1.3381243762
 11
11.2254718025
 21
1.1421243762
  0
LINE
  5
3CB
100
AcDbEntity
  8
0
100
AcDbLine
 62
7
  6
CONTINUOUS
 10
11.2396139381
 20
1.3381243762
 11
11.2396139381
 21
1.1421243762
  0
LINE
  5
3CC
100
AcDbEntity
  8
0
100
AcDbLine
 62
7
  6
CONTINUOUS
 10
11.2396443406
 20
1.4271243762
 11
11.2396443406
 21
2.08993455
  0
LINE
  5
3CD
100
AcDbEntity
  8
02___PRT_ALL_AXES
100
AcDbLine
 62
7
  6
CONTINUOUS
 10
11.2583016282
 20
11.2361495407
 11
11.2583016282
 21
12.9842667896
  0
LINE
  5
3CE
100
AcDbEntity
  8
0
100
AcDbLine
 62
7
  6
CONTINUOUS
 10
11.2868016282
 20
1.1421243762
 11
11.2868016282
 21
1.0697046692
  0
LINE
  5
3CF
100
AcDbEntity
  8
02___PRT_ALL_AXES
100
AcDbLine
 62
7
  6
CONTINUOUS
 10
11.3158016282
 20
14.4283601987
 11
11.3158016282
 21
14.9076916885
  0
LINE
  5
3D0
100
AcDbEntity
  8
0
100
AcDbLine
 62
7
  6
CONTINUOUS
 10
11.3158016282
 20
14.4283601987
 11
11.3158016282
 21
14.9076916885
  0
LINE
  5
3D1
100
AcDbEntity
  8
02___PRT_ALL_AXES
100
AcDbLine
 62
7
  6
CONTINUOUS
 10
11.4958016282
 20
14.4283601987
 11
11.4958016282
 21
14.9076916885
  0
LINE
  5
3D2
100
AcDbEntity
  8
0
100
AcDbLine
 62
7
  6
CONTINUOUS
 10
11.4958016282
 20
14.4283601987
 11
11.4958016282
 21
14.9076916885
  0
LINE
  5
3D3
100
AcDbEntity
  8
02___PRT_ALL_AXES
100
AcDbLine
 62
7
  6
CONTINUOUS
 10
11.5533016282
 20
9.8056738935
 11
11.5533016282
 21
12.9842667896
  0
LINE
  5
3D4
100
AcDbEntity
  8
0
100
AcDbLine
 62
7
  6
CONTINUOUS
 10
11.6333016282
 20
14.1111767574
 11
11.6333016282
 21
14.727347383
  0
LINE
  5
3D5
100
AcDbEntity
  8
0
100
AcDbLine
 62
7
  6
CONTINUOUS
 10
11.6633016282
 20
14.7608460168
 11
11.6633016282
 21
14.6630843205
  0
LINE
  5
3D6
100
AcDbEntity
  8
0
100
AcDbLine
 62
7
  6
CONTINUOUS
 10
11.6933016282
 20
14.1111767574
 11
11.6933016282
 21
14.727347383
  0
LINE
  5
3D7
100
AcDbEntity
  8
0
100
AcDbLine
 62
7
  6
CONTINUOUS
 10
11.7140334236
 20
1.0697046692
 11
11.7140334236
 21
-3.4302953308
  0
LINE
  5
3D8
100
AcDbEntity
  8
0
100
AcDbLine
 62
7
  6
CONTINUOUS
 10
11.8083016282
 20
13.2049069853
 11
11.8083016282
 21
14.2431801002
  0
LINE
  5
3D9
100
AcDbEntity
  8
02___PRT_ALL_AXES
100
AcDbLine
 62
7
  6
CONTINUOUS
 10
11.5532927299
 20
9.8047754891
 11
11.5533016282
 21
9.8056738935
  0
LINE
  5
3DA
100
AcDbEntity
  8
0
100
AcDbLine
 62
7
  6
CONTINUOUS
 10
11.5208960009
 20
7.9352490834
 11
11.5282907591
 21
8.3844566973
  0
LINE
  5
3DB
100
AcDbEntity
  8
0
100
AcDbLine
 62
7
  6
CONTINUOUS
 10
11.5141336155
 20
7.5282179506
 11
11.5208960009
 21
7.9352490834
  0
LWPOLYLINE
  5
3DC
100
AcDbEntity
  8
0
100
AcDbPolyline
 62
7
  6
CONTINUOUS
 90
10
 70
0
 10
11.5282907591
 20
8.3844566973
 10
11.5333011631
 20
8.6863158429
 10
11.5358090284
 20
8.835482868
 10
11.5383153963
 20
8.9827646302
 10
11.5408199912
 20
9.1277685904
 10
11.5433233174
 20
9.2701542093
 10
11.5458258757
 20
9.4095862995
 10
11.5483281616
 20
9.545735129
 10
11.5508306653
 20
9.6782765999
 10
11.5532919991
 20
9.804775495
  0
LINE
  5
3DD
100
AcDbEntity
  8
0
100
AcDbLine
 62
7
  6
CONTINUOUS
 10
11.5100911017
 20
7.2898918239
 11
11.5141336155
 21
7.5282179506
  0
LINE
  5
3DE
100
AcDbEntity
  8
0
100
AcDbLine
 62
7
  6
CONTINUOUS
 10
11.5063943502
 20
7.076900082
 11
11.5100911017
 21
7.2898918239
  0
LINE
  5
3DF
100
AcDbEntity
  8
0
100
AcDbLine
 62
7
  6
CONTINUOUS
 10
11.5030634861
 20
6.8900611798
 11
11.5063943502
 21
7.076900082
  0
LINE
  5
3E0
100
AcDbEntity
  8
0
100
AcDbLine
 62
7
  6
CONTINUOUS
 10
11.5000363292
 20
6.7251714087
 11
11.5030634861
 21
6.8900611798
  0
LINE
  5
3E1
100
AcDbEntity
  8
0
100
AcDbLine
 62
7
  6
CONTINUOUS
 10
11.4972325015
 20
6.5771780766
 11
11.5000363292
 21
6.7251714087
  0
LINE
  5
3E2
100
AcDbEntity
  8
0
100
AcDbLine
 62
7
  6
CONTINUOUS
 10
11.4946064372
 20
6.4431295206
 11
11.4972325015
 21
6.5771780766
  0
LINE
  5
3E3
100
AcDbEntity
  8
0
100
AcDbLine
 62
7
  6
CONTINUOUS
 10
11.4921248291
 20
6.3208596308
 11
11.4946064372
 21
6.4431295206
  0
LINE
  5
3E4
100
AcDbEntity
  8
0
100
AcDbLine
 62
7
  6
CONTINUOUS
 10
11.4897649149
 20
6.2088430957
 11
11.4921248291
 21
6.3208596308
  0
LINE
  5
3E5
100
AcDbEntity
  8
0
100
AcDbLine
 62
7
  6
CONTINUOUS
 10
11.4875048417
 20
6.1056962959
 11
11.4897649149
 21
6.2088430957
  0
LINE
  5
3E6
100
AcDbEntity
  8
0
100
AcDbLine
 62
7
  6
CONTINUOUS
 10
11.4853322118
 20
6.0105533358
 11
11.4875048417
 21
6.1056962959
  0
LINE
  5
3E7
100
AcDbEntity
  8
0
100
AcDbLine
 62
7
  6
CONTINUOUS
 10
11.4832467412
 20
5.9230996934
 11
11.4853322118
 21
6.0105533358
  0
LINE
  5
3E8
100
AcDbEntity
  8
0
100
AcDbLine
 62
7
  6
CONTINUOUS
 10
11.4812489291
 20
5.8430243818
 11
11.4832467412
 21
5.9230996934
  0
LINE
  5
3E9
100
AcDbEntity
  8
0
100
AcDbLine
 62
7
  6
CONTINUOUS
 10
11.4793388619
 20
5.7699748284
 11
11.4812489291
 21
5.8430243818
  0
LINE
  5
3EA
100
AcDbEntity
  8
0
100
AcDbLine
 62
7
  6
CONTINUOUS
 10
11.4775147208
 20
5.7035139019
 11
11.4793388619
 21
5.7699748284
  0
LINE
  5
3EB
100
AcDbEntity
  8
0
100
AcDbLine
 62
7
  6
CONTINUOUS
 10
11.4757741157
 20
5.6431874349
 11
11.4775147208
 21
5.7035139019
  0
LINE
  5
3EC
100
AcDbEntity
  8
0
100
AcDbLine
 62
7
  6
CONTINUOUS
 10
11.474113334
 20
5.5885093375
 11
11.4757741157
 21
5.6431874349
  0
LINE
  5
3ED
100
AcDbEntity
  8
0
100
AcDbLine
 62
7
  6
CONTINUOUS
 10
11.4725251793
 20
5.5389102143
 11
11.474113334
 21
5.5885093375
  0
LINE
  5
3EE
100
AcDbEntity
  8
0
100
AcDbLine
 62
7
  6
CONTINUOUS
 10
11.4710018485
 20
5.4938502966
 11
11.4725251793
 21
5.5389102143
  0
LINE
  5
3EF
100
AcDbEntity
  8
0
100
AcDbLine
 62
7
  6
CONTINUOUS
 10
11.4695376291
 20
5.452897218
 11
11.4710018485
 21
5.4938502966
  0
LINE
  5
3F0
100
AcDbEntity
  8
0
100
AcDbLine
 62
7
  6
CONTINUOUS
 10
11.4681379975
 20
5.41594183
 11
11.4695376291
 21
5.452897218
  0
LINE
  5
3F1
100
AcDbEntity
  8
0
100
AcDbLine
 62
7
  6
CONTINUOUS
 10
11.4668121027
 20
5.3829325114
 11
11.4681379975
 21
5.41594183
  0
LINE
  5
3F2
100
AcDbEntity
  8
0
100
AcDbLine
 62
7
  6
CONTINUOUS
 10
11.465565854
 20
5.3536970572
 11
11.4668121027
 21
5.3829325114
  0
LINE
  5
3F3
100
AcDbEntity
  8
0
100
AcDbLine
 62
7
  6
CONTINUOUS
 10
11.4643876567
 20
5.327666888
 11
11.465565854
 21
5.3536970572
  0
LINE
  5
3F4
100
AcDbEntity
  8
0
100
AcDbLine
 62
7
  6
CONTINUOUS
 10
11.4632626498
 20
5.3042804826
 11
11.4643876567
 21
5.327666888
  0
LINE
  5
3F5
100
AcDbEntity
  8
0
100
AcDbLine
 62
7
  6
CONTINUOUS
 10
11.4621820798
 20
5.283174831
 11
11.4632626498
 21
5.3042804826
  0
LINE
  5
3F6
100
AcDbEntity
  8
0
100
AcDbLine
 62
7
  6
CONTINUOUS
 10
11.4611378764
 20
5.2640463882
 11
11.4621820798
 21
5.283174831
  0
LINE
  5
3F7
100
AcDbEntity
  8
0
100
AcDbLine
 62
7
  6
CONTINUOUS
 10
11.4601216605
 20
5.2466274192
 11
11.4611378764
 21
5.2640463882
  0
LINE
  5
3F8
100
AcDbEntity
  8
0
100
AcDbLine
 62
7
  6
CONTINUOUS
 10
11.4591252703
 20
5.230693181
 11
11.4601216605
 21
5.2466274192
  0
LINE
  5
3F9
100
AcDbEntity
  8
0
100
AcDbLine
 62
7
  6
CONTINUOUS
 10
11.4581444107
 20
5.2161104937
 11
11.4591252703
 21
5.230693181
  0
LINE
  5
3FA
100
AcDbEntity
  8
0
100
AcDbLine
 62
7
  6
CONTINUOUS
 10
11.4571758839
 20
5.2027777634
 11
11.4581444107
 21
5.2161104937
  0
LINE
  5
3FB
100
AcDbEntity
  8
0
100
AcDbLine
 62
7
  6
CONTINUOUS
 10
11.4562154716
 20
5.1905918332
 11
11.4571758839
 21
5.2027777634
  0
LINE
  5
3FC
100
AcDbEntity
  8
0
100
AcDbLine
 62
7
  6
CONTINUOUS
 10
10.3505198606
 20
1.4271243762
 11
10.3447756411
 21
1.4234642894
  0
LINE
  5
3FD
100
AcDbEntity
  8
0
100
AcDbLine
 62
7
  6
CONTINUOUS
 10
10.3608725314
 20
1.4037209043
 11
10.3447756411
 21
1.3934642894
  0
LINE
  5
3FE
100
AcDbEntity
  8
0
100
AcDbLine
 62
7
  6
CONTINUOUS
 10
10.3608725314
 20
1.3737209043
 11
10.3447756411
 21
1.3634642894
  0
LWPOLYLINE
  5
3FF
100
AcDbEntity
  8
0
100
AcDbPolyline
 62
7
  6
CONTINUOUS
 90
13
 70
0
 10
11.4399324743
 20
5.1808113293
 10
11.4399342355
 20
5.180801675
 10
11.4399094862
 20
5.1809456787
 10
11.4398213849
 20
5.1814892927
 10
11.439681313
 20
5.182413441
 10
11.4394976239
 20
5.1837069325
 10
11.4392765134
 20
5.1853649391
 10
11.4390226179
 20
5.187387866
 10
11.4387395697
 20
5.1897793026
 10
11.4384308956
 20
5.1925394914
 10
11.4380998596
 20
5.1956665153
 10
11.4377493815
 20
5.1991572814
 10
11.4373819764
 20
5.2030085956
  0
LWPOLYLINE
  5
400
100
AcDbEntity
  8
0
100
AcDbPolyline
 62
7
  6
CONTINUOUS
 90
13
 70
0
 10
10.6936701864
 20
11.1034406798
 10
10.6936686904
 20
11.1034488994
 10
10.6936954016
 20
11.1032933877
 10
10.6937843296
 20
11.1027438039
 10
10.6939240108
 20
11.1018212306
 10
10.6941060288
 20
11.1005389419
 10
10.6943241343
 20
11.0989039599
 10
10.6945736441
 20
11.0969182089
 10
10.6948510217
 20
11.0945793744
 10
10.6951535635
 20
11.091881719
 10
10.6954790559
 20
11.0888178753
 10
10.6958256644
 20
11.0853791409
 10
10.696191997
 20
11.0815541818
  0
LINE
  5
401
100
AcDbEntity
  8
0
100
AcDbLine
 62
7
  6
CONTINUOUS
 10
11.1527307249
 20
1.398034022
 11
11.1688276152
 21
1.4082906369
  0
LINE
  5
402
100
AcDbEntity
  8
0
100
AcDbLine
 62
7
  6
CONTINUOUS
 10
11.1527307249
 20
1.368034022
 11
11.1688276152
 21
1.3782906369
  0
LINE
  5
403
100
AcDbEntity
  8
0
100
AcDbLine
 62
7
  6
CONTINUOUS
 10
11.1688957508
 20
1.3483774632
 11
11.1528016282
 21
1.3381243762
  0
LINE
  5
404
100
AcDbEntity
  8
0
100
AcDbLine
 62
7
  6
CONTINUOUS
 10
11.7283016282
 20
13.1249069853
 11
11.0833016282
 21
13.1249069853
  0
LWPOLYLINE
  5
405
100
AcDbEntity
  8
0
100
AcDbPolyline
 62
7
  6
CONTINUOUS
 90
12
 70
0
 10
11.0036722978
 20
11.1034283936
 10
11.0036755674
 20
11.1034096328
 10
11.0037515714
 20
11.1029504928
 10
11.0038953808
 20
11.1020151554
 10
11.0040931247
 20
11.1006324633
 10
11.0043344886
 20
11.0988239137
 10
11.0046116771
 20
11.0966054524
 10
11.0049187097
 20
11.0939887856
 10
11.0052509317
 20
11.090982391
 10
11.005604631
 20
11.0875926579
 10
11.0059768209
 20
11.0838242663
 10
11.0063651451
 20
11.0796798036
  0
LINE
  5
406
100
AcDbEntity
  8
0
100
AcDbLine
 62
7
  6
CONTINUOUS
 10
8.3224404949
 20
-1.388951894
 11
7.8223192253
 21
-1.7393553313
  0
LINE
  5
407
100
AcDbEntity
  8
0
100
AcDbLine
 62
7
  6
CONTINUOUS
 10
11.0833016282
 20
14.0301661628
 11
11.7283016282
 21
14.0301661628
  0
LINE
  5
408
100
AcDbEntity
  8
02___PRT_ALL_AXES
100
AcDbLine
 62
7
  6
CONTINUOUS
 10
11.1183016282
 20
14.1111767574
 11
11.1783016282
 21
14.1111767574
  0
LINE
  5
409
100
AcDbEntity
  8
02___PRT_ALL_AXES
100
AcDbLine
 62
7
  6
CONTINUOUS
 10
11.6333016282
 20
14.1111767574
 11
11.6933016282
 21
14.1111767574
  0
LINE
  5
40A
100
AcDbEntity
  8
0
100
AcDbLine
 62
7
  6
CONTINUOUS
 10
11.5422686256
 20
14.5375487656
 11
11.4958016282
 21
14.5375487656
  0
LINE
  5
40B
100
AcDbEntity
  8
0
100
AcDbLine
 62
7
  6
CONTINUOUS
 10
11.3158016282
 20
14.5375487656
 11
11.2693346307
 21
14.5375487656
  0
LINE
  5
40C
100
AcDbEntity
  8
0
100
AcDbLine
 62
7
  6
CONTINUOUS
 10
11.8022535521
 20
14.2601006963
 11
11.6933016282
 21
14.4065197772
  0
LINE
  5
40D
100
AcDbEntity
  8
0
100
AcDbLine
 62
7
  6
CONTINUOUS
 10
11.6333016282
 20
14.4871530008
 11
11.6162205496
 21
14.5101080413
  0
LINE
  5
40E
100
AcDbEntity
  8
0
100
AcDbLine
 62
7
  6
CONTINUOUS
 10
18.0661275846
 20
14.9687205908
 11
18.0827702907
 21
14.9798104222
  0
LINE
  5
40F
100
AcDbEntity
  8
0
100
AcDbLine
 62
7
  6
CONTINUOUS
 10
17.7812345972
 20
14.7608460168
 11
17.6345218909
 21
14.6630843205
  0
LINE
  5
410
100
AcDbEntity
  8
0
100
AcDbLine
 62
7
  6
CONTINUOUS
 10
17.8406349348
 20
14.0301661628
 11
18.6020729785
 21
14.5375487656
  0
LINE
  5
411
100
AcDbEntity
  8
0
100
AcDbLine
 62
7
  6
CONTINUOUS
 10
21.0194903992
 20
-3.4302953308
 11
25.0194903992
 21
-3.4302953308
  0
LINE
  5
412
100
AcDbEntity
  8
0
100
AcDbLine
 62
7
  6
CONTINUOUS
 10
27.6120100842
 20
-3.4302953308
 11
27.8620100842
 21
-3.4302953308
  0
LINE
  5
413
100
AcDbEntity
  8
06___PRT_ALL_SURFS
100
AcDbLine
 62
7
  6
CONTINUOUS
 10
25.0194903992
 20
-2.9194392142
 11
25.0243808607
 21
-2.9194392142
  0
LINE
  5
414
100
AcDbEntity
  8
0
100
AcDbLine
 62
7
  6
CONTINUOUS
 10
19.1593302294
 20
13.5569931291
 11
19.0871092572
 21
13.5088688396
  0
LINE
  5
415
100
AcDbEntity
  8
0
100
AcDbLine
 62
7
  6
CONTINUOUS
 10
18.6170664276
 20
13.195656811
 11
18.5310398218
 21
13.1383331673
  0
LINE
  5
416
100
AcDbEntity
  8
02___PRT_ALL_AXES
100
AcDbLine
 62
7
  6
CONTINUOUS
 10
18.6614944064
 20
12.963296453
 11
19.1749449779
 21
13.305433137
  0
LINE
  5
417
100
AcDbEntity
  8
0
100
AcDbLine
 62
7
  6
CONTINUOUS
 10
25.0243808607
 20
-1.9194392142
 11
25.0194903992
 21
-1.9194392142
  0
LINE
  5
418
100
AcDbEntity
  8
0
100
AcDbLine
 62
7
  6
CONTINUOUS
 10
25.6167482145
 20
-1.7806890316
 11
25.0194903992
 21
-1.7806890316
  0
LINE
  5
419
100
AcDbEntity
  8
0
100
AcDbLine
 62
7
  6
CONTINUOUS
 10
21.0194903992
 20
-1.7806890316
 11
20.4222325839
 21
-1.7806890316
  0
LINE
  5
41A
100
AcDbEntity
  8
0
100
AcDbLine
 62
7
  6
CONTINUOUS
 10
27.098184407
 20
-1.3476181655
 11
25.0194903992
 21
-1.3476181655
  0
LINE
  5
41B
100
AcDbEntity
  8
0
100
AcDbLine
 62
7
  6
CONTINUOUS
 10
21.0194903992
 20
-1.3476181655
 11
18.9407963914
 21
-1.3476181655
  0
LINE
  5
41C
100
AcDbEntity
  8
0
100
AcDbLine
 62
7
  6
CONTINUOUS
 10
19.7910833274
 20
-1.3889518937
 11
20.2912045576
 21
-1.7393553034
  0
LINE
  5
41D
100
AcDbEntity
  8
0
100
AcDbLine
 62
7
  6
CONTINUOUS
 10
20.7814354868
 20
0.3246155953
 11
20.6715856359
 21
0.3188701392
  0
LINE
  5
41E
100
AcDbEntity
  8
0
100
AcDbLine
 62
7
  6
CONTINUOUS
 10
27.6361017964
 20
0.5697046692
 11
27.8620100842
 21
0.5697046692
  0
LINE
  5
41F
100
AcDbEntity
  8
0
100
AcDbLine
 62
7
  6
CONTINUOUS
 10
27.8108289819
 20
1.0697046692
 11
18.2281518165
 21
1.0697046692
  0
LINE
  5
420
100
AcDbEntity
  8
0
100
AcDbLine
 62
7
  6
CONTINUOUS
 10
22.1697613289
 20
1.1421243762
 11
21.1097737492
 21
1.1421243762
  0
LINE
  5
421
100
AcDbEntity
  8
0
100
AcDbLine
 62
7
  6
CONTINUOUS
 10
18.1769707142
 20
1.2488385275
 11
21.1569173595
 21
1.2488385275
  0
LINE
  5
422
100
AcDbEntity
  8
0
100
AcDbLine
 62
7
  6
CONTINUOUS
 10
22.1226027844
 20
1.2488385275
 11
27.8620100842
 21
1.2488385275
  0
LINE
  5
423
100
AcDbEntity
  8
0
100
AcDbLine
 62
7
  6
CONTINUOUS
 10
21.1569173595
 20
1.3381243762
 11
22.1226027844
 21
1.3381243762
  0
LINE
  5
424
100
AcDbEntity
  8
0
100
AcDbLine
 62
7
  6
CONTINUOUS
 10
22.1226102515
 20
1.4271243762
 11
21.1569248266
 21
1.4271243762
  0
LINE
  5
425
100
AcDbEntity
  8
0
100
AcDbLine
 62
7
  6
CONTINUOUS
 10
18.37329366
 20
0.9927947714
 11
18.5087804641
 21
-0.9447567958
  0
LINE
  5
426
100
AcDbEntity
  8
0
100
AcDbLine
 62
7
  6
CONTINUOUS
 10
21.871267539
 20
2.1597377096
 11
21.408267539
 21
2.1597377096
  0
LINE
  5
427
100
AcDbEntity
  8
0
100
AcDbLine
 62
7
  6
CONTINUOUS
 10
21.227741552
 20
1.3707906369
 11
21.2438384423
 21
1.360534022
  0
LINE
  5
428
100
AcDbEntity
  8
0
100
AcDbLine
 62
7
  6
CONTINUOUS
 10
21.227741552
 20
1.4007906369
 11
21.2438384423
 21
1.390534022
  0
LINE
  5
429
100
AcDbEntity
  8
0
100
AcDbLine
 62
7
  6
CONTINUOUS
 10
21.2334954603
 20
1.4271243762
 11
21.2438384423
 21
1.420534022
  0
LINE
  5
42A
100
AcDbEntity
  8
0
100
AcDbLine
 62
7
  6
CONTINUOUS
 10
18.1769707142
 20
1.2488385275
 11
18.1769707142
 21
1.1208857716
  0
LINE
  5
42B
100
AcDbEntity
  8
0
100
AcDbLine
 62
7
  6
CONTINUOUS
 10
18.4323099383
 20
1.8322458997
 11
18.3915141207
 21
1.2488385275
  0
LINE
  5
42C
100
AcDbEntity
  8
0
100
AcDbLine
 62
7
  6
CONTINUOUS
 10
21.408267539
 20
2.1597377096
 11
21.1726816428
 21
2.1094793851
  0
LINE
  5
42D
100
AcDbEntity
  8
0
100
AcDbLine
 62
7
  6
CONTINUOUS
 10
21.871267539
 20
2.1597377096
 11
22.1068539037
 21
2.1094792851
  0
LINE
  5
42E
100
AcDbEntity
  8
0
100
AcDbLine
 62
7
  6
CONTINUOUS
 10
22.0517935261
 20
1.3559642894
 11
22.0356966358
 21
1.3662209043
  0
LINE
  5
42F
100
AcDbEntity
  8
0
100
AcDbLine
 62
7
  6
CONTINUOUS
 10
22.0517935261
 20
1.3859642894
 11
22.0356966358
 21
1.3962209043
  0
LINE
  5
430
100
AcDbEntity
  8
0
100
AcDbLine
 62
7
  6
CONTINUOUS
 10
22.0517935261
 20
1.4159642894
 11
22.0356966358
 21
1.4262209043
  0
LINE
  5
431
100
AcDbEntity
  8
0
100
AcDbLine
 62
7
  6
CONTINUOUS
 10
21.2438384423
 20
1.360534022
 11
21.243767539
 21
1.3606243762
  0
LINE
  5
432
100
AcDbEntity
  8
0
100
AcDbLine
 62
7
  6
CONTINUOUS
 10
21.2438384423
 20
1.390534022
 11
21.243767539
 21
1.3906243762
  0
LINE
  5
433
100
AcDbEntity
  8
0
100
AcDbLine
 62
7
  6
CONTINUOUS
 10
21.2438384423
 20
1.420534022
 11
21.243767539
 21
1.4206243762
  0
LINE
  5
434
100
AcDbEntity
  8
0
100
AcDbLine
 62
7
  6
CONTINUOUS
 10
22.035767539
 20
1.3661305501
 11
22.0356966358
 21
1.3662209043
  0
LINE
  5
435
100
AcDbEntity
  8
0
100
AcDbLine
 62
7
  6
CONTINUOUS
 10
22.035767539
 20
1.3961305501
 11
22.0356966358
 21
1.3962209043
  0
LINE
  5
436
100
AcDbEntity
  8
0
100
AcDbLine
 62
7
  6
CONTINUOUS
 10
22.035767539
 20
1.4261305501
 11
22.0356966358
 21
1.4262209043
  0
LINE
  5
437
100
AcDbEntity
  8
0
100
AcDbLine
 62
7
  6
CONTINUOUS
 10
21.0194903992
 20
1.0697046692
 11
21.0194903992
 21
-3.4302953308
  0
LINE
  5
438
100
AcDbEntity
  8
06___PRT_ALL_SURFS
100
AcDbLine
 62
7
  6
CONTINUOUS
 10
21.0328666287
 20
5.4904373551
 11
21.0328666287
 21
4.4904373551
  0
LINE
  5
439
100
AcDbEntity
  8
0
100
AcDbLine
 62
7
  6
CONTINUOUS
 10
25.0328666287
 20
4.4904373551
 11
25.0128666287
 21
4.4904373551
  0
LINE
  5
43A
100
AcDbEntity
  8
0
100
AcDbLine
 62
7
  6
CONTINUOUS
 10
21.0328666287
 20
4.4904373551
 11
21.0528666287
 21
4.4904373551
  0
LINE
  5
43B
100
AcDbEntity
  8
0
100
AcDbLine
 62
7
  6
CONTINUOUS
 10
21.0489943362
 20
4.4904373551
 11
21.0489943362
 21
4.4586725607
  0
LINE
  5
43C
100
AcDbEntity
  8
0
100
AcDbLine
 62
7
  6
CONTINUOUS
 10
21.0528666287
 20
5.4704373551
 11
21.0528666287
 21
4.4904373551
  0
LINE
  5
43D
100
AcDbEntity
  8
0
100
AcDbLine
 62
7
  6
CONTINUOUS
 10
21.109767539
 20
1.1421243762
 11
21.109767539
 21
1.0697046692
  0
LINE
  5
43E
100
AcDbEntity
  8
0
100
AcDbLine
 62
7
  6
CONTINUOUS
 10
21.1328666287
 20
5.4904373551
 11
21.1328666287
 21
5.5004373551
  0
LINE
  5
43F
100
AcDbEntity
  8
0
100
AcDbLine
 62
7
  6
CONTINUOUS
 10
21.1374499622
 20
5.4904373551
 11
21.1374499622
 21
5.5004373551
  0
LINE
  5
440
100
AcDbEntity
  8
0
100
AcDbLine
 62
7
  6
CONTINUOUS
 10
21.1466166287
 20
5.4904373551
 11
21.1466166287
 21
5.5004373551
  0
LINE
  5
441
100
AcDbEntity
  8
0
100
AcDbLine
 62
7
  6
CONTINUOUS
 10
21.1569173595
 20
1.3381243762
 11
21.1569173595
 21
1.1421243762
  0
LINE
  5
442
100
AcDbEntity
  8
0
100
AcDbLine
 62
7
  6
CONTINUOUS
 10
21.1569248266
 20
1.4271243762
 11
21.1569248266
 21
2.0899337679
  0
LINE
  5
443
100
AcDbEntity
  8
0
100
AcDbLine
 62
7
  6
CONTINUOUS
 10
21.1649499609
 20
5.4904373551
 11
21.1649499609
 21
5.5004373551
  0
LINE
  5
444
100
AcDbEntity
  8
0
100
AcDbLine
 62
7
  6
CONTINUOUS
 10
21.1710594951
 20
1.3381243762
 11
21.1710594951
 21
1.1421243762
  0
LINE
  5
445
100
AcDbEntity
  8
0
100
AcDbLine
 62
7
  6
CONTINUOUS
 10
21.1832832964
 20
5.4904373551
 11
21.1832832964
 21
5.5004373551
  0
LINE
  5
446
100
AcDbEntity
  8
0
100
AcDbLine
 62
7
  6
CONTINUOUS
 10
21.2061999642
 20
5.4904373551
 11
21.2061999642
 21
5.5004373551
  0
LINE
  5
447
100
AcDbEntity
  8
0
100
AcDbLine
 62
7
  6
CONTINUOUS
 10
21.227741552
 20
1.3707906369
 11
21.227741552
 21
1.3709642894
  0
LINE
  5
448
100
AcDbEntity
  8
0
100
AcDbLine
 62
7
  6
CONTINUOUS
 10
21.227741552
 20
1.4007906369
 11
21.227741552
 21
1.4009642894
  0
LINE
  5
449
100
AcDbEntity
  8
02___PRT_ALL_AXES
100
AcDbLine
 62
7
  6
CONTINUOUS
 10
21.244267539
 20
1.3381243762
 11
21.244267539
 21
1.3606243762
  0
LINE
  5
44A
100
AcDbEntity
  8
02___PRT_ALL_AXES
100
AcDbLine
 62
7
  6
CONTINUOUS
 10
21.244267539
 20
1.3811305501
 11
21.244267539
 21
1.3906243762
  0
LINE
  5
44B
100
AcDbEntity
  8
02___PRT_ALL_AXES
100
AcDbLine
 62
7
  6
CONTINUOUS
 10
21.244267539
 20
1.4111305501
 11
21.244267539
 21
1.4206243762
  0
LINE
  5
44C
100
AcDbEntity
  8
0
100
AcDbLine
 62
7
  6
CONTINUOUS
 10
21.2474499576
 20
5.4904373551
 11
21.2474499576
 21
5.5004373551
  0
LINE
  5
44D
100
AcDbEntity
  8
0
100
AcDbLine
 62
7
  6
CONTINUOUS
 10
21.2703666287
 20
5.4904373551
 11
21.2703666287
 21
5.5004373551
  0
LINE
  5
44E
100
AcDbEntity
  8
0
100
AcDbLine
 62
7
  6
CONTINUOUS
 10
21.2886999576
 20
5.4904373551
 11
21.2886999576
 21
5.5004373551
  0
LINE
  5
44F
100
AcDbEntity
  8
0
100
AcDbLine
 62
7
  6
CONTINUOUS
 10
21.3070332997
 20
5.4904373551
 11
21.3070332997
 21
5.5004373551
  0
LINE
  5
450
100
AcDbEntity
  8
0
100
AcDbLine
 62
7
  6
CONTINUOUS
 10
21.3116166287
 20
5.4904373551
 11
21.3116166287
 21
5.5004373551
  0
LINE
  5
451
100
AcDbEntity
  8
0
100
AcDbLine
 62
7
  6
CONTINUOUS
 10
21.3482832997
 20
5.4904373551
 11
21.3482832997
 21
5.5004373551
  0
LINE
  5
452
100
AcDbEntity
  8
0
100
AcDbLine
 62
7
  6
CONTINUOUS
 10
21.3757832866
 20
5.4904373551
 11
21.3757832866
 21
5.5004373551
  0
LINE
  5
453
100
AcDbEntity
  8
0
100
AcDbLine
 62
7
  6
CONTINUOUS
 10
21.3941166287
 20
5.4904373551
 11
21.3941166287
 21
5.5004373551
  0
LINE
  5
454
100
AcDbEntity
  8
0
100
AcDbLine
 62
7
  6
CONTINUOUS
 10
21.4256179363
 20
1.3381243762
 11
21.4256179363
 21
1.1421243762
  0
LINE
  5
455
100
AcDbEntity
  8
0
100
AcDbLine
 62
7
  6
CONTINUOUS
 10
21.4597600719
 20
1.3381243762
 11
21.4597600719
 21
1.1421243762
  0
LINE
  5
456
100
AcDbEntity
  8
0
100
AcDbLine
 62
7
  6
CONTINUOUS
 10
21.4857832866
 20
5.4904373551
 11
21.4857832866
 21
5.5004373551
  0
LINE
  5
457
100
AcDbEntity
  8
02___PRT_ALL_AXES
100
AcDbLine
 62
7
  6
CONTINUOUS
 10
21.492267539
 20
6.8119528711
 11
21.492267539
 21
2.1597377096
  0
LINE
  5
458
100
AcDbEntity
  8
0
100
AcDbLine
 62
7
  6
CONTINUOUS
 10
21.639767539
 20
1.3586305501
 11
21.639767539
 21
1.3381243762
  0
LINE
  5
459
100
AcDbEntity
  8
0
100
AcDbLine
 62
7
  6
CONTINUOUS
 10
21.492267539
 20
5.4702007322
 11
21.0983987865
 21
5.4702007322
  0
LINE
  5
45A
100
AcDbEntity
  8
0
100
AcDbLine
 62
7
  6
CONTINUOUS
 10
21.787267539
 20
5.4702007322
 11
24.9405820119
 21
5.4702007322
  0
LINE
  5
45B
100
AcDbEntity
  8
0
100
AcDbLine
 62
7
  6
CONTINUOUS
 10
25.0128666287
 20
5.4704373551
 11
24.9899633735
 21
5.4704373551
  0
LINE
  5
45C
100
AcDbEntity
  8
06___PRT_ALL_SURFS
100
AcDbLine
 62
7
  6
CONTINUOUS
 10
25.0328666287
 20
5.4904373551
 11
21.787267539
 21
5.4904373551
  0
LINE
  5
45D
100
AcDbEntity
  8
06___PRT_ALL_SURFS
100
AcDbLine
 62
7
  6
CONTINUOUS
 10
21.492267539
 20
5.4904373551
 11
21.0328666287
 21
5.4904373551
  0
LINE
  5
45E
100
AcDbEntity
  8
0
100
AcDbLine
 62
7
  6
CONTINUOUS
 10
21.1328666287
 20
5.5004373551
 11
21.3116166287
 21
5.5004373551
  0
LINE
  5
45F
100
AcDbEntity
  8
0
100
AcDbLine
 62
7
  6
CONTINUOUS
 10
21.3482832997
 20
5.5004373551
 11
21.492267539
 21
5.5004373551
  0
LINE
  5
460
100
AcDbEntity
  8
0
100
AcDbLine
 62
7
  6
CONTINUOUS
 10
21.787267539
 20
5.5004373551
 11
21.9441166287
 21
5.5004373551
  0
LINE
  5
461
100
AcDbEntity
  8
0
100
AcDbLine
 62
7
  6
CONTINUOUS
 10
21.9807833128
 20
5.5004373551
 11
22.0082833128
 21
5.5004373551
  0
LINE
  5
462
100
AcDbEntity
  8
0
100
AcDbLine
 62
7
  6
CONTINUOUS
 10
22.044949997
 20
5.5004373551
 11
22.2282832604
 21
5.5004373551
  0
LINE
  5
463
100
AcDbEntity
  8
0
100
AcDbLine
 62
7
  6
CONTINUOUS
 10
22.264949997
 20
5.5004373551
 11
22.4482832604
 21
5.5004373551
  0
LINE
  5
464
100
AcDbEntity
  8
0
100
AcDbLine
 62
7
  6
CONTINUOUS
 10
22.484949997
 20
5.5004373551
 11
22.5078666287
 21
5.5004373551
  0
LINE
  5
465
100
AcDbEntity
  8
0
100
AcDbLine
 62
7
  6
CONTINUOUS
 10
22.7645332604
 20
5.5004373551
 11
22.9341166287
 21
5.5004373551
  0
LINE
  5
466
100
AcDbEntity
  8
0
100
AcDbLine
 62
7
  6
CONTINUOUS
 10
22.9707833653
 20
5.5004373551
 11
23.1541166287
 21
5.5004373551
  0
LINE
  5
467
100
AcDbEntity
  8
0
100
AcDbLine
 62
7
  6
CONTINUOUS
 10
23.1907833653
 20
5.5004373551
 11
23.3741166287
 21
5.5004373551
  0
LINE
  5
468
100
AcDbEntity
  8
0
100
AcDbLine
 62
7
  6
CONTINUOUS
 10
23.4107833653
 20
5.5004373551
 11
23.5849498921
 21
5.5004373551
  0
LINE
  5
469
100
AcDbEntity
  8
0
100
AcDbLine
 62
7
  6
CONTINUOUS
 10
23.6216166287
 20
5.5004373551
 11
23.7911998921
 21
5.5004373551
  0
LINE
  5
46A
100
AcDbEntity
  8
0
100
AcDbLine
 62
7
  6
CONTINUOUS
 10
24.0478666287
 20
5.5004373551
 11
24.2128666287
 21
5.5004373551
  0
LINE
  5
46B
100
AcDbEntity
  8
0
100
AcDbLine
 62
7
  6
CONTINUOUS
 10
24.2495333653
 20
5.5004373551
 11
24.4328666287
 21
5.5004373551
  0
LINE
  5
46C
100
AcDbEntity
  8
0
100
AcDbLine
 62
7
  6
CONTINUOUS
 10
24.4695333653
 20
5.5004373551
 11
24.6482833653
 21
5.5004373551
  0
LINE
  5
46D
100
AcDbEntity
  8
0
100
AcDbLine
 62
7
  6
CONTINUOUS
 10
24.6849501019
 20
5.5004373551
 11
24.8499501019
 21
5.5004373551
  0
LINE
  5
46E
100
AcDbEntity
  8
02___PRT_ALL_AXES
100
AcDbLine
 62
7
  6
CONTINUOUS
 10
21.787267539
 20
8.1421243762
 11
21.787267539
 21
2.1597377096
  0
LINE
  5
46F
100
AcDbEntity
  8
0
100
AcDbLine
 62
7
  6
CONTINUOUS
 10
21.8197600719
 20
1.3381243762
 11
21.8197600719
 21
1.1421243762
  0
LINE
  5
470
100
AcDbEntity
  8
0
100
AcDbLine
 62
7
  6
CONTINUOUS
 10
21.8432833128
 20
5.4904373551
 11
21.8432833128
 21
5.5004373551
  0
LINE
  5
471
100
AcDbEntity
  8
0
100
AcDbLine
 62
7
  6
CONTINUOUS
 10
21.8539022076
 20
1.3381243762
 11
21.8539022076
 21
1.1421243762
  0
LINE
  5
472
100
AcDbEntity
  8
0
100
AcDbLine
 62
7
  6
CONTINUOUS
 10
21.8707833128
 20
5.4904373551
 11
21.8707833128
 21
5.5004373551
  0
LINE
  5
473
100
AcDbEntity
  8
0
100
AcDbLine
 62
7
  6
CONTINUOUS
 10
21.9441166287
 20
5.4904373551
 11
21.9441166287
 21
5.5004373551
  0
LINE
  5
474
100
AcDbEntity
  8
0
100
AcDbLine
 62
7
  6
CONTINUOUS
 10
21.9807833128
 20
5.4904373551
 11
21.9807833128
 21
5.5004373551
  0
LINE
  5
475
100
AcDbEntity
  8
0
100
AcDbLine
 62
7
  6
CONTINUOUS
 10
22.0082833128
 20
5.4904373551
 11
22.0082833128
 21
5.5004373551
  0
LINE
  5
476
100
AcDbEntity
  8
02___PRT_ALL_AXES
100
AcDbLine
 62
7
  6
CONTINUOUS
 10
22.035267539
 20
1.3381243762
 11
22.035267539
 21
1.345534022
  0
LINE
  5
477
100
AcDbEntity
  8
02___PRT_ALL_AXES
100
AcDbLine
 62
7
  6
CONTINUOUS
 10
22.035267539
 20
1.3659547446
 11
22.035267539
 21
1.375534022
  0
LINE
  5
478
100
AcDbEntity
  8
02___PRT_ALL_AXES
100
AcDbLine
 62
7
  6
CONTINUOUS
 10
22.035267539
 20
1.3959126582
 11
22.035267539
 21
1.405534022
  0
LINE
  5
479
100
AcDbEntity
  8
02___PRT_ALL_AXES
100
AcDbLine
 62
7
  6
CONTINUOUS
 10
22.035267539
 20
1.4262209043
 11
22.035267539
 21
1.4271243762
  0
LINE
  5
47A
100
AcDbEntity
  8
0
100
AcDbLine
 62
7
  6
CONTINUOUS
 10
22.044949997
 20
5.4904373551
 11
22.044949997
 21
5.5004373551
  0
LINE
  5
47B
100
AcDbEntity
  8
0
100
AcDbLine
 62
7
  6
CONTINUOUS
 10
22.0495332604
 20
5.4904373551
 11
22.0495332604
 21
5.5004373551
  0
LINE
  5
47C
100
AcDbEntity
  8
0
100
AcDbLine
 62
7
  6
CONTINUOUS
 10
22.0517935261
 20
1.3557906369
 11
22.0517935261
 21
1.3559642894
  0
LINE
  5
47D
100
AcDbEntity
  8
0
100
AcDbLine
 62
7
  6
CONTINUOUS
 10
22.0517935261
 20
1.4157906369
 11
22.0517935261
 21
1.4159642894
  0
LINE
  5
47E
100
AcDbEntity
  8
0
100
AcDbLine
 62
7
  6
CONTINUOUS
 10
22.058699997
 20
5.4904373551
 11
22.058699997
 21
5.5004373551
  0
LINE
  5
47F
100
AcDbEntity
  8
0
100
AcDbLine
 62
7
  6
CONTINUOUS
 10
22.0770332604
 20
5.4904373551
 11
22.0770332604
 21
5.5004373551
  0
LINE
  5
480
100
AcDbEntity
  8
0
100
AcDbLine
 62
7
  6
CONTINUOUS
 10
22.0953666287
 20
5.4904373551
 11
22.0953666287
 21
5.5004373551
  0
LINE
  5
481
100
AcDbEntity
  8
0
100
AcDbLine
 62
7
  6
CONTINUOUS
 10
22.1084606488
 20
1.3381243762
 11
22.1084606488
 21
1.1421243762
  0
LINE
  5
482
100
AcDbEntity
  8
0
100
AcDbLine
 62
7
  6
CONTINUOUS
 10
22.1182832604
 20
5.4904373551
 11
22.1182832604
 21
5.5004373551
  0
LINE
  5
483
100
AcDbEntity
  8
0
100
AcDbLine
 62
7
  6
CONTINUOUS
 10
22.1226027844
 20
1.3381243762
 11
22.1226027844
 21
1.1421243762
  0
LINE
  5
484
100
AcDbEntity
  8
0
100
AcDbLine
 62
7
  6
CONTINUOUS
 10
22.1226102515
 20
1.4271243762
 11
22.1226102515
 21
2.0899337556
  0
LINE
  5
485
100
AcDbEntity
  8
0
100
AcDbLine
 62
7
  6
CONTINUOUS
 10
22.154949997
 20
5.4904373551
 11
22.154949997
 21
5.5004373551
  0
LINE
  5
486
100
AcDbEntity
  8
0
100
AcDbLine
 62
7
  6
CONTINUOUS
 10
22.169767539
 20
1.1421243762
 11
22.169767539
 21
1.0697046692
  0
LINE
  5
487
100
AcDbEntity
  8
0
100
AcDbLine
 62
7
  6
CONTINUOUS
 10
22.1778666287
 20
5.4904373551
 11
22.1778666287
 21
5.5004373551
  0
LINE
  5
488
100
AcDbEntity
  8
0
100
AcDbLine
 62
7
  6
CONTINUOUS
 10
22.196199997
 20
5.4904373551
 11
22.196199997
 21
5.5004373551
  0
LINE
  5
489
100
AcDbEntity
  8
0
100
AcDbLine
 62
7
  6
CONTINUOUS
 10
22.2145332604
 20
5.4904373551
 11
22.2145332604
 21
5.5004373551
  0
LINE
  5
48A
100
AcDbEntity
  8
0
100
AcDbLine
 62
7
  6
CONTINUOUS
 10
22.223699997
 20
5.4904373551
 11
22.223699997
 21
5.5004373551
  0
LINE
  5
48B
100
AcDbEntity
  8
0
100
AcDbLine
 62
7
  6
CONTINUOUS
 10
22.2282832604
 20
5.4904373551
 11
22.2282832604
 21
5.5004373551
  0
LINE
  5
48C
100
AcDbEntity
  8
0
100
AcDbLine
 62
7
  6
CONTINUOUS
 10
22.264949997
 20
5.4904373551
 11
22.264949997
 21
5.5004373551
  0
LINE
  5
48D
100
AcDbEntity
  8
0
100
AcDbLine
 62
7
  6
CONTINUOUS
 10
22.292449997
 20
5.4904373551
 11
22.292449997
 21
5.5004373551
  0
LINE
  5
48E
100
AcDbEntity
  8
0
100
AcDbLine
 62
7
  6
CONTINUOUS
 10
22.4070332604
 20
5.4904373551
 11
22.4070332604
 21
5.5004373551
  0
LINE
  5
48F
100
AcDbEntity
  8
0
100
AcDbLine
 62
7
  6
CONTINUOUS
 10
22.4482832604
 20
5.4904373551
 11
22.4482832604
 21
5.5004373551
  0
LINE
  5
490
100
AcDbEntity
  8
0
100
AcDbLine
 62
7
  6
CONTINUOUS
 10
22.484949997
 20
5.4904373551
 11
22.484949997
 21
5.5004373551
  0
LINE
  5
491
100
AcDbEntity
  8
0
100
AcDbLine
 62
7
  6
CONTINUOUS
 10
22.5078666287
 20
5.4904373551
 11
22.5078666287
 21
5.5004373551
  0
LINE
  5
492
100
AcDbEntity
  8
0
100
AcDbLine
 62
7
  6
CONTINUOUS
 10
21.0057175698
 20
4.3567188882
 11
18.4657011156
 21
1.9038535105
  0
LINE
  5
493
100
AcDbEntity
  8
0
100
AcDbLine
 62
7
  6
CONTINUOUS
 10
22.7645332604
 20
5.4904373551
 11
22.7645332604
 21
5.5004373551
  0
LINE
  5
494
100
AcDbEntity
  8
0
100
AcDbLine
 62
7
  6
CONTINUOUS
 10
22.7691166287
 20
5.4904373551
 11
22.7691166287
 21
5.5004373551
  0
LINE
  5
495
100
AcDbEntity
  8
0
100
AcDbLine
 62
7
  6
CONTINUOUS
 10
22.7828666287
 20
5.4904373551
 11
22.7828666287
 21
5.5004373551
  0
LINE
  5
496
100
AcDbEntity
  8
0
100
AcDbLine
 62
7
  6
CONTINUOUS
 10
22.8057832604
 20
5.4904373551
 11
22.8057832604
 21
5.5004373551
  0
LINE
  5
497
100
AcDbEntity
  8
0
100
AcDbLine
 62
7
  6
CONTINUOUS
 10
22.828699997
 20
5.4904373551
 11
22.828699997
 21
5.5004373551
  0
LINE
  5
498
100
AcDbEntity
  8
0
100
AcDbLine
 62
7
  6
CONTINUOUS
 10
22.8653666287
 20
5.4904373551
 11
22.8653666287
 21
5.5004373551
  0
LINE
  5
499
100
AcDbEntity
  8
0
100
AcDbLine
 62
7
  6
CONTINUOUS
 10
22.8882832604
 20
5.4904373551
 11
22.8882832604
 21
5.5004373551
  0
LINE
  5
49A
100
AcDbEntity
  8
0
100
AcDbLine
 62
7
  6
CONTINUOUS
 10
22.9066166287
 20
5.4904373551
 11
22.9066166287
 21
5.5004373551
  0
LINE
  5
49B
100
AcDbEntity
  8
0
100
AcDbLine
 62
7
  6
CONTINUOUS
 10
22.9249498921
 20
5.4904373551
 11
22.9249498921
 21
5.5004373551
  0
LINE
  5
49C
100
AcDbEntity
  8
0
100
AcDbLine
 62
7
  6
CONTINUOUS
 10
22.9341166287
 20
5.4904373551
 11
22.9341166287
 21
5.5004373551
  0
LINE
  5
49D
100
AcDbEntity
  8
0
100
AcDbLine
 62
7
  6
CONTINUOUS
 10
22.9707833653
 20
5.4904373551
 11
22.9707833653
 21
5.5004373551
  0
LINE
  5
49E
100
AcDbEntity
  8
0
100
AcDbLine
 62
7
  6
CONTINUOUS
 10
22.9982833653
 20
5.4904373551
 11
22.9982833653
 21
5.5004373551
  0
LINE
  5
49F
100
AcDbEntity
  8
0
100
AcDbLine
 62
7
  6
CONTINUOUS
 10
23.1266166287
 20
5.4904373551
 11
23.1266166287
 21
5.5004373551
  0
LINE
  5
4A0
100
AcDbEntity
  8
0
100
AcDbLine
 62
7
  6
CONTINUOUS
 10
23.1541166287
 20
5.4904373551
 11
23.1541166287
 21
5.5004373551
  0
LINE
  5
4A1
100
AcDbEntity
  8
0
100
AcDbLine
 62
7
  6
CONTINUOUS
 10
23.1907833653
 20
5.4904373551
 11
23.1907833653
 21
5.5004373551
  0
LINE
  5
4A2
100
AcDbEntity
  8
0
100
AcDbLine
 62
7
  6
CONTINUOUS
 10
23.2182833653
 20
5.4904373551
 11
23.2182833653
 21
5.5004373551
  0
LINE
  5
4A3
100
AcDbEntity
  8
0
100
AcDbLine
 62
7
  6
CONTINUOUS
 10
23.2366166287
 20
5.4904373551
 11
23.2366166287
 21
5.5004373551
  0
LINE
  5
4A4
100
AcDbEntity
  8
0
100
AcDbLine
 62
7
  6
CONTINUOUS
 10
25.0332632286
 20
4.3567188882
 11
27.5732796828
 21
1.9038535105
  0
LINE
  5
4A5
100
AcDbEntity
  8
0
100
AcDbLine
 62
7
  6
CONTINUOUS
 10
17.8406349348
 20
14.0301661628
 11
18.4201046833
 21
13.1605456648
  0
LINE
  5
4A6
100
AcDbEntity
  8
02___PRT_ALL_AXES
100
AcDbLine
 62
7
  6
CONTINUOUS
 10
18.6614944064
 20
12.963296453
 11
18.5764288927
 21
13.0909557734
  0
LINE
  5
4A7
100
AcDbEntity
  8
0
100
AcDbLine
 62
7
  6
CONTINUOUS
 10
17.9622089665
 20
14.1111767574
 11
17.6428074592
 21
14.5905082472
  0
LINE
  5
4A8
100
AcDbEntity
  8
0
100
AcDbLine
 62
7
  6
CONTINUOUS
 10
23.3282833653
 20
5.4904373551
 11
23.3282833653
 21
5.5004373551
  0
LINE
  5
4A9
100
AcDbEntity
  8
0
100
AcDbLine
 62
7
  6
CONTINUOUS
 10
23.3466166287
 20
5.4904373551
 11
23.3466166287
 21
5.5004373551
  0
LINE
  5
4AA
100
AcDbEntity
  8
0
100
AcDbLine
 62
7
  6
CONTINUOUS
 10
23.3741166287
 20
5.4904373551
 11
23.3741166287
 21
5.5004373551
  0
LINE
  5
4AB
100
AcDbEntity
  8
0
100
AcDbLine
 62
7
  6
CONTINUOUS
 10
23.4107833653
 20
5.4904373551
 11
23.4107833653
 21
5.5004373551
  0
LINE
  5
4AC
100
AcDbEntity
  8
0
100
AcDbLine
 62
7
  6
CONTINUOUS
 10
23.4382833653
 20
5.4904373551
 11
23.4382833653
 21
5.5004373551
  0
LINE
  5
4AD
100
AcDbEntity
  8
0
100
AcDbLine
 62
7
  6
CONTINUOUS
 10
23.5161998921
 20
5.4904373551
 11
23.5161998921
 21
5.5004373551
  0
LINE
  5
4AE
100
AcDbEntity
  8
0
100
AcDbLine
 62
7
  6
CONTINUOUS
 10
23.5528666287
 20
5.4904373551
 11
23.5528666287
 21
5.5004373551
  0
LINE
  5
4AF
100
AcDbEntity
  8
0
100
AcDbLine
 62
7
  6
CONTINUOUS
 10
23.5849498921
 20
5.4904373551
 11
23.5849498921
 21
5.5004373551
  0
LINE
  5
4B0
100
AcDbEntity
  8
0
100
AcDbLine
 62
7
  6
CONTINUOUS
 10
23.6216166287
 20
5.4904373551
 11
23.6216166287
 21
5.5004373551
  0
LINE
  5
4B1
100
AcDbEntity
  8
0
100
AcDbLine
 62
7
  6
CONTINUOUS
 10
23.6491166287
 20
5.4904373551
 11
23.6491166287
 21
5.5004373551
  0
LINE
  5
4B2
100
AcDbEntity
  8
0
100
AcDbLine
 62
7
  6
CONTINUOUS
 10
23.7316166287
 20
5.4904373551
 11
23.7316166287
 21
5.5004373551
  0
LINE
  5
4B3
100
AcDbEntity
  8
0
100
AcDbLine
 62
7
  6
CONTINUOUS
 10
23.7545333653
 20
5.4904373551
 11
23.7545333653
 21
5.5004373551
  0
LINE
  5
4B4
100
AcDbEntity
  8
0
100
AcDbLine
 62
7
  6
CONTINUOUS
 10
23.7728666287
 20
5.4904373551
 11
23.7728666287
 21
5.5004373551
  0
LINE
  5
4B5
100
AcDbEntity
  8
0
100
AcDbLine
 62
7
  6
CONTINUOUS
 10
23.7866166287
 20
5.4904373551
 11
23.7866166287
 21
5.5004373551
  0
LINE
  5
4B6
100
AcDbEntity
  8
0
100
AcDbLine
 62
7
  6
CONTINUOUS
 10
23.7911998921
 20
5.4904373551
 11
23.7911998921
 21
5.5004373551
  0
LINE
  5
4B7
100
AcDbEntity
  8
02___PRT_ALL_AXES
100
AcDbLine
 62
7
  6
CONTINUOUS
 10
21.0135402382
 20
9.7238827089
 11
18.7954742152
 21
13.0525736104
  0
LINE
  5
4B8
100
AcDbEntity
  8
0
100
AcDbLine
 62
7
  6
CONTINUOUS
 10
18.1644269388
 20
14.2459242683
 11
17.8450254314
 21
14.7252557581
  0
LINE
  5
4B9
100
AcDbEntity
  8
02___PRT_ALL_AXES
100
AcDbLine
 62
7
  6
CONTINUOUS
 10
21.2590311921
 20
9.8874650781
 11
19.0409651691
 21
13.2161559796
  0
LINE
  5
4BA
100
AcDbEntity
  8
02___PRT_ALL_AXES
100
AcDbLine
 62
7
  6
CONTINUOUS
 10
18.3633162201
 20
14.3784537132
 11
18.0439147128
 21
14.857785203
  0
LINE
  5
4BB
100
AcDbEntity
  8
02___PRT_ALL_AXES
100
AcDbLine
 62
7
  6
CONTINUOUS
 10
19.1749449779
 20
13.305433137
 11
19.0984217001
 21
13.4202729731
  0
LINE
  5
4BC
100
AcDbEntity
  8
02___PRT_ALL_AXES
100
AcDbLine
 62
7
  6
CONTINUOUS
 10
18.5131073107
 20
14.4782666842
 11
18.1937058034
 21
14.957598174
  0
LINE
  5
4BD
100
AcDbEntity
  8
0
100
AcDbLine
 62
7
  6
CONTINUOUS
 10
18.6020729785
 20
14.5375487656
 11
19.181542727
 21
13.6679282676
  0
LINE
  5
4BE
100
AcDbEntity
  8
0
100
AcDbLine
 62
7
  6
CONTINUOUS
 10
24.0478666287
 20
5.4904373551
 11
24.0478666287
 21
5.5004373551
  0
LINE
  5
4BF
100
AcDbEntity
  8
0
100
AcDbLine
 62
7
  6
CONTINUOUS
 10
24.1644903992
 20
1.2488385275
 11
24.1644903992
 21
1.8902007322
  0
LINE
  5
4C0
100
AcDbEntity
  8
0
100
AcDbLine
 62
7
  6
CONTINUOUS
 10
24.2128666287
 20
5.4904373551
 11
24.2128666287
 21
5.5004373551
  0
LINE
  5
4C1
100
AcDbEntity
  8
0
100
AcDbLine
 62
7
  6
CONTINUOUS
 10
24.2495333653
 20
5.4904373551
 11
24.2495333653
 21
5.5004373551
  0
LINE
  5
4C2
100
AcDbEntity
  8
0
100
AcDbLine
 62
7
  6
CONTINUOUS
 10
24.3595333653
 20
5.4904373551
 11
24.3595333653
 21
5.5004373551
  0
LINE
  5
4C3
100
AcDbEntity
  8
0
100
AcDbLine
 62
7
  6
CONTINUOUS
 10
24.3824498921
 20
5.4904373551
 11
24.3824498921
 21
5.5004373551
  0
LINE
  5
4C4
100
AcDbEntity
  8
0
100
AcDbLine
 62
7
  6
CONTINUOUS
 10
24.4007833653
 20
5.4904373551
 11
24.4007833653
 21
5.5004373551
  0
LINE
  5
4C5
100
AcDbEntity
  8
0
100
AcDbLine
 62
7
  6
CONTINUOUS
 10
24.4191166287
 20
5.4904373551
 11
24.4191166287
 21
5.5004373551
  0
LINE
  5
4C6
100
AcDbEntity
  8
0
100
AcDbLine
 62
7
  6
CONTINUOUS
 10
24.4282833653
 20
5.4904373551
 11
24.4282833653
 21
5.5004373551
  0
LINE
  5
4C7
100
AcDbEntity
  8
0
100
AcDbLine
 62
7
  6
CONTINUOUS
 10
24.4328666287
 20
5.4904373551
 11
24.4328666287
 21
5.5004373551
  0
LINE
  5
4C8
100
AcDbEntity
  8
0
100
AcDbLine
 62
7
  6
CONTINUOUS
 10
24.4695333653
 20
5.4904373551
 11
24.4695333653
 21
5.5004373551
  0
LINE
  5
4C9
100
AcDbEntity
  8
0
100
AcDbLine
 62
7
  6
CONTINUOUS
 10
24.4741166287
 20
5.4904373551
 11
24.4741166287
 21
5.5004373551
  0
LINE
  5
4CA
100
AcDbEntity
  8
0
100
AcDbLine
 62
7
  6
CONTINUOUS
 10
24.4832833653
 20
5.4904373551
 11
24.4832833653
 21
5.5004373551
  0
LINE
  5
4CB
100
AcDbEntity
  8
0
100
AcDbLine
 62
7
  6
CONTINUOUS
 10
24.5016166287
 20
5.4904373551
 11
24.5016166287
 21
5.5004373551
  0
LINE
  5
4CC
100
AcDbEntity
  8
0
100
AcDbLine
 62
7
  6
CONTINUOUS
 10
24.5199498921
 20
5.4904373551
 11
24.5199498921
 21
5.5004373551
  0
LINE
  5
4CD
100
AcDbEntity
  8
0
100
AcDbLine
 62
7
  6
CONTINUOUS
 10
24.5428666287
 20
5.4904373551
 11
24.5428666287
 21
5.5004373551
  0
LINE
  5
4CE
100
AcDbEntity
  8
0
100
AcDbLine
 62
7
  6
CONTINUOUS
 10
24.5841166287
 20
5.4904373551
 11
24.5841166287
 21
5.5004373551
  0
LINE
  5
4CF
100
AcDbEntity
  8
0
100
AcDbLine
 62
7
  6
CONTINUOUS
 10
24.6070333653
 20
5.4904373551
 11
24.6070333653
 21
5.5004373551
  0
LINE
  5
4D0
100
AcDbEntity
  8
0
100
AcDbLine
 62
7
  6
CONTINUOUS
 10
24.6253666287
 20
5.4904373551
 11
24.6253666287
 21
5.5004373551
  0
LINE
  5
4D1
100
AcDbEntity
  8
0
100
AcDbLine
 62
7
  6
CONTINUOUS
 10
24.6436998921
 20
5.4904373551
 11
24.6436998921
 21
5.5004373551
  0
LINE
  5
4D2
100
AcDbEntity
  8
0
100
AcDbLine
 62
7
  6
CONTINUOUS
 10
24.6482833653
 20
5.4904373551
 11
24.6482833653
 21
5.5004373551
  0
LINE
  5
4D3
100
AcDbEntity
  8
0
100
AcDbLine
 62
7
  6
CONTINUOUS
 10
24.6849501019
 20
5.4904373551
 11
24.6849501019
 21
5.5004373551
  0
LINE
  5
4D4
100
AcDbEntity
  8
0
100
AcDbLine
 62
7
  6
CONTINUOUS
 10
24.8499501019
 20
5.4904373551
 11
24.8499501019
 21
5.5004373551
  0
LINE
  5
4D5
100
AcDbEntity
  8
0
100
AcDbLine
 62
7
  6
CONTINUOUS
 10
24.9899864622
 20
5.4702007322
 11
24.9899864622
 21
4.4586725607
  0
LINE
  5
4D6
100
AcDbEntity
  8
0
100
AcDbLine
 62
7
  6
CONTINUOUS
 10
25.0128666287
 20
4.4904373551
 11
25.0128666287
 21
5.4704373551
  0
LINE
  5
4D7
100
AcDbEntity
  8
0
100
AcDbLine
 62
7
  6
CONTINUOUS
 10
25.0194903992
 20
-3.4302953308
 11
25.0194903992
 21
1.0697046692
  0
LINE
  5
4D8
100
AcDbEntity
  8
06___PRT_ALL_SURFS
100
AcDbLine
 62
7
  6
CONTINUOUS
 10
25.0243808607
 20
-2.9194392142
 11
25.0243808607
 21
-1.9194392142
  0
LINE
  5
4D9
100
AcDbEntity
  8
06___PRT_ALL_SURFS
100
AcDbLine
 62
7
  6
CONTINUOUS
 10
25.0328666287
 20
4.4904373551
 11
25.0328666287
 21
5.4904373551
  0
LINE
  5
4DA
100
AcDbEntity
  8
0
100
AcDbLine
 62
7
  6
CONTINUOUS
 10
21.2438384423
 20
1.4112209043
 11
21.227741552
 21
1.4009642894
  0
LINE
  5
4DB
100
AcDbEntity
  8
0
100
AcDbLine
 62
7
  6
CONTINUOUS
 10
21.2438384423
 20
1.3812209043
 11
21.227741552
 21
1.3709642894
  0
LINE
  5
4DC
100
AcDbEntity
  8
0
100
AcDbLine
 62
7
  6
CONTINUOUS
 10
22.0356966358
 20
1.405534022
 11
22.0517935261
 21
1.4157906369
  0
LINE
  5
4DD
100
AcDbEntity
  8
0
100
AcDbLine
 62
7
  6
CONTINUOUS
 10
22.0356966358
 20
1.375534022
 11
22.0517935261
 21
1.3857906369
  0
LINE
  5
4DE
100
AcDbEntity
  8
0
100
AcDbLine
 62
7
  6
CONTINUOUS
 10
22.0356966358
 20
1.345534022
 11
22.0517935261
 21
1.3557906369
  0
LINE
  5
4DF
100
AcDbEntity
  8
0
100
AcDbLine
 62
7
  6
CONTINUOUS
 10
27.6066708601
 20
1.8322458997
 11
27.6474666777
 21
1.2488385275
  0
LINE
  5
4E0
100
AcDbEntity
  8
0
100
AcDbLine
 62
7
  6
CONTINUOUS
 10
27.6120100842
 20
0.2251771343
 11
27.6120100842
 21
-3.4302953308
  0
LINE
  5
4E1
100
AcDbEntity
  8
0
100
AcDbLine
 62
7
  6
CONTINUOUS
 10
27.8620100842
 20
1.2488385275
 11
27.8620100842
 21
1.1208857716
  0
LINE
  5
4E2
100
AcDbEntity
  8
0
100
AcDbLine
 62
7
  6
CONTINUOUS
 10
27.8620100842
 20
0.5697046692
 11
27.8620100842
 21
-3.4302953308
  0
LINE
  5
4E3
100
AcDbEntity
  8
0
100
AcDbLine
 62
7
  6
CONTINUOUS
 10
27.6656871384
 20
0.9927947714
 11
27.5302003343
 21
-0.9447567958
  0
LINE
  5
4E4
100
AcDbEntity
  8
0
100
AcDbLine
 62
7
  6
CONTINUOUS
 10
18.4988578367
 20
13.1258395141
 11
18.4986945642
 21
13.1258121828
  0
LINE
  5
4E5
100
AcDbEntity
  8
0
100
AcDbLine
 62
7
  6
CONTINUOUS
 10
26.247897471
 20
-1.3889518937
 11
25.7477762408
 21
-1.7393553034
  0
LINE
  5
4E6
100
AcDbEntity
  8
0
100
AcDbLine
 62
7
  6
CONTINUOUS
 10
-2.2841650504
 20
-20.437225856
 11
-2.2841650504
 21
-20.687225856
  0
LINE
  5
4E7
100
AcDbEntity
  8
0
100
AcDbLine
 62
7
  6
CONTINUOUS
 10
-0.9041650504
 20
-20.687225856
 11
-2.2841650504
 21
-20.687225856
  0
LINE
  5
4E8
100
AcDbEntity
  8
0
100
AcDbLine
 62
7
  6
CONTINUOUS
 10
-0.9041650504
 20
-20.437225856
 11
-0.9041650504
 21
-20.687225856
  0
LINE
  5
4E9
100
AcDbEntity
  8
0
100
AcDbLine
 62
7
  6
CONTINUOUS
 10
-0.9041650504
 20
-20.437225856
 11
-2.2841650504
 21
-20.437225856
  0
LINE
  5
4EA
100
AcDbEntity
  8
0
100
AcDbLine
 62
7
  6
CONTINUOUS
 10
5.2147785859
 20
-17.7175133002
 11
5.1960551838
 21
-17.7220966325
  0
LINE
  5
4EB
100
AcDbEntity
  8
0
100
AcDbLine
 62
7
  6
CONTINUOUS
 10
5.1960551838
 20
-17.7495966325
 11
5.2194594364
 21
-17.745013299
  0
LINE
  5
4EC
100
AcDbEntity
  8
0
100
AcDbLine
 62
7
  6
CONTINUOUS
 10
5.1071190177
 20
-17.5708466325
 11
5.083714752
 21
-17.5754299614
  0
LINE
  5
4ED
100
AcDbEntity
  8
06___PRT_ALL_SURFS
100
AcDbLine
 62
7
  6
CONTINUOUS
 10
4.6109487985
 20
-17.8495966325
 11
5.6109487985
 21
-17.8495966325
  0
LINE
  5
4EE
100
AcDbEntity
  8
0
100
AcDbLine
 62
7
  6
CONTINUOUS
 10
9.7140334236
 20
-17.844706171
 11
11.7140334236
 21
-17.844706171
  0
LINE
  5
4EF
100
AcDbEntity
  8
0
100
AcDbLine
 62
7
  6
CONTINUOUS
 10
5.1258424197
 20
-17.7495966325
 11
5.1960551838
 21
-17.7495966325
  0
LINE
  5
4F0
100
AcDbEntity
  8
0
100
AcDbLine
 62
7
  6
CONTINUOUS
 10
5.1960551838
 20
-17.7220966325
 11
5.1258424197
 21
-17.7220966325
  0
LINE
  5
4F1
100
AcDbEntity
  8
0
100
AcDbLine
 62
7
  6
CONTINUOUS
 10
5.1024381541
 20
-17.745013299
 11
5.1258424197
 21
-17.7495966325
  0
LINE
  5
4F2
100
AcDbEntity
  8
0
100
AcDbLine
 62
7
  6
CONTINUOUS
 10
5.2147785859
 20
-17.2820966325
 11
5.1960551838
 21
-17.2866799483
  0
LINE
  5
4F3
100
AcDbEntity
  8
0
100
AcDbLine
 62
7
  6
CONTINUOUS
 10
5.1960551838
 20
-17.3141799746
 11
5.2194594364
 21
-17.3095966325
  0
LINE
  5
4F4
100
AcDbEntity
  8
0
100
AcDbLine
 62
7
  6
CONTINUOUS
 10
5.0509487985
 20
-17.3141799746
 11
5.1960551838
 21
-17.3141799746
  0
LINE
  5
4F5
100
AcDbEntity
  8
0
100
AcDbLine
 62
7
  6
CONTINUOUS
 10
5.1960551838
 20
-17.2866799483
 11
5.0509487985
 21
-17.2866799483
  0
LINE
  5
4F6
100
AcDbEntity
  8
0
100
AcDbLine
 62
7
  6
CONTINUOUS
 10
5.0509487985
 20
-17.1766799483
 11
5.1960551838
 21
-17.1766799483
  0
LINE
  5
4F7
100
AcDbEntity
  8
0
100
AcDbLine
 62
7
  6
CONTINUOUS
 10
5.1960551838
 20
-17.1491799483
 11
5.0509487985
 21
-17.1491799483
  0
LINE
  5
4F8
100
AcDbEntity
  8
0
100
AcDbLine
 62
7
  6
CONTINUOUS
 10
5.0509487985
 20
-17.1125133166
 11
5.074353051
 21
-17.1125133166
  0
LINE
  5
4F9
100
AcDbEntity
  8
0
100
AcDbLine
 62
7
  6
CONTINUOUS
 10
5.074353051
 20
-17.0391799483
 11
5.2709487985
 21
-17.0391799483
  0
LINE
  5
4FA
100
AcDbEntity
  8
0
100
AcDbLine
 62
7
  6
CONTINUOUS
 10
5.2709487985
 20
-17.0116799483
 11
5.074353051
 21
-17.0116799483
  0
LINE
  5
4FB
100
AcDbEntity
  8
0
100
AcDbLine
 62
7
  6
CONTINUOUS
 10
5.074353051
 20
-16.9383466325
 11
5.0509487985
 21
-16.9383466325
  0
LINE
  5
4FC
100
AcDbEntity
  8
0
100
AcDbLine
 62
7
  6
CONTINUOUS
 10
5.2381828417
 20
-17.5754299614
 11
5.2147785859
 21
-17.5708466325
  0
LINE
  5
4FD
100
AcDbEntity
  8
0
100
AcDbLine
 62
7
  6
CONTINUOUS
 10
5.2194594364
 20
-17.1537633166
 11
5.1960551838
 21
-17.1491799483
  0
LINE
  5
4FE
100
AcDbEntity
  8
0
100
AcDbLine
 62
7
  6
CONTINUOUS
 10
5.1258424197
 20
-17.7220966325
 11
5.1071190177
 21
-17.7175133002
  0
LINE
  5
4FF
100
AcDbEntity
  8
0
100
AcDbLine
 62
7
  6
CONTINUOUS
 10
5.1960551838
 20
-17.1766799483
 11
5.2147785859
 21
-17.1812633166
  0
LINE
  5
500
100
AcDbEntity
  8
0
100
AcDbLine
 62
7
  6
CONTINUOUS
 10
5.2147785859
 20
-17.5983466325
 11
5.2288211374
 21
-17.6029299614
  0
LINE
  5
501
100
AcDbEntity
  8
0
100
AcDbLine
 62
7
  6
CONTINUOUS
 10
5.1960551838
 20
-17.4837632904
 11
5.0696722005
 21
-17.4425132904
  0
LINE
  5
502
100
AcDbEntity
  8
0
100
AcDbLine
 62
7
  6
CONTINUOUS
 10
5.2709487985
 20
-17.5066799746
 11
5.2147785859
 21
-17.4883466325
  0
LINE
  5
503
100
AcDbEntity
  8
0
100
AcDbLine
 62
7
  6
CONTINUOUS
 10
5.0509487985
 20
-17.4608466325
 11
5.2709487985
 21
-17.5341799614
  0
LINE
  5
504
100
AcDbEntity
  8
0
100
AcDbLine
 62
7
  6
CONTINUOUS
 10
5.083714752
 20
-17.7358466325
 11
5.1024381541
 21
-17.745013299
  0
LINE
  5
505
100
AcDbEntity
  8
0
100
AcDbLine
 62
7
  6
CONTINUOUS
 10
5.1071190177
 20
-17.7175133002
 11
5.093076453
 21
-17.7083466325
  0
LINE
  5
506
100
AcDbEntity
  8
0
100
AcDbLine
 62
7
  6
CONTINUOUS
 10
5.2147785859
 20
-16.8054300008
 11
5.1960551838
 21
-16.8100132642
  0
LINE
  5
507
100
AcDbEntity
  8
0
100
AcDbLine
 62
7
  6
CONTINUOUS
 10
5.1071190177
 20
-16.6862632642
 11
5.1258424197
 21
-16.6816800008
  0
LINE
  5
508
100
AcDbEntity
  8
0
100
AcDbLine
 62
7
  6
CONTINUOUS
 10
5.1960551838
 20
-16.8375132642
 11
5.2194594364
 21
-16.8329300008
  0
LINE
  5
509
100
AcDbEntity
  8
0
100
AcDbLine
 62
7
  6
CONTINUOUS
 10
5.1258424197
 20
-16.6541800008
 11
5.1024381541
 21
-16.6587632642
  0
LINE
  5
50A
100
AcDbEntity
  8
0
100
AcDbLine
 62
7
  6
CONTINUOUS
 10
5.0509487985
 20
-16.9016799483
 11
5.2709487985
 21
-16.9016799483
  0
LINE
  5
50B
100
AcDbEntity
  8
0
100
AcDbLine
 62
7
  6
CONTINUOUS
 10
5.2709487985
 20
-16.8741799483
 11
5.0509487985
 21
-16.8741799483
  0
LINE
  5
50C
100
AcDbEntity
  8
0
100
AcDbLine
 62
7
  6
CONTINUOUS
 10
5.1258424197
 20
-16.8375132642
 11
5.1960551838
 21
-16.8375132642
  0
LINE
  5
50D
100
AcDbEntity
  8
0
100
AcDbLine
 62
7
  6
CONTINUOUS
 10
5.1960551838
 20
-16.8100132642
 11
5.1258424197
 21
-16.8100132642
  0
LINE
  5
50E
100
AcDbEntity
  8
0
100
AcDbLine
 62
7
  6
CONTINUOUS
 10
5.1258424197
 20
-16.6816800008
 11
5.1960551838
 21
-16.6816800008
  0
LINE
  5
50F
100
AcDbEntity
  8
0
100
AcDbLine
 62
7
  6
CONTINUOUS
 10
5.1960551838
 20
-16.6541800008
 11
5.1258424197
 21
-16.6541800008
  0
LINE
  5
510
100
AcDbEntity
  8
0
100
AcDbLine
 62
7
  6
CONTINUOUS
 10
5.0509487985
 20
-16.6175132642
 11
5.2709487985
 21
-16.6175132642
  0
LINE
  5
511
100
AcDbEntity
  8
0
100
AcDbLine
 62
7
  6
CONTINUOUS
 10
5.2709487985
 20
-16.5900132642
 11
5.0790339015
 21
-16.5900132642
  0
LINE
  5
512
100
AcDbEntity
  8
0
100
AcDbLine
 62
7
  6
CONTINUOUS
 10
5.0509487985
 20
-16.4616800008
 11
5.2381828417
 21
-16.4616800008
  0
LINE
  5
513
100
AcDbEntity
  8
0
100
AcDbLine
 62
7
  6
CONTINUOUS
 10
5.2709487985
 20
-16.4341800008
 11
5.0509487985
 21
-16.4341800008
  0
LINE
  5
514
100
AcDbEntity
  8
0
100
AcDbLine
 62
7
  6
CONTINUOUS
 10
5.1352041207
 20
-16.3975132642
 11
5.1586083732
 21
-16.3975132642
  0
LINE
  5
515
100
AcDbEntity
  8
0
100
AcDbLine
 62
7
  6
CONTINUOUS
 10
5.2475445427
 20
-16.3975132642
 11
5.2709487985
 21
-16.3975132642
  0
LINE
  5
516
100
AcDbEntity
  8
0
100
AcDbLine
 62
7
  6
CONTINUOUS
 10
5.2709487985
 20
-16.3745966325
 11
5.2475445427
 21
-16.3745966325
  0
LINE
  5
517
100
AcDbEntity
  8
0
100
AcDbLine
 62
7
  6
CONTINUOUS
 10
5.1586083732
 20
-16.3745966325
 11
5.1352041207
 21
-16.3745966325
  0
LINE
  5
518
100
AcDbEntity
  8
0
100
AcDbLine
 62
7
  6
CONTINUOUS
 10
5.1024381541
 20
-16.8329300008
 11
5.1258424197
 21
-16.8375132642
  0
LINE
  5
519
100
AcDbEntity
  8
0
100
AcDbLine
 62
7
  6
CONTINUOUS
 10
5.2194594364
 20
-16.6587632642
 11
5.1960551838
 21
-16.6541800008
  0
LINE
  5
51A
100
AcDbEntity
  8
0
100
AcDbLine
 62
7
  6
CONTINUOUS
 10
5.1258424197
 20
-16.8100132642
 11
5.1071190177
 21
-16.8054300008
  0
LINE
  5
51B
100
AcDbEntity
  8
0
100
AcDbLine
 62
7
  6
CONTINUOUS
 10
5.1960551838
 20
-16.6816800008
 11
5.2147785859
 21
-16.6862632642
  0
LINE
  5
51C
100
AcDbEntity
  8
0
100
AcDbLine
 62
7
  6
CONTINUOUS
 10
5.2381828417
 20
-17.1629299483
 11
5.2194594364
 21
-17.1537633166
  0
LINE
  5
51D
100
AcDbEntity
  8
0
100
AcDbLine
 62
7
  6
CONTINUOUS
 10
5.083714752
 20
-16.8237632642
 11
5.1024381541
 21
-16.8329300008
  0
LINE
  5
51E
100
AcDbEntity
  8
0
100
AcDbLine
 62
7
  6
CONTINUOUS
 10
5.2147785859
 20
-17.1812633166
 11
5.2288211374
 21
-17.1904299483
  0
LINE
  5
51F
100
AcDbEntity
  8
0
100
AcDbLine
 62
7
  6
CONTINUOUS
 10
5.06499135
 20
-17.7175133002
 11
5.083714752
 21
-17.7358466325
  0
LINE
  5
520
100
AcDbEntity
  8
0
100
AcDbLine
 62
7
  6
CONTINUOUS
 10
5.2569062453
 20
-17.5937633035
 11
5.2381828417
 21
-17.5754299614
  0
LINE
  5
521
100
AcDbEntity
  8
0
100
AcDbLine
 62
7
  6
CONTINUOUS
 10
5.2100977354
 20
-16.1179300008
 11
5.2288211374
 21
-16.1133466325
  0
LINE
  5
522
100
AcDbEntity
  8
0
100
AcDbLine
 62
7
  6
CONTINUOUS
 10
5.1211615692
 20
-16.1041800008
 11
5.1398849712
 21
-16.0995966325
  0
LINE
  5
523
100
AcDbEntity
  8
0
100
AcDbLine
 62
7
  6
CONTINUOUS
 10
9.671398263
 20
-16.1399817615
 11
9.7127786872
 21
-16.1399817615
  0
LINE
  5
524
100
AcDbEntity
  8
0
100
AcDbLine
 62
7
  6
CONTINUOUS
 10
5.1024381541
 20
-16.1041800008
 11
5.1211615692
 21
-16.1041800008
  0
LINE
  5
525
100
AcDbEntity
  8
0
100
AcDbLine
 62
7
  6
CONTINUOUS
 10
5.1164807187
 20
-16.0766800008
 11
5.1071190177
 21
-16.0766800008
  0
LINE
  5
526
100
AcDbEntity
  8
0
100
AcDbLine
 62
7
  6
CONTINUOUS
 10
5.2007360343
 20
-15.9758466325
 11
5.2147785859
 21
-15.9758466325
  0
LINE
  5
527
100
AcDbEntity
  8
0
100
AcDbLine
 62
7
  6
CONTINUOUS
 10
5.2194594364
 20
-15.9483466325
 11
5.1960551838
 21
-15.9483466325
  0
LINE
  5
528
100
AcDbEntity
  8
0
100
AcDbLine
 62
7
  6
CONTINUOUS
 10
9.6780123246
 20
-15.934706171
 11
9.7140334236
 21
-15.934706171
  0
LINE
  5
529
100
AcDbEntity
  8
0
100
AcDbLine
 62
7
  6
CONTINUOUS
 10
5.0509487985
 20
-15.9116798959
 11
5.2709487985
 21
-15.9116798959
  0
LINE
  5
52A
100
AcDbEntity
  8
0
100
AcDbLine
 62
7
  6
CONTINUOUS
 10
5.2709487985
 20
-15.8841798959
 11
5.1679700742
 21
-15.8841798959
  0
LINE
  5
52B
100
AcDbEntity
  8
0
100
AcDbLine
 62
7
  6
CONTINUOUS
 10
5.1398849712
 20
-15.8841798959
 11
5.0509487985
 21
-15.8841798959
  0
LINE
  5
52C
100
AcDbEntity
  8
0
100
AcDbLine
 62
7
  6
CONTINUOUS
 10
5.0509487985
 20
-15.7558466325
 11
5.1398849712
 21
-15.7558466325
  0
LINE
  5
52D
100
AcDbEntity
  8
0
100
AcDbLine
 62
7
  6
CONTINUOUS
 10
5.1679700742
 20
-15.7558466325
 11
5.2709487985
 21
-15.7558466325
  0
LINE
  5
52E
100
AcDbEntity
  8
0
100
AcDbLine
 62
7
  6
CONTINUOUS
 10
9.6780123246
 20
-15.754706171
 11
9.7140334236
 21
-15.754706171
  0
LINE
  5
52F
100
AcDbEntity
  8
0
100
AcDbLine
 62
7
  6
CONTINUOUS
 10
5.2709487985
 20
-15.7283466325
 11
5.0509487985
 21
-15.7283466325
  0
LINE
  5
530
100
AcDbEntity
  8
0
100
AcDbLine
 62
7
  6
CONTINUOUS
 10
5.083714752
 20
-16.0995966325
 11
5.1024381541
 21
-16.1041800008
  0
LINE
  5
531
100
AcDbEntity
  8
0
100
AcDbLine
 62
7
  6
CONTINUOUS
 10
5.1071190177
 20
-16.0766800008
 11
5.093076453
 21
-16.0720966325
  0
LINE
  5
532
100
AcDbEntity
  8
0
100
AcDbLine
 62
7
  6
CONTINUOUS
 10
5.2381828417
 20
-16.6679300008
 11
5.2194594364
 21
-16.6587632642
  0
LINE
  5
533
100
AcDbEntity
  8
0
100
AcDbLine
 62
7
  6
CONTINUOUS
 10
5.1071190177
 20
-16.8054300008
 11
5.093076453
 21
-16.7962632642
  0
LINE
  5
534
100
AcDbEntity
  8
0
100
AcDbLine
 62
7
  6
CONTINUOUS
 10
5.2147785859
 20
-16.6862632642
 11
5.2288211374
 21
-16.6954300008
  0
LINE
  5
535
100
AcDbEntity
  8
0
100
AcDbLine
 62
7
  6
CONTINUOUS
 10
5.2569062453
 20
-17.1812633166
 11
5.2381828417
 21
-17.1629299483
  0
LINE
  5
536
100
AcDbEntity
  8
0
100
AcDbLine
 62
7
  6
CONTINUOUS
 10
5.06499135
 20
-16.8054300008
 11
5.083714752
 21
-16.8237632642
  0
LINE
  5
537
100
AcDbEntity
  8
0
100
AcDbLine
 62
7
  6
CONTINUOUS
 10
5.2569062453
 20
-16.6862632642
 11
5.2381828417
 21
-16.6679300008
  0
LINE
  5
538
100
AcDbEntity
  8
0
100
AcDbLine
 62
7
  6
CONTINUOUS
 10
5.093076453
 20
-17.7083466325
 11
5.083714752
 21
-17.6945966325
  0
LINE
  5
539
100
AcDbEntity
  8
0
100
AcDbLine
 62
7
  6
CONTINUOUS
 10
5.2288211374
 20
-17.6029299614
 11
5.2381828417
 21
-17.6166799614
  0
LINE
  5
53A
100
AcDbEntity
  8
0
100
AcDbLine
 62
7
  6
CONTINUOUS
 10
5.055629649
 20
-17.6991799647
 11
5.06499135
 21
-17.7175133002
  0
LINE
  5
53B
100
AcDbEntity
  8
0
100
AcDbLine
 62
7
  6
CONTINUOUS
 10
9.7127786872
 20
-15.5494305804
 11
9.671398263
 21
-15.5494305804
  0
LINE
  5
53C
100
AcDbEntity
  8
0
100
AcDbLine
 62
7
  6
CONTINUOUS
 10
5.0509487985
 20
-15.4716798959
 11
5.2709487985
 21
-15.4716798959
  0
LINE
  5
53D
100
AcDbEntity
  8
0
100
AcDbLine
 62
7
  6
CONTINUOUS
 10
5.2709487985
 20
-15.4441798959
 11
5.1726509248
 21
-15.4441798959
  0
LINE
  5
53E
100
AcDbEntity
  8
0
100
AcDbLine
 62
7
  6
CONTINUOUS
 10
5.1445658217
 20
-15.4441798959
 11
5.074353051
 21
-15.4441798959
  0
LINE
  5
53F
100
AcDbEntity
  8
0
100
AcDbLine
 62
7
  6
CONTINUOUS
 10
5.1024381541
 20
-15.3295966325
 11
5.1164807187
 21
-15.3295966325
  0
LINE
  5
540
100
AcDbEntity
  8
0
100
AcDbLine
 62
7
  6
CONTINUOUS
 10
5.1211615692
 20
-15.3020966325
 11
5.1024381541
 21
-15.3020966325
  0
LINE
  5
541
100
AcDbEntity
  8
0
100
AcDbLine
 62
7
  6
CONTINUOUS
 10
5.0509487985
 20
-15.2608466325
 11
5.2709487985
 21
-15.2608466325
  0
LINE
  5
542
100
AcDbEntity
  8
0
100
AcDbLine
 62
7
  6
CONTINUOUS
 10
5.2709487985
 20
-15.2333466325
 11
5.1726509248
 21
-15.2333466325
  0
LINE
  5
543
100
AcDbEntity
  8
0
100
AcDbLine
 62
7
  6
CONTINUOUS
 10
5.1445658217
 20
-15.2333466325
 11
5.074353051
 21
-15.2333466325
  0
LINE
  5
544
100
AcDbEntity
  8
0
100
AcDbLine
 62
7
  6
CONTINUOUS
 10
5.1024381541
 20
-15.1187633691
 11
5.1164807187
 21
-15.1187633691
  0
LINE
  5
545
100
AcDbEntity
  8
0
100
AcDbLine
 62
7
  6
CONTINUOUS
 10
5.1211615692
 20
-15.0912633691
 11
5.1024381541
 21
-15.0912633691
  0
LINE
  5
546
100
AcDbEntity
  8
0
100
AcDbLine
 62
7
  6
CONTINUOUS
 10
5.1960551838
 20
-15.6412633691
 11
5.0696722005
 21
-15.6000133691
  0
LINE
  5
547
100
AcDbEntity
  8
0
100
AcDbLine
 62
7
  6
CONTINUOUS
 10
5.2709487985
 20
-15.6641798959
 11
5.2147785859
 21
-15.6458466325
  0
LINE
  5
548
100
AcDbEntity
  8
0
100
AcDbLine
 62
7
  6
CONTINUOUS
 10
5.1164807187
 20
-15.3295966325
 11
5.1305232702
 21
-15.3341798959
  0
LINE
  5
549
100
AcDbEntity
  8
0
100
AcDbLine
 62
7
  6
CONTINUOUS
 10
5.1352041207
 20
-15.3066798959
 11
5.1211615692
 21
-15.3020966325
  0
LINE
  5
54A
100
AcDbEntity
  8
0
100
AcDbLine
 62
7
  6
CONTINUOUS
 10
5.0509487985
 20
-15.6183466325
 11
5.2709487985
 21
-15.6916798959
  0
LINE
  5
54B
100
AcDbEntity
  8
0
100
AcDbLine
 62
7
  6
CONTINUOUS
 10
5.2381828417
 20
-15.9575133691
 11
5.2194594364
 21
-15.9483466325
  0
LINE
  5
54C
100
AcDbEntity
  8
0
100
AcDbLine
 62
7
  6
CONTINUOUS
 10
5.2147785859
 20
-15.9758466325
 11
5.2288211374
 21
-15.9850133691
  0
LINE
  5
54D
100
AcDbEntity
  8
0
100
AcDbLine
 62
7
  6
CONTINUOUS
 10
5.06499135
 20
-16.0812632642
 11
5.083714752
 21
-16.0995966325
  0
LINE
  5
54E
100
AcDbEntity
  8
0
100
AcDbLine
 62
7
  6
CONTINUOUS
 10
5.2569062453
 20
-15.9758466325
 11
5.2381828417
 21
-15.9575133691
  0
LINE
  5
54F
100
AcDbEntity
  8
0
100
AcDbLine
 62
7
  6
CONTINUOUS
 10
5.2288211374
 20
-17.1904299483
 11
5.2381828417
 21
-17.2041799483
  0
LINE
  5
550
100
AcDbEntity
  8
0
100
AcDbLine
 62
7
  6
CONTINUOUS
 10
5.093076453
 20
-16.7962632642
 11
5.083714752
 21
-16.7825132642
  0
LINE
  5
551
100
AcDbEntity
  8
0
100
AcDbLine
 62
7
  6
CONTINUOUS
 10
5.2288211374
 20
-16.6954300008
 11
5.2381828417
 21
-16.7091800008
  0
LINE
  5
552
100
AcDbEntity
  8
0
100
AcDbLine
 62
7
  6
CONTINUOUS
 10
5.093076453
 20
-16.0720966325
 11
5.083714752
 21
-16.0583466325
  0
LINE
  5
553
100
AcDbEntity
  8
0
100
AcDbLine
 62
7
  6
CONTINUOUS
 10
5.2662679476
 20
-17.6120966325
 11
5.2569062453
 21
-17.5937633035
  0
LINE
  5
554
100
AcDbEntity
  8
0
100
AcDbLine
 62
7
  6
CONTINUOUS
 10
5.2662679476
 20
-17.1995966325
 11
5.2569062453
 21
-17.1812633166
  0
LINE
  5
555
100
AcDbEntity
  8
0
100
AcDbLine
 62
7
  6
CONTINUOUS
 10
5.055629649
 20
-16.7870966325
 11
5.06499135
 21
-16.8054300008
  0
LINE
  5
556
100
AcDbEntity
  8
0
100
AcDbLine
 62
7
  6
CONTINUOUS
 10
5.2662679476
 20
-16.7045966325
 11
5.2569062453
 21
-16.6862632642
  0
LINE
  5
557
100
AcDbEntity
  8
06___PRT_ALL_SURFS
100
AcDbLine
 62
7
  6
CONTINUOUS
 10
4.6109487985
 20
-13.8495966325
 11
4.6109487985
 21
-17.8495966325
  0
LINE
  5
558
100
AcDbEntity
  8
0
100
AcDbLine
 62
7
  6
CONTINUOUS
 10
5.083714752
 20
-14.2387633691
 11
5.06499135
 21
-14.2570966325
  0
LINE
  5
559
100
AcDbEntity
  8
0
100
AcDbLine
 62
7
  6
CONTINUOUS
 10
5.093076453
 20
-14.2662633691
 11
5.1071190177
 21
-14.2616798959
  0
LINE
  5
55A
100
AcDbEntity
  8
0
100
AcDbLine
 62
7
  6
CONTINUOUS
 10
5.1071190177
 20
-14.4816798959
 11
5.1258424197
 21
-14.4770966325
  0
LINE
  5
55B
100
AcDbEntity
  8
0
100
AcDbLine
 62
7
  6
CONTINUOUS
 10
5.2147785859
 20
-14.3808466325
 11
5.1960551838
 21
-14.3854298959
  0
LINE
  5
55C
100
AcDbEntity
  8
0
100
AcDbLine
 62
7
  6
CONTINUOUS
 10
5.1258424197
 20
-14.4495966325
 11
5.1024381541
 21
-14.4541798959
  0
LINE
  5
55D
100
AcDbEntity
  8
0
100
AcDbLine
 62
7
  6
CONTINUOUS
 10
5.1960551838
 20
-14.4129298959
 11
5.2194594364
 21
-14.4083466325
  0
LINE
  5
55E
100
AcDbEntity
  8
0
100
AcDbLine
 62
7
  6
CONTINUOUS
 10
5.0509487985
 20
-14.8345966325
 11
5.2709487985
 21
-14.8345966325
  0
LINE
  5
55F
100
AcDbEntity
  8
0
100
AcDbLine
 62
7
  6
CONTINUOUS
 10
5.2428636922
 20
-14.8070966325
 11
5.1679700742
 21
-14.8070966325
  0
LINE
  5
560
100
AcDbEntity
  8
0
100
AcDbLine
 62
7
  6
CONTINUOUS
 10
5.1398849712
 20
-14.8070966325
 11
5.0790339015
 21
-14.8070966325
  0
LINE
  5
561
100
AcDbEntity
  8
0
100
AcDbLine
 62
7
  6
CONTINUOUS
 10
5.1679700742
 20
-14.6879298959
 11
5.1398849712
 21
-14.6879298959
  0
LINE
  5
562
100
AcDbEntity
  8
0
100
AcDbLine
 62
7
  6
CONTINUOUS
 10
5.2709487985
 20
-14.6695966325
 11
5.2428636922
 21
-14.6695966325
  0
LINE
  5
563
100
AcDbEntity
  8
0
100
AcDbLine
 62
7
  6
CONTINUOUS
 10
5.0790339015
 20
-14.6695966325
 11
5.0509487985
 21
-14.6695966325
  0
LINE
  5
564
100
AcDbEntity
  8
0
100
AcDbLine
 62
7
  6
CONTINUOUS
 10
5.0509487985
 20
-14.6329298959
 11
5.2709487985
 21
-14.6329298959
  0
LINE
  5
565
100
AcDbEntity
  8
0
100
AcDbLine
 62
7
  6
CONTINUOUS
 10
5.2428636922
 20
-14.6054298959
 11
5.0790339015
 21
-14.6054298959
  0
LINE
  5
566
100
AcDbEntity
  8
0
100
AcDbLine
 62
7
  6
CONTINUOUS
 10
5.1258424197
 20
-14.4770966325
 11
5.1960551838
 21
-14.4770966325
  0
LINE
  5
567
100
AcDbEntity
  8
0
100
AcDbLine
 62
7
  6
CONTINUOUS
 10
5.1960551838
 20
-14.4495966325
 11
5.1258424197
 21
-14.4495966325
  0
LINE
  5
568
100
AcDbEntity
  8
0
100
AcDbLine
 62
7
  6
CONTINUOUS
 10
5.1164807187
 20
-15.1187633691
 11
5.1305232702
 21
-15.1233466325
  0
LINE
  5
569
100
AcDbEntity
  8
0
100
AcDbLine
 62
7
  6
CONTINUOUS
 10
5.1352041207
 20
-15.0958466325
 11
5.1211615692
 21
-15.0912633691
  0
LINE
  5
56A
100
AcDbEntity
  8
0
100
AcDbLine
 62
7
  6
CONTINUOUS
 10
5.1539275227
 20
-15.3204298959
 11
5.1352041207
 21
-15.3066798959
  0
LINE
  5
56B
100
AcDbEntity
  8
0
100
AcDbLine
 62
7
  6
CONTINUOUS
 10
5.1539275227
 20
-15.1095966325
 11
5.1352041207
 21
-15.0958466325
  0
LINE
  5
56C
100
AcDbEntity
  8
0
100
AcDbLine
 62
7
  6
CONTINUOUS
 10
5.1305232702
 20
-15.3341798959
 11
5.1398849712
 21
-15.3433466325
  0
LINE
  5
56D
100
AcDbEntity
  8
0
100
AcDbLine
 62
7
  6
CONTINUOUS
 10
5.1305232702
 20
-15.1233466325
 11
5.1398849712
 21
-15.1325133691
  0
LINE
  5
56E
100
AcDbEntity
  8
0
100
AcDbLine
 62
7
  6
CONTINUOUS
 10
5.1679700742
 20
-15.1279298959
 11
5.1539275227
 21
-15.1095966325
  0
LINE
  5
56F
100
AcDbEntity
  8
0
100
AcDbLine
 62
7
  6
CONTINUOUS
 10
5.2288211374
 20
-15.9850133691
 11
5.2381828417
 21
-15.9987632642
  0
LINE
  5
570
100
AcDbEntity
  8
0
100
AcDbLine
 62
7
  6
CONTINUOUS
 10
5.055629649
 20
-16.0629300008
 11
5.06499135
 21
-16.0812632642
  0
LINE
  5
571
100
AcDbEntity
  8
0
100
AcDbLine
 62
7
  6
CONTINUOUS
 10
5.2662679476
 20
-15.9941800008
 11
5.2569062453
 21
-15.9758466325
  0
LINE
  5
572
100
AcDbEntity
  8
0
100
AcDbLine
 62
7
  6
CONTINUOUS
 10
5.1632892237
 20
-15.3387633691
 11
5.1539275227
 21
-15.3204298959
  0
LINE
  5
573
100
AcDbEntity
  8
0
100
AcDbLine
 62
7
  6
CONTINUOUS
 10
5.083714752
 20
-16.0583466325
 11
5.0790339015
 21
-16.0445966325
  0
LINE
  5
574
100
AcDbEntity
  8
0
100
AcDbLine
 62
7
  6
CONTINUOUS
 10
5.083714752
 20
-17.6945966325
 11
5.0790339015
 21
-17.676263297
  0
LINE
  5
575
100
AcDbEntity
  8
0
100
AcDbLine
 62
7
  6
CONTINUOUS
 10
5.2381828417
 20
-17.6166799614
 11
5.2428636922
 21
-17.6350133035
  0
LINE
  5
576
100
AcDbEntity
  8
0
100
AcDbLine
 62
7
  6
CONTINUOUS
 10
5.083714752
 20
-16.7825132642
 11
5.0790339015
 21
-16.7641800008
  0
LINE
  5
577
100
AcDbEntity
  8
0
100
AcDbLine
 62
7
  6
CONTINUOUS
 10
5.2381828417
 20
-17.2041799483
 11
5.2428636922
 21
-17.2225133166
  0
LINE
  5
578
100
AcDbEntity
  8
0
100
AcDbLine
 62
7
  6
CONTINUOUS
 10
5.0509487985
 20
-16.0445966325
 11
5.055629649
 21
-16.0629300008
  0
LINE
  5
579
100
AcDbEntity
  8
0
100
AcDbLine
 62
7
  6
CONTINUOUS
 10
5.2381828417
 20
-16.7091800008
 11
5.2428636922
 21
-16.7275132642
  0
LINE
  5
57A
100
AcDbEntity
  8
0
100
AcDbLine
 62
7
  6
CONTINUOUS
 10
5.0509487985
 20
-17.676263297
 11
5.055629649
 21
-17.6991799647
  0
LINE
  5
57B
100
AcDbEntity
  8
0
100
AcDbLine
 62
7
  6
CONTINUOUS
 10
5.0509487985
 20
-16.7641800008
 11
5.055629649
 21
-16.7870966325
  0
LINE
  5
57C
100
AcDbEntity
  8
0
100
AcDbLine
 62
7
  6
CONTINUOUS
 10
5.2709487985
 20
-17.6350133035
 11
5.2662679476
 21
-17.6120966325
  0
LINE
  5
57D
100
AcDbEntity
  8
0
100
AcDbLine
 62
7
  6
CONTINUOUS
 10
5.2709487985
 20
-17.2225133166
 11
5.2662679476
 21
-17.1995966325
  0
LINE
  5
57E
100
AcDbEntity
  8
0
100
AcDbLine
 62
7
  6
CONTINUOUS
 10
5.2709487985
 20
-16.7275132642
 11
5.2662679476
 21
-16.7045966325
  0
LINE
  5
57F
100
AcDbEntity
  8
0
100
AcDbLine
 62
7
  6
CONTINUOUS
 10
5.0509487985
 20
-14.0325131593
 11
5.0509487985
 21
-14.1975131593
  0
LINE
  5
580
100
AcDbEntity
  8
0
100
AcDbLine
 62
7
  6
CONTINUOUS
 10
5.0509487985
 20
-14.2983466325
 11
5.0509487985
 21
-14.3395966325
  0
LINE
  5
581
100
AcDbEntity
  8
0
100
AcDbLine
 62
7
  6
CONTINUOUS
 10
5.0509487985
 20
-14.5229298959
 11
5.0509487985
 21
-14.6329298959
  0
LINE
  5
582
100
AcDbEntity
  8
0
100
AcDbLine
 62
7
  6
CONTINUOUS
 10
5.0509487985
 20
-14.6695966325
 11
5.0509487985
 21
-14.8345966325
  0
LINE
  5
583
100
AcDbEntity
  8
0
100
AcDbLine
 62
7
  6
CONTINUOUS
 10
5.0509487985
 20
-15.1508466325
 11
5.0509487985
 21
-15.2608466325
  0
LINE
  5
584
100
AcDbEntity
  8
0
100
AcDbLine
 62
7
  6
CONTINUOUS
 10
5.0509487985
 20
-15.3616798959
 11
5.0509487985
 21
-15.4716798959
  0
LINE
  5
585
100
AcDbEntity
  8
0
100
AcDbLine
 62
7
  6
CONTINUOUS
 10
5.0509487985
 20
-15.5816798959
 11
5.0509487985
 21
-15.6183466325
  0
LINE
  5
586
100
AcDbEntity
  8
0
100
AcDbLine
 62
7
  6
CONTINUOUS
 10
5.0509487985
 20
-15.7283466325
 11
5.0509487985
 21
-15.7558466325
  0
LINE
  5
587
100
AcDbEntity
  8
0
100
AcDbLine
 62
7
  6
CONTINUOUS
 10
5.0509487985
 20
-15.8841798959
 11
5.0509487985
 21
-15.9116798959
  0
LINE
  5
588
100
AcDbEntity
  8
0
100
AcDbLine
 62
7
  6
CONTINUOUS
 10
5.0509487985
 20
-16.0216800008
 11
5.0509487985
 21
-16.0445966325
  0
LINE
  5
589
100
AcDbEntity
  8
0
100
AcDbLine
 62
7
  6
CONTINUOUS
 10
5.0509487985
 20
-16.4341800008
 11
5.0509487985
 21
-16.4616800008
  0
LINE
  5
58A
100
AcDbEntity
  8
0
100
AcDbLine
 62
7
  6
CONTINUOUS
 10
5.0509487985
 20
-16.5762632642
 11
5.0509487985
 21
-16.6175132642
  0
LINE
  5
58B
100
AcDbEntity
  8
0
100
AcDbLine
 62
7
  6
CONTINUOUS
 10
5.0509487985
 20
-16.7275132642
 11
5.0509487985
 21
-16.7641800008
  0
LINE
  5
58C
100
AcDbEntity
  8
0
100
AcDbLine
 62
7
  6
CONTINUOUS
 10
5.0509487985
 20
-16.8741799483
 11
5.0509487985
 21
-16.9016799483
  0
LINE
  5
58D
100
AcDbEntity
  8
0
100
AcDbLine
 62
7
  6
CONTINUOUS
 10
5.0509487985
 20
-16.9383466325
 11
5.0509487985
 21
-17.1125133166
  0
LINE
  5
58E
100
AcDbEntity
  8
0
100
AcDbLine
 62
7
  6
CONTINUOUS
 10
5.0509487985
 20
-17.1491799483
 11
5.0509487985
 21
-17.1766799483
  0
LINE
  5
58F
100
AcDbEntity
  8
0
100
AcDbLine
 62
7
  6
CONTINUOUS
 10
5.0509487985
 20
-17.2866799483
 11
5.0509487985
 21
-17.3141799746
  0
LINE
  5
590
100
AcDbEntity
  8
0
100
AcDbLine
 62
7
  6
CONTINUOUS
 10
5.0509487985
 20
-17.4241799746
 11
5.0509487985
 21
-17.4608466325
  0
LINE
  5
591
100
AcDbEntity
  8
0
100
AcDbLine
 62
7
  6
CONTINUOUS
 10
5.0509487985
 20
-17.6350133035
 11
5.0509487985
 21
-17.676263297
  0
LINE
  5
592
100
AcDbEntity
  8
0
100
AcDbLine
 62
7
  6
CONTINUOUS
 10
5.074353051
 20
-17.1125133166
 11
5.074353051
 21
-17.0391799483
  0
LINE
  5
593
100
AcDbEntity
  8
0
100
AcDbLine
 62
7
  6
CONTINUOUS
 10
5.074353051
 20
-17.0116799483
 11
5.074353051
 21
-16.9383466325
  0
LINE
  5
594
100
AcDbEntity
  8
0
100
AcDbLine
 62
7
  6
CONTINUOUS
 10
5.074353051
 20
-15.4441798959
 11
5.074353051
 21
-15.3570966325
  0
LINE
  5
595
100
AcDbEntity
  8
0
100
AcDbLine
 62
7
  6
CONTINUOUS
 10
5.074353051
 20
-15.2333466325
 11
5.074353051
 21
-15.1462633691
  0
LINE
  5
596
100
AcDbEntity
  8
0
100
AcDbLine
 62
7
  6
CONTINUOUS
 10
5.0790339015
 20
-17.676263297
 11
5.0790339015
 21
-17.6350133035
  0
LINE
  5
597
100
AcDbEntity
  8
0
100
AcDbLine
 62
7
  6
CONTINUOUS
 10
5.0790339015
 20
-16.7641800008
 11
5.0790339015
 21
-16.7275132642
  0
LINE
  5
598
100
AcDbEntity
  8
0
100
AcDbLine
 62
7
  6
CONTINUOUS
 10
5.0790339015
 20
-16.0445966325
 11
5.0790339015
 21
-16.0170966325
  0
LINE
  5
599
100
AcDbEntity
  8
0
100
AcDbLine
 62
7
  6
CONTINUOUS
 10
5.0790339015
 20
-14.8070966325
 11
5.0790339015
 21
-14.6695966325
  0
LINE
  5
59A
100
AcDbEntity
  8
0
100
AcDbLine
 62
7
  6
CONTINUOUS
 10
5.0790339015
 20
-14.6054298959
 11
5.0790339015
 21
-14.5229298959
  0
LINE
  5
59B
100
AcDbEntity
  8
0
100
AcDbLine
 62
7
  6
CONTINUOUS
 10
5.0790339015
 20
-14.3395966325
 11
5.0790339015
 21
-14.2983466325
  0
LINE
  5
59C
100
AcDbEntity
  8
0
100
AcDbLine
 62
7
  6
CONTINUOUS
 10
5.0790339015
 20
-14.1700131593
 11
5.0790339015
 21
-14.0325131593
  0
LINE
  5
59D
100
AcDbEntity
  8
0
100
AcDbLine
 62
7
  6
CONTINUOUS
 10
5.1024381541
 20
-15.9895966325
 11
5.1024381541
 21
-15.9620966325
  0
LINE
  5
59E
100
AcDbEntity
  8
0
100
AcDbLine
 62
7
  6
CONTINUOUS
 10
5.1071190177
 20
-17.5983466325
 11
5.1071190177
 21
-17.5708466325
  0
LINE
  5
59F
100
AcDbEntity
  8
0
100
AcDbLine
 62
7
  6
CONTINUOUS
 10
5.1071190177
 20
-14.2616798959
 11
5.1071190177
 21
-14.2341798959
  0
LINE
  5
5A0
100
AcDbEntity
  8
0
100
AcDbLine
 62
7
  6
CONTINUOUS
 10
5.1352041207
 20
-16.3745966325
 11
5.1352041207
 21
-16.3975132642
  0
LINE
  5
5A1
100
AcDbEntity
  8
0
100
AcDbLine
 62
7
  6
CONTINUOUS
 10
5.1398849712
 20
-14.0508466325
 11
5.1398849712
 21
-14.1700131593
  0
LINE
  5
5A2
100
AcDbEntity
  8
0
100
AcDbLine
 62
7
  6
CONTINUOUS
 10
5.1398849712
 20
-14.6879298959
 11
5.1398849712
 21
-14.8070966325
  0
LINE
  5
5A3
100
AcDbEntity
  8
0
100
AcDbLine
 62
7
  6
CONTINUOUS
 10
5.1398849712
 20
-15.7558466325
 11
5.1398849712
 21
-15.8841798959
  0
LINE
  5
5A4
100
AcDbEntity
  8
0
100
AcDbLine
 62
7
  6
CONTINUOUS
 10
5.1445658217
 20
-15.1462633691
 11
5.1445658217
 21
-15.2333466325
  0
LINE
  5
5A5
100
AcDbEntity
  8
0
100
AcDbLine
 62
7
  6
CONTINUOUS
 10
5.1445658217
 20
-15.3570966325
 11
5.1445658217
 21
-15.4441798959
  0
LINE
  5
5A6
100
AcDbEntity
  8
0
100
AcDbLine
 62
7
  6
CONTINUOUS
 10
5.1445658217
 20
-16.0170966325
 11
5.1445658217
 21
-16.0445966325
  0
LINE
  5
5A7
100
AcDbEntity
  8
0
100
AcDbLine
 62
7
  6
CONTINUOUS
 10
5.1492466722
 20
-14.2341798959
 11
5.1492466722
 21
-14.3029298959
  0
LINE
  5
5A8
100
AcDbEntity
  8
0
100
AcDbLine
 62
7
  6
CONTINUOUS
 10
5.1586083732
 20
-16.3975132642
 11
5.1586083732
 21
-16.3745966325
  0
LINE
  5
5A9
100
AcDbEntity
  8
0
100
AcDbLine
 62
7
  6
CONTINUOUS
 10
5.1679700742
 20
-15.8841798959
 11
5.1679700742
 21
-15.7558466325
  0
LINE
  5
5AA
100
AcDbEntity
  8
0
100
AcDbLine
 62
7
  6
CONTINUOUS
 10
5.1679700742
 20
-14.8070966325
 11
5.1679700742
 21
-14.6879298959
  0
LINE
  5
5AB
100
AcDbEntity
  8
0
100
AcDbLine
 62
7
  6
CONTINUOUS
 10
5.1679700742
 20
-14.1700131593
 11
5.1679700742
 21
-14.0508466325
  0
LINE
  5
5AC
100
AcDbEntity
  8
0
100
AcDbLine
 62
7
  6
CONTINUOUS
 10
5.1726509248
 20
-16.0445966325
 11
5.1726509248
 21
-16.0170966325
  0
LINE
  5
5AD
100
AcDbEntity
  8
0
100
AcDbLine
 62
7
  6
CONTINUOUS
 10
5.1726509248
 20
-15.4441798959
 11
5.1726509248
 21
-15.3662633691
  0
LINE
  5
5AE
100
AcDbEntity
  8
0
100
AcDbLine
 62
7
  6
CONTINUOUS
 10
5.1726509248
 20
-15.2333466325
 11
5.1726509248
 21
-15.1508466325
  0
LINE
  5
5AF
100
AcDbEntity
  8
0
100
AcDbLine
 62
7
  6
CONTINUOUS
 10
5.1773317753
 20
-14.3029298959
 11
5.1773317753
 21
-14.2616798959
  0
LINE
  5
5B0
100
AcDbEntity
  8
0
100
AcDbLine
 62
7
  6
CONTINUOUS
 10
5.1960551838
 20
-15.5587633691
 11
5.1960551838
 21
-15.6412633691
  0
LINE
  5
5B1
100
AcDbEntity
  8
0
100
AcDbLine
 62
7
  6
CONTINUOUS
 10
5.1960551838
 20
-17.4012632904
 11
5.1960551838
 21
-17.4837632904
  0
LINE
  5
5B2
100
AcDbEntity
  8
0
100
AcDbLine
 62
7
  6
CONTINUOUS
 10
5.2100977354
 20
-16.0904300008
 11
5.2100977354
 21
-16.1179300008
  0
LINE
  5
5B3
100
AcDbEntity
  8
0
100
AcDbLine
 62
7
  6
CONTINUOUS
 10
5.2147785859
 20
-17.4883466325
 11
5.2147785859
 21
-17.3966799746
  0
LINE
  5
5B4
100
AcDbEntity
  8
0
100
AcDbLine
 62
7
  6
CONTINUOUS
 10
5.2147785859
 20
-15.6458466325
 11
5.2147785859
 21
-15.5541798959
  0
LINE
  5
5B5
100
AcDbEntity
  8
0
100
AcDbLine
 62
7
  6
CONTINUOUS
 10
5.2147785859
 20
-17.5708466325
 11
5.2147785859
 21
-17.5983466325
  0
LINE
  5
5B6
100
AcDbEntity
  8
0
100
AcDbLine
 62
7
  6
CONTINUOUS
 10
5.2428636922
 20
-14.0325131593
 11
5.2428636922
 21
-14.1700131593
  0
LINE
  5
5B7
100
AcDbEntity
  8
0
100
AcDbLine
 62
7
  6
CONTINUOUS
 10
5.2428636922
 20
-14.2983466325
 11
5.2428636922
 21
-14.3395966325
  0
LINE
  5
5B8
100
AcDbEntity
  8
0
100
AcDbLine
 62
7
  6
CONTINUOUS
 10
5.2428636922
 20
-14.5229298959
 11
5.2428636922
 21
-14.6054298959
  0
LINE
  5
5B9
100
AcDbEntity
  8
0
100
AcDbLine
 62
7
  6
CONTINUOUS
 10
5.2428636922
 20
-14.6695966325
 11
5.2428636922
 21
-14.8070966325
  0
LINE
  5
5BA
100
AcDbEntity
  8
0
100
AcDbLine
 62
7
  6
CONTINUOUS
 10
5.2428636922
 20
-16.0170966325
 11
5.2428636922
 21
-16.0537632642
  0
LINE
  5
5BB
100
AcDbEntity
  8
0
100
AcDbLine
 62
7
  6
CONTINUOUS
 10
5.2428636922
 20
-16.7275132642
 11
5.2428636922
 21
-16.7641800008
  0
LINE
  5
5BC
100
AcDbEntity
  8
0
100
AcDbLine
 62
7
  6
CONTINUOUS
 10
5.2428636922
 20
-17.2225133166
 11
5.2428636922
 21
-17.2408466325
  0
LINE
  5
5BD
100
AcDbEntity
  8
0
100
AcDbLine
 62
7
  6
CONTINUOUS
 10
5.2428636922
 20
-17.6350133035
 11
5.2428636922
 21
-17.676263297
  0
LINE
  5
5BE
100
AcDbEntity
  8
0
100
AcDbLine
 62
7
  6
CONTINUOUS
 10
5.2475445427
 20
-16.3745966325
 11
5.2475445427
 21
-16.3975132642
  0
LINE
  5
5BF
100
AcDbEntity
  8
0
100
AcDbLine
 62
7
  6
CONTINUOUS
 10
5.2709487985
 20
-17.676263297
 11
5.2709487985
 21
-17.6350133035
  0
LINE
  5
5C0
100
AcDbEntity
  8
0
100
AcDbLine
 62
7
  6
CONTINUOUS
 10
5.2709487985
 20
-17.5341799614
 11
5.2709487985
 21
-17.5066799746
  0
LINE
  5
5C1
100
AcDbEntity
  8
0
100
AcDbLine
 62
7
  6
CONTINUOUS
 10
5.2709487985
 20
-17.3783466325
 11
5.2709487985
 21
-17.3508466325
  0
LINE
  5
5C2
100
AcDbEntity
  8
0
100
AcDbLine
 62
7
  6
CONTINUOUS
 10
5.2709487985
 20
-17.2408466325
 11
5.2709487985
 21
-17.2225133166
  0
LINE
  5
5C3
100
AcDbEntity
  8
0
100
AcDbLine
 62
7
  6
CONTINUOUS
 10
5.2709487985
 20
-17.0391799483
 11
5.2709487985
 21
-17.0116799483
  0
LINE
  5
5C4
100
AcDbEntity
  8
0
100
AcDbLine
 62
7
  6
CONTINUOUS
 10
5.2709487985
 20
-16.9016799483
 11
5.2709487985
 21
-16.8741799483
  0
LINE
  5
5C5
100
AcDbEntity
  8
0
100
AcDbLine
 62
7
  6
CONTINUOUS
 10
5.2709487985
 20
-16.7641800008
 11
5.2709487985
 21
-16.7275132642
  0
LINE
  5
5C6
100
AcDbEntity
  8
0
100
AcDbLine
 62
7
  6
CONTINUOUS
 10
5.2709487985
 20
-16.6175132642
 11
5.2709487985
 21
-16.5900132642
  0
LINE
  5
5C7
100
AcDbEntity
  8
0
100
AcDbLine
 62
7
  6
CONTINUOUS
 10
5.2709487985
 20
-16.4754300008
 11
5.2709487985
 21
-16.4341800008
  0
LINE
  5
5C8
100
AcDbEntity
  8
0
100
AcDbLine
 62
7
  6
CONTINUOUS
 10
5.2709487985
 20
-16.3975132642
 11
5.2709487985
 21
-16.3745966325
  0
LINE
  5
5C9
100
AcDbEntity
  8
0
100
AcDbLine
 62
7
  6
CONTINUOUS
 10
5.2709487985
 20
-16.0537632642
 11
5.2709487985
 21
-16.0170966325
  0
LINE
  5
5CA
100
AcDbEntity
  8
0
100
AcDbLine
 62
7
  6
CONTINUOUS
 10
5.2709487985
 20
-15.9116798959
 11
5.2709487985
 21
-15.8841798959
  0
LINE
  5
5CB
100
AcDbEntity
  8
0
100
AcDbLine
 62
7
  6
CONTINUOUS
 10
5.2709487985
 20
-15.7558466325
 11
5.2709487985
 21
-15.7283466325
  0
LINE
  5
5CC
100
AcDbEntity
  8
0
100
AcDbLine
 62
7
  6
CONTINUOUS
 10
5.2709487985
 20
-15.6916798959
 11
5.2709487985
 21
-15.6641798959
  0
LINE
  5
5CD
100
AcDbEntity
  8
0
100
AcDbLine
 62
7
  6
CONTINUOUS
 10
5.2709487985
 20
-15.5358466325
 11
5.2709487985
 21
-15.5083466325
  0
LINE
  5
5CE
100
AcDbEntity
  8
0
100
AcDbLine
 62
7
  6
CONTINUOUS
 10
5.2709487985
 20
-15.4716798959
 11
5.2709487985
 21
-15.4441798959
  0
LINE
  5
5CF
100
AcDbEntity
  8
0
100
AcDbLine
 62
7
  6
CONTINUOUS
 10
5.2709487985
 20
-15.3295966325
 11
5.2709487985
 21
-15.2975133691
  0
LINE
  5
5D0
100
AcDbEntity
  8
0
100
AcDbLine
 62
7
  6
CONTINUOUS
 10
5.2709487985
 20
-15.2608466325
 11
5.2709487985
 21
-15.2333466325
  0
LINE
  5
5D1
100
AcDbEntity
  8
0
100
AcDbLine
 62
7
  6
CONTINUOUS
 10
5.2709487985
 20
-14.8345966325
 11
5.2709487985
 21
-14.6695966325
  0
LINE
  5
5D2
100
AcDbEntity
  8
0
100
AcDbLine
 62
7
  6
CONTINUOUS
 10
5.2709487985
 20
-14.6329298959
 11
5.2709487985
 21
-14.5229298959
  0
LINE
  5
5D3
100
AcDbEntity
  8
0
100
AcDbLine
 62
7
  6
CONTINUOUS
 10
5.2709487985
 20
-14.3395966325
 11
5.2709487985
 21
-14.2983466325
  0
LINE
  5
5D4
100
AcDbEntity
  8
0
100
AcDbLine
 62
7
  6
CONTINUOUS
 10
5.2709487985
 20
-14.1975131593
 11
5.2709487985
 21
-14.0325131593
  0
LINE
  5
5D5
100
AcDbEntity
  8
0
100
AcDbLine
 62
7
  6
CONTINUOUS
 10
5.055629649
 20
-14.2754298959
 11
5.0509487985
 21
-14.2983466325
  0
LINE
  5
5D6
100
AcDbEntity
  8
0
100
AcDbLine
 62
7
  6
CONTINUOUS
 10
5.055629649
 20
-14.5000133691
 11
5.0509487985
 21
-14.5229298959
  0
LINE
  5
5D7
100
AcDbEntity
  8
0
100
AcDbLine
 62
7
  6
CONTINUOUS
 10
5.055629649
 20
-15.1279298959
 11
5.0509487985
 21
-15.1508466325
  0
LINE
  5
5D8
100
AcDbEntity
  8
0
100
AcDbLine
 62
7
  6
CONTINUOUS
 10
5.055629649
 20
-15.3387633691
 11
5.0509487985
 21
-15.3616798959
  0
LINE
  5
5D9
100
AcDbEntity
  8
0
100
AcDbLine
 62
7
  6
CONTINUOUS
 10
5.2662679476
 20
-14.3625133691
 11
5.2709487985
 21
-14.3395966325
  0
LINE
  5
5DA
100
AcDbEntity
  8
0
100
AcDbLine
 62
7
  6
CONTINUOUS
 10
5.055629649
 20
-15.9987632642
 11
5.0509487985
 21
-16.0216800008
  0
LINE
  5
5DB
100
AcDbEntity
  8
0
100
AcDbLine
 62
7
  6
CONTINUOUS
 10
5.1492466722
 20
-15.9941800008
 11
5.1445658217
 21
-16.0170966325
  0
LINE
  5
5DC
100
AcDbEntity
  8
0
100
AcDbLine
 62
7
  6
CONTINUOUS
 10
5.0790339015
 20
-14.2983466325
 11
5.083714752
 21
-14.2800133691
  0
LINE
  5
5DD
100
AcDbEntity
  8
0
100
AcDbLine
 62
7
  6
CONTINUOUS
 10
5.0790339015
 20
-14.5229298959
 11
5.083714752
 21
-14.5045966325
  0
LINE
  5
5DE
100
AcDbEntity
  8
0
100
AcDbLine
 62
7
  6
CONTINUOUS
 10
5.2428636922
 20
-14.3395966325
 11
5.2381828417
 21
-14.3579298959
  0
LINE
  5
5DF
100
AcDbEntity
  8
0
100
AcDbLine
 62
7
  6
CONTINUOUS
 10
5.074353051
 20
-15.1462633691
 11
5.0790339015
 21
-15.1325133691
  0
LINE
  5
5E0
100
AcDbEntity
  8
0
100
AcDbLine
 62
7
  6
CONTINUOUS
 10
5.074353051
 20
-15.3570966325
 11
5.0790339015
 21
-15.3433466325
  0
LINE
  5
5E1
100
AcDbEntity
  8
0
100
AcDbLine
 62
7
  6
CONTINUOUS
 10
5.06499135
 20
-14.2570966325
 11
5.055629649
 21
-14.2754298959
  0
LINE
  5
5E2
100
AcDbEntity
  8
0
100
AcDbLine
 62
7
  6
CONTINUOUS
 10
5.06499135
 20
-14.4816798959
 11
5.055629649
 21
-14.5000133691
  0
LINE
  5
5E3
100
AcDbEntity
  8
0
100
AcDbLine
 62
7
  6
CONTINUOUS
 10
5.2569062453
 20
-14.3808466325
 11
5.2662679476
 21
-14.3625133691
  0
LINE
  5
5E4
100
AcDbEntity
  8
0
100
AcDbLine
 62
7
  6
CONTINUOUS
 10
5.083714752
 20
-14.2800133691
 11
5.093076453
 21
-14.2662633691
  0
LINE
  5
5E5
100
AcDbEntity
  8
0
100
AcDbLine
 62
7
  6
CONTINUOUS
 10
5.083714752
 20
-14.5045966325
 11
5.093076453
 21
-14.4908466325
  0
LINE
  5
5E6
100
AcDbEntity
  8
0
100
AcDbLine
 62
7
  6
CONTINUOUS
 10
5.2381828417
 20
-14.3579298959
 11
5.2288211374
 21
-14.3716798959
  0
LINE
  5
5E7
100
AcDbEntity
  8
0
100
AcDbLine
 62
7
  6
CONTINUOUS
 10
5.0696722005
 20
-15.1095966325
 11
5.055629649
 21
-15.1279298959
  0
LINE
  5
5E8
100
AcDbEntity
  8
0
100
AcDbLine
 62
7
  6
CONTINUOUS
 10
5.083714752
 20
-14.4633466325
 11
5.06499135
 21
-14.4816798959
  0
LINE
  5
5E9
100
AcDbEntity
  8
0
100
AcDbLine
 62
7
  6
CONTINUOUS
 10
5.2381828417
 20
-14.3991798959
 11
5.2569062453
 21
-14.3808466325
  0
LINE
  5
5EA
100
AcDbEntity
  8
0
100
AcDbLine
 62
7
  6
CONTINUOUS
 10
5.0790339015
 20
-15.1325133691
 11
5.0883956025
 21
-15.1233466325
  0
LINE
  5
5EB
100
AcDbEntity
  8
0
100
AcDbLine
 62
7
  6
CONTINUOUS
 10
5.0883956025
 20
-15.0958466325
 11
5.0696722005
 21
-15.1095966325
  0
LINE
  5
5EC
100
AcDbEntity
  8
0
100
AcDbLine
 62
7
  6
CONTINUOUS
 10
5.2288211374
 20
-14.3716798959
 11
5.2147785859
 21
-14.3808466325
  0
LINE
  5
5ED
100
AcDbEntity
  8
0
100
AcDbLine
 62
7
  6
CONTINUOUS
 10
5.093076453
 20
-14.4908466325
 11
5.1071190177
 21
-14.4816798959
  0
LINE
  5
5EE
100
AcDbEntity
  8
0
100
AcDbLine
 62
7
  6
CONTINUOUS
 10
5.1024381541
 20
-14.4541798959
 11
5.083714752
 21
-14.4633466325
  0
LINE
  5
5EF
100
AcDbEntity
  8
0
100
AcDbLine
 62
7
  6
CONTINUOUS
 10
5.2194594364
 20
-14.4083466325
 11
5.2381828417
 21
-14.3991798959
  0
LINE
  5
5F0
100
AcDbEntity
  8
0
100
AcDbLine
 62
7
  6
CONTINUOUS
 10
5.1024381541
 20
-15.0912633691
 11
5.0883956025
 21
-15.0958466325
  0
LINE
  5
5F1
100
AcDbEntity
  8
0
100
AcDbLine
 62
7
  6
CONTINUOUS
 10
5.0883956025
 20
-15.1233466325
 11
5.1024381541
 21
-15.1187633691
  0
LINE
  5
5F2
100
AcDbEntity
  8
0
100
AcDbLine
 62
7
  6
CONTINUOUS
 10
5.1071190177
 20
-14.2341798959
 11
5.083714752
 21
-14.2387633691
  0
LINE
  5
5F3
100
AcDbEntity
  8
0
100
AcDbLine
 62
7
  6
CONTINUOUS
 10
5.1258424197
 20
-14.4129298959
 11
5.1960551838
 21
-14.4129298959
  0
LINE
  5
5F4
100
AcDbEntity
  8
0
100
AcDbLine
 62
7
  6
CONTINUOUS
 10
5.1960551838
 20
-14.3854298959
 11
5.1258424197
 21
-14.3854298959
  0
LINE
  5
5F5
100
AcDbEntity
  8
0
100
AcDbLine
 62
7
  6
CONTINUOUS
 10
5.1492466722
 20
-14.3029298959
 11
5.1773317753
 21
-14.3029298959
  0
LINE
  5
5F6
100
AcDbEntity
  8
0
100
AcDbLine
 62
7
  6
CONTINUOUS
 10
5.1773317753
 20
-14.2616798959
 11
5.2147785859
 21
-14.2616798959
  0
LINE
  5
5F7
100
AcDbEntity
  8
0
100
AcDbLine
 62
7
  6
CONTINUOUS
 10
5.2194594364
 20
-14.2341798959
 11
5.1492466722
 21
-14.2341798959
  0
LINE
  5
5F8
100
AcDbEntity
  8
0
100
AcDbLine
 62
7
  6
CONTINUOUS
 10
5.0509487985
 20
-14.1975131593
 11
5.2709487985
 21
-14.1975131593
  0
LINE
  5
5F9
100
AcDbEntity
  8
0
100
AcDbLine
 62
7
  6
CONTINUOUS
 10
5.2428636922
 20
-14.1700131593
 11
5.1679700742
 21
-14.1700131593
  0
LINE
  5
5FA
100
AcDbEntity
  8
0
100
AcDbLine
 62
7
  6
CONTINUOUS
 10
5.1398849712
 20
-14.1700131593
 11
5.0790339015
 21
-14.1700131593
  0
LINE
  5
5FB
100
AcDbEntity
  8
0
100
AcDbLine
 62
7
  6
CONTINUOUS
 10
5.1679700742
 20
-14.0508466325
 11
5.1398849712
 21
-14.0508466325
  0
LINE
  5
5FC
100
AcDbEntity
  8
0
100
AcDbLine
 62
7
  6
CONTINUOUS
 10
5.2709487985
 20
-14.0325131593
 11
5.2428636922
 21
-14.0325131593
  0
LINE
  5
5FD
100
AcDbEntity
  8
0
100
AcDbLine
 62
7
  6
CONTINUOUS
 10
5.0790339015
 20
-14.0325131593
 11
5.0509487985
 21
-14.0325131593
  0
LINE
  5
5FE
100
AcDbEntity
  8
06___PRT_ALL_SURFS
100
AcDbLine
 62
7
  6
CONTINUOUS
 10
4.6109487985
 20
-13.8495966325
 11
5.6109487985
 21
-13.8495966325
  0
LINE
  5
5FF
100
AcDbEntity
  8
0
100
AcDbLine
 62
7
  6
CONTINUOUS
 10
9.7140334236
 20
-13.844706171
 11
11.7140334236
 21
-13.844706171
  0
LINE
  5
600
100
AcDbEntity
  8
0
100
AcDbLine
 62
7
  6
CONTINUOUS
 10
5.2194594364
 20
-14.4541798959
 11
5.1960551838
 21
-14.4495966325
  0
LINE
  5
601
100
AcDbEntity
  8
0
100
AcDbLine
 62
7
  6
CONTINUOUS
 10
5.1024381541
 20
-14.4083466325
 11
5.1258424197
 21
-14.4129298959
  0
LINE
  5
602
100
AcDbEntity
  8
0
100
AcDbLine
 62
7
  6
CONTINUOUS
 10
5.1960551838
 20
-14.4770966325
 11
5.2147785859
 21
-14.4816798959
  0
LINE
  5
603
100
AcDbEntity
  8
0
100
AcDbLine
 62
7
  6
CONTINUOUS
 10
5.1258424197
 20
-14.3854298959
 11
5.1071190177
 21
-14.3808466325
  0
LINE
  5
604
100
AcDbEntity
  8
0
100
AcDbLine
 62
7
  6
CONTINUOUS
 10
5.2381828417
 20
-14.2387633691
 11
5.2194594364
 21
-14.2341798959
  0
LINE
  5
605
100
AcDbEntity
  8
0
100
AcDbLine
 62
7
  6
CONTINUOUS
 10
5.2147785859
 20
-14.2616798959
 11
5.2288211374
 21
-14.2662633691
  0
LINE
  5
606
100
AcDbEntity
  8
0
100
AcDbLine
 62
7
  6
CONTINUOUS
 10
5.083714752
 20
-14.3991798959
 11
5.1024381541
 21
-14.4083466325
  0
LINE
  5
607
100
AcDbEntity
  8
0
100
AcDbLine
 62
7
  6
CONTINUOUS
 10
5.2381828417
 20
-14.4633466325
 11
5.2194594364
 21
-14.4541798959
  0
LINE
  5
608
100
AcDbEntity
  8
0
100
AcDbLine
 62
7
  6
CONTINUOUS
 10
5.2147785859
 20
-14.4816798959
 11
5.2288211374
 21
-14.4908466325
  0
LINE
  5
609
100
AcDbEntity
  8
0
100
AcDbLine
 62
7
  6
CONTINUOUS
 10
5.1071190177
 20
-14.3808466325
 11
5.093076453
 21
-14.3716798959
  0
LINE
  5
60A
100
AcDbEntity
  8
0
100
AcDbLine
 62
7
  6
CONTINUOUS
 10
5.06499135
 20
-14.3808466325
 11
5.083714752
 21
-14.3991798959
  0
LINE
  5
60B
100
AcDbEntity
  8
0
100
AcDbLine
 62
7
  6
CONTINUOUS
 10
5.2569062453
 20
-14.4816798959
 11
5.2381828417
 21
-14.4633466325
  0
LINE
  5
60C
100
AcDbEntity
  8
0
100
AcDbLine
 62
7
  6
CONTINUOUS
 10
5.2569062453
 20
-14.2570966325
 11
5.2381828417
 21
-14.2387633691
  0
LINE
  5
60D
100
AcDbEntity
  8
0
100
AcDbLine
 62
7
  6
CONTINUOUS
 10
5.093076453
 20
-14.3716798959
 11
5.083714752
 21
-14.3579298959
  0
LINE
  5
60E
100
AcDbEntity
  8
0
100
AcDbLine
 62
7
  6
CONTINUOUS
 10
5.2288211374
 20
-14.4908466325
 11
5.2381828417
 21
-14.5045966325
  0
LINE
  5
60F
100
AcDbEntity
  8
0
100
AcDbLine
 62
7
  6
CONTINUOUS
 10
5.2288211374
 20
-14.2662633691
 11
5.2381828417
 21
-14.2800133691
  0
LINE
  5
610
100
AcDbEntity
  8
0
100
AcDbLine
 62
7
  6
CONTINUOUS
 10
5.055629649
 20
-14.3625133691
 11
5.06499135
 21
-14.3808466325
  0
LINE
  5
611
100
AcDbEntity
  8
0
100
AcDbLine
 62
7
  6
CONTINUOUS
 10
5.2662679476
 20
-14.5000133691
 11
5.2569062453
 21
-14.4816798959
  0
LINE
  5
612
100
AcDbEntity
  8
0
100
AcDbLine
 62
7
  6
CONTINUOUS
 10
5.2662679476
 20
-14.2754298959
 11
5.2569062453
 21
-14.2570966325
  0
LINE
  5
613
100
AcDbEntity
  8
0
100
AcDbLine
 62
7
  6
CONTINUOUS
 10
5.1398849712
 20
-15.3433466325
 11
5.1445658217
 21
-15.3570966325
  0
LINE
  5
614
100
AcDbEntity
  8
0
100
AcDbLine
 62
7
  6
CONTINUOUS
 10
5.1398849712
 20
-15.1325133691
 11
5.1445658217
 21
-15.1462633691
  0
LINE
  5
615
100
AcDbEntity
  8
0
100
AcDbLine
 62
7
  6
CONTINUOUS
 10
5.2381828417
 20
-15.9987632642
 11
5.2428636922
 21
-16.0170966325
  0
LINE
  5
616
100
AcDbEntity
  8
0
100
AcDbLine
 62
7
  6
CONTINUOUS
 10
5.083714752
 20
-14.3579298959
 11
5.0790339015
 21
-14.3395966325
  0
LINE
  5
617
100
AcDbEntity
  8
0
100
AcDbLine
 62
7
  6
CONTINUOUS
 10
5.2381828417
 20
-14.5045966325
 11
5.2428636922
 21
-14.5229298959
  0
LINE
  5
618
100
AcDbEntity
  8
0
100
AcDbLine
 62
7
  6
CONTINUOUS
 10
5.2381828417
 20
-14.2800133691
 11
5.2428636922
 21
-14.2983466325
  0
LINE
  5
619
100
AcDbEntity
  8
0
100
AcDbLine
 62
7
  6
CONTINUOUS
 10
5.2709487985
 20
-16.0170966325
 11
5.2662679476
 21
-15.9941800008
  0
LINE
  5
61A
100
AcDbEntity
  8
0
100
AcDbLine
 62
7
  6
CONTINUOUS
 10
5.1726509248
 20
-15.1508466325
 11
5.1679700742
 21
-15.1279298959
  0
LINE
  5
61B
100
AcDbEntity
  8
0
100
AcDbLine
 62
7
  6
CONTINUOUS
 10
5.0509487985
 20
-14.3395966325
 11
5.055629649
 21
-14.3625133691
  0
LINE
  5
61C
100
AcDbEntity
  8
0
100
AcDbLine
 62
7
  6
CONTINUOUS
 10
5.2709487985
 20
-14.5229298959
 11
5.2662679476
 21
-14.5000133691
  0
LINE
  5
61D
100
AcDbEntity
  8
0
100
AcDbLine
 62
7
  6
CONTINUOUS
 10
5.2709487985
 20
-14.2983466325
 11
5.2662679476
 21
-14.2754298959
  0
LINE
  5
61E
100
AcDbEntity
  8
06___PRT_ALL_SURFS
100
AcDbLine
 62
7
  6
CONTINUOUS
 10
5.6109487985
 20
-13.8495966325
 11
5.6109487985
 21
-17.8495966325
  0
LINE
  5
61F
100
AcDbEntity
  8
0
100
AcDbLine
 62
7
  6
CONTINUOUS
 10
5.055629649
 20
-16.7045966325
 11
5.0509487985
 21
-16.7275132642
  0
LINE
  5
620
100
AcDbEntity
  8
0
100
AcDbLine
 62
7
  6
CONTINUOUS
 10
5.2662679476
 20
-16.0766800008
 11
5.2709487985
 21
-16.0537632642
  0
LINE
  5
621
100
AcDbEntity
  8
0
100
AcDbLine
 62
7
  6
CONTINUOUS
 10
5.055629649
 20
-17.6120966325
 11
5.0509487985
 21
-17.6350133035
  0
LINE
  5
622
100
AcDbEntity
  8
0
100
AcDbLine
 62
7
  6
CONTINUOUS
 10
5.2662679476
 20
-16.7870966325
 11
5.2709487985
 21
-16.7641800008
  0
LINE
  5
623
100
AcDbEntity
  8
0
100
AcDbLine
 62
7
  6
CONTINUOUS
 10
5.2662679476
 20
-17.2637633166
 11
5.2709487985
 21
-17.2408466325
  0
LINE
  5
624
100
AcDbEntity
  8
0
100
AcDbLine
 62
7
  6
CONTINUOUS
 10
5.2662679476
 20
-17.6991799647
 11
5.2709487985
 21
-17.676263297
  0
LINE
  5
625
100
AcDbEntity
  8
0
100
AcDbLine
 62
7
  6
CONTINUOUS
 10
5.1726509248
 20
-16.0170966325
 11
5.1773317753
 21
-15.9987632642
  0
LINE
  5
626
100
AcDbEntity
  8
0
100
AcDbLine
 62
7
  6
CONTINUOUS
 10
5.1679700742
 20
-16.0629300008
 11
5.1726509248
 21
-16.0445966325
  0
LINE
  5
627
100
AcDbEntity
  8
0
100
AcDbLine
 62
7
  6
CONTINUOUS
 10
5.2428636922
 20
-16.0537632642
 11
5.2381828417
 21
-16.0720966325
  0
LINE
  5
628
100
AcDbEntity
  8
0
100
AcDbLine
 62
7
  6
CONTINUOUS
 10
5.0790339015
 20
-16.7275132642
 11
5.083714752
 21
-16.7091800008
  0
LINE
  5
629
100
AcDbEntity
  8
0
100
AcDbLine
 62
7
  6
CONTINUOUS
 10
5.2428636922
 20
-16.7641800008
 11
5.2381828417
 21
-16.7825132642
  0
LINE
  5
62A
100
AcDbEntity
  8
0
100
AcDbLine
 62
7
  6
CONTINUOUS
 10
5.0790339015
 20
-17.6350133035
 11
5.083714752
 21
-17.6166799614
  0
LINE
  5
62B
100
AcDbEntity
  8
0
100
AcDbLine
 62
7
  6
CONTINUOUS
 10
5.2428636922
 20
-17.2408466325
 11
5.2381828417
 21
-17.2591799483
  0
LINE
  5
62C
100
AcDbEntity
  8
0
100
AcDbLine
 62
7
  6
CONTINUOUS
 10
5.2428636922
 20
-17.676263297
 11
5.2381828417
 21
-17.6945966325
  0
LINE
  5
62D
100
AcDbEntity
  8
0
100
AcDbLine
 62
7
  6
CONTINUOUS
 10
5.0790339015
 20
-16.0170966325
 11
5.083714752
 21
-16.0033466325
  0
LINE
  5
62E
100
AcDbEntity
  8
0
100
AcDbLine
 62
7
  6
CONTINUOUS
 10
5.1445658217
 20
-16.0445966325
 11
5.1398849712
 21
-16.0583466325
  0
LINE
  5
62F
100
AcDbEntity
  8
0
100
AcDbLine
 62
7
  6
CONTINUOUS
 10
5.1586083732
 20
-15.9758466325
 11
5.1492466722
 21
-15.9941800008
  0
LINE
  5
630
100
AcDbEntity
  8
0
100
AcDbLine
 62
7
  6
CONTINUOUS
 10
5.1586083732
 20
-16.0812632642
 11
5.1679700742
 21
-16.0629300008
  0
LINE
  5
631
100
AcDbEntity
  8
0
100
AcDbLine
 62
7
  6
CONTINUOUS
 10
5.06499135
 20
-16.6862632642
 11
5.055629649
 21
-16.7045966325
  0
LINE
  5
632
100
AcDbEntity
  8
0
100
AcDbLine
 62
7
  6
CONTINUOUS
 10
5.2522253948
 20
-16.0995966325
 11
5.2662679476
 21
-16.0766800008
  0
LINE
  5
633
100
AcDbEntity
  8
0
100
AcDbLine
 62
7
  6
CONTINUOUS
 10
5.1773317753
 20
-15.9987632642
 11
5.1866934763
 21
-15.9850133691
  0
LINE
  5
634
100
AcDbEntity
  8
0
100
AcDbLine
 62
7
  6
CONTINUOUS
 10
5.1398849712
 20
-16.0583466325
 11
5.1305232702
 21
-16.0720966325
  0
LINE
  5
635
100
AcDbEntity
  8
0
100
AcDbLine
 62
7
  6
CONTINUOUS
 10
5.0696722005
 20
-15.3204298959
 11
5.055629649
 21
-15.3387633691
  0
LINE
  5
636
100
AcDbEntity
  8
0
100
AcDbLine
 62
7
  6
CONTINUOUS
 10
5.0696722005
 20
-15.9804298959
 11
5.055629649
 21
-15.9987632642
  0
LINE
  5
637
100
AcDbEntity
  8
0
100
AcDbLine
 62
7
  6
CONTINUOUS
 10
5.0790339015
 20
-15.3433466325
 11
5.0883956025
 21
-15.3341798959
  0
LINE
  5
638
100
AcDbEntity
  8
0
100
AcDbLine
 62
7
  6
CONTINUOUS
 10
5.083714752
 20
-16.0033466325
 11
5.093076453
 21
-15.9941800008
  0
LINE
  5
639
100
AcDbEntity
  8
0
100
AcDbLine
 62
7
  6
CONTINUOUS
 10
5.1773317753
 20
-15.9575133691
 11
5.1586083732
 21
-15.9758466325
  0
LINE
  5
63A
100
AcDbEntity
  8
0
100
AcDbLine
 62
7
  6
CONTINUOUS
 10
5.0883956025
 20
-15.3066798959
 11
5.0696722005
 21
-15.3204298959
  0
LINE
  5
63B
100
AcDbEntity
  8
0
100
AcDbLine
 62
7
  6
CONTINUOUS
 10
5.2709487985
 20
-15.2975133691
 11
5.1632892237
 21
-15.3387633691
  0
LINE
  5
63C
100
AcDbEntity
  8
0
100
AcDbLine
 62
7
  6
CONTINUOUS
 10
5.1726509248
 20
-15.3662633691
 11
5.2709487985
 21
-15.3295966325
  0
LINE
  5
63D
100
AcDbEntity
  8
0
100
AcDbLine
 62
7
  6
CONTINUOUS
 10
5.2709487985
 20
-15.5083466325
 11
5.0509487985
 21
-15.5816798959
  0
LINE
  5
63E
100
AcDbEntity
  8
0
100
AcDbLine
 62
7
  6
CONTINUOUS
 10
5.1024381541
 20
-15.3020966325
 11
5.0883956025
 21
-15.3066798959
  0
LINE
  5
63F
100
AcDbEntity
  8
0
100
AcDbLine
 62
7
  6
CONTINUOUS
 10
5.0883956025
 20
-15.3341798959
 11
5.1024381541
 21
-15.3295966325
  0
LINE
  5
640
100
AcDbEntity
  8
0
100
AcDbLine
 62
7
  6
CONTINUOUS
 10
5.0696722005
 20
-15.6000133691
 11
5.1960551838
 21
-15.5587633691
  0
LINE
  5
641
100
AcDbEntity
  8
0
100
AcDbLine
 62
7
  6
CONTINUOUS
 10
5.2147785859
 20
-15.5541798959
 11
5.2709487985
 21
-15.5358466325
  0
LINE
  5
642
100
AcDbEntity
  8
0
100
AcDbLine
 62
7
  6
CONTINUOUS
 10
5.2569062453
 20
-16.8054300008
 11
5.2662679476
 21
-16.7870966325
  0
LINE
  5
643
100
AcDbEntity
  8
0
100
AcDbLine
 62
7
  6
CONTINUOUS
 10
5.06499135
 20
-17.5937633035
 11
5.055629649
 21
-17.6120966325
  0
LINE
  5
644
100
AcDbEntity
  8
0
100
AcDbLine
 62
7
  6
CONTINUOUS
 10
5.2569062453
 20
-17.2820966325
 11
5.2662679476
 21
-17.2637633166
  0
LINE
  5
645
100
AcDbEntity
  8
0
100
AcDbLine
 62
7
  6
CONTINUOUS
 10
5.2569062453
 20
-17.7175133002
 11
5.2662679476
 21
-17.6991799647
  0
LINE
  5
646
100
AcDbEntity
  8
0
100
AcDbLine
 62
7
  6
CONTINUOUS
 10
5.083714752
 20
-16.7091800008
 11
5.093076453
 21
-16.6954300008
  0
LINE
  5
647
100
AcDbEntity
  8
0
100
AcDbLine
 62
7
  6
CONTINUOUS
 10
5.2381828417
 20
-16.7825132642
 11
5.2288211374
 21
-16.7962632642
  0
LINE
  5
648
100
AcDbEntity
  8
0
100
AcDbLine
 62
7
  6
CONTINUOUS
 10
5.2381828417
 20
-17.2591799483
 11
5.2288211374
 21
-17.2729299483
  0
LINE
  5
649
100
AcDbEntity
  8
0
100
AcDbLine
 62
7
  6
CONTINUOUS
 10
5.1398849712
 20
-16.0995966325
 11
5.1586083732
 21
-16.0812632642
  0
LINE
  5
64A
100
AcDbEntity
  8
0
100
AcDbLine
 62
7
  6
CONTINUOUS
 10
5.2381828417
 20
-16.0720966325
 11
5.2241402869
 21
-16.0858466325
  0
LINE
  5
64B
100
AcDbEntity
  8
0
100
AcDbLine
 62
7
  6
CONTINUOUS
 10
5.083714752
 20
-16.6679300008
 11
5.06499135
 21
-16.6862632642
  0
LINE
  5
64C
100
AcDbEntity
  8
0
100
AcDbLine
 62
7
  6
CONTINUOUS
 10
5.0883956025
 20
-15.9666798959
 11
5.0696722005
 21
-15.9804298959
  0
LINE
  5
64D
100
AcDbEntity
  8
0
100
AcDbLine
 62
7
  6
CONTINUOUS
 10
5.1866934763
 20
-15.9850133691
 11
5.2007360343
 21
-15.9758466325
  0
LINE
  5
64E
100
AcDbEntity
  8
0
100
AcDbLine
 62
7
  6
CONTINUOUS
 10
5.2381828417
 20
-16.4616800008
 11
5.0509487985
 21
-16.5762632642
  0
LINE
  5
64F
100
AcDbEntity
  8
0
100
AcDbLine
 62
7
  6
CONTINUOUS
 10
5.0790339015
 20
-16.5900132642
 11
5.2709487985
 21
-16.4754300008
  0
LINE
  5
650
100
AcDbEntity
  8
0
100
AcDbLine
 62
7
  6
CONTINUOUS
 10
5.2288211374
 20
-16.1133466325
 11
5.2522253948
 21
-16.0995966325
  0
LINE
  5
651
100
AcDbEntity
  8
0
100
AcDbLine
 62
7
  6
CONTINUOUS
 10
5.093076453
 20
-15.9941800008
 11
5.1024381541
 21
-15.9895966325
  0
LINE
  5
652
100
AcDbEntity
  8
0
100
AcDbLine
 62
7
  6
CONTINUOUS
 10
5.1960551838
 20
-15.9483466325
 11
5.1773317753
 21
-15.9575133691
  0
LINE
  5
653
100
AcDbEntity
  8
0
100
AcDbLine
 62
7
  6
CONTINUOUS
 10
5.1024381541
 20
-15.9620966325
 11
5.0883956025
 21
-15.9666798959
  0
LINE
  5
654
100
AcDbEntity
  8
0
100
AcDbLine
 62
7
  6
CONTINUOUS
 10
5.1305232702
 20
-16.0720966325
 11
5.1164807187
 21
-16.0766800008
  0
LINE
  5
655
100
AcDbEntity
  8
0
100
AcDbLine
 62
7
  6
CONTINUOUS
 10
5.2241402869
 20
-16.0858466325
 11
5.2100977354
 21
-16.0904300008
  0
LINE
  5
656
100
AcDbEntity
  8
0
100
AcDbLine
 62
7
  6
CONTINUOUS
 10
5.083714752
 20
-17.6166799614
 11
5.093076453
 21
-17.6029299614
  0
LINE
  5
657
100
AcDbEntity
  8
0
100
AcDbLine
 62
7
  6
CONTINUOUS
 10
5.2381828417
 20
-17.6945966325
 11
5.2288211374
 21
-17.7083466325
  0
LINE
  5
658
100
AcDbEntity
  8
0
100
AcDbLine
 62
7
  6
CONTINUOUS
 10
5.2381828417
 20
-16.8237632642
 11
5.2569062453
 21
-16.8054300008
  0
LINE
  5
659
100
AcDbEntity
  8
0
100
AcDbLine
 62
7
  6
CONTINUOUS
 10
5.2381828417
 20
-17.3004299483
 11
5.2569062453
 21
-17.2820966325
  0
LINE
  5
65A
100
AcDbEntity
  8
0
100
AcDbLine
 62
7
  6
CONTINUOUS
 10
5.083714752
 20
-17.5754299614
 11
5.06499135
 21
-17.5937633035
  0
LINE
  5
65B
100
AcDbEntity
  8
0
100
AcDbLine
 62
7
  6
CONTINUOUS
 10
5.093076453
 20
-16.6954300008
 11
5.1071190177
 21
-16.6862632642
  0
LINE
  5
65C
100
AcDbEntity
  8
0
100
AcDbLine
 62
7
  6
CONTINUOUS
 10
5.2288211374
 20
-16.7962632642
 11
5.2147785859
 21
-16.8054300008
  0
LINE
  5
65D
100
AcDbEntity
  8
0
100
AcDbLine
 62
7
  6
CONTINUOUS
 10
5.2288211374
 20
-17.2729299483
 11
5.2147785859
 21
-17.2820966325
  0
LINE
  5
65E
100
AcDbEntity
  8
0
100
AcDbLine
 62
7
  6
CONTINUOUS
 10
5.1024381541
 20
-16.6587632642
 11
5.083714752
 21
-16.6679300008
  0
LINE
  5
65F
100
AcDbEntity
  8
0
100
AcDbLine
 62
7
  6
CONTINUOUS
 10
5.2194594364
 20
-16.8329300008
 11
5.2381828417
 21
-16.8237632642
  0
LINE
  5
660
100
AcDbEntity
  8
0
100
AcDbLine
 62
7
  6
CONTINUOUS
 10
5.2381828417
 20
-17.7358466325
 11
5.2569062453
 21
-17.7175133002
  0
LINE
  5
661
100
AcDbEntity
  8
0
100
AcDbLine
 62
7
  6
CONTINUOUS
 10
5.2288211374
 20
-17.7083466325
 11
5.2147785859
 21
-17.7175133002
  0
LINE
  5
662
100
AcDbEntity
  8
0
100
AcDbLine
 62
7
  6
CONTINUOUS
 10
5.2194594364
 20
-17.3095966325
 11
5.2381828417
 21
-17.3004299483
  0
LINE
  5
663
100
AcDbEntity
  8
0
100
AcDbLine
 62
7
  6
CONTINUOUS
 10
5.2194594364
 20
-17.745013299
 11
5.2381828417
 21
-17.7358466325
  0
LINE
  5
664
100
AcDbEntity
  8
0
100
AcDbLine
 62
7
  6
CONTINUOUS
 10
5.2709487985
 20
-17.3508466325
 11
5.0509487985
 21
-17.4241799746
  0
LINE
  5
665
100
AcDbEntity
  8
0
100
AcDbLine
 62
7
  6
CONTINUOUS
 10
5.0696722005
 20
-17.4425132904
 11
5.1960551838
 21
-17.4012632904
  0
LINE
  5
666
100
AcDbEntity
  8
0
100
AcDbLine
 62
7
  6
CONTINUOUS
 10
5.2147785859
 20
-17.3966799746
 11
5.2709487985
 21
-17.3783466325
  0
LINE
  5
667
100
AcDbEntity
  8
0
100
AcDbLine
 62
7
  6
CONTINUOUS
 10
5.093076453
 20
-17.6029299614
 11
5.1071190177
 21
-17.5983466325
  0
LINE
  5
668
100
AcDbEntity
  8
0
100
AcDbLine
 62
7
  6
CONTINUOUS
 10
11.4334976057
 20
-10.6658507065
 11
11.7283016282
 21
-10.6658507065
  0
LINE
  5
669
100
AcDbEntity
  8
0
100
AcDbLine
 62
7
  6
CONTINUOUS
 10
11.6451530072
 20
-10.454597049
 11
11.6814502491
 21
-10.454597049
  0
LINE
  5
66A
100
AcDbEntity
  8
0
100
AcDbLine
 62
7
  6
CONTINUOUS
 10
9.7140334236
 20
-13.844706171
 11
9.7140334236
 21
-17.844706171
  0
LINE
  5
66B
100
AcDbEntity
  8
0
100
AcDbLine
 62
7
  6
CONTINUOUS
 10
11.6139417758
 20
-11.9757228229
 11
11.6533085651
 21
-11.8963280761
  0
LINE
  5
66C
100
AcDbEntity
  8
0
100
AcDbLine
 62
7
  6
CONTINUOUS
 10
11.7108335046
 20
-11.7803120613
 11
11.7999747783
 21
-11.6005323795
  0
LINE
  5
66D
100
AcDbEntity
  8
0
100
AcDbLine
 62
7
  6
CONTINUOUS
 10
10.7477474743
 20
-8.6290207843
 11
10.7465520662
 21
-8.6540449449
  0
LINE
  5
66E
100
AcDbEntity
  8
0
100
AcDbLine
 62
7
  6
CONTINUOUS
 10
10.7488854788
 20
-8.6067097271
 11
10.7477474743
 21
-8.6290207843
  0
LINE
  5
66F
100
AcDbEntity
  8
0
100
AcDbLine
 62
7
  6
CONTINUOUS
 10
10.7499669331
 20
-8.5868777996
 11
10.7488854788
 21
-8.6067097271
  0
LINE
  5
670
100
AcDbEntity
  8
0
100
AcDbLine
 62
7
  6
CONTINUOUS
 10
10.7510036472
 20
-8.5691214524
 11
10.7499669331
 21
-8.5868777996
  0
LINE
  5
671
100
AcDbEntity
  8
0
100
AcDbLine
 62
7
  6
CONTINUOUS
 10
10.7520062046
 20
-8.5531173191
 11
10.7510036472
 21
-8.5691214524
  0
LINE
  5
672
100
AcDbEntity
  8
0
100
AcDbLine
 62
7
  6
CONTINUOUS
 10
10.7529816769
 20
-8.5386429727
 11
10.7520062046
 21
-8.5531173191
  0
LINE
  5
673
100
AcDbEntity
  8
0
100
AcDbLine
 62
7
  6
CONTINUOUS
 10
10.7539375089
 20
-8.5255027265
 11
10.7529816769
 21
-8.5386429727
  0
LINE
  5
674
100
AcDbEntity
  8
0
100
AcDbLine
 62
7
  6
CONTINUOUS
 10
10.7548822219
 20
-8.5135184113
 11
10.7539375089
 21
-8.5255027265
  0
LINE
  5
675
100
AcDbEntity
  8
0
100
AcDbLine
 62
7
  6
CONTINUOUS
 10
10.7793609978
 20
-8.6073440486
 11
10.7803307365
 21
-8.6253482998
  0
LINE
  5
676
100
AcDbEntity
  8
0
100
AcDbLine
 62
7
  6
CONTINUOUS
 10
10.7803307365
 20
-8.6253482998
 11
10.7813183157
 21
-8.6448426866
  0
LINE
  5
677
100
AcDbEntity
  8
0
100
AcDbLine
 62
7
  6
CONTINUOUS
 10
10.7813183157
 20
-8.6448426866
 11
10.7823224615
 21
-8.6658496946
  0
LINE
  5
678
100
AcDbEntity
  8
0
100
AcDbLine
 62
7
  6
CONTINUOUS
 10
10.7823224615
 20
-8.6658496946
 11
10.7833427937
 21
-8.6884064843
  0
LINE
  5
679
100
AcDbEntity
  8
0
100
AcDbLine
 62
7
  6
CONTINUOUS
 10
10.7833427937
 20
-8.6884064843
 11
10.7843810812
 21
-8.7125998627
  0
LINE
  5
67A
100
AcDbEntity
  8
0
100
AcDbLine
 62
7
  6
CONTINUOUS
 10
10.7843810812
 20
-8.7125998627
 11
10.7854395778
 21
-8.7385371878
  0
LINE
  5
67B
100
AcDbEntity
  8
0
100
AcDbLine
 62
7
  6
CONTINUOUS
 10
10.7854395778
 20
-8.7385371878
 11
10.786520633
 21
-8.7663389816
  0
LINE
  5
67C
100
AcDbEntity
  8
0
100
AcDbLine
 62
7
  6
CONTINUOUS
 10
10.786520633
 20
-8.7663389816
 11
10.7876266665
 21
-8.7961388285
  0
LINE
  5
67D
100
AcDbEntity
  8
0
100
AcDbLine
 62
7
  6
CONTINUOUS
 10
10.7876266665
 20
-8.7961388285
 11
10.7887601512
 21
-8.8280833344
  0
LINE
  5
67E
100
AcDbEntity
  8
0
100
AcDbLine
 62
7
  6
CONTINUOUS
 10
10.7887601512
 20
-8.8280833344
 11
10.7899236002
 21
-8.8623321161
  0
LINE
  5
67F
100
AcDbEntity
  8
0
100
AcDbLine
 62
7
  6
CONTINUOUS
 10
10.7899236002
 20
-8.8623321161
 11
10.7911195592
 21
-8.8990578191
  0
LINE
  5
680
100
AcDbEntity
  8
0
100
AcDbLine
 62
7
  6
CONTINUOUS
 10
10.7911195592
 20
-8.8990578191
 11
10.7923510733
 21
-8.9384615653
  0
LINE
  5
681
100
AcDbEntity
  8
0
100
AcDbLine
 62
7
  6
CONTINUOUS
 10
10.7923510733
 20
-8.9384615653
 11
10.7936224849
 21
-8.980803239
  0
LINE
  5
682
100
AcDbEntity
  8
0
100
AcDbLine
 62
7
  6
CONTINUOUS
 10
10.7936224849
 20
-8.980803239
 11
10.7949383644
 21
-9.0263723466
  0
LINE
  5
683
100
AcDbEntity
  8
0
100
AcDbLine
 62
7
  6
CONTINUOUS
 10
10.7949383644
 20
-9.0263723466
 11
10.7963021029
 21
-9.0754380527
  0
LINE
  5
684
100
AcDbEntity
  8
0
100
AcDbLine
 62
7
  6
CONTINUOUS
 10
10.7963021029
 20
-9.0754380527
 11
10.7977139182
 21
-9.1281651542
  0
LINE
  5
685
100
AcDbEntity
  8
0
100
AcDbLine
 62
7
  6
CONTINUOUS
 10
10.8853151287
 20
-13.7820246731
 11
10.8869690749
 21
-13.844706171
  0
LINE
  5
686
100
AcDbEntity
  8
0
100
AcDbLine
 62
7
  6
CONTINUOUS
 10
10.7977139182
 20
-9.1281651542
 11
10.7991735075
 21
-9.1846960349
  0
LINE
  5
687
100
AcDbEntity
  8
0
100
AcDbLine
 62
7
  6
CONTINUOUS
 10
10.8834091378
 20
-13.7065262343
 11
10.8853151287
 21
-13.7820246731
  0
LINE
  5
688
100
AcDbEntity
  8
0
100
AcDbLine
 62
7
  6
CONTINUOUS
 10
10.7991735075
 20
-9.1846960349
 11
10.8006805718
 21
-9.2451672026
  0
LINE
  5
689
100
AcDbEntity
  8
0
100
AcDbLine
 62
7
  6
CONTINUOUS
 10
10.8813965346
 20
-13.6231897425
 11
10.8834091378
 21
-13.7065262343
  0
LINE
  5
68A
100
AcDbEntity
  8
0
100
AcDbLine
 62
7
  6
CONTINUOUS
 10
10.8006805718
 20
-9.2451672026
 11
10.8022348157
 21
-9.3097079648
  0
LINE
  5
68B
100
AcDbEntity
  8
0
100
AcDbLine
 62
7
  6
CONTINUOUS
 10
10.8022348157
 20
-9.3097079648
 11
10.8038376383
 21
-9.3785127857
  0
LINE
  5
68C
100
AcDbEntity
  8
0
100
AcDbLine
 62
7
  6
CONTINUOUS
 10
10.879265377
 20
-13.5310461058
 11
10.8813965346
 21
-13.6231897425
  0
LINE
  5
68D
100
AcDbEntity
  8
0
100
AcDbLine
 62
7
  6
CONTINUOUS
 10
10.8038376383
 20
-9.3785127857
 11
10.8055009371
 21
-9.4522480389
  0
LINE
  5
68E
100
AcDbEntity
  8
0
100
AcDbLine
 62
7
  6
CONTINUOUS
 10
10.8769959326
 20
-13.4287031199
 11
10.879265377
 21
-13.5310461058
  0
LINE
  5
68F
100
AcDbEntity
  8
0
100
AcDbLine
 62
7
  6
CONTINUOUS
 10
10.8055009371
 20
-9.4522480389
 11
10.807240639
 21
-9.5318234763
  0
LINE
  5
690
100
AcDbEntity
  8
0
100
AcDbLine
 62
7
  6
CONTINUOUS
 10
10.8745805301
 20
-13.3152328033
 11
10.8769959326
 21
-13.4287031199
  0
LINE
  5
691
100
AcDbEntity
  8
0
100
AcDbLine
 62
7
  6
CONTINUOUS
 10
10.807240639
 20
-9.5318234763
 11
10.8090718263
 21
-9.6181851428
  0
LINE
  5
692
100
AcDbEntity
  8
0
100
AcDbLine
 62
7
  6
CONTINUOUS
 10
10.8090718263
 20
-9.6181851428
 11
10.8110037914
 21
-9.7120622377
  0
LINE
  5
693
100
AcDbEntity
  8
0
100
AcDbLine
 62
7
  6
CONTINUOUS
 10
10.8720230453
 20
-13.1902742225
 11
10.8745805301
 21
-13.3152328033
  0
LINE
  5
694
100
AcDbEntity
  8
0
100
AcDbLine
 62
7
  6
CONTINUOUS
 10
10.8110037914
 20
-9.7120622377
 11
10.8130434488
 21
-9.8140932238
  0
LINE
  5
695
100
AcDbEntity
  8
0
100
AcDbLine
 62
7
  6
CONTINUOUS
 10
10.8693282248
 20
-13.0536102063
 11
10.8720230453
 21
-13.1902742225
  0
LINE
  5
696
100
AcDbEntity
  8
0
100
AcDbLine
 62
7
  6
CONTINUOUS
 10
10.8130434488
 20
-9.8140932238
 11
10.8152002022
 21
-9.9250544444
  0
LINE
  5
697
100
AcDbEntity
  8
0
100
AcDbLine
 62
7
  6
CONTINUOUS
 10
10.8665013455
 20
-12.9051769592
 11
10.8693282248
 21
-13.0536102063
  0
LINE
  5
698
100
AcDbEntity
  8
0
100
AcDbLine
 62
7
  6
CONTINUOUS
 10
10.8152002022
 20
-9.9250544444
 11
10.8174890571
 21
-10.0460332799
  0
LINE
  5
699
100
AcDbEntity
  8
0
100
AcDbLine
 62
7
  6
CONTINUOUS
 10
10.8635476258
 20
-12.745054648
 11
10.8665013455
 21
-12.9051769592
  0
LINE
  5
69A
100
AcDbEntity
  8
0
100
AcDbLine
 62
7
  6
CONTINUOUS
 10
10.8174890571
 20
-10.0460332799
 11
10.8199261545
 21
-10.1782059594
  0
LINE
  5
69B
100
AcDbEntity
  8
0
100
AcDbLine
 62
7
  6
CONTINUOUS
 10
10.8604594095
 20
-12.5727588205
 11
10.8635476258
 21
-12.745054648
  0
LINE
  5
69C
100
AcDbEntity
  8
0
100
AcDbLine
 62
7
  6
CONTINUOUS
 10
10.8199261545
 20
-10.1782059594
 11
10.8225301803
 21
-10.3229013062
  0
LINE
  5
69D
100
AcDbEntity
  8
0
100
AcDbLine
 62
7
  6
CONTINUOUS
 10
10.8225301803
 20
-10.3229013062
 11
10.8253244593
 21
-10.48170446
  0
LINE
  5
69E
100
AcDbEntity
  8
0
100
AcDbLine
 62
7
  6
CONTINUOUS
 10
10.8572033875
 20
-12.3864284556
 11
10.8604594095
 21
-12.5727588205
  0
LINE
  5
69F
100
AcDbEntity
  8
0
100
AcDbLine
 62
7
  6
CONTINUOUS
 10
10.8253244593
 20
-10.48170446
 11
10.8283625074
 21
-10.6579325033
  0
LINE
  5
6A0
100
AcDbEntity
  8
0
100
AcDbLine
 62
7
  6
CONTINUOUS
 10
10.8537399211
 20
-12.1838563223
 11
10.8572033875
 21
-12.3864284556
  0
LINE
  5
6A1
100
AcDbEntity
  8
0
100
AcDbLine
 62
7
  6
CONTINUOUS
 10
10.8283625074
 20
-10.6579325033
 11
10.8316876435
 21
-10.8543073626
  0
LINE
  5
6A2
100
AcDbEntity
  8
0
100
AcDbLine
 62
7
  6
CONTINUOUS
 10
10.8316876435
 20
-10.8543073626
 11
10.8352564179
 21
-11.0681444039
  0
LINE
  5
6A3
100
AcDbEntity
  8
0
100
AcDbLine
 62
7
  6
CONTINUOUS
 10
10.8352564179
 20
-11.0681444039
 11
10.8457175619
 21
-11.7028041911
  0
LWPOLYLINE
  5
6A4
100
AcDbEntity
  8
0
100
AcDbPolyline
 62
7
  6
CONTINUOUS
 90
3
 70
0
 10
10.8457175619
 20
-11.7028041911
 10
10.8478857627
 20
-11.833965764
 10
10.8537399211
 20
-12.1838563223
  0
LINE
  5
6A5
100
AcDbEntity
  8
0
100
AcDbLine
 62
7
  6
CONTINUOUS
 10
10.7518016282
 20
-13.844706171
 11
10.7518016282
 21
-13.5535068025
  0
LINE
  5
6A6
100
AcDbEntity
  8
0
100
AcDbLine
 62
7
  6
CONTINUOUS
 10
10.8618016282
 20
-13.844706171
 11
10.8618016282
 21
-13.5535068025
  0
LINE
  5
6A7
100
AcDbEntity
  8
0
100
AcDbLine
 62
7
  6
CONTINUOUS
 10
10.6904904839
 20
-11.2409298007
 11
10.6828002058
 21
-11.7080605153
  0
LINE
  5
6A8
100
AcDbEntity
  8
0
100
AcDbLine
 62
7
  6
CONTINUOUS
 10
10.6963288351
 20
-10.8892737691
 11
10.6904904839
 21
-11.2409298007
  0
LINE
  5
6A9
100
AcDbEntity
  8
0
100
AcDbLine
 62
7
  6
CONTINUOUS
 10
10.6828002058
 20
-11.7080605153
 11
10.6776063824
 21
-12.0208714122
  0
LINE
  5
6AA
100
AcDbEntity
  8
0
100
AcDbLine
 62
7
  6
CONTINUOUS
 10
10.6776063824
 20
-12.0208714122
 11
10.6743796261
 21
-12.2123148116
  0
LINE
  5
6AB
100
AcDbEntity
  8
0
100
AcDbLine
 62
7
  6
CONTINUOUS
 10
10.7017559779
 20
-10.5694727692
 11
10.6963288351
 21
-10.8892737691
  0
LINE
  5
6AC
100
AcDbEntity
  8
0
100
AcDbLine
 62
7
  6
CONTINUOUS
 10
10.6743796261
 20
-12.2123148116
 11
10.6712817496
 21
-12.3931046096
  0
LINE
  5
6AD
100
AcDbEntity
  8
0
100
AcDbLine
 62
7
  6
CONTINUOUS
 10
10.7050228736
 20
-10.3819275609
 11
10.7017559779
 21
-10.5694727692
  0
LINE
  5
6AE
100
AcDbEntity
  8
0
100
AcDbLine
 62
7
  6
CONTINUOUS
 10
10.6712817496
 20
-12.3931046096
 11
10.6682994884
 21
-12.5636892693
  0
LINE
  5
6AF
100
AcDbEntity
  8
0
100
AcDbLine
 62
7
  6
CONTINUOUS
 10
10.7080016849
 20
-10.2150258828
 11
10.7050228736
 21
-10.3819275609
  0
LINE
  5
6B0
100
AcDbEntity
  8
0
100
AcDbLine
 62
7
  6
CONTINUOUS
 10
10.6682994884
 20
-12.5636892693
 11
10.665434822
 21
-12.723765896
  0
LINE
  5
6B1
100
AcDbEntity
  8
0
100
AcDbLine
 62
7
  6
CONTINUOUS
 10
10.7107338602
 20
-10.0659231864
 11
10.7080016849
 21
-10.2150258828
  0
LINE
  5
6B2
100
AcDbEntity
  8
0
100
AcDbLine
 62
7
  6
CONTINUOUS
 10
10.665434822
 20
-12.723765896
 11
10.6626896138
 21
-12.8731831088
  0
LINE
  5
6B3
100
AcDbEntity
  8
0
100
AcDbLine
 62
7
  6
CONTINUOUS
 10
10.7132716276
 20
-9.9312530448
 11
10.7107338602
 21
-10.0659231864
  0
LINE
  5
6B4
100
AcDbEntity
  8
0
100
AcDbLine
 62
7
  6
CONTINUOUS
 10
10.6626896138
 20
-12.8731831088
 11
10.660061735
 21
-13.0121269748
  0
LINE
  5
6B5
100
AcDbEntity
  8
0
100
AcDbLine
 62
7
  6
CONTINUOUS
 10
10.7156570042
 20
-9.8083529475
 11
10.7132716276
 21
-9.9312530448
  0
LINE
  5
6B6
100
AcDbEntity
  8
0
100
AcDbLine
 62
7
  6
CONTINUOUS
 10
10.660061735
 20
-13.0121269748
 11
10.6575449653
 21
-13.1410772503
  0
LINE
  5
6B7
100
AcDbEntity
  8
0
100
AcDbLine
 62
7
  6
CONTINUOUS
 10
10.7179259341
 20
-9.6950318684
 11
10.7156570042
 21
-9.8083529475
  0
LINE
  5
6B8
100
AcDbEntity
  8
0
100
AcDbLine
 62
7
  6
CONTINUOUS
 10
10.6575449653
 20
-13.1410772503
 11
10.6551329042
 21
-13.2605643998
  0
LINE
  5
6B9
100
AcDbEntity
  8
0
100
AcDbLine
 62
7
  6
CONTINUOUS
 10
10.7201001186
 20
-9.5899419949
 11
10.7179259341
 21
-9.6950318684
  0
LINE
  5
6BA
100
AcDbEntity
  8
0
100
AcDbLine
 62
7
  6
CONTINUOUS
 10
10.6551329042
 20
-13.2605643998
 11
10.6528192825
 21
-13.3711363772
  0
LINE
  5
6BB
100
AcDbEntity
  8
0
100
AcDbLine
 62
7
  6
CONTINUOUS
 10
10.7221920213
 20
-9.4922540524
 11
10.7201001186
 21
-9.5899419949
  0
LINE
  5
6BC
100
AcDbEntity
  8
0
100
AcDbLine
 62
7
  6
CONTINUOUS
 10
10.6528192825
 20
-13.3711363772
 11
10.6505981086
 21
-13.473339138
  0
LINE
  5
6BD
100
AcDbEntity
  8
0
100
AcDbLine
 62
7
  6
CONTINUOUS
 10
10.724213958
 20
-9.4011918618
 11
10.7221920213
 21
-9.4922540524
  0
LINE
  5
6BE
100
AcDbEntity
  8
0
100
AcDbLine
 62
7
  6
CONTINUOUS
 10
10.6505981086
 20
-13.473339138
 11
10.6484634346
 21
-13.5677177584
  0
LINE
  5
6BF
100
AcDbEntity
  8
0
100
AcDbLine
 62
7
  6
CONTINUOUS
 10
10.7261779594
 20
-9.3160454349
 11
10.724213958
 21
-9.4011918618
  0
LINE
  5
6C0
100
AcDbEntity
  8
0
100
AcDbLine
 62
7
  6
CONTINUOUS
 10
10.6484634346
 20
-13.5677177584
 11
10.6464092948
 21
-13.6548101869
  0
LINE
  5
6C1
100
AcDbEntity
  8
0
100
AcDbLine
 62
7
  6
CONTINUOUS
 10
10.7280892502
 20
-9.2364411773
 11
10.7261779594
 21
-9.3160454349
  0
LINE
  5
6C2
100
AcDbEntity
  8
0
100
AcDbLine
 62
7
  6
CONTINUOUS
 10
10.6464092948
 20
-13.6548101869
 11
10.6444295022
 21
-13.7351477958
  0
LINE
  5
6C3
100
AcDbEntity
  8
0
100
AcDbLine
 62
7
  6
CONTINUOUS
 10
10.7299462597
 20
-9.1622879143
 11
10.7280892502
 21
-9.2364411773
  0
LINE
  5
6C4
100
AcDbEntity
  8
0
100
AcDbLine
 62
7
  6
CONTINUOUS
 10
10.6444295022
 20
-13.7351477958
 11
10.642517774
 21
-13.8092428196
  0
LINE
  5
6C5
100
AcDbEntity
  8
0
100
AcDbLine
 62
7
  6
CONTINUOUS
 10
10.7317471343
 20
-9.0934781762
 11
10.7299462597
 21
-9.1622879143
  0
LINE
  5
6C6
100
AcDbEntity
  8
0
100
AcDbLine
 62
7
  6
CONTINUOUS
 10
10.642517774
 20
-13.8092428196
 11
10.6415689071
 21
-13.844706171
  0
LINE
  5
6C7
100
AcDbEntity
  8
0
100
AcDbLine
 62
7
  6
CONTINUOUS
 10
10.7334900337
 20
-9.0298777267
 11
10.7317471343
 21
-9.0934781762
  0
LINE
  5
6C8
100
AcDbEntity
  8
0
100
AcDbLine
 62
7
  6
CONTINUOUS
 10
10.7351731915
 20
-8.9713262346
 11
10.7334900337
 21
-9.0298777267
  0
LINE
  5
6C9
100
AcDbEntity
  8
0
100
AcDbLine
 62
7
  6
CONTINUOUS
 10
10.7367954543
 20
-8.9176232864
 11
10.7351731915
 21
-8.9713262346
  0
LINE
  5
6CA
100
AcDbEntity
  8
0
100
AcDbLine
 62
7
  6
CONTINUOUS
 10
10.7383560274
 20
-8.8685439959
 11
10.7367954543
 21
-8.9176232864
  0
LINE
  5
6CB
100
AcDbEntity
  8
0
100
AcDbLine
 62
7
  6
CONTINUOUS
 10
10.7398542651
 20
-8.8238506138
 11
10.7383560274
 21
-8.8685439959
  0
LINE
  5
6CC
100
AcDbEntity
  8
0
100
AcDbLine
 62
7
  6
CONTINUOUS
 10
10.741292611
 20
-8.7832153142
 11
10.7398542651
 21
-8.8238506138
  0
LINE
  5
6CD
100
AcDbEntity
  8
0
100
AcDbLine
 62
7
  6
CONTINUOUS
 10
10.7426767408
 20
-8.7462421197
 11
10.741292611
 21
-8.7832153142
  0
LINE
  5
6CE
100
AcDbEntity
  8
0
100
AcDbLine
 62
7
  6
CONTINUOUS
 10
10.7440125516
 20
-8.7125650465
 11
10.7426767408
 21
-8.7462421197
  0
LINE
  5
6CF
100
AcDbEntity
  8
0
100
AcDbLine
 62
7
  6
CONTINUOUS
 10
10.7453051106
 20
-8.681872977
 11
10.7440125516
 21
-8.7125650465
  0
LINE
  5
6D0
100
AcDbEntity
  8
0
100
AcDbLine
 62
7
  6
CONTINUOUS
 10
10.7465520662
 20
-8.6540449449
 11
10.7453051106
 21
-8.681872977
  0
LWPOLYLINE
  5
6D1
100
AcDbEntity
  8
0
100
AcDbPolyline
 62
7
  6
CONTINUOUS
 90
33
 70
0
 10
11.2218017398
 20
-8.3174833108
 10
11.2078160539
 20
-8.318145092
 10
11.1915626762
 20
-8.3205993407
 10
11.1757435211
 20
-8.3248178858
 10
11.1606884359
 20
-8.3306594911
 10
11.1467109994
 20
-8.3378938283
 10
11.1340648586
 20
-8.3462032057
 10
11.1229212279
 20
-8.3552207162
 10
11.1133750786
 20
-8.364530002
 10
11.1054238038
 20
-8.3737267294
 10
11.0988541248
 20
-8.3826256547
 10
11.0933946654
 20
-8.3912158509
 10
11.0888483955
 20
-8.3994942982
 10
11.0851361626
 20
-8.4072921587
 10
11.0821809897
 20
-8.414416557
 10
11.0798575438
 20
-8.420797988
 10
11.0780288109
 20
-8.426469307
 10
11.0765582769
 20
-8.4315709756
 10
11.0753457225
 20
-8.4362372717
 10
11.0743209476
 20
-8.4405799399
 10
11.0734344223
 20
-8.4446905688
 10
11.0726509504
 20
-8.448643273
 10
11.0719452571
 20
-8.4524978212
 10
11.0712990005
 20
-8.4563023265
 10
11.070697846
 20
-8.4601012682
 10
11.0701298399
 20
-8.4639408122
 10
11.0695861274
 20
-8.4678602298
 10
11.0690598554
 20
-8.4718951158
 10
11.0685456223
 20
-8.4760785526
 10
11.0680390961
 20
-8.4804419913
 10
11.0675367446
 20
-8.4850159177
 10
11.0670360331
 20
-8.4898265178
 10
11.0668014333
 20
-8.4922010232
  0
LWPOLYLINE
  5
6D2
100
AcDbEntity
  8
0
100
AcDbPolyline
 62
7
  6
CONTINUOUS
 90
35
 70
0
 10
10.9118017396
 20
-8.3174833108
 10
10.8978892337
 20
-8.3181381756
 10
10.8816453633
 20
-8.3205821435
 10
10.8658053846
 20
-8.3247976908
 10
10.8507314088
 20
-8.3306400713
 10
10.8367641545
 20
-8.3378626625
 10
10.8241747125
 20
-8.3461228133
 10
10.8131072088
 20
-8.3550551187
 10
10.8035658918
 20
-8.364326967
 10
10.7955033538
 20
-8.3736269153
 10
10.7887945635
 20
-8.382712872
 10
10.7832750088
 20
-8.3914190962
 10
10.7787609401
 20
-8.3996659825
 10
10.7750800359
 20
-8.4074189804
 10
10.7721215454
 20
-8.4145702545
 10
10.7697738307
 20
-8.4210437429
 10
10.7679103236
 20
-8.426860723
 10
10.766404596
 20
-8.4321373182
 10
10.7651611781
 20
-8.4369901152
 10
10.7641108883
 20
-8.4415220819
 10
10.763204025
 20
-8.445819747
 10
10.762405016
 20
-8.4499530921
 10
10.7616877898
 20
-8.4539804769
 10
10.7610316377
 20
-8.4579596104
 10
10.760421468
 20
-8.4619380003
 10
10.7598461917
 20
-8.4659547717
 10
10.7592975483
 20
-8.4700425508
 10
10.7587693127
 20
-8.4742288243
 10
10.758256745
 20
-8.4785369717
 10
10.7577562033
 20
-8.4829870492
 10
10.757264858
 20
-8.4875964819
 10
10.7567804542
 20
-8.4923809129
 10
10.756301285
 20
-8.4973534221
 10
10.7558260209
 20
-8.5025253442
 10
10.7548822219
 20
-8.5135184113
  0
LWPOLYLINE
  5
6D3
100
AcDbEntity
  8
0
100
AcDbPolyline
 62
7
  6
CONTINUOUS
 90
33
 70
0
 10
11.0675899815
 20
-8.5004588318
 10
11.0670623918
 20
-8.4948371173
 10
11.0665335943
 20
-8.4894954253
 10
11.0660023421
 20
-8.4844177098
 10
11.0654669119
 20
-8.4795851469
 10
11.0649249572
 20
-8.4749758092
 10
11.064372591
 20
-8.4705587487
 10
11.0638045505
 20
-8.4662984363
 10
11.0632141036
 20
-8.4621566159
 10
11.0625924982
 20
-8.4580911819
 10
11.0619281574
 20
-8.4540546692
 10
11.0612054779
 20
-8.4499921684
 10
11.0604031376
 20
-8.4458391226
 10
11.0594947993
 20
-8.4415330976
 10
11.0584449085
 20
-8.4370017561
 10
11.0572037207
 20
-8.4321560832
 10
11.0557016803
 20
-8.4268897472
 10
11.0538419394
 20
-8.4210805845
 10
11.051495226
 20
-8.4146052626
 10
11.0485340166
 20
-8.4074434092
 10
11.0448482104
 20
-8.3996775723
 10
11.0403316266
 20
-8.3914248461
 10
11.034811949
 20
-8.3827176439
 10
11.0281021038
 20
-8.373629675
 10
11.0200302583
 20
-8.3643194203
 10
11.0104700992
 20
-8.3550320583
 10
10.9993772008
 20
-8.3460852929
 10
10.9867605417
 20
-8.3378166554
 10
10.9727659946
 20
-8.3305923058
 10
10.9576647538
 20
-8.3247543367
 10
10.9417980763
 20
-8.3205490445
 10
10.9255278994
 20
-8.3181207492
 10
10.9118015105
 20
-8.3174833108
  0
LINE
  5
6D4
100
AcDbEntity
  8
0
100
AcDbLine
 62
7
  6
CONTINUOUS
 10
10.7736575586
 20
-8.5251857477
 11
10.7744430893
 21
-8.5339858757
  0
LINE
  5
6D5
100
AcDbEntity
  8
0
100
AcDbLine
 62
7
  6
CONTINUOUS
 10
11.0836813858
 20
-8.5254400118
 11
11.0844774695
 21
-8.5343904056
  0
LINE
  5
6D6
100
AcDbEntity
  8
0
100
AcDbLine
 62
7
  6
CONTINUOUS
 10
11.0686449893
 20
-8.5125966504
 11
11.0675899815
 21
-8.5004588318
  0
LINE
  5
6D7
100
AcDbEntity
  8
0
100
AcDbLine
 62
7
  6
CONTINUOUS
 10
10.7744430893
 20
-8.5339858757
 11
10.7752711368
 21
-8.5441693793
  0
LINE
  5
6D8
100
AcDbEntity
  8
0
100
AcDbLine
 62
7
  6
CONTINUOUS
 10
11.0844774695
 20
-8.5343904056
 11
11.0853228475
 21
-8.5448354853
  0
LINE
  5
6D9
100
AcDbEntity
  8
0
100
AcDbLine
 62
7
  6
CONTINUOUS
 10
11.0697044095
 20
-8.5260143299
 11
11.0686449893
 21
-8.5125966504
  0
LINE
  5
6DA
100
AcDbEntity
  8
0
100
AcDbLine
 62
7
  6
CONTINUOUS
 10
10.7752711368
 20
-8.5441693793
 11
10.7761338843
 21
-8.5557381139
  0
LINE
  5
6DB
100
AcDbEntity
  8
0
100
AcDbLine
 62
7
  6
CONTINUOUS
 10
11.0853228475
 20
-8.5448354853
 11
11.0862120709
 21
-8.5568340149
  0
LINE
  5
6DC
100
AcDbEntity
  8
0
100
AcDbLine
 62
7
  6
CONTINUOUS
 10
11.0707738507
 20
-8.540831385
 11
11.0697044095
 21
-8.5260143299
  0
LINE
  5
6DD
100
AcDbEntity
  8
0
100
AcDbLine
 62
7
  6
CONTINUOUS
 10
10.7761338843
 20
-8.5557381139
 11
10.7770259163
 21
-8.568703214
  0
LINE
  5
6DE
100
AcDbEntity
  8
0
100
AcDbLine
 62
7
  6
CONTINUOUS
 10
11.0862120709
 20
-8.5568340149
 11
11.0871420611
 21
-8.5704653258
  0
LINE
  5
6DF
100
AcDbEntity
  8
0
100
AcDbLine
 62
7
  6
CONTINUOUS
 10
11.0718572201
 20
-8.5571603854
 11
11.0707738507
 21
-8.540831385
  0
LINE
  5
6E0
100
AcDbEntity
  8
0
100
AcDbLine
 62
7
  6
CONTINUOUS
 10
10.7770259163
 20
-8.568703214
 11
10.7779433458
 21
-8.5830815813
  0
LINE
  5
6E1
100
AcDbEntity
  8
0
100
AcDbLine
 62
7
  6
CONTINUOUS
 10
11.0871420611
 20
-8.5704653258
 11
11.0881112403
 21
-8.5858261553
  0
LINE
  5
6E2
100
AcDbEntity
  8
0
100
AcDbLine
 62
7
  6
CONTINUOUS
 10
11.0729570383
 20
-8.5751045838
 11
11.0718572201
 21
-8.5571603854
  0
LWPOLYLINE
  5
6E3
100
AcDbEntity
  8
0
100
AcDbPolyline
 62
7
  6
CONTINUOUS
 90
3
 70
0
 10
10.7779433458
 20
-8.5830815813
 10
10.7788832908
 20
-8.5988935602
 10
10.7793609978
 20
-8.6073440486
  0
LINE
  5
6E4
100
AcDbEntity
  8
0
100
AcDbLine
 62
7
  6
CONTINUOUS
 10
11.0881112403
 20
-8.5858261553
 11
11.089118948
 21
-8.6030275466
  0
LINE
  5
6E5
100
AcDbEntity
  8
0
100
AcDbLine
 62
7
  6
CONTINUOUS
 10
11.383965791
 20
-8.5927780469
 11
11.3828807188
 21
-8.5738147895
  0
LINE
  5
6E6
100
AcDbEntity
  8
0
100
AcDbLine
 62
7
  6
CONTINUOUS
 10
11.074074889
 20
-8.5947591705
 11
11.0729570383
 21
-8.5751045838
  0
LINE
  5
6E7
100
AcDbEntity
  8
0
100
AcDbLine
 62
7
  6
CONTINUOUS
 10
11.089118948
 20
-8.6030275466
 11
11.0901644923
 21
-8.6221813479
  0
LINE
  5
6E8
100
AcDbEntity
  8
0
100
AcDbLine
 62
7
  6
CONTINUOUS
 10
11.3850641076
 20
-8.6133432788
 11
11.383965791
 21
-8.5927780469
  0
LINE
  5
6E9
100
AcDbEntity
  8
0
100
AcDbLine
 62
7
  6
CONTINUOUS
 10
11.0752117084
 20
-8.6162120097
 11
11.074074889
 21
-8.5947591705
  0
LINE
  5
6EA
100
AcDbEntity
  8
0
100
AcDbLine
 62
7
  6
CONTINUOUS
 10
11.0901644923
 20
-8.6221813479
 11
11.0912472175
 21
-8.6434004569
  0
LINE
  5
6EB
100
AcDbEntity
  8
0
100
AcDbLine
 62
7
  6
CONTINUOUS
 10
11.386176134
 20
-8.6355676143
 11
11.3850641076
 21
-8.6133432788
  0
LINE
  5
6EC
100
AcDbEntity
  8
0
100
AcDbLine
 62
7
  6
CONTINUOUS
 10
11.0763681639
 20
-8.6395479666
 11
11.0752117084
 21
-8.6162120097
  0
LINE
  5
6ED
100
AcDbEntity
  8
0
100
AcDbLine
 62
7
  6
CONTINUOUS
 10
11.0912472175
 20
-8.6434004569
 11
11.0923667738
 21
-8.6668040561
  0
LINE
  5
6EE
100
AcDbEntity
  8
0
100
AcDbLine
 62
7
  6
CONTINUOUS
 10
11.3873020094
 20
-8.6595012606
 11
11.386176134
 21
-8.6355676143
  0
LINE
  5
6EF
100
AcDbEntity
  8
0
100
AcDbLine
 62
7
  6
CONTINUOUS
 10
11.0775460367
 20
-8.6648781398
 11
11.0763681639
 21
-8.6395479666
  0
LINE
  5
6F0
100
AcDbEntity
  8
0
100
AcDbLine
 62
7
  6
CONTINUOUS
 10
11.0923667738
 20
-8.6668040561
 11
11.0935230425
 21
-8.6925171862
  0
LINE
  5
6F1
100
AcDbEntity
  8
0
100
AcDbLine
 62
7
  6
CONTINUOUS
 10
11.3884416483
 20
-8.6851879878
 11
11.3873020094
 21
-8.6595012606
  0
LINE
  5
6F2
100
AcDbEntity
  8
0
100
AcDbLine
 62
7
  6
CONTINUOUS
 10
11.0787475226
 20
-8.6923311381
 11
11.0775460367
 21
-8.6648781398
  0
LINE
  5
6F3
100
AcDbEntity
  8
0
100
AcDbLine
 62
7
  6
CONTINUOUS
 10
11.0935230425
 20
-8.6925171862
 11
11.0947165907
 21
-8.7206827092
  0
LINE
  5
6F4
100
AcDbEntity
  8
0
100
AcDbLine
 62
7
  6
CONTINUOUS
 10
11.38959554
 20
-8.7126833717
 11
11.3884416483
 21
-8.6851879878
  0
LINE
  5
6F5
100
AcDbEntity
  8
0
100
AcDbLine
 62
7
  6
CONTINUOUS
 10
11.0799746358
 20
-8.7220413398
 11
11.0787475226
 21
-8.6923311381
  0
LINE
  5
6F6
100
AcDbEntity
  8
0
100
AcDbLine
 62
7
  6
CONTINUOUS
 10
11.0947165907
 20
-8.7206827092
 11
11.095949221
 21
-8.7514796071
  0
LINE
  5
6F7
100
AcDbEntity
  8
0
100
AcDbLine
 62
7
  6
CONTINUOUS
 10
11.3907652185
 20
-8.7420706608
 11
11.38959554
 21
-8.7126833717
  0
LINE
  5
6F8
100
AcDbEntity
  8
0
100
AcDbLine
 62
7
  6
CONTINUOUS
 10
11.081229255
 20
-8.7541490828
 11
11.0799746358
 21
-8.7220413398
  0
LINE
  5
6F9
100
AcDbEntity
  8
0
100
AcDbLine
 62
7
  6
CONTINUOUS
 10
11.095949221
 20
-8.7514796071
 11
11.0972229831
 21
-8.7851045431
  0
LINE
  5
6FA
100
AcDbEntity
  8
0
100
AcDbLine
 62
7
  6
CONTINUOUS
 10
11.3919522157
 20
-8.773439279
 11
11.3907652185
 21
-8.7420706608
  0
LINE
  5
6FB
100
AcDbEntity
  8
0
100
AcDbLine
 62
7
  6
CONTINUOUS
 10
11.0825131724
 20
-8.7888011682
 11
11.081229255
 21
-8.7541490828
  0
LINE
  5
6FC
100
AcDbEntity
  8
0
100
AcDbLine
 62
7
  6
CONTINUOUS
 10
11.393157986
 20
-8.8068826839
 11
11.3919522157
 21
-8.773439279
  0
LINE
  5
6FD
100
AcDbEntity
  8
0
100
AcDbLine
 62
7
  6
CONTINUOUS
 10
11.0972229831
 20
-8.7851045431
 11
11.0985400069
 21
-8.8217686706
  0
LINE
  5
6FE
100
AcDbEntity
  8
0
100
AcDbLine
 62
7
  6
CONTINUOUS
 10
11.0838318572
 20
-8.8262598095
 11
11.0825131724
 21
-8.7888011682
  0
LINE
  5
6FF
100
AcDbEntity
  8
0
100
AcDbLine
 62
7
  6
CONTINUOUS
 10
11.3943839247
 20
-8.8424983926
 11
11.393157986
 21
-8.8068826839
  0
LINE
  5
700
100
AcDbEntity
  8
0
100
AcDbLine
 62
7
  6
CONTINUOUS
 10
11.0985400069
 20
-8.8217686706
 11
11.0999024436
 21
-8.8616962401
  0
LINE
  5
701
100
AcDbEntity
  8
0
100
AcDbLine
 62
7
  6
CONTINUOUS
 10
11.0851994769
 20
-8.8670826485
 11
11.0838318572
 21
-8.8262598095
  0
LINE
  5
702
100
AcDbEntity
  8
0
100
AcDbLine
 62
7
  6
CONTINUOUS
 10
11.3956313823
 20
-8.8803879358
 11
11.3943839247
 21
-8.8424983926
  0
LINE
  5
703
100
AcDbEntity
  8
0
100
AcDbLine
 62
7
  6
CONTINUOUS
 10
11.0999024436
 20
-8.8616962401
 11
11.1013106002
 21
-8.9050655595
  0
LINE
  5
704
100
AcDbEntity
  8
0
100
AcDbLine
 62
7
  6
CONTINUOUS
 10
11.0866313735
 20
-8.9119468515
 11
11.0851994769
 21
-8.8670826485
  0
LINE
  5
705
100
AcDbEntity
  8
0
100
AcDbLine
 62
7
  6
CONTINUOUS
 10
11.3969016744
 20
-8.9206567449
 11
11.3956313823
 21
-8.8803879358
  0
LINE
  5
706
100
AcDbEntity
  8
0
100
AcDbLine
 62
7
  6
CONTINUOUS
 10
11.1013106002
 20
-8.9050655595
 11
11.1027621339
 21
-8.9519677976
  0
LINE
  5
707
100
AcDbEntity
  8
0
100
AcDbLine
 62
7
  6
CONTINUOUS
 10
11.0881430697
 20
-8.961628827
 11
11.0866313735
 21
-8.9119468515
  0
LINE
  5
708
100
AcDbEntity
  8
0
100
AcDbLine
 62
7
  6
CONTINUOUS
 10
11.39885274
 20
-8.9857608922
 11
11.3969016744
 21
-8.9206567449
  0
LINE
  5
709
100
AcDbEntity
  8
0
100
AcDbLine
 62
7
  6
CONTINUOUS
 10
11.1027621339
 20
-8.9519677976
 11
11.1042545186
 21
-9.0024709322
  0
LINE
  5
70A
100
AcDbEntity
  8
0
100
AcDbLine
 62
7
  6
CONTINUOUS
 10
11.0897626906
 20
-9.0174491674
 11
11.0881430697
 21
-8.961628827
  0
LINE
  5
70B
100
AcDbEntity
  8
0
100
AcDbLine
 62
7
  6
CONTINUOUS
 10
11.1042545186
 20
-9.0024709322
 11
11.1057852507
 21
-9.0566243834
  0
LINE
  5
70C
100
AcDbEntity
  8
0
100
AcDbLine
 62
7
  6
CONTINUOUS
 10
11.4008623253
 20
-9.0568473133
 11
11.39885274
 21
-8.9857608922
  0
LINE
  5
70D
100
AcDbEntity
  8
0
100
AcDbLine
 62
7
  6
CONTINUOUS
 10
11.091523128
 20
-9.0810967411
 11
11.0897626906
 21
-9.0174491674
  0
LINE
  5
70E
100
AcDbEntity
  8
0
100
AcDbLine
 62
7
  6
CONTINUOUS
 10
11.1057852507
 20
-9.0566243834
 11
11.1073538517
 21
-9.1145334297
  0
LINE
  5
70F
100
AcDbEntity
  8
0
100
AcDbLine
 62
7
  6
CONTINUOUS
 10
11.182036152
 20
-13.844706171
 11
11.1808648846
 21
-13.8008711435
  0
LINE
  5
710
100
AcDbEntity
  8
0
100
AcDbLine
 62
7
  6
CONTINUOUS
 10
11.4920366122
 20
-13.844706171
 11
11.49050083
 21
-13.78695281
  0
LINE
  5
711
100
AcDbEntity
  8
0
100
AcDbLine
 62
7
  6
CONTINUOUS
 10
11.1953174574
 20
-13.7821148309
 11
11.1969707647
 21
-13.844706171
  0
LINE
  5
712
100
AcDbEntity
  8
0
100
AcDbLine
 62
7
  6
CONTINUOUS
 10
11.402934574
 20
-9.1343126861
 11
11.4008623253
 21
-9.0568473133
  0
LINE
  5
713
100
AcDbEntity
  8
0
100
AcDbLine
 62
7
  6
CONTINUOUS
 10
11.0934112506
 20
-9.1527161154
 11
11.091523128
 21
-9.0810967411
  0
LINE
  5
714
100
AcDbEntity
  8
0
100
AcDbLine
 62
7
  6
CONTINUOUS
 10
11.1073538517
 20
-9.1145334297
 11
11.1089650599
 21
-9.1764989034
  0
LINE
  5
715
100
AcDbEntity
  8
0
100
AcDbLine
 62
7
  6
CONTINUOUS
 10
11.1808648846
 20
-13.8008711435
 11
11.1792317178
 21
-13.7374452372
  0
LINE
  5
716
100
AcDbEntity
  8
0
100
AcDbLine
 62
7
  6
CONTINUOUS
 10
11.49050083
 20
-13.78695281
 11
11.4885951372
 21
-13.7120419364
  0
LINE
  5
717
100
AcDbEntity
  8
0
100
AcDbLine
 62
7
  6
CONTINUOUS
 10
11.4050735722
 20
-9.2185654999
 11
11.402934574
 21
-9.1343126861
  0
LINE
  5
718
100
AcDbEntity
  8
0
100
AcDbLine
 62
7
  6
CONTINUOUS
 10
11.1932369347
 20
-13.699539233
 11
11.1953174574
 21
-13.7821148309
  0
LINE
  5
719
100
AcDbEntity
  8
0
100
AcDbLine
 62
7
  6
CONTINUOUS
 10
11.0954073018
 20
-9.2320941252
 11
11.0934112506
 21
-9.1527161154
  0
LINE
  5
71A
100
AcDbEntity
  8
0
100
AcDbLine
 62
7
  6
CONTINUOUS
 10
11.1089650599
 20
-9.1764989034
 11
11.1106244625
 21
-9.2428781961
  0
LINE
  5
71B
100
AcDbEntity
  8
0
100
AcDbLine
 62
7
  6
CONTINUOUS
 10
11.1792317178
 20
-13.7374452372
 11
11.1775346944
 21
-13.668892488
  0
LINE
  5
71C
100
AcDbEntity
  8
0
100
AcDbLine
 62
7
  6
CONTINUOUS
 10
11.4885951372
 20
-13.7120419364
 11
11.4866278028
 21
-13.6311797461
  0
LINE
  5
71D
100
AcDbEntity
  8
0
100
AcDbLine
 62
7
  6
CONTINUOUS
 10
11.1910824793
 20
-13.6098592023
 11
11.1932369347
 21
-13.699539233
  0
LINE
  5
71E
100
AcDbEntity
  8
0
100
AcDbLine
 62
7
  6
CONTINUOUS
 10
11.0975185797
 20
-9.3200138481
 11
11.0954073018
 21
-9.2320941252
  0
LINE
  5
71F
100
AcDbEntity
  8
0
100
AcDbLine
 62
7
  6
CONTINUOUS
 10
11.1106244625
 20
-9.2428781961
 11
11.1123376619
 21
-9.3140551245
  0
LINE
  5
720
100
AcDbEntity
  8
0
100
AcDbLine
 62
7
  6
CONTINUOUS
 10
11.4072834715
 20
-9.3100266098
 11
11.4050735722
 21
-9.2185654999
  0
LINE
  5
721
100
AcDbEntity
  8
0
100
AcDbLine
 62
7
  6
CONTINUOUS
 10
11.1775346944
 20
-13.668892488
 11
11.1757745567
 21
-13.5950271115
  0
LINE
  5
722
100
AcDbEntity
  8
0
100
AcDbLine
 62
7
  6
CONTINUOUS
 10
11.1123376619
 20
-9.3140551245
 11
11.1141102726
 21
-9.3904380901
  0
LINE
  5
723
100
AcDbEntity
  8
0
100
AcDbLine
 62
7
  6
CONTINUOUS
 10
11.4866278028
 20
-13.6311797461
 11
11.4846015556
 21
-13.5442852143
  0
LINE
  5
724
100
AcDbEntity
  8
0
100
AcDbLine
 62
7
  6
CONTINUOUS
 10
11.1757745567
 20
-13.5950271115
 11
11.1739517773
 21
-13.5156676892
  0
LINE
  5
725
100
AcDbEntity
  8
0
100
AcDbLine
 62
7
  6
CONTINUOUS
 10
11.1888570815
 20
-13.512948912
 11
11.1910824793
 21
-13.6098592023
  0
LINE
  5
726
100
AcDbEntity
  8
0
100
AcDbLine
 62
7
  6
CONTINUOUS
 10
11.0997648549
 20
-9.4178490362
 11
11.0975185797
 21
-9.3200138481
  0
LINE
  5
727
100
AcDbEntity
  8
0
100
AcDbLine
 62
7
  6
CONTINUOUS
 10
11.4095925225
 20
-9.4101907852
 11
11.4072834715
 21
-9.3100266098
  0
LINE
  5
728
100
AcDbEntity
  8
0
100
AcDbLine
 62
7
  6
CONTINUOUS
 10
11.1141102726
 20
-9.3904380901
 11
11.115947974
 21
-9.472460227
  0
LINE
  5
729
100
AcDbEntity
  8
0
100
AcDbLine
 62
7
  6
CONTINUOUS
 10
11.4846015556
 20
-13.5442852143
 11
11.4825185141
 21
-13.451289746
  0
LINE
  5
72A
100
AcDbEntity
  8
0
100
AcDbLine
 62
7
  6
CONTINUOUS
 10
11.1739517773
 20
-13.5156676892
 11
11.1720563544
 21
-13.4301698121
  0
LINE
  5
72B
100
AcDbEntity
  8
0
100
AcDbLine
 62
7
  6
CONTINUOUS
 10
11.1865601691
 20
-13.4085710773
 11
11.1888570815
 21
-13.512948912
  0
LINE
  5
72C
100
AcDbEntity
  8
0
100
AcDbLine
 62
7
  6
CONTINUOUS
 10
11.1021571413
 20
-9.526689807
 11
11.0997648549
 21
-9.4178490362
  0
LINE
  5
72D
100
AcDbEntity
  8
0
100
AcDbLine
 62
7
  6
CONTINUOUS
 10
11.4120833094
 20
-9.5232614313
 11
11.4095925225
 21
-9.4101907852
  0
LINE
  5
72E
100
AcDbEntity
  8
0
100
AcDbLine
 62
7
  6
CONTINUOUS
 10
11.115947974
 20
-9.472460227
 11
11.1178619873
 21
-9.5608338477
  0
LINE
  5
72F
100
AcDbEntity
  8
0
100
AcDbLine
 62
7
  6
CONTINUOUS
 10
11.4825185141
 20
-13.451289746
 11
11.4803717577
 21
-13.351736623
  0
LINE
  5
730
100
AcDbEntity
  8
0
100
AcDbLine
 62
7
  6
CONTINUOUS
 10
11.1720563544
 20
-13.4301698121
 11
11.1700645899
 21
-13.3371947118
  0
LINE
  5
731
100
AcDbEntity
  8
0
100
AcDbLine
 62
7
  6
CONTINUOUS
 10
11.1841763058
 20
-13.2958038223
 11
11.1865601691
 21
-13.4085710773
  0
LINE
  5
732
100
AcDbEntity
  8
0
100
AcDbLine
 62
7
  6
CONTINUOUS
 10
11.413895375
 20
-9.6086383042
 11
11.4120833094
 21
-9.5232614313
  0
LINE
  5
733
100
AcDbEntity
  8
0
100
AcDbLine
 62
7
  6
CONTINUOUS
 10
11.1046934149
 20
-9.6470374747
 11
11.1021571413
 21
-9.526689807
  0
LINE
  5
734
100
AcDbEntity
  8
0
100
AcDbLine
 62
7
  6
CONTINUOUS
 10
11.1178619873
 20
-9.5608338477
 11
11.119873594
 21
-9.6568078065
  0
LINE
  5
735
100
AcDbEntity
  8
0
100
AcDbLine
 62
7
  6
CONTINUOUS
 10
11.1700645899
 20
-13.3371947118
 11
11.1679529238
 21
-13.2352851843
  0
LINE
  5
736
100
AcDbEntity
  8
0
100
AcDbLine
 62
7
  6
CONTINUOUS
 10
11.4803717577
 20
-13.351736623
 11
11.4781473629
 21
-13.2448076489
  0
LINE
  5
737
100
AcDbEntity
  8
0
100
AcDbLine
 62
7
  6
CONTINUOUS
 10
11.4158862696
 20
-9.7053152143
 11
11.413895375
 21
-9.6086383042
  0
LINE
  5
738
100
AcDbEntity
  8
0
100
AcDbLine
 62
7
  6
CONTINUOUS
 10
11.1073690445
 20
-9.7791835002
 11
11.1046934149
 21
-9.6470374747
  0
LINE
  5
739
100
AcDbEntity
  8
0
100
AcDbLine
 62
7
  6
CONTINUOUS
 10
11.1816862069
 20
-13.1734644297
 11
11.1841763058
 21
-13.2958038223
  0
LINE
  5
73A
100
AcDbEntity
  8
0
100
AcDbLine
 62
7
  6
CONTINUOUS
 10
11.119873594
 20
-9.6568078065
 11
11.1219968412
 21
-9.7613737347
  0
LINE
  5
73B
100
AcDbEntity
  8
0
100
AcDbLine
 62
7
  6
CONTINUOUS
 10
11.1679529238
 20
-13.2352851843
 11
11.1657064037
 21
-13.1233031105
  0
LINE
  5
73C
100
AcDbEntity
  8
0
100
AcDbLine
 62
7
  6
CONTINUOUS
 10
11.4781473629
 20
-13.2448076489
 11
11.4758312114
 21
-13.1296169834
  0
LINE
  5
73D
100
AcDbEntity
  8
0
100
AcDbLine
 62
7
  6
CONTINUOUS
 10
11.4180496086
 20
-9.8136001088
 11
11.4158862696
 21
-9.7053152143
  0
LINE
  5
73E
100
AcDbEntity
  8
0
100
AcDbLine
 62
7
  6
CONTINUOUS
 10
11.1219968412
 20
-9.7613737347
 11
11.1242314857
 21
-9.8748379393
  0
LINE
  5
73F
100
AcDbEntity
  8
0
100
AcDbLine
 62
7
  6
CONTINUOUS
 10
11.1790703266
 20
-13.0402769209
 11
11.1816862069
 21
-13.1734644297
  0
LINE
  5
740
100
AcDbEntity
  8
0
100
AcDbLine
 62
7
  6
CONTINUOUS
 10
11.1657064037
 20
-13.1233031105
 11
11.1633139586
 21
-13.0002634469
  0
LINE
  5
741
100
AcDbEntity
  8
0
100
AcDbLine
 62
7
  6
CONTINUOUS
 10
11.110176249
 20
-9.9231355158
 11
11.1073690445
 21
-9.7791835002
  0
LINE
  5
742
100
AcDbEntity
  8
0
100
AcDbLine
 62
7
  6
CONTINUOUS
 10
11.4758312114
 20
-13.1296169834
 11
11.4734084923
 21
-13.0051957667
  0
LINE
  5
743
100
AcDbEntity
  8
0
100
AcDbLine
 62
7
  6
CONTINUOUS
 10
11.4203572488
 20
-9.9325929798
 11
11.4180496086
 21
-9.8136001088
  0
LINE
  5
744
100
AcDbEntity
  8
0
100
AcDbLine
 62
7
  6
CONTINUOUS
 10
11.1242314857
 20
-9.8748379393
 11
11.126575878
 21
-9.9973849011
  0
LINE
  5
745
100
AcDbEntity
  8
0
100
AcDbLine
 62
7
  6
CONTINUOUS
 10
11.1762961997
 20
-12.8942157623
 11
11.1790703266
 21
-13.0402769209
  0
LINE
  5
746
100
AcDbEntity
  8
0
100
AcDbLine
 62
7
  6
CONTINUOUS
 10
11.1633139586
 20
-13.0002634469
 11
11.1607584266
 21
-12.864847208
  0
LINE
  5
747
100
AcDbEntity
  8
0
100
AcDbLine
 62
7
  6
CONTINUOUS
 10
11.1131068687
 20
-10.0787194489
 11
11.110176249
 21
-9.9231355158
  0
LINE
  5
748
100
AcDbEntity
  8
0
100
AcDbLine
 62
7
  6
CONTINUOUS
 10
11.4734084923
 20
-13.0051957667
 11
11.4708485818
 21
-12.8696907037
  0
LINE
  5
749
100
AcDbEntity
  8
0
100
AcDbLine
 62
7
  6
CONTINUOUS
 10
11.422822945
 20
-10.0634239277
 11
11.4203572488
 21
-9.9325929798
  0
LINE
  5
74A
100
AcDbEntity
  8
0
100
AcDbLine
 62
7
  6
CONTINUOUS
 10
11.126575878
 20
-9.9973849011
 11
11.1290338996
 21
-10.1294332995
  0
LINE
  5
74B
100
AcDbEntity
  8
0
100
AcDbLine
 62
7
  6
CONTINUOUS
 10
11.1607584266
 20
-12.864847208
 11
11.1580162834
 21
-12.7153659948
  0
LINE
  5
74C
100
AcDbEntity
  8
0
100
AcDbLine
 62
7
  6
CONTINUOUS
 10
11.1161644761
 20
-10.2462353043
 11
11.1131068687
 21
-10.0787194489
  0
LINE
  5
74D
100
AcDbEntity
  8
0
100
AcDbLine
 62
7
  6
CONTINUOUS
 10
11.1733118504
 20
-12.7320683252
 11
11.1762961997
 21
-12.8942157623
  0
LINE
  5
74E
100
AcDbEntity
  8
0
100
AcDbLine
 62
7
  6
CONTINUOUS
 10
11.4708485818
 20
-12.8696907037
 11
11.468104572
 21
-12.7202416643
  0
LINE
  5
74F
100
AcDbEntity
  8
0
100
AcDbLine
 62
7
  6
CONTINUOUS
 10
11.4254746667
 20
-10.2080121072
 11
11.422822945
 21
-10.0634239277
  0
LINE
  5
750
100
AcDbEntity
  8
0
100
AcDbLine
 62
7
  6
CONTINUOUS
 10
11.1290338996
 20
-10.1294332995
 11
11.1316466007
 21
-10.2734264288
  0
LINE
  5
751
100
AcDbEntity
  8
0
100
AcDbLine
 62
7
  6
CONTINUOUS
 10
11.468104572
 20
-12.7202416643
 11
11.4651199008
 21
-12.5532822006
  0
LINE
  5
752
100
AcDbEntity
  8
0
100
AcDbLine
 62
7
  6
CONTINUOUS
 10
11.4283194405
 20
-10.3671408745
 11
11.4254746667
 21
-10.2080121072
  0
LINE
  5
753
100
AcDbEntity
  8
0
100
AcDbLine
 62
7
  6
CONTINUOUS
 10
11.1580162834
 20
-12.7153659948
 11
11.1550591412
 21
-12.5498398059
  0
LINE
  5
754
100
AcDbEntity
  8
0
100
AcDbLine
 62
7
  6
CONTINUOUS
 10
11.1193901954
 20
-10.4280073506
 11
11.1161644761
 21
-10.2462353043
  0
LINE
  5
755
100
AcDbEntity
  8
0
100
AcDbLine
 62
7
  6
CONTINUOUS
 10
11.1700371145
 20
-12.5488468241
 11
11.1733118504
 21
-12.7320683252
  0
LINE
  5
756
100
AcDbEntity
  8
0
100
AcDbLine
 62
7
  6
CONTINUOUS
 10
11.1316466007
 20
-10.2734264288
 11
11.1344673059
 21
-10.432631044
  0
LINE
  5
757
100
AcDbEntity
  8
0
100
AcDbLine
 62
7
  6
CONTINUOUS
 10
11.1550591412
 20
-12.5498398059
 11
11.1518507787
 21
-12.3658521754
  0
LINE
  5
758
100
AcDbEntity
  8
0
100
AcDbLine
 62
7
  6
CONTINUOUS
 10
11.1663960253
 20
-12.3395754014
 11
11.1700371145
 21
-12.5488468241
  0
LINE
  5
759
100
AcDbEntity
  8
0
100
AcDbLine
 62
7
  6
CONTINUOUS
 10
11.1344673059
 20
-10.432631044
 11
11.1375297449
 21
-10.6092926047
  0
LINE
  5
75A
100
AcDbEntity
  8
0
100
AcDbLine
 62
7
  6
CONTINUOUS
 10
11.4651199008
 20
-12.5532822006
 11
11.4618276515
 21
-12.3645111022
  0
LINE
  5
75B
100
AcDbEntity
  8
0
100
AcDbLine
 62
7
  6
CONTINUOUS
 10
11.4313519011
 20
-10.540762113
 11
11.4283194405
 21
-10.3671408745
  0
LINE
  5
75C
100
AcDbEntity
  8
0
100
AcDbLine
 62
7
  6
CONTINUOUS
 10
11.1228328037
 20
-10.6268557798
 11
11.1193901954
 21
-10.4280073506
  0
LINE
  5
75D
100
AcDbEntity
  8
0
100
AcDbLine
 62
7
  6
CONTINUOUS
 10
11.1518507787
 20
-12.3658521754
 11
11.1483246324
 21
-12.1592646936
  0
LINE
  5
75E
100
AcDbEntity
  8
0
100
AcDbLine
 62
7
  6
CONTINUOUS
 10
11.1624289168
 20
-12.1062029982
 11
11.1663960253
 21
-12.3395754014
  0
LINE
  5
75F
100
AcDbEntity
  8
0
100
AcDbLine
 62
7
  6
CONTINUOUS
 10
11.1375297449
 20
-10.6092926047
 11
11.140865267
 21
-10.8054457675
  0
LINE
  5
760
100
AcDbEntity
  8
0
100
AcDbLine
 62
7
  6
CONTINUOUS
 10
11.4618276515
 20
-12.3645111022
 11
11.4581341356
 21
-12.1479931134
  0
LINE
  5
761
100
AcDbEntity
  8
0
100
AcDbLine
 62
7
  6
CONTINUOUS
 10
11.4345606317
 20
-10.7282504513
 11
11.4313519011
 21
-10.540762113
  0
LINE
  5
762
100
AcDbEntity
  8
0
100
AcDbLine
 62
7
  6
CONTINUOUS
 10
11.1265514919
 20
-10.8461890158
 11
11.1228328037
 21
-10.6268557798
  0
LINE
  5
763
100
AcDbEntity
  8
0
100
AcDbLine
 62
7
  6
CONTINUOUS
 10
11.1483246324
 20
-12.1592646936
 11
11.1444222593
 21
-11.9265314534
  0
LINE
  5
764
100
AcDbEntity
  8
0
100
AcDbLine
 62
7
  6
CONTINUOUS
 10
11.140865267
 20
-10.8054457675
 11
11.1445221408
 21
-11.023939743
  0
LINE
  5
765
100
AcDbEntity
  8
0
100
AcDbLine
 62
7
  6
CONTINUOUS
 10
11.4581341356
 20
-12.1479931134
 11
11.4538309727
 21
-11.8909784189
  0
LINE
  5
766
100
AcDbEntity
  8
0
100
AcDbLine
 62
7
  6
CONTINUOUS
 10
11.4396789317
 20
-11.0334099846
 11
11.4345606317
 21
-10.7282504513
  0
LWPOLYLINE
  5
767
100
AcDbEntity
  8
0
100
AcDbPolyline
 62
7
  6
CONTINUOUS
 90
4
 70
0
 10
11.1401470215
 20
-11.6682839194
 10
11.1329995624
 20
-11.2340654589
 10
11.1306745968
 20
-11.0934121949
 10
11.1265514919
 20
-10.8461890158
  0
LINE
  5
768
100
AcDbEntity
  8
0
100
AcDbLine
 62
7
  6
CONTINUOUS
 10
11.1444222593
 20
-11.9265314534
 11
11.1401470215
 21
-11.6682839194
  0
LWPOLYLINE
  5
769
100
AcDbEntity
  8
0
100
AcDbPolyline
 62
7
  6
CONTINUOUS
 90
4
 70
0
 10
11.1485773481
 20
-11.2690302772
 10
11.155580859
 20
-11.6945166954
 10
11.1580068449
 20
-11.841271899
 10
11.1624289168
 20
-12.1062029982
  0
LINE
  5
76A
100
AcDbEntity
  8
0
100
AcDbLine
 62
7
  6
CONTINUOUS
 10
11.1445221408
 20
-11.023939743
 11
11.1485773481
 21
-11.2690302772
  0
LINE
  5
76B
100
AcDbEntity
  8
0
100
AcDbLine
 62
7
  6
CONTINUOUS
 10
11.4538309727
 20
-11.8909784189
 11
11.4433333206
 21
-11.2543057678
  0
LINE
  5
76C
100
AcDbEntity
  8
0
100
AcDbLine
 62
7
  6
CONTINUOUS
 10
11.4433333206
 20
-11.2543057678
 11
11.4396789317
 21
-11.0334099846
  0
LINE
  5
76D
100
AcDbEntity
  8
02___PRT_ALL_AXES
100
AcDbLine
 62
7
  6
CONTINUOUS
 10
11.5533016282
 20
-13.844706171
 11
11.5533016282
 21
-11.7434354639
  0
LINE
  5
76E
100
AcDbEntity
  8
0
100
AcDbLine
 62
7
  6
CONTINUOUS
 10
11.6333016282
 20
-10.6658507065
 11
11.6333016282
 21
-10.4666486353
  0
LINE
  5
76F
100
AcDbEntity
  8
0
100
AcDbLine
 62
7
  6
CONTINUOUS
 10
11.6933016282
 20
-10.4666486353
 11
11.6933016282
 21
-10.6658507065
  0
LINE
  5
770
100
AcDbEntity
  8
0
100
AcDbLine
 62
7
  6
CONTINUOUS
 10
11.7140334236
 20
-13.844706171
 11
11.7140334236
 21
-17.844706171
  0
LINE
  5
771
100
AcDbEntity
  8
0
100
AcDbLine
 62
7
  6
CONTINUOUS
 10
11.7143016282
 20
-11.7434354639
 11
11.7143016282
 21
-11.6585324099
  0
LINE
  5
772
100
AcDbEntity
  8
02___PRT_ALL_AXES
100
AcDbLine
 62
7
  6
CONTINUOUS
 10
11.7143016282
 20
-11.7434354639
 11
11.7143016282
 21
-11.6585324099
  0
LWPOLYLINE
  5
773
100
AcDbEntity
  8
0
100
AcDbPolyline
 62
7
  6
CONTINUOUS
 90
11
 70
0
 10
10.7711683734
 20
-8.503657046
 10
10.771215259
 20
-8.5039335847
 10
10.7713322107
 20
-8.5046731533
 10
10.771505754
 20
-8.5058522212
 10
10.7717254911
 20
-8.5074519308
 10
10.771983306
 20
-8.5094570762
 10
10.7722727839
 20
-8.5118552222
 10
10.7725887883
 20
-8.5146359648
 10
10.7729271436
 20
-8.5177902565
 10
10.7732843515
 20
-8.5213093615
 10
10.7736575586
 20
-8.5251857477
  0
LWPOLYLINE
  5
774
100
AcDbEntity
  8
0
100
AcDbPolyline
 62
7
  6
CONTINUOUS
 90
33
 70
0
 10
11.3775916465
 20
-8.5004770413
 10
11.3770644605
 20
-8.4948585859
 10
11.3765353609
 20
-8.4895127895
 10
11.376003411
 20
-8.484427641
 10
11.375467221
 20
-8.4795878554
 10
11.3749247611
 20
-8.4749741912
 10
11.374372194
 20
-8.4705556732
 10
11.3738042079
 20
-8.4662959498
 10
11.3732140204
 20
-8.4621560515
 10
11.3725928251
 20
-8.4580932441
 10
11.3719289797
 20
-8.4540594802
 10
11.3712067904
 20
-8.4499992579
 10
11.3704048419
 20
-8.445847579
 10
11.3694967905
 20
-8.4415421214
 10
11.3684470931
 20
-8.4370107436
 10
11.3672060234
 20
-8.4321646248
 10
11.3657040684
 20
-8.4268976738
 10
11.3638444936
 20
-8.4210881076
 10
11.3614981594
 20
-8.4146128641
 10
11.3585375207
 20
-8.4074513404
 10
11.3548523302
 20
-8.3996856744
 10
11.3503362901
 20
-8.3914327827
 10
11.3448170816
 20
-8.3827251664
 10
11.3381076186
 20
-8.3736365894
 10
11.3300360713
 20
-8.3643255935
 10
11.3204760771
 20
-8.3550373699
 10
11.309383117
 20
-8.3460896146
 10
11.2967661127
 20
-8.3378199158
 10
11.2827708696
 20
-8.3305945034
 10
11.267668637
 20
-8.3247555994
 10
11.2518007451
 20
-8.3205495957
 10
11.2355292389
 20
-8.3181208738
 10
11.2218015105
 20
-8.3174833108
  0
LINE
  5
775
100
AcDbEntity
  8
0
100
AcDbLine
 62
7
  6
CONTINUOUS
 10
11.3786425485
 20
-8.5125671698
 11
11.3775916465
 21
-8.5004770413
  0
LINE
  5
776
100
AcDbEntity
  8
0
100
AcDbLine
 62
7
  6
CONTINUOUS
 10
11.379692146
 20
-8.5258518694
 11
11.3786425485
 21
-8.5125671698
  0
LINE
  5
777
100
AcDbEntity
  8
0
100
AcDbLine
 62
7
  6
CONTINUOUS
 10
11.380745957
 20
-8.5404285413
 11
11.379692146
 21
-8.5258518694
  0
LINE
  5
778
100
AcDbEntity
  8
0
100
AcDbLine
 62
7
  6
CONTINUOUS
 10
11.3818079674
 20
-8.5563890758
 11
11.380745957
 21
-8.5404285413
  0
LINE
  5
779
100
AcDbEntity
  8
0
100
AcDbLine
 62
7
  6
CONTINUOUS
 10
11.3828807188
 20
-8.5738147895
 11
11.3818079674
 21
-8.5563890758
  0
LINE
  5
77A
100
AcDbEntity
  8
0
100
AcDbLine
 62
7
  6
CONTINUOUS
 10
11.8083016282
 20
-10.7324245246
 11
11.8083016282
 21
-11.5649942374
  0
LWPOLYLINE
  5
77B
100
AcDbEntity
  8
0
100
AcDbPolyline
 62
7
  6
CONTINUOUS
 90
12
 70
0
 10
11.0811682478
 20
-8.5036563417
 10
11.0811687673
 20
-8.5036592581
 10
11.0812193998
 20
-8.5039587506
 10
11.0813394076
 20
-8.5047203089
 10
11.0815153199
 20
-8.5059195399
 10
11.081736883
 20
-8.5075377381
 10
11.0819961904
 20
-8.5095606216
 10
11.0822870656
 20
-8.5119773184
 10
11.0826046195
 20
-8.5147795465
 10
11.0829449213
 20
-8.5179608721
 10
11.0833047147
 20
-8.5215156668
 10
11.0836813858
 20
-8.5254400118
  0
ARC
  5
77C
100
AcDbEntity
  8
0
100
AcDbCircle
 62
7
  6
CONTINUOUS
 10
14.2982925512
 20
-0.4160179109
 40
4.6455419097
100
AcDbArc
 50
175.5741146201
 51
175.7459638559
  0
ARC
  5
77D
100
AcDbEntity
  8
0
100
AcDbCircle
 62
7
  6
CONTINUOUS
 10
14.2251248956
 20
-0.7668982256
 40
4.5977828607
100
AcDbArc
 50
174.7858851419
 51
175.9983792321
  0
ARC
  5
77E
100
AcDbEntity
  8
0
100
AcDbCircle
 62
7
  6
CONTINUOUS
 10
14.2460150999
 20
-0.4121535213
 40
4.5931216115
100
AcDbArc
 50
175.9994885495
 51
176.6638550556
  0
ARC
  5
77F
100
AcDbEntity
  8
0
100
AcDbCircle
 62
7
  6
CONTINUOUS
 10
14.2213383691
 20
-0.4105691259
 40
4.5683940781
100
AcDbArc
 50
176.2529302499
 51
176.4248206339
  0
ARC
  5
780
100
AcDbEntity
  8
0
100
AcDbCircle
 62
7
  6
CONTINUOUS
 10
9.1727274314
 20
-0.9145472993
 40
0.4330708661
100
AcDbArc
 50
269.9999995332
 51
355.9999999603
  0
ARC
  5
781
100
AcDbEntity
  8
0
100
AcDbCircle
 62
7
  6
CONTINUOUS
 10
1.0153394157
 20
-0.9145472993
 40
0.4330708661
100
AcDbArc
 50
184.0000000397
 51
270.0000004668
  0
ARC
  5
782
100
AcDbEntity
  8
0
100
AcDbCircle
 62
7
  6
CONTINUOUS
 10
7.6912912389
 20
-1.5523425749
 40
0.2283464567
100
AcDbArc
 50
269.9999865578
 51
305.0164933608
  0
ARC
  5
783
100
AcDbEntity
  8
0
100
AcDbCircle
 62
7
  6
CONTINUOUS
 10
2.4967756083
 20
-1.5523425749
 40
0.2283464567
100
AcDbArc
 50
234.9835066392
 51
270.0000134422
  0
ARC
  5
784
100
AcDbEntity
  8
0
100
AcDbCircle
 62
7
  6
CONTINUOUS
 10
8.4534685216
 20
-1.5759646221
 40
0.2283464567
100
AcDbArc
 50
90.0000001808
 51
125.0165057132
  0
ARC
  5
785
100
AcDbEntity
  8
0
100
AcDbCircle
 62
7
  6
CONTINUOUS
 10
1.7345983255
 20
-1.5759646221
 40
0.2283464567
100
AcDbArc
 50
54.9834942868
 51
89.9999998192
  0
ARC
  5
786
100
AcDbEntity
  8
0
100
AcDbCircle
 62
7
  6
CONTINUOUS
 10
2.987734211
 20
-1.9381693466
 40
0.157480315
100
AcDbArc
 50
0.0
 51
90.0
  0
ARC
  5
787
100
AcDbEntity
  8
0
100
AcDbCircle
 62
7
  6
CONTINUOUS
 10
7.2003326362
 20
-1.9381693466
 40
0.157480315
100
AcDbArc
 50
90.0
 51
180.0
  0
ARC
  5
788
100
AcDbEntity
  8
0
100
AcDbCircle
 62
7
  6
CONTINUOUS
 10
7.20626177
 20
4.4586725607
 40
0.1417322835
100
AcDbArc
 50
180.0
 51
226.0000000005
  0
ARC
  5
789
100
AcDbEntity
  8
0
100
AcDbCircle
 62
7
  6
CONTINUOUS
 10
2.9818050771
 20
4.4586725607
 40
0.1417322835
100
AcDbArc
 50
313.9999999998
 51
360.0
  0
ARC
  5
78A
100
AcDbEntity
  8
0
100
AcDbCircle
 62
7
  6
CONTINUOUS
 10
0.6168206533
 20
1.8245562097
 40
0.1102362205
100
AcDbArc
 50
133.9999999995
 51
175.9999999999
  0
ARC
  5
78B
100
AcDbEntity
  8
0
100
AcDbCircle
 62
7
  6
CONTINUOUS
 10
9.5712461939
 20
1.8245562097
 40
0.1102362205
100
AcDbArc
 50
4.0000000001
 51
46.0000000005
  0
ARC
  5
78C
100
AcDbEntity
  8
0
100
AcDbCircle
 62
7
  6
CONTINUOUS
 10
0.3653609164
 20
0.9870275038
 40
0.0826771654
100
AcDbArc
 50
4.0
 51
90.0
  0
ARC
  5
78D
100
AcDbEntity
  8
0
100
AcDbCircle
 62
7
  6
CONTINUOUS
 10
11.7283015209
 20
13.2049070926
 40
0.0800001073
100
AcDbArc
 50
270.0000768316
 51
359.9999231684
  0
ARC
  5
78E
100
AcDbEntity
  8
0
100
AcDbCircle
 62
7
  6
CONTINUOUS
 10
11.0833016216
 20
13.2049070027
 40
0.0799999935
100
AcDbArc
 50
180.0000124603
 51
270.0000047165
  0
ARC
  5
78F
100
AcDbEntity
  8
0
100
AcDbCircle
 62
7
  6
CONTINUOUS
 10
9.8853720062
 20
1.1208857716
 40
0.0511811024
100
AcDbArc
 50
270.0
 51
360.0
  0
ARC
  5
790
100
AcDbEntity
  8
0
100
AcDbCircle
 62
7
  6
CONTINUOUS
 10
0.3026948409
 20
1.1208857716
 40
0.0511811024
100
AcDbArc
 50
180.0
 51
270.0
  0
ARC
  5
791
100
AcDbEntity
  8
0
100
AcDbCircle
 62
7
  6
CONTINUOUS
 10
10.2939589157
 20
2.089934548
 40
0.02
100
AcDbArc
 50
102.0425739073
 51
179.9999940777
  0
ARC
  5
792
100
AcDbEntity
  8
0
100
AcDbCircle
 62
7
  6
CONTINUOUS
 10
11.2196443406
 20
2.089934548
 40
0.02
100
AcDbArc
 50
0.0000058079
 51
77.9574260689
  0
ARC
  5
793
100
AcDbEntity
  8
0
100
AcDbCircle
 62
7
  6
CONTINUOUS
 10
18.9407963914
 20
-0.9145472993
 40
0.4330708661
100
AcDbArc
 50
184.0
 51
270.0
  0
ARC
  5
794
100
AcDbEntity
  8
0
100
AcDbCircle
 62
7
  6
CONTINUOUS
 10
19.6600553011
 20
-1.5759646221
 40
0.2283464567
100
AcDbArc
 50
54.9834944274
 51
90.0
  0
ARC
  5
795
100
AcDbEntity
  8
0
100
AcDbCircle
 62
7
  6
CONTINUOUS
 10
18.2908178921
 20
0.9870275038
 40
0.0826771654
100
AcDbArc
 50
4.0
 51
90.0
  0
ARC
  5
796
100
AcDbEntity
  8
0
100
AcDbCircle
 62
7
  6
CONTINUOUS
 10
18.2281518165
 20
1.1208857716
 40
0.0511811024
100
AcDbArc
 50
180.0
 51
270.0
  0
ARC
  5
797
100
AcDbEntity
  8
0
100
AcDbCircle
 62
7
  6
CONTINUOUS
 10
18.5422776289
 20
1.8245562097
 40
0.1102362205
100
AcDbArc
 50
134.0
 51
176.0
  0
ARC
  5
798
100
AcDbEntity
  8
0
100
AcDbCircle
 62
7
  6
CONTINUOUS
 10
21.2258280653
 20
0.3478585767
 40
0.555
100
AcDbArc
 50
111.8415616938
 51
182.9940022459
  0
ARC
  5
799
100
AcDbEntity
  8
0
100
AcDbCircle
 62
7
  6
CONTINUOUS
 10
21.2258280653
 20
0.3478585767
 40
0.445
100
AcDbArc
 50
117.6450842566
 51
182.9940022459
  0
ARC
  5
79A
100
AcDbEntity
  8
0
100
AcDbCircle
 62
7
  6
CONTINUOUS
 10
20.4222325839
 20
-1.5523425749
 40
0.2283464567
100
AcDbArc
 50
234.9834944271
 51
270.0
  0
ARC
  5
79B
100
AcDbEntity
  8
0
100
AcDbCircle
 62
7
  6
CONTINUOUS
 10
20.9131911866
 20
-1.9381693466
 40
0.157480315
100
AcDbArc
 50
46.9039773228
 51
90.0
  0
ARC
  5
79C
100
AcDbEntity
  8
0
100
AcDbCircle
 62
7
  6
CONTINUOUS
 10
20.9072620527
 20
4.4586725607
 40
0.1417322835
100
AcDbArc
 50
314.0
 51
360.0
  0
ARC
  5
79D
100
AcDbEntity
  8
0
100
AcDbCircle
 62
7
  6
CONTINUOUS
 10
22.1026102515
 20
2.0899345499
 40
0.02
100
AcDbArc
 50
0.0
 51
77.9574248518
  0
ARC
  5
79E
100
AcDbEntity
  8
0
100
AcDbCircle
 62
7
  6
CONTINUOUS
 10
21.1769248266
 20
2.0899345432
 40
0.02
100
AcDbArc
 50
102.0425754433
 51
180.0
  0
ARC
  5
79F
100
AcDbEntity
  8
0
100
AcDbCircle
 62
7
  6
CONTINUOUS
 10
18.1104885308
 20
14.9021465235
 40
0.08
100
AcDbArc
 50
123.6774193548
 51
213.6774193548
  0
ARC
  5
7A0
100
AcDbEntity
  8
0
100
AcDbCircle
 62
7
  6
CONTINUOUS
 10
18.1271319853
 20
14.9132368536
 40
0.08
100
AcDbArc
 50
33.6774193548
 51
123.6774193548
  0
ARC
  5
7A1
100
AcDbEntity
  8
0
100
AcDbCircle
 62
7
  6
CONTINUOUS
 10
17.7093812772
 20
14.6348695677
 40
0.08
100
AcDbArc
 50
159.3484062227
 51
213.6774193548
  0
ARC
  5
7A2
100
AcDbEntity
  8
0
100
AcDbCircle
 62
7
  6
CONTINUOUS
 10
17.7784516134
 20
14.6808944377
 40
0.08
100
AcDbArc
 50
33.6774193548
 51
88.0064324869
  0
CIRCLE
  5
7A3
100
AcDbEntity
  8
02___PRT_ALL_AXES
100
AcDbCircle
 62
7
  6
CONTINUOUS
 10
17.8110644678
 20
14.5632318047
 40
0.0615
  0
ARC
  5
7A4
100
AcDbEntity
  8
02___PRT_ALL_AXES
100
AcDbCircle
 62
7
  6
CONTINUOUS
 10
18.6396932839
 20
8.1420792699
 40
3.1475868766
100
AcDbArc
 50
30.8693317701
 51
31.2708306336
  0
ARC
  5
7A5
100
AcDbEntity
  8
02___PRT_ALL_AXES
100
AcDbCircle
 62
7
  6
CONTINUOUS
 10
18.6396923662
 20
8.1420815711
 40
3.1475865007
100
AcDbArc
 50
29.6672612476
 51
30.0675247776
  0
ARC
  5
7A6
100
AcDbEntity
  8
02___PRT_ALL_AXES
100
AcDbCircle
 62
7
  6
CONTINUOUS
 10
18.6397186882
 20
8.1420932833
 40
3.1475578939
100
AcDbArc
 50
31.2708525275
 51
33.6773972583
  0
ARC
  5
7A7
100
AcDbEntity
  8
02___PRT_ALL_AXES
100
AcDbCircle
 62
7
  6
CONTINUOUS
 10
18.6397675385
 20
8.1421243754
 40
3.1474999963
100
AcDbArc
 50
58.6702230274
 51
31.2708302995
  0
ARC
  5
7A8
100
AcDbEntity
  8
02___PRT_ALL_AXES
100
AcDbCircle
 62
7
  6
CONTINUOUS
 10
18.6398252458
 20
8.1421596188
 40
3.1474323828
100
AcDbArc
 50
30.8705442744
 51
31.2708274158
  0
ARC
  5
7A9
100
AcDbEntity
  8
02___PRT_ALL_AXES
100
AcDbCircle
 62
7
  6
CONTINUOUS
 10
18.639826023
 20
8.1421589746
 40
3.1474320486
100
AcDbArc
 50
30.0675243587
 51
30.8693321689
  0
ARC
  5
7AA
100
AcDbEntity
  8
02___PRT_ALL_AXES
100
AcDbCircle
 62
7
  6
CONTINUOUS
 10
18.6399254002
 20
8.1421240842
 40
3.1473421388
100
AcDbArc
 50
0.0000053158
 51
0.4015354124
  0
ARC
  5
7AB
100
AcDbEntity
  8
02___PRT_ALL_AXES
100
AcDbCircle
 62
7
  6
CONTINUOUS
 10
18.6398024368
 20
8.1421484494
 40
2.8525423899
100
AcDbArc
 50
213.6696534053
 51
214.5030256148
  0
ARC
  5
7AC
100
AcDbEntity
  8
02___PRT_ALL_AXES
100
AcDbCircle
 62
7
  6
CONTINUOUS
 10
18.6397675421
 20
8.1421243717
 40
2.8525
100
AcDbArc
 50
33.6774162068
 51
213.6540930096
  0
ARC
  5
7AD
100
AcDbEntity
  8
02___PRT_ALL_AXES
100
AcDbCircle
 62
7
  6
CONTINUOUS
 10
18.639767536
 20
8.1421243808
 40
2.8525
100
AcDbArc
 50
213.6696429678
 51
33.6618695074
  0
ARC
  5
7AE
100
AcDbEntity
  8
0
100
AcDbCircle
 62
7
  6
CONTINUOUS
 10
19.1649955182
 20
13.4646342936
 40
0.08
100
AcDbArc
 50
123.6774193548
 51
213.6774193548
  0
ARC
  5
7AF
100
AcDbEntity
  8
0
100
AcDbCircle
 62
7
  6
CONTINUOUS
 10
19.114968909
 20
13.6235669471
 40
0.08
100
AcDbArc
 50
303.6774193548
 51
33.6774193548
  0
ARC
  5
7B0
100
AcDbEntity
  8
0
100
AcDbCircle
 62
7
  6
CONTINUOUS
 10
18.5098550528
 20
13.0465944859
 40
0.08
100
AcDbArc
 50
33.6774193548
 51
98.0192678317
  0
ARC
  5
7B1
100
AcDbEntity
  8
0
100
AcDbCircle
 62
7
  6
CONTINUOUS
 10
18.4866785013
 20
13.2049069853
 40
0.08
100
AcDbArc
 50
213.6774193548
 51
303.6774193548
  0
ARC
  5
7B2
100
AcDbEntity
  8
0
100
AcDbCircle
 62
7
  6
CONTINUOUS
 10
25.6167482145
 20
-1.5523425749
 40
0.2283464567
100
AcDbArc
 50
270.0
 51
305.0165055729
  0
ARC
  5
7B3
100
AcDbEntity
  8
0
100
AcDbCircle
 62
7
  6
CONTINUOUS
 10
26.3789254973
 20
-1.5759646221
 40
0.2283464567
100
AcDbArc
 50
90.0
 51
125.0165055727
  0
ARC
  5
7B4
100
AcDbEntity
  8
0
100
AcDbCircle
 62
7
  6
CONTINUOUS
 10
25.1257896118
 20
-1.9381693466
 40
0.157480315
100
AcDbArc
 50
90.0
 51
133.0960226772
  0
ARC
  5
7B5
100
AcDbEntity
  8
0
100
AcDbCircle
 62
7
  6
CONTINUOUS
 10
25.1317187457
 20
4.4586725607
 40
0.1417322835
100
AcDbArc
 50
180.0
 51
226.0
  0
ARC
  5
7B6
100
AcDbEntity
  8
0
100
AcDbCircle
 62
7
  6
CONTINUOUS
 10
27.098184407
 20
-0.9145472993
 40
0.4330708661
100
AcDbArc
 50
270.0
 51
356.0
  0
ARC
  5
7B7
100
AcDbEntity
  8
0
100
AcDbCircle
 62
7
  6
CONTINUOUS
 10
27.7481629063
 20
0.9870275038
 40
0.0826771654
100
AcDbArc
 50
90.0
 51
176.0
  0
ARC
  5
7B8
100
AcDbEntity
  8
0
100
AcDbCircle
 62
7
  6
CONTINUOUS
 10
27.8108289819
 20
1.1208857716
 40
0.0511811024
100
AcDbArc
 50
270.0
 51
360.0
  0
ARC
  5
7B9
100
AcDbEntity
  8
0
100
AcDbCircle
 62
7
  6
CONTINUOUS
 10
27.4967031695
 20
1.8245562097
 40
0.1102362205
100
AcDbArc
 50
4.0
 51
46.0
  0
ARC
  5
7BA
100
AcDbEntity
  8
0
100
AcDbCircle
 62
7
  6
CONTINUOUS
 10
5.0940334236
 20
-15.844706171
 40
4.842519685
100
AcDbArc
 50
17.0599231011
 51
342.9400769099
  0
ARC
  5
7BB
100
AcDbEntity
  8
0
100
AcDbCircle
 62
7
  6
CONTINUOUS
 10
5.0940334236
 20
-15.844706171
 40
4.5966011252
100
AcDbArc
 50
356.3169085799
 51
358.878094819
  0
ARC
  5
7BC
100
AcDbEntity
  8
0
100
AcDbCircle
 62
7
  6
CONTINUOUS
 10
5.0940334236
 20
-15.844706171
 40
4.5966011252
100
AcDbArc
 50
1.121905181
 51
3.6830914201
  0
ARC
  5
7BD
100
AcDbEntity
  8
0
100
AcDbCircle
 62
7
  6
CONTINUOUS
 10
5.0940334236
 20
-15.844706171
 40
4.586878737
100
AcDbArc
 50
356.309091062
 51
3.690908938
  0
ARC
  5
7BE
100
AcDbEntity
  8
0
100
AcDbCircle
 62
7
  6
CONTINUOUS
 10
5.0940334236
 20
-15.844706171
 40
1.9488188976
100
AcDbArc
 50
104.3883046463
 51
255.6116953537
  0
ARC
  5
7BF
100
AcDbEntity
  8
0
100
AcDbCircle
 62
7
  6
CONTINUOUS
 10
5.0940334236
 20
-15.844706171
 40
1.9488188976
100
AcDbArc
 50
285.410050829
 51
74.589949171
  0
ARC
  5
7C0
100
AcDbEntity
  8
0
100
AcDbCircle
 62
7
  6
CONTINUOUS
 10
5.0940334236
 20
-15.844706171
 40
1.9173228346
100
AcDbArc
 50
104.6280872373
 51
255.3719127627
  0
ARC
  5
7C1
100
AcDbEntity
  8
0
100
AcDbCircle
 62
7
  6
CONTINUOUS
 10
5.0940334236
 20
-15.844706171
 40
1.9173228346
100
AcDbArc
 50
285.6662768379
 51
74.3337231621
  0
ARC
  5
7C2
100
AcDbEntity
  8
0
100
AcDbCircle
 62
7
  6
CONTINUOUS
 10
5.0940334236
 20
-15.844706171
 40
1.75
100
AcDbArc
 50
287.21249696
 51
72.7875030384
  0
ARC
  5
7C3
100
AcDbEntity
  8
0
100
AcDbCircle
 62
7
  6
CONTINUOUS
 10
5.0940334236
 20
-15.844706171
 40
1.75
100
AcDbArc
 50
106.0685973299
 51
253.9314026685
  0
ARC
  5
7C4
100
AcDbEntity
  8
0
100
AcDbCircle
 62
7
  6
CONTINUOUS
 10
11.5422686227
 20
-11.94018474
 40
0.0799999418
100
AcDbArc
 50
277.9271372198
 51
333.6293950835
  0
ARC
  5
7C5
100
AcDbEntity
  8
0
100
AcDbCircle
 62
7
  6
CONTINUOUS
 10
11.7283016989
 20
-11.5649942444
 40
0.0799999292
100
AcDbArc
 50
333.6252561485
 51
0.0000050223
  0
ARC
  5
7C6
100
AcDbEntity
  8
0
100
AcDbCircle
 62
7
  6
CONTINUOUS
 10
10.8068016282
 20
-13.551043837
 40
0.055
100
AcDbArc
 50
0.0
 51
180.0
  0
ARC
  5
7C7
100
AcDbEntity
  8
0
100
AcDbCircle
 62
7
  6
CONTINUOUS
 10
10.8067589865
 20
-13.5516833643
 40
0.0549626431
100
AcDbArc
 50
180.0447971596
 51
270.0444475013
  0
ARC
  5
7C8
100
AcDbEntity
  8
0
100
AcDbCircle
 62
7
  6
CONTINUOUS
 10
10.8068442706
 20
-13.5516833725
 40
0.0549626431
100
AcDbArc
 50
269.9555516202
 51
359.9552113878
  0
ARC
  5
7C9
100
AcDbEntity
  8
0
100
AcDbCircle
 62
7
  6
CONTINUOUS
 10
10.8068442731
 20
-13.5517692959
 40
0.0549626431
100
AcDbArc
 50
0.0447908309
 51
90.0444509301
  0
ARC
  5
7CA
100
AcDbEntity
  8
0
100
AcDbCircle
 62
7
  6
CONTINUOUS
 10
10.8067589865
 20
-13.551769302
 40
0.0549626431
100
AcDbArc
 50
89.9555524987
 51
179.9552028404
  0
LINE
  5
7CB
100
AcDbEntity
  8
0
100
AcDbLine
 62
7
  6
CONTINUOUS
 10
10.3447757247
 20
1.4232906367
 11
10.3447757507
 21
1.4234642896
  0
LINE
  5
7CC
100
AcDbEntity
  8
0
100
AcDbLine
 62
7
  6
CONTINUOUS
 10
11.152730476
 20
1.418720904
 11
11.1523167996
 21
1.4188668405
  0
LINE
  5
7CD
100
AcDbEntity
  8
0
100
AcDbLine
 62
7
  6
CONTINUOUS
 10
11.1527307079
 20
1.3887209042
 11
11.1526231768
 21
1.3887738936
  0
LINE
  5
7CE
100
AcDbEntity
  8
0
100
AcDbLine
 62
7
  6
CONTINUOUS
 10
10.3608726446
 20
1.4037209041
 11
10.3611027338
 21
1.403816757
  0
SPLINE
  5
7CF
100
AcDbEntity
  8
0
100
AcDbSpline
 62
7
  6
CONTINUOUS
 70
0
 71
3
 72
53
 73
49
 74
0
 42
0.0000001
 43
0.0000001
 44
0.0000000001
 40
0.0
 40
0.0
 40
0.0
 40
0.0
 40
0.0002732761
 40
0.0006136835
 40
0.0014977171
 40
0.0026540218
 40
0.0040829047
 40
0.005784168
 40
0.0077573888
 40
0.0100019941
 40
0.0125168311
 40
0.0183507946
 40
0.0252462538
 40
0.0331896765
 40
0.0421634698
 40
0.0521469345
 40
0.0631191822
 40
0.0750564499
 40
0.0879312562
 40
0.1163807076
 40
0.1482168056
 40
0.183160696
 40
0.2209033171
 40
0.2611130351
 40
0.3034359514
 40
0.3474986479
 40
0.392913851
 40
0.4392811047
 40
0.4861922222
 40
0.579992307
 40
0.6710169483
 40
0.7144819491
 40
0.7560669231
 40
0.7954057979
 40
0.8321528385
 40
0.8659831639
 40
0.8966002343
 40
0.923734203
 40
0.9471455472
 40
0.9573905163
 40
0.9666302624
 40
0.9748442749
 40
0.9820159616
 40
0.9881290908
 40
0.9931697354
 40
0.9971290831
 40
0.9987009781
 40
1.0
 40
1.0
 40
1.0
 40
1.0
 10
10.3611027338
 20
1.403816757
 30
0.0
 10
10.3611714832
 20
1.4038380174
 30
0.0
 10
10.3613280046
 20
1.4038787928
 30
0.0
 10
10.3617141556
 20
1.4039593419
 30
0.0
 10
10.3623340462
 20
1.4040552039
 30
0.0
 10
10.3632410579
 20
1.4041645896
 30
0.0
 10
10.3643645218
 20
1.4042746201
 30
0.0
 10
10.3657038503
 20
1.4043853138
 30
0.0
 10
10.367258593
 20
1.4044963184
 30
0.0
 10
10.3690280254
 20
1.4046075696
 30
0.0
 10
10.3718132146
 20
1.4047639573
 30
0.0
 10
10.3758229569
 20
1.4049558159
 30
0.0
 10
10.3812622549
 20
1.4051772629
 30
0.0
 10
10.3875289357
 20
1.4053992539
 30
0.0
 10
10.3946092072
 20
1.4056217175
 30
0.0
 10
10.4024873997
 20
1.4058445177
 30
0.0
 10
10.4111462386
 20
1.4060675338
 30
0.0
 10
10.4205666805
 20
1.4062907148
 30
0.0
 10
10.4345886495
 20
1.4065988478
 30
0.0
 10
10.4538502142
 20
1.4069795692
 30
0.0
 10
10.4789230458
 20
1.4074236597
 30
0.0
 10
10.5064433835
 20
1.4078683689
 30
0.0
 10
10.5361689999
 20
1.4083136149
 30
0.0
 10
10.567837932
 20
1.4087592043
 30
0.0
 10
10.6011712803
 20
1.4092050478
 30
0.0
 10
10.6358755025
 20
1.4096510873
 30
0.0
 10
10.6716448027
 20
1.4100972469
 30
0.0
 10
10.7081642328
 20
1.4105434974
 30
0.0
 10
10.7574239789
 20
1.4111385071
 30
0.0
 10
10.8184425256
 20
1.411872524
 30
0.0
 10
10.8785534195
 20
1.4126167611
 30
0.0
 10
10.9249151881
 20
1.4132206864
 30
0.0
 10
10.9576674526
 20
1.4136664578
 30
0.0
 10
10.9886505102
 20
1.4141119353
 30
0.0
 10
11.0175913204
 20
1.4145569907
 30
0.0
 10
11.0442351361
 20
1.4150015176
 30
0.0
 10
11.0683471776
 20
1.4154451793
 30
0.0
 10
11.0897150927
 20
1.4158877505
 30
0.0
 10
11.1057184725
 20
1.4162699645
 30
0.0
 10
11.1170100117
 20
1.416581115
 30
0.0
 10
11.124300529
 20
1.4168036911
 30
0.0
 10
11.1307813579
 20
1.417025855
 30
0.0
 10
11.1364383262
 20
1.4172474437
 30
0.0
 10
11.1412589899
 20
1.4174679364
 30
0.0
 10
11.1452327135
 20
1.4176873536
 30
0.0
 10
11.148010211
 20
1.4178792476
 30
0.0
 10
11.149801761
 20
1.4180390469
 30
0.0
 10
11.150553513
 20
1.4181198395
 30
0.0
 10
11.1508930275
 20
1.4181615846
 30
0.0
  0
SPLINE
  5
7D0
100
AcDbEntity
  8
0
100
AcDbSpline
 62
7
  6
CONTINUOUS
 70
0
 71
3
 72
16
 73
12
 74
0
 42
0.0000001
 43
0.0000001
 44
0.0000000001
 40
0.0
 40
0.0
 40
0.0
 40
0.0
 40
0.2253256158
 40
0.4211875969
 40
0.5876810685
 40
0.7249677306
 40
0.8333470802
 40
0.9134529941
 40
0.9433870924
 40
0.9671059654
 40
1.0
 40
1.0
 40
1.0
 40
1.0
 10
11.1508930275
 20
1.4181615846
 30
0.0
 10
11.1510421815
 20
1.4181799238
 30
0.0
 10
11.151320755
 20
1.4182161459
 30
0.0
 10
11.1517084209
 20
1.4182741235
 30
0.0
 10
11.1520366393
 20
1.4183319346
 30
0.0
 10
11.1523055808
 20
1.418389256
 30
0.0
 10
11.1525153366
 20
1.4184464137
 30
0.0
 10
11.1526525031
 20
1.4184963494
 30
0.0
 10
11.1527312549
 20
1.4185395193
 30
0.0
 10
11.152777228
 20
1.418573119
 30
0.0
 10
11.1528011594
 20
1.4186086117
 30
0.0
 10
11.1528011954
 20
1.4186305498
 30
0.0
  0
SPLINE
  5
7D1
100
AcDbEntity
  8
0
100
AcDbSpline
 62
7
  6
CONTINUOUS
 70
0
 71
3
 72
55
 73
51
 74
0
 42
0.0000001
 43
0.0000001
 44
0.0000000001
 40
0.0
 40
0.0
 40
0.0
 40
0.0
 40
0.0001620577
 40
0.0003880601
 40
0.0006801824
 40
0.0010393601
 40
0.0014660535
 40
0.0019605048
 40
0.0031531032
 40
0.0046175888
 40
0.0063538905
 40
0.0083616404
 40
0.0106397507
 40
0.0131868264
 40
0.0160014343
 40
0.0224273902
 40
0.0299053575
 40
0.038418522
 40
0.0479474934
 40
0.0584726549
 40
0.0699710068
 40
0.0824162406
 40
0.0957818671
 40
0.1100391769
 40
0.1410986651
 40
0.1753239358
 40
0.2124134963
 40
0.2520425786
 40
0.2938639885
 40
0.3375100364
 40
0.3825986612
 40
0.4287339013
 40
0.4755111283
 40
0.5693483206
 40
0.6608247267
 40
0.7467378432
 40
0.7866573555
 40
0.8240797642
 40
0.8586755486
 40
0.8901425403
 40
0.9182045666
 40
0.9426148079
 40
0.9631612307
 40
0.9719269727
 40
0.9796627395
 40
0.9863510546
 40
0.9919766999
 40
0.9965293755
 40
0.9984004796
 40
1.0
 40
1.0
 40
1.0
 40
1.0
 10
10.3608725435
 20
1.3737209044
 30
0.0
 10
10.3609084975
 20
1.3737438018
 30
0.0
 10
10.3610024434
 20
1.3737856387
 30
0.0
 10
10.3611729583
 20
1.3738397084
 30
0.0
 10
10.3613973659
 20
1.3738943191
 30
0.0
 10
10.3616755458
 20
1.3739493393
 30
0.0
 10
10.3620077937
 20
1.374004602
 30
0.0
 10
10.3625581727
 20
1.3740835074
 30
0.0
 10
10.3633816732
 20
1.374179462
 30
0.0
 10
10.3645320507
 20
1.3742895271
 30
0.0
 10
10.3658976306
 20
1.374400012
 30
0.0
 10
10.3674777782
 20
1.3745108406
 30
0.0
 10
10.3692716279
 20
1.3746218807
 30
0.0
 10
10.3712780538
 20
1.3747330944
 30
0.0
 10
10.3743746713
 20
1.3748884821
 30
0.0
 10
10.3787680283
 20
1.3750797711
 30
0.0
 10
10.3846602594
 20
1.3753011317
 30
0.0
 10
10.3913691632
 20
1.375522969
 30
0.0
 10
10.3988799426
 20
1.3757452174
 30
0.0
 10
10.4071762178
 20
1.3759677
 30
0.0
 10
10.4162398029
 20
1.3761903678
 30
0.0
 10
10.4260507184
 20
1.3764132035
 30
0.0
 10
10.4365874932
 20
1.3766361565
 30
0.0
 10
10.4520196964
 20
1.3769423341
 30
0.0
 10
10.4729382232
 20
1.3773215248
 30
0.0
 10
10.4998620893
 20
1.3777652693
 30
0.0
 10
10.5290402881
 20
1.3782095358
 30
0.0
 10
10.5602167078
 20
1.3786541892
 30
0.0
 10
10.5931178417
 20
1.3790991075
 30
0.0
 10
10.6274551209
 20
1.3795442385
 30
0.0
 10
10.6629271568
 20
1.3799895004
 30
0.0
 10
10.6992228484
 20
1.3804348607
 30
0.0
 10
10.748340009
 20
1.3810293478
 30
0.0
 10
10.8093824477
 20
1.3817627329
 30
0.0
 10
10.880717795
 20
1.3826412838
 30
0.0
 10
10.9378717118
 20
1.3833886682
 30
0.0
 10
10.9808083818
 20
1.3839965546
 30
0.0
 10
11.0102480061
 20
1.3844408838
 30
0.0
 10
11.0374641021
 20
1.3848846944
 30
0.0
 10
11.0622177935
 20
1.385327796
 30
0.0
 10
11.0842919364
 20
1.3857697272
 30
0.0
 10
11.1034930156
 20
1.3862102786
 30
0.0
 10
11.1176185302
 20
1.3865923218
 30
0.0
 10
11.1273582485
 20
1.3869051025
 30
0.0
 10
11.1334538638
 20
1.3871266253
 30
0.0
 10
11.1387229676
 20
1.3873473009
 30
0.0
 10
11.1431539882
 20
1.3875671215
 30
0.0
 10
11.1463176843
 20
1.3877588406
 30
0.0
 10
11.1484221545
 20
1.3879169446
 30
0.0
 10
11.1493315852
 20
1.387996697
 30
0.0
 10
11.1497503289
 20
1.3880374466
 30
0.0
  0
SPLINE
  5
7D2
100
AcDbEntity
  8
0
100
AcDbSpline
 62
7
  6
CONTINUOUS
 70
0
 71
3
 72
17
 73
13
 74
0
 42
0.0000001
 43
0.0000001
 44
0.0000000001
 40
0.0
 40
0.0
 40
0.0
 40
0.0
 40
0.426126836
 40
0.594273542
 40
0.7325727838
 40
0.7905840788
 40
0.8412148078
 40
0.8845245127
 40
0.9206108123
 40
0.9496465393
 40
0.9719718417
 40
1.0
 40
1.0
 40
1.0
 40
1.0
 10
11.1497503289
 20
1.3880374466
 30
0.0
 10
11.1501955475
 20
1.3880807727
 30
0.0
 10
11.1508160348
 20
1.3881468064
 30
0.0
 10
11.1515777639
 20
1.3882527822
 30
0.0
 10
11.1519551178
 20
1.3883164094
 30
0.0
 10
11.1522090814
 20
1.3883685742
 30
0.0
 10
11.152364313
 20
1.3884052542
 30
0.0
 10
11.1524959351
 20
1.3884419531
 30
0.0
 10
11.1526036241
 20
1.3884781254
 30
0.0
 10
11.1526887097
 20
1.388515154
 30
0.0
 10
11.1527590553
 20
1.3885552877
 30
0.0
 10
11.1528013904
 20
1.3886011276
 30
0.0
 10
11.1528014552
 20
1.3886305498
 30
0.0
  0
LINE
  5
7D3
100
AcDbEntity
  8
0
100
AcDbLine
 62
7
  6
CONTINUOUS
 10
10.3608021373
 20
1.4131243761
 11
10.3616378443
 21
1.4134347211
  0
SPLINE
  5
7D4
100
AcDbEntity
  8
0
100
AcDbSpline
 62
7
  6
CONTINUOUS
 70
0
 71
3
 72
43
 73
39
 74
0
 42
0.0000001
 43
0.0000001
 44
0.0000000001
 40
0.0
 40
0.0
 40
0.0
 40
0.0
 40
0.0008736376
 40
0.0019978598
 40
0.0033727609
 40
0.0049980216
 40
0.0089974397
 40
0.0139908039
 40
0.01996832
 40
0.0269173616
 40
0.03482509
 40
0.0436763972
 40
0.0534523461
 40
0.0641335957
 40
0.088127296
 40
0.1154634109
 40
0.1459242839
 40
0.1792652309
 40
0.2152184776
 40
0.2534968098
 40
0.2937919671
 40
0.3357817453
 40
0.3791288364
 40
0.4684965498
 40
0.5590336637
 40
0.6478412449
 40
0.7320755149
 40
0.8090393222
 40
0.8440139393
 40
0.8762688632
 40
0.9055470952
 40
0.9316123861
 40
0.9542568682
 40
0.9732994593
 40
0.981420877
 40
0.9885868711
 40
0.994784246
 40
1.0
 40
1.0
 40
1.0
 40
1.0
 10
10.3616378443
 20
1.4134347211
 30
0.0
 10
10.3618619393
 20
1.41347632
 30
0.0
 10
10.3623774736
 20
1.4135546236
 30
0.0
 10
10.3632512051
 20
1.4136591624
 30
0.0
 10
10.3643221312
 20
1.4137643794
 30
0.0
 10
10.3661419841
 20
1.4139160147
 30
0.0
 10
10.368906217
 20
1.4140993524
 30
0.0
 10
10.3728062166
 20
1.4143092343
 30
0.0
 10
10.3774766385
 20
1.4145200752
 30
0.0
 10
10.3829079933
 20
1.4147317937
 30
0.0
 10
10.3890895728
 20
1.4149439643
 30
0.0
 10
10.3960090356
 20
1.4151564572
 30
0.0
 10
10.4036523807
 20
1.4153692332
 30
0.0
 10
10.4152454202
 20
1.4156647586
 30
0.0
 10
10.4314194234
 20
1.4160289609
 30
0.0
 10
10.4527536178
 20
1.4164522182
 30
0.0
 10
10.4765268298
 20
1.4168762421
 30
0.0
 10
10.5025484766
 20
1.4173009057
 30
0.0
 10
10.5306098637
 20
1.4177260048
 30
0.0
 10
10.5604857246
 20
1.4181514006
 30
0.0
 10
10.5919366036
 20
1.4185770438
 30
0.0
 10
10.6247099847
 20
1.4190028489
 30
0.0
 10
10.6702850621
 20
1.4195765711
 30
0.0
 10
10.7285249608
 20
1.4202849137
 30
0.0
 10
10.7986242972
 20
1.4211269463
 30
0.0
 10
10.8673842812
 20
1.4219683896
 30
0.0
 10
10.932602865
 20
1.4228084985
 30
0.0
 10
10.9837773504
 20
1.4235270204
 30
0.0
 10
11.021391413
 20
1.4241124245
 30
0.0
 10
11.0465657617
 20
1.4245369087
 30
0.0
 10
11.069415409
 20
1.4249606558
 30
0.0
 10
11.0897573384
 20
1.4253833352
 30
0.0
 10
11.1074282624
 20
1.4258046525
 30
0.0
 10
11.1204177408
 20
1.4261701073
 30
0.0
 10
11.1293691208
 20
1.426469234
 30
0.0
 10
11.1349703095
 20
1.4266810714
 30
0.0
 10
11.1398128439
 20
1.4268922154
 30
0.0
 10
11.1427865315
 20
1.4270454274
 30
0.0
 10
11.1441449878
 20
1.4271242002
 30
0.0
  0
LINE
  5
7D5
100
AcDbEntity
  8
0
100
AcDbLine
 62
7
  6
CONTINUOUS
 10
10.3608019402
 20
1.3831243759
 11
10.3611027338
 21
1.3833105831
  0
SPLINE
  5
7D6
100
AcDbEntity
  8
0
100
AcDbSpline
 62
7
  6
CONTINUOUS
 70
0
 71
3
 72
53
 73
49
 74
0
 42
0.0000001
 43
0.0000001
 44
0.0000000001
 40
0.0
 40
0.0
 40
0.0
 40
0.0
 40
0.0002732761
 40
0.0006136835
 40
0.0014977171
 40
0.0026540218
 40
0.0040829047
 40
0.005784168
 40
0.0077573888
 40
0.0100019941
 40
0.0125168311
 40
0.0183507946
 40
0.0252462538
 40
0.0331896765
 40
0.0421634698
 40
0.0521469345
 40
0.0631191822
 40
0.0750564499
 40
0.0879312562
 40
0.1163807076
 40
0.1482168056
 40
0.183160696
 40
0.2209033171
 40
0.2611130351
 40
0.3034359514
 40
0.3474986479
 40
0.392913851
 40
0.4392811047
 40
0.4861922222
 40
0.579992307
 40
0.6710169483
 40
0.7144819491
 40
0.7560669231
 40
0.7954057979
 40
0.8321528385
 40
0.8659831639
 40
0.8966002343
 40
0.923734203
 40
0.9471455472
 40
0.9573905163
 40
0.9666302624
 40
0.9748442749
 40
0.9820159616
 40
0.9881290908
 40
0.9931697354
 40
0.9971290831
 40
0.9987009781
 40
1.0
 40
1.0
 40
1.0
 40
1.0
 10
10.3611027338
 20
1.3833105831
 30
0.0
 10
10.3611714832
 20
1.3833318436
 30
0.0
 10
10.3613280046
 20
1.383372619
 30
0.0
 10
10.3617141556
 20
1.3834531681
 30
0.0
 10
10.3623340462
 20
1.3835490301
 30
0.0
 10
10.3632410579
 20
1.3836584158
 30
0.0
 10
10.3643645218
 20
1.3837684463
 30
0.0
 10
10.3657038503
 20
1.3838791399
 30
0.0
 10
10.367258593
 20
1.3839901446
 30
0.0
 10
10.3690280254
 20
1.3841013958
 30
0.0
 10
10.3718132146
 20
1.3842577835
 30
0.0
 10
10.3758229569
 20
1.384449642
 30
0.0
 10
10.3812622549
 20
1.3846710891
 30
0.0
 10
10.3875289357
 20
1.3848930801
 30
0.0
 10
10.3946092072
 20
1.3851155437
 30
0.0
 10
10.4024873997
 20
1.3853383438
 30
0.0
 10
10.4111462386
 20
1.3855613599
 30
0.0
 10
10.4205666805
 20
1.385784541
 30
0.0
 10
10.4345886495
 20
1.386092674
 30
0.0
 10
10.4538502142
 20
1.3864733954
 30
0.0
 10
10.4789230458
 20
1.3869174858
 30
0.0
 10
10.5064433835
 20
1.3873621951
 30
0.0
 10
10.5361689999
 20
1.387807441
 30
0.0
 10
10.567837932
 20
1.3882530304
 30
0.0
 10
10.6011712803
 20
1.388698874
 30
0.0
 10
10.6358755025
 20
1.3891449135
 30
0.0
 10
10.6716448027
 20
1.3895910731
 30
0.0
 10
10.7081642328
 20
1.3900373236
 30
0.0
 10
10.7574239789
 20
1.3906323333
 30
0.0
 10
10.8184425256
 20
1.3913663502
 30
0.0
 10
10.8785534195
 20
1.3921105873
 30
0.0
 10
10.9249151881
 20
1.3927145125
 30
0.0
 10
10.9576674526
 20
1.393160284
 30
0.0
 10
10.9886505102
 20
1.3936057615
 30
0.0
 10
11.0175913204
 20
1.3940508168
 30
0.0
 10
11.0442351361
 20
1.3944953438
 30
0.0
 10
11.0683471776
 20
1.3949390055
 30
0.0
 10
11.0897150927
 20
1.3953815767
 30
0.0
 10
11.1057184725
 20
1.3957637907
 30
0.0
 10
11.1170100117
 20
1.3960749412
 30
0.0
 10
11.124300529
 20
1.3962975173
 30
0.0
 10
11.1307813579
 20
1.3965196812
 30
0.0
 10
11.1364383262
 20
1.3967412699
 30
0.0
 10
11.1412589899
 20
1.3969617625
 30
0.0
 10
11.1452327135
 20
1.3971811798
 30
0.0
 10
11.148010211
 20
1.3973730738
 30
0.0
 10
11.149801761
 20
1.397532873
 30
0.0
 10
11.150553513
 20
1.3976136657
 30
0.0
 10
11.1508930275
 20
1.3976554107
 30
0.0
  0
LINE
  5
7D7
100
AcDbEntity
  8
0
100
AcDbLine
 62
7
  6
CONTINUOUS
 10
11.1508930275
 20
1.3976554107
 11
11.1527302002
 21
1.398034022
  0
SPLINE
  5
7D8
100
AcDbEntity
  8
0
100
AcDbSpline
 62
7
  6
CONTINUOUS
 70
0
 71
3
 72
60
 73
56
 74
0
 42
0.0000001
 43
0.0000001
 44
0.0000000001
 40
0.0
 40
0.0
 40
0.0
 40
0.0
 40
0.000084305
 40
0.0001446253
 40
0.0002197171
 40
0.0004174531
 40
0.0006813122
 40
0.0010126531
 40
0.001412109
 40
0.0018800045
 40
0.0024165119
 40
0.0036956455
 40
0.0052497632
 40
0.0070787153
 40
0.0091819419
 40
0.0115581639
 40
0.014205948
 40
0.0171238273
 40
0.0203103131
 40
0.0274830011
 40
0.0357087807
 40
0.0449682115
 40
0.0552414975
 40
0.0665068297
 40
0.0787379222
 40
0.0919078646
 40
0.1059886329
 40
0.120947899
 40
0.1367522831
 40
0.170757134
 40
0.2077001334
 40
0.2472545679
 40
0.2890693517
 40
0.332772964
 40
0.3779784438
 40
0.4242840662
 40
0.4712792246
 40
0.5185469261
 40
0.5656676754
 40
0.6578010609
 40
0.7444169081
 40
0.7846863499
 40
0.8224480232
 40
0.8573656942
 40
0.88913094
 40
0.9174615742
 40
0.9421057645
 40
0.9628468541
 40
0.9716939636
 40
0.9794999107
 40
0.9862469141
 40
0.9919194001
 40
0.9965068433
 40
0.9983907526
 40
1.0
 40
1.0
 40
1.0
 40
1.0
 10
10.3608022669
 20
1.3531326753
 30
0.0
 10
10.3608054016
 20
1.3531546305
 30
0.0
 10
10.3608319446
 20
1.353187317
 30
0.0
 10
10.3608788095
 20
1.353219905
 30
0.0
 10
10.3609568223
 20
1.3532609845
 30
0.0
 10
10.3610898097
 20
1.3533090551
 30
0.0
 10
10.3612912051
 20
1.3533639421
 30
0.0
 10
10.3615470815
 20
1.3534190368
 30
0.0
 10
10.3618575398
 20
1.3534745338
 30
0.0
 10
10.3622226596
 20
1.3535301984
 30
0.0
 10
10.3628181765
 20
1.3536093137
 30
0.0
 10
10.3636994821
 20
1.3537057991
 30
0.0
 10
10.3649209696
 20
1.3538166448
 30
0.0
 10
10.3663599744
 20
1.3539278648
 30
0.0
 10
10.368015771
 20
1.3540393919
 30
0.0
 10
10.3698873907
 20
1.3541511199
 30
0.0
 10
10.371973648
 20
1.3542629967
 30
0.0
 10
10.3742733286
 20
1.3543749887
 30
0.0
 10
10.3777626161
 20
1.3545306321
 30
0.0
 10
10.3826479539
 20
1.354722729
 30
0.0
 10
10.3891308075
 20
1.3549456978
 30
0.0
 10
10.3964297378
 20
1.3551690795
 30
0.0
 10
10.4045285969
 20
1.3553927664
 30
0.0
 10
10.413409466
 20
1.3556166378
 30
0.0
 10
10.4230525653
 20
1.3558406958
 30
0.0
 10
10.4334364935
 20
1.3560648873
 30
0.0
 10
10.444538267
 20
1.3562891523
 30
0.0
 10
10.4563332048
 20
1.3565135141
 30
0.0
 10
10.4733688752
 20
1.3568202912
 30
0.0
 10
10.4961873299
 20
1.357200752
 30
0.0
 10
10.5252533637
 20
1.3576475006
 30
0.0
 10
10.5563741501
 20
1.3580946169
 30
0.0
 10
10.5892735957
 20
1.3585420336
 30
0.0
 10
10.6236597704
 20
1.3589896693
 30
0.0
 10
10.6592274291
 20
1.359437445
 30
0.0
 10
10.695661049
 20
1.3598853283
 30
0.0
 10
10.7326372099
 20
1.36033327
 30
0.0
 10
10.7698278189
 20
1.3607812298
 30
0.0
 10
10.8188919046
 20
1.3613740559
 30
0.0
 10
10.8783062645
 20
1.3621046219
 30
0.0
 10
10.9359178775
 20
1.3628560606
 30
0.0
 10
10.9792266873
 20
1.3634672872
 30
0.0
 10
11.0089363864
 20
1.3639141494
 30
0.0
 10
11.0364086539
 20
1.36436049
 30
0.0
 10
11.0613995864
 20
1.364806113
 30
0.0
 10
11.0836874635
 20
1.3652505601
 30
0.0
 10
11.1030746256
 20
1.3656936117
 30
0.0
 10
11.1173362591
 20
1.3660778312
 30
0.0
 10
11.1271684018
 20
1.3663924157
 30
0.0
 10
11.1333201641
 20
1.3666151998
 30
0.0
 10
11.1386362149
 20
1.3668371236
 30
0.0
 10
11.1431047456
 20
1.3670581827
 30
0.0
 10
11.1462937017
 20
1.3672509975
 30
0.0
 10
11.1484135127
 20
1.3674100393
 30
0.0
 10
11.1493289801
 20
1.3674902696
 30
0.0
 10
11.1497503289
 20
1.3675312728
 30
0.0
  0
LINE
  5
7D9
100
AcDbEntity
  8
0
100
AcDbLine
 62
7
  6
CONTINUOUS
 10
11.1497503289
 20
1.3675312728
 11
11.1527303538
 21
1.3680340218
  0
LINE
  5
7DA
100
AcDbEntity
  8
0
100
AcDbLine
 62
7
  6
CONTINUOUS
 10
10.3611146941
 20
1.4129346211
 11
10.360873045
 21
1.4130340221
  0
LINE
  5
7DB
100
AcDbEntity
  8
0
100
AcDbLine
 62
7
  6
CONTINUOUS
 10
10.3610528002
 20
1.382954489
 11
10.3608730055
 21
1.3830340218
  0
LINE
  5
7DC
100
AcDbEntity
  8
0
100
AcDbLine
 62
7
  6
CONTINUOUS
 10
10.3610150488
 20
1.3529677512
 11
10.3608727679
 21
1.3530340217
  0
SPLINE
  5
7DD
100
AcDbEntity
  8
0
100
AcDbSpline
 62
7
  6
CONTINUOUS
 70
0
 71
3
 72
30
 73
26
 74
0
 42
0.0000001
 43
0.0000001
 44
0.0000000001
 40
0.0
 40
0.0
 40
0.0
 40
0.0
 40
0.0010985074
 40
0.0026536183
 40
0.0046806683
 40
0.0071860924
 40
0.0101730259
 40
0.0136431188
 40
0.0220357181
 40
0.0323670228
 40
0.0446365526
 40
0.0588386767
 40
0.0749643693
 40
0.0930041514
 40
0.112948302
 40
0.1585099316
 40
0.2115533033
 40
0.2719483038
 40
0.3395601478
 40
0.4142417162
 40
0.4958129658
 40
0.5840882154
 40
0.6788730906
 40
0.7799423945
 40
1.0
 40
1.0
 40
1.0
 40
1.0
 10
10.3447757507
 20
1.4234642896
 30
0.0
 10
10.3448129863
 20
1.4234879853
 30
0.0
 10
10.3449115695
 20
1.4235308299
 30
0.0
 10
10.3450912857
 20
1.4235859966
 30
0.0
 10
10.3453296644
 20
1.4236417524
 30
0.0
 10
10.345626519
 20
1.4236979747
 30
0.0
 10
10.3459822085
 20
1.423754457
 30
0.0
 10
10.3465733761
 20
1.4238352
 30
0.0
 10
10.3474597977
 20
1.4239333194
 30
0.0
 10
10.3486999969
 20
1.4240458331
 30
0.0
 10
10.3501743884
 20
1.42415877
 30
0.0
 10
10.3518821304
 20
1.4242720835
 30
0.0
 10
10.3538221414
 20
1.4243856218
 30
0.0
 10
10.355993194
 20
1.4244993394
 30
0.0
 10
10.3593461366
 20
1.4246582631
 30
0.0
 10
10.3641052336
 20
1.4248538532
 30
0.0
 10
10.3704895508
 20
1.4250801766
 30
0.0
 10
10.3777602712
 20
1.4253070245
 30
0.0
 10
10.3859007317
 20
1.4255342686
 30
0.0
 10
10.3948923037
 20
1.4257617432
 30
0.0
 10
10.4047143262
 20
1.4259894432
 30
0.0
 10
10.4153442556
 20
1.4262173001
 30
0.0
 10
10.426757743
 20
1.4264452556
 30
0.0
 10
10.4434653291
 20
1.4267582945
 30
0.0
 10
10.4563656934
 20
1.4269792132
 30
0.0
 10
10.4652059858
 20
1.4271241629
 30
0.0
  0
SPLINE
  5
7DE
100
AcDbEntity
  8
0
100
AcDbSpline
 62
7
  6
CONTINUOUS
 70
0
 71
3
 72
69
 73
65
 74
0
 42
0.0000001
 43
0.0000001
 44
0.0000000001
 40
0.0
 40
0.0
 40
0.0
 40
0.0
 40
0.0001628181
 40
0.0003941558
 40
0.0006963917
 40
0.001070556
 40
0.0015171092
 40
0.0020362424
 40
0.0032924644
 40
0.0048392445
 40
0.0066761135
 40
0.0088024065
 40
0.0112173552
 40
0.013919819
 40
0.0169079825
 40
0.0237337191
 40
0.03167909
 40
0.0407268864
 40
0.0508545708
 40
0.0620384743
 40
0.0742536322
 40
0.087470121
 40
0.1016568019
 40
0.1167815506
 40
0.1496975481
 40
0.185909524
 40
0.2250757079
 40
0.2668282168
 40
0.3107746749
 40
0.3565009205
 40
0.4035772956
 40
0.4515608588
 40
0.4999999959
 40
0.5484392682
 40
0.5964226705
 40
0.6434991164
 40
0.6892255619
 40
0.7331715722
 40
0.7749244533
 40
0.8140907513
 40
0.8503020895
 40
0.8832187831
 40
0.8983427826
 40
0.9125301196
 40
0.9257467923
 40
0.9379610777
 40
0.9491456292
 40
0.9592736241
 40
0.968320453
 40
0.9762664292
 40
0.9830926034
 40
0.9860802407
 40
0.9887822029
 40
0.9911971997
 40
0.9933239758
 40
0.9951613339
 40
0.99670818
 40
0.9979639021
 40
0.9984827308
 40
0.9989290453
 40
0.9993031121
 40
0.9996054182
 40
0.9998369426
 40
1.0
 40
1.0
 40
1.0
 40
1.0
 10
10.3447759665
 20
1.3934642892
 30
0.0
 10
10.3448136811
 20
1.3934883526
 30
0.0
 10
10.3449138922
 20
1.3935317657
 30
0.0
 10
10.3450968268
 20
1.3935876116
 30
0.0
 10
10.345340014
 20
1.3936440605
 30
0.0
 10
10.3456432857
 20
1.3937009864
 30
0.0
 10
10.3460070207
 20
1.3937581784
 30
0.0
 10
10.3466120583
 20
1.3938399582
 30
0.0
 10
10.3475195818
 20
1.3939393157
 30
0.0
 10
10.3487894118
 20
1.3940532505
 30
0.0
 10
10.3502990878
 20
1.3941676366
 30
0.0
 10
10.3520478541
 20
1.3942824106
 30
0.0
 10
10.3540348933
 20
1.3943974
 30
0.0
 10
10.356259088
 20
1.3945125573
 30
0.0
 10
10.3596944435
 20
1.3946734915
 30
0.0
 10
10.3645701669
 20
1.394871568
 30
0.0
 10
10.371110874
 20
1.3951008241
 30
0.0
 10
10.3785593273
 20
1.3953305251
 30
0.0
 10
10.3868979888
 20
1.3955606576
 30
0.0
 10
10.3961072345
 20
1.395791067
 30
0.0
 10
10.4061654255
 20
1.3960216487
 30
0.0
 10
10.4170488827
 20
1.3962523992
 30
0.0
 10
10.4287319696
 20
1.3964832886
 30
0.0
 10
10.4458272193
 20
1.3968002423
 30
0.0
 10
10.4689739642
 20
1.3971927486
 30
0.0
 10
10.4987263298
 20
1.3976522224
 30
0.0
 10
10.5309069552
 20
1.3981122314
 30
0.0
 10
10.5652129746
 20
1.3985726377
 30
0.0
 10
10.6013216468
 20
1.3990333142
 30
0.0
 10
10.6388932648
 20
1.3994941996
 30
0.0
 10
10.6775742341
 20
1.3999552163
 30
0.0
 10
10.7170006732
 20
1.400416318
 30
0.0
 10
10.7568016192
 20
1.400877464
 30
0.0
 10
10.7966025211
 20
1.4013386057
 30
0.0
 10
10.8360289726
 20
1.4017997108
 30
0.0
 10
10.874709972
 20
1.4022607275
 30
0.0
 10
10.9122815414
 20
1.4027216067
 30
0.0
 10
10.9483902476
 20
1.4031822937
 30
0.0
 10
10.9826962777
 20
1.4036426939
 30
0.0
 10
11.0148768617
 20
1.4041026942
 30
0.0
 10
11.0446292742
 20
1.4045621948
 30
0.0
 10
11.0677758299
 20
1.4049546628
 30
0.0
 10
11.0848712447
 20
1.4052716516
 30
0.0
 10
11.0965543569
 20
1.405502523
 30
0.0
 10
11.1074378054
 20
1.405733263
 30
0.0
 10
11.1174959845
 20
1.4059638777
 30
0.0
 10
11.1267052543
 20
1.4061942667
 30
0.0
 10
11.135043914
 20
1.4064243779
 30
0.0
 10
11.1424923516
 20
1.4066541276
 30
0.0
 10
11.1490330801
 20
1.4068833609
 30
0.0
 10
11.1539089468
 20
1.4070814086
 30
0.0
 10
11.1573441389
 20
1.407242367
 30
0.0
 10
11.1595680633
 20
1.4073575382
 30
0.0
 10
11.1615551106
 20
1.407472528
 30
0.0
 10
11.1633041584
 20
1.4075872923
 30
0.0
 10
11.1648141215
 20
1.4077016643
 30
0.0
 10
11.1660839684
 20
1.4078155829
 30
0.0
 10
11.1669912864
 20
1.4079149575
 30
0.0
 10
11.1675960333
 20
1.4079967485
 30
0.0
 10
11.167959589
 20
1.4080539466
 30
0.0
 10
11.1682627853
 20
1.4081108792
 30
0.0
 10
11.1685060155
 20
1.4081673298
 30
0.0
 10
11.1686890932
 20
1.4082231779
 30
0.0
 10
11.16878943
 20
1.4082665816
 30
0.0
 10
11.1688272278
 20
1.4082906366
 30
0.0
  0
SPLINE
  5
7DF
100
AcDbEntity
  8
0
100
AcDbSpline
 62
7
  6
CONTINUOUS
 70
0
 71
3
 72
69
 73
65
 74
0
 42
0.0000001
 43
0.0000001
 44
0.0000000001
 40
0.0
 40
0.0
 40
0.0
 40
0.0
 40
0.0001630519
 40
0.0003945692
 40
0.0006968676
 40
0.0010709278
 40
0.0015172378
 40
0.0020360655
 40
0.0032918013
 40
0.0048386685
 40
0.0066760263
 40
0.0088027899
 40
0.011217772
 40
0.0139197273
 40
0.0169073754
 40
0.0237335736
 40
0.0316795245
 40
0.0407263532
 40
0.050854374
 40
0.0620389028
 40
0.0742531847
 40
0.0874698838
 40
0.1016572012
 40
0.1167811947
 40
0.1496978978
 40
0.1859092514
 40
0.2250755291
 40
0.2668284219
 40
0.3107744394
 40
0.356500874
 40
0.4035773291
 40
0.4515607317
 40
0.5000000045
 40
0.5484391446
 40
0.596422704
 40
0.6434990901
 40
0.6892253302
 40
0.7331717847
 40
0.7749243115
 40
0.8140904809
 40
0.8503024579
 40
0.883218475
 40
0.8983432075
 40
0.9125298824
 40
0.9257463952
 40
0.9379615391
 40
0.9491454315
 40
0.959273142
 40
0.9683209277
 40
0.9762662821
 40
0.983092046
 40
0.9860802153
 40
0.9887826665
 40
0.9911975938
 40
0.9933238867
 40
0.9951607683
 40
0.9967075634
 40
0.9979637927
 40
0.9984829237
 40
0.9989294691
 40
0.9993036199
 40
0.9996058464
 40
0.9998371808
 40
1.0
 40
1.0
 40
1.0
 40
1.0
 10
10.344776041
 20
1.3634642897
 30
0.0
 10
10.3448138371
 20
1.3634883447
 30
0.0
 10
10.3449141701
 20
1.3635317486
 30
0.0
 10
10.345097242
 20
1.3635875967
 30
0.0
 10
10.3453404661
 20
1.3636440473
 30
0.0
 10
10.3456436571
 20
1.3637009799
 30
0.0
 10
10.3460072094
 20
1.3637581781
 30
0.0
 10
10.3466119586
 20
1.3638399695
 30
0.0
 10
10.3475192859
 20
1.3639393435
 30
0.0
 10
10.3487891424
 20
1.3640532611
 30
0.0
 10
10.3502991077
 20
1.3641676338
 30
0.0
 10
10.3520481479
 20
1.3642823983
 30
0.0
 10
10.3540351857
 20
1.3643973883
 30
0.0
 10
10.3562591071
 20
1.3645125597
 30
0.0
 10
10.3596943067
 20
1.3646735177
 30
0.0
 10
10.364570176
 20
1.3648715645
 30
0.0
 10
10.3711109038
 20
1.3651007993
 30
0.0
 10
10.3785593413
 20
1.3653305488
 30
0.0
 10
10.3868980016
 20
1.3655606589
 30
0.0
 10
10.396107271
 20
1.3657910489
 30
0.0
 10
10.4061654498
 20
1.3660216636
 30
0.0
 10
10.4170488989
 20
1.3662524028
 30
0.0
 10
10.428732011
 20
1.366483275
 30
0.0
 10
10.4458274208
 20
1.3668002636
 30
0.0
 10
10.4689739809
 20
1.3671927316
 30
0.0
 10
10.4987263939
 20
1.3676522318
 30
0.0
 10
10.5309069787
 20
1.3681122327
 30
0.0
 10
10.5652130073
 20
1.3685726325
 30
0.0
 10
10.6013217146
 20
1.3690333195
 30
0.0
 10
10.6388932844
 20
1.3694941989
 30
0.0
 10
10.6775742823
 20
1.3699552154
 30
0.0
 10
10.7170007353
 20
1.3704163207
 30
0.0
 10
10.756801637
 20
1.3708774624
 30
0.0
 10
10.7966025817
 20
1.3713386083
 30
0.0
 10
10.8360290224
 20
1.3717997101
 30
0.0
 10
10.874709991
 20
1.3722607266
 30
0.0
 10
10.9122816083
 20
1.3727216121
 30
0.0
 10
10.9483902818
 20
1.3731822887
 30
0.0
 10
10.9826963
 20
1.3736426947
 30
0.0
 10
11.0148769257
 20
1.374102704
 30
0.0
 10
11.0446292921
 20
1.3745621779
 30
0.0
 10
11.0677760375
 20
1.3749546836
 30
0.0
 10
11.084871286
 20
1.3752716378
 30
0.0
 10
11.096554373
 20
1.3755025274
 30
0.0
 10
11.107437831
 20
1.3757332772
 30
0.0
 10
11.1174960214
 20
1.3759638593
 30
0.0
 10
11.1267052671
 20
1.3761942693
 30
0.0
 10
11.1350439296
 20
1.3764244007
 30
0.0
 10
11.1424923823
 20
1.376654102
 30
0.0
 10
11.1490330892
 20
1.3768833593
 30
0.0
 10
11.153908817
 20
1.3770814347
 30
0.0
 10
11.1573441781
 20
1.3772423686
 30
0.0
 10
11.1595683649
 20
1.3773575259
 30
0.0
 10
11.1615553947
 20
1.3774725163
 30
0.0
 10
11.1633041585
 20
1.3775872901
 30
0.0
 10
11.164813842
 20
1.377701676
 30
0.0
 10
11.1660836816
 20
1.3778156105
 30
0.0
 10
11.1669912107
 20
1.3779149676
 30
0.0
 10
11.1675962475
 20
1.3779967476
 30
0.0
 10
11.167959976
 20
1.3780539393
 30
0.0
 10
11.1682632389
 20
1.3781108659
 30
0.0
 10
11.1685064186
 20
1.3781673151
 30
0.0
 10
11.1686893499
 20
1.3782231611
 30
0.0
 10
11.1687895604
 20
1.3782665741
 30
0.0
 10
11.1688272755
 20
1.3782906372
 30
0.0
  0
SPLINE
  5
7E0
100
AcDbEntity
  8
02___PRT_ALL_AXES
100
AcDbSpline
 62
7
  6
CONTINUOUS
 70
0
 71
3
 72
51
 73
47
 74
0
 42
0.0000001
 43
0.0000001
 44
0.0000000001
 40
0.0
 40
0.0
 40
0.0
 40
0.0
 40
0.0108809856
 40
0.0218770049
 40
0.0330389222
 40
0.0444135471
 40
0.0560426165
 40
0.067963137
 40
0.080207157
 40
0.0928013064
 40
0.1191103275
 40
0.1328644626
 40
0.1470259671
 40
0.1615981837
 40
0.1765805165
 40
0.2077497869
 40
0.2404724089
 40
0.2746367973
 40
0.310096348
 40
0.3466759441
 40
0.3841776794
 40
0.4223859986
 40
0.4610724234
 40
0.5
 40
0.5389275766
 40
0.5776140014
 40
0.6158223206
 40
0.6533240559
 40
0.689903652
 40
0.7253632027
 40
0.7595275911
 40
0.7922502131
 40
0.8234194835
 40
0.8384018163
 40
0.8529740329
 40
0.8671355374
 40
0.8808896725
 40
0.9071986936
 40
0.919792843
 40
0.932036863
 40
0.9439573835
 40
0.9555864529
 40
0.9669610778
 40
0.9781229951
 40
0.9891190144
 40
1.0
 40
1.0
 40
1.0
 40
1.0
 10
11.0977744067
 20
13.1248986302
 30
0.0
 10
11.0980448122
 20
13.122192785
 30
0.0
 10
11.0988207625
 20
13.1167729767
 30
0.0
 10
11.1006716275
 20
13.1087170215
 30
0.0
 10
11.1032089597
 20
13.1007205372
 30
0.0
 10
11.1064262171
 20
13.0928022514
 30
0.0
 10
11.1103157332
 20
13.0849798577
 30
0.0
 10
11.1148678885
 20
13.0772709261
 30
0.0
 10
11.120072378
 20
13.0696923413
 30
0.0
 10
11.1279784651
 20
13.0596391487
 30
0.0
 10
11.1370608854
 20
13.0500676037
 30
0.0
 10
11.1471478673
 20
13.041012188
 30
0.0
 10
11.1554051993
 20
13.0343286872
 30
0.0
 10
11.1642222825
 20
13.027870509
 30
0.0
 10
11.1768650531
 20
13.0194681171
 30
0.0
 10
11.1939822836
 20
13.0096432716
 30
0.0
 10
11.216138281
 20
12.9991219783
 30
0.0
 10
11.2399813755
 20
12.9898074282
 30
0.0
 10
11.2652992578
 20
12.9817819187
 30
0.0
 10
11.2918678406
 20
12.9751160537
 30
0.0
 10
11.31945102
 20
12.9698689616
 30
0.0
 10
11.3478034743
 20
12.9660872738
 30
0.0
 10
11.3766727475
 20
12.963804683
 30
0.0
 10
11.4058016282
 20
12.9630415484
 30
0.0
 10
11.4349305088
 20
12.963804683
 30
0.0
 10
11.463799782
 20
12.9660872738
 30
0.0
 10
11.4921522363
 20
12.9698689616
 30
0.0
 10
11.5197354157
 20
12.9751160537
 30
0.0
 10
11.5463039985
 20
12.9817819187
 30
0.0
 10
11.5716218808
 20
12.9898074282
 30
0.0
 10
11.5954649753
 20
12.9991219783
 30
0.0
 10
11.6176209728
 20
13.0096432716
 30
0.0
 10
11.6347382032
 20
13.0194681171
 30
0.0
 10
11.6473809738
 20
13.027870509
 30
0.0
 10
11.656198057
 20
13.0343286872
 30
0.0
 10
11.664455389
 20
13.041012188
 30
0.0
 10
11.6745423709
 20
13.0500676037
 30
0.0
 10
11.6836247912
 20
13.0596391487
 30
0.0
 10
11.6915308783
 20
13.0696923413
 30
0.0
 10
11.6967353678
 20
13.0772709261
 30
0.0
 10
11.7012875231
 20
13.0849798577
 30
0.0
 10
11.7051770393
 20
13.0928022514
 30
0.0
 10
11.7083942966
 20
13.1007205372
 30
0.0
 10
11.7109316288
 20
13.1087170215
 30
0.0
 10
11.7127824938
 20
13.1167729767
 30
0.0
 10
11.7135584442
 20
13.122192785
 30
0.0
 10
11.7138288496
 20
13.1248986302
 30
0.0
  0
SPLINE
  5
7E1
100
AcDbEntity
  8
0
100
AcDbSpline
 62
7
  6
CONTINUOUS
 70
0
 71
3
 72
11
 73
7
 74
0
 42
0.0000001
 43
0.0000001
 44
0.0000000001
 40
0.0
 40
0.0
 40
0.0
 40
0.0
 40
0.2381542134
 40
0.4813214077
 40
0.7340345033
 40
1.0
 40
1.0
 40
1.0
 40
1.0
 10
11.8083016282
 20
14.2431801002
 30
0.0
 10
11.8083016282
 20
14.2446301056
 30
0.0
 10
11.8080397457
 20
14.247566919
 30
0.0
 10
11.8068716397
 20
14.2519019673
 30
0.0
 10
11.8049450687
 20
14.2561418022
 30
0.0
 10
11.803220249
 20
14.2588015649
 30
0.0
 10
11.8022535521
 20
14.2601006963
 30
0.0
  0
SPLINE
  5
7E2
100
AcDbEntity
  8
0
100
AcDbSpline
 62
7
  6
CONTINUOUS
 70
0
 71
3
 72
11
 73
7
 74
0
 42
0.0000001
 43
0.0000001
 44
0.0000000001
 40
0.0
 40
0.0
 40
0.0
 40
0.0
 40
0.2659654967
 40
0.5186785923
 40
0.7618457866
 40
1.0
 40
1.0
 40
1.0
 40
1.0
 10
11.0093497042
 20
14.2601006963
 30
0.0
 10
11.0083830073
 20
14.2588015649
 30
0.0
 10
11.0066581876
 20
14.2561418022
 30
0.0
 10
11.0047316166
 20
14.2519019673
 30
0.0
 10
11.0035635106
 20
14.247566919
 30
0.0
 10
11.0033016282
 20
14.2446301056
 30
0.0
 10
11.0033016282
 20
14.2431801002
 30
0.0
  0
SPLINE
  5
7E3
100
AcDbEntity
  8
0
100
AcDbSpline
 62
7
  6
CONTINUOUS
 70
0
 71
3
 72
19
 73
15
 74
0
 42
0.0000001
 43
0.0000001
 44
0.0000000001
 40
0.0
 40
0.0
 40
0.0
 40
0.0
 40
0.1445378964
 40
0.2869088487
 40
0.4250551799
 40
0.4919634578
 40
0.5571322557
 40
0.6203733331
 40
0.6815258174
 40
0.7404593074
 40
0.7970790435
 40
0.8513302331
 40
0.9032074663
 40
1.0
 40
1.0
 40
1.0
 40
1.0
 10
11.2693346307
 20
14.5375487656
 30
0.0
 10
11.2654139781
 20
14.5375487656
 30
0.0
 10
11.2576274932
 20
14.5372323751
 30
0.0
 10
11.2461726078
 20
14.5358151475
 30
0.0
 10
11.2369403137
 20
14.5338543632
 30
0.0
 10
11.2298933279
 20
14.5318287402
 30
0.0
 10
11.2248771443
 20
14.5301163712
 30
0.0
 10
11.220101408
 20
14.5282039906
 30
0.0
 10
11.2155917117
 20
14.5261019703
 30
0.0
 10
11.2113722864
 20
14.5238213947
 30
0.0
 10
11.2074661788
 20
14.5213744978
 30
0.0
 10
11.2038933954
 20
14.5187735711
 30
0.0
 10
11.1997002217
 20
14.5152040332
 30
0.0
 10
11.196950079
 20
14.5122144126
 30
0.0
 10
11.1953827067
 20
14.5101080413
 30
0.0
  0
SPLINE
  5
7E4
100
AcDbEntity
  8
0
100
AcDbSpline
 62
7
  6
CONTINUOUS
 70
0
 71
3
 72
19
 73
15
 74
0
 42
0.0000001
 43
0.0000001
 44
0.0000000001
 40
0.0
 40
0.0
 40
0.0
 40
0.0
 40
0.0967925337
 40
0.1486697669
 40
0.2029209565
 40
0.2595406926
 40
0.3184741826
 40
0.3796266669
 40
0.4428677443
 40
0.5080365422
 40
0.5749448201
 40
0.7130911513
 40
0.8554621036
 40
1.0
 40
1.0
 40
1.0
 40
1.0
 10
11.6162205496
 20
14.5101080413
 30
0.0
 10
11.6146531773
 20
14.5122144126
 30
0.0
 10
11.6119030346
 20
14.5152040332
 30
0.0
 10
11.6077098609
 20
14.5187735711
 30
0.0
 10
11.6041370775
 20
14.5213744978
 30
0.0
 10
11.6002309699
 20
14.5238213947
 30
0.0
 10
11.5960115446
 20
14.5261019703
 30
0.0
 10
11.5915018483
 20
14.5282039906
 30
0.0
 10
11.586726112
 20
14.5301163712
 30
0.0
 10
11.5817099285
 20
14.5318287402
 30
0.0
 10
11.5746629426
 20
14.5338543632
 30
0.0
 10
11.5654306485
 20
14.5358151475
 30
0.0
 10
11.5539757631
 20
14.5372323751
 30
0.0
 10
11.5461892783
 20
14.5375487656
 30
0.0
 10
11.5422686256
 20
14.5375487656
 30
0.0
  0
SPLINE
  5
7E5
100
AcDbEntity
  8
0
100
AcDbSpline
 62
7
  6
CONTINUOUS
 70
0
 71
3
 72
31
 73
27
 74
0
 42
0.0000001
 43
0.0000001
 44
0.0000000001
 40
0.0
 40
0.0
 40
0.0
 40
0.0
 40
0.0013099853
 40
0.0028696978
 40
0.0048350029
 40
0.0072847913
 40
0.0102590252
 40
0.0137793207
 40
0.0178576296
 40
0.0224997082
 40
0.0334833716
 40
0.0467357482
 40
0.0622433697
 40
0.0799763753
 40
0.0998999612
 40
0.1219723187
 40
0.1461412358
 40
0.1723525712
 40
0.2306530334
 40
0.2963243666
 40
0.368741598
 40
0.4472149551
 40
0.5309932106
 40
0.619274531
 40
0.8059127878
 40
1.0
 40
1.0
 40
1.0
 40
1.0
 10
10.8618016282
 20
0.3217428673
 30
0.0
 10
10.8618016282
 20
0.3217187258
 30
0.0
 10
10.861787734
 20
0.3216655429
 30
0.0
 10
10.8617327976
 20
0.3215936944
 30
0.0
 10
10.8616469341
 20
0.3215238499
 30
0.0
 10
10.861529315
 20
0.3214545578
 30
0.0
 10
10.8613795158
 20
0.3213853564
 30
0.0
 10
10.8611972194
 20
0.3213162342
 30
0.0
 10
10.8609823739
 20
0.3212472278
 30
0.0
 10
10.860632454
 20
0.3211499342
 30
0.0
 10
10.8601132172
 20
0.3210320325
 30
0.0
 10
10.8593930195
 20
0.3208981664
 30
0.0
 10
10.858546381
 20
0.3207658987
 30
0.0
 10
10.8575752795
 20
0.3206355639
 30
0.0
 10
10.8564819594
 20
0.3205076473
 30
0.0
 10
10.855269024
 20
0.3203825294
 30
0.0
 10
10.8539393698
 20
0.3202605134
 30
0.0
 10
10.8519432065
 20
0.3200965848
 30
0.0
 10
10.8491820531
 20
0.3199047695
 30
0.0
 10
10.8455686397
 20
0.3196986719
 30
0.0
 10
10.8415819866
 20
0.3195115714
 30
0.0
 10
10.8372604648
 20
0.3193453951
 30
0.0
 10
10.8326456304
 20
0.3192018481
 30
0.0
 10
10.8260372013
 20
0.3190396042
 30
0.0
 10
10.8173948017
 20
0.3189055864
 30
0.0
 10
10.8103784284
 20
0.3188701392
 30
0.0
 10
10.8068016282
 20
0.3188701392
 30
0.0
  0
SPLINE
  5
7E6
100
AcDbEntity
  8
0
100
AcDbSpline
 62
7
  6
CONTINUOUS
 70
0
 71
3
 72
37
 73
33
 74
0
 42
0.0000001
 43
0.0000001
 44
0.0000000001
 40
0.0
 40
0.0
 40
0.0
 40
0.0
 40
0.0312659935
 40
0.0625336474
 40
0.0937981027
 40
0.1250605507
 40
0.1563212322
 40
0.1875790904
 40
0.218825809
 40
0.2500662967
 40
0.2813019684
 40
0.31252808
 40
0.3437536789
 40
0.3749845242
 40
0.4062300794
 40
0.4375007897
 40
0.5000456253
 40
0.5625879762
 40
0.5938556162
 40
0.6250969601
 40
0.656322661
 40
0.6875402572
 40
0.7187582305
 40
0.7499834786
 40
0.7812142171
 40
0.8124521797
 40
0.8437004087
 40
0.8749539859
 40
0.9062091185
 40
0.9374693957
 40
0.9687342816
 40
1.0
 40
1.0
 40
1.0
 40
1.0
 10
11.4958016282
 20
14.9076916885
 30
0.0
 10
11.4958016282
 20
14.9105692473
 30
0.0
 10
11.4955020011
 20
14.9163289965
 30
0.0
 10
11.4941591301
 20
14.9248715699
 30
0.0
 10
11.4919383081
 20
14.9332295937
 30
0.0
 10
11.4888658487
 20
14.9413123917
 30
0.0
 10
11.4849772734
 20
14.9490350417
 30
0.0
 10
11.4803180493
 20
14.9563167623
 30
0.0
 10
11.4749426379
 20
14.9630844183
 30
0.0
 10
11.4689120552
 20
14.9692721359
 30
0.0
 10
11.4622952793
 20
14.974825077
 30
0.0
 10
11.4551642291
 20
14.979696864
 30
0.0
 10
11.4475948833
 20
14.9838532126
 30
0.0
 10
11.4396634497
 20
14.9872710752
 30
0.0
 10
11.4314438952
 20
14.9899358752
 30
0.0
 10
11.4202038997
 20
14.9924753204
 30
0.0
 10
11.40578917
 20
14.993745766
 30
0.0
 10
11.3913750467
 20
14.9924716883
 30
0.0
 10
11.3801365751
 20
14.9899295873
 30
0.0
 10
11.3719187702
 20
14.9872631153
 30
0.0
 10
11.3639896067
 20
14.9838440387
 30
0.0
 10
11.3564229153
 20
14.9796869238
 30
0.0
 10
11.3492949995
 20
14.9748149287
 30
0.0
 10
11.3426809231
 20
14.9692628332
 30
0.0
 10
11.3366533801
 20
14.9630758828
 30
0.0
 10
11.3312801988
 20
14.9563097874
 30
0.0
 10
11.3266230378
 20
14.9490295422
 30
0.0
 10
11.3227357777
 20
14.9413087264
 30
0.0
 10
11.3196642816
 20
14.9332273984
 30
0.0
 10
11.3174439248
 20
14.9248706177
 30
0.0
 10
11.3161012549
 20
14.9163286888
 30
0.0
 10
11.3158016282
 20
14.910569222
 30
0.0
 10
11.3158016282
 20
14.9076916885
 30
0.0
  0
SPLINE
  5
7E7
100
AcDbEntity
  8
0
100
AcDbSpline
 62
7
  6
CONTINUOUS
 70
0
 71
3
 72
21
 73
17
 74
0
 42
0.0000001
 43
0.0000001
 44
0.0000000001
 40
0.0
 40
0.0
 40
0.0
 40
0.0
 40
0.1161099088
 40
0.2296735249
 40
0.2860048377
 40
0.3423562396
 40
0.3990802887
 40
0.4565821999
 40
0.5153301623
 40
0.5758160942
 40
0.638550523
 40
0.7040158134
 40
0.7726286085
 40
0.8447182328
 40
0.9205046115
 40
1.0
 40
1.0
 40
1.0
 40
1.0
 10
11.6633016282
 20
14.7608460168
 30
0.0
 10
11.6613530324
 20
14.7607529457
 30
0.0
 10
11.6575045763
 20
14.7602996025
 30
0.0
 10
11.6528596717
 20
14.7589717366
 30
0.0
 10
11.6493790006
 20
14.7574310582
 30
0.0
 10
11.6468965878
 20
14.7560286678
 30
0.0
 10
11.6445547451
 20
14.7543675067
 30
0.0
 10
11.6423728932
 20
14.7524390872
 30
0.0
 10
11.6403723908
 20
14.7502365331
 30
0.0
 10
11.6385752654
 20
14.7477554936
 30
0.0
 10
11.6370043065
 20
14.7449947618
 30
0.0
 10
11.6356819632
 20
14.7419573451
 30
0.0
 10
11.6346286862
 20
14.7386514509
 30
0.0
 10
11.6338631667
 20
14.7350901013
 30
0.0
 10
11.6334002486
 20
14.7312934122
 30
0.0
 10
11.6333016282
 20
14.7286830224
 30
0.0
 10
11.6333016282
 20
14.727347383
 30
0.0
  0
SPLINE
  5
7E8
100
AcDbEntity
  8
0
100
AcDbSpline
 62
7
  6
CONTINUOUS
 70
0
 71
3
 72
21
 73
17
 74
0
 42
0.0000001
 43
0.0000001
 44
0.0000000001
 40
0.0
 40
0.0
 40
0.0
 40
0.0
 40
0.1161094767
 40
0.2296725558
 40
0.2860038969
 40
0.3423553358
 40
0.3990794042
 40
0.4565812946
 40
0.5153292865
 40
0.5758152995
 40
0.6385497309
 40
0.7040149252
 40
0.772627418
 40
0.8447170038
 40
0.920504235
 40
1.0
 40
1.0
 40
1.0
 40
1.0
 10
11.6633016282
 20
14.7608460168
 30
0.0
 10
11.6652502166
 20
14.760752946
 30
0.0
 10
11.6690986571
 20
14.7602996077
 30
0.0
 10
11.6737435454
 20
14.7589717456
 30
0.0
 10
11.6772242143
 20
14.7574310817
 30
0.0
 10
11.6797066283
 20
14.7560286906
 30
0.0
 10
11.682048477
 20
14.7543675369
 30
0.0
 10
11.6842303294
 20
14.7524391172
 30
0.0
 10
11.6862308398
 20
14.7502365684
 30
0.0
 10
11.6880279664
 20
14.7477555272
 30
0.0
 10
11.6895989321
 20
14.7449947998
 30
0.0
 10
11.690921276
 20
14.7419573903
 30
0.0
 10
11.6919745539
 20
14.7386515047
 30
0.0
 10
11.6927400886
 20
14.735090149
 30
0.0
 10
11.6932029961
 20
14.7312934385
 30
0.0
 10
11.6933016282
 20
14.7286830287
 30
0.0
 10
11.6933016282
 20
14.727347383
 30
0.0
  0
SPLINE
  5
7E9
100
AcDbEntity
  8
0
100
AcDbSpline
 62
7
  6
CONTINUOUS
 70
0
 71
3
 72
21
 73
17
 74
0
 42
0.0000001
 43
0.0000001
 44
0.0000000001
 40
0.0
 40
0.0
 40
0.0
 40
0.0
 40
0.1161099088
 40
0.2296735249
 40
0.2860048377
 40
0.3423562396
 40
0.3990802887
 40
0.4565821999
 40
0.5153301623
 40
0.5758160942
 40
0.638550523
 40
0.7040158134
 40
0.7726286085
 40
0.8447182328
 40
0.9205046115
 40
1.0
 40
1.0
 40
1.0
 40
1.0
 10
11.1483016282
 20
14.7608460168
 30
0.0
 10
11.1463530324
 20
14.7607529457
 30
0.0
 10
11.1425045763
 20
14.7602996025
 30
0.0
 10
11.1378596717
 20
14.7589717366
 30
0.0
 10
11.1343790006
 20
14.7574310582
 30
0.0
 10
11.1318965878
 20
14.7560286678
 30
0.0
 10
11.1295547451
 20
14.7543675067
 30
0.0
 10
11.1273728932
 20
14.7524390872
 30
0.0
 10
11.1253723908
 20
14.7502365331
 30
0.0
 10
11.1235752654
 20
14.7477554936
 30
0.0
 10
11.1220043065
 20
14.7449947618
 30
0.0
 10
11.1206819632
 20
14.7419573451
 30
0.0
 10
11.1196286862
 20
14.7386514509
 30
0.0
 10
11.1188631667
 20
14.7350901013
 30
0.0
 10
11.1184002486
 20
14.7312934122
 30
0.0
 10
11.1183016282
 20
14.7286830224
 30
0.0
 10
11.1183016282
 20
14.727347383
 30
0.0
  0
SPLINE
  5
7EA
100
AcDbEntity
  8
0
100
AcDbSpline
 62
7
  6
CONTINUOUS
 70
0
 71
3
 72
21
 73
17
 74
0
 42
0.0000001
 43
0.0000001
 44
0.0000000001
 40
0.0
 40
0.0
 40
0.0
 40
0.0
 40
0.1161094767
 40
0.2296725558
 40
0.2860038969
 40
0.3423553358
 40
0.3990794042
 40
0.4565812946
 40
0.5153292865
 40
0.5758152995
 40
0.6385497309
 40
0.7040149252
 40
0.772627418
 40
0.8447170038
 40
0.920504235
 40
1.0
 40
1.0
 40
1.0
 40
1.0
 10
11.1483016282
 20
14.7608460168
 30
0.0
 10
11.1502502166
 20
14.760752946
 30
0.0
 10
11.1540986571
 20
14.7602996077
 30
0.0
 10
11.1587435454
 20
14.7589717456
 30
0.0
 10
11.1622242143
 20
14.7574310817
 30
0.0
 10
11.1647066283
 20
14.7560286906
 30
0.0
 10
11.167048477
 20
14.7543675369
 30
0.0
 10
11.1692303294
 20
14.7524391172
 30
0.0
 10
11.1712308398
 20
14.7502365684
 30
0.0
 10
11.1730279664
 20
14.7477555272
 30
0.0
 10
11.1745989321
 20
14.7449947998
 30
0.0
 10
11.175921276
 20
14.7419573903
 30
0.0
 10
11.1769745539
 20
14.7386515047
 30
0.0
 10
11.1777400886
 20
14.735090149
 30
0.0
 10
11.1782029961
 20
14.7312934385
 30
0.0
 10
11.1783016282
 20
14.7286830287
 30
0.0
 10
11.1783016282
 20
14.727347383
 30
0.0
  0
SPLINE
  5
7EB
100
AcDbEntity
  8
0
100
AcDbSpline
 62
7
  6
CONTINUOUS
 70
0
 71
3
 72
31
 73
27
 74
0
 42
0.0000001
 43
0.0000001
 44
0.0000000001
 40
0.0
 40
0.0
 40
0.0
 40
0.0
 40
0.1940872122
 40
0.380725469
 40
0.4690067894
 40
0.5527850449
 40
0.631258402
 40
0.7036756334
 40
0.7693469666
 40
0.8276474288
 40
0.8538587642
 40
0.8780276813
 40
0.9001000388
 40
0.9200236247
 40
0.9377566303
 40
0.9532642518
 40
0.9665166284
 40
0.9775002918
 40
0.9821423704
 40
0.9862206793
 40
0.9897409748
 40
0.9927152087
 40
0.9951649971
 40
0.9971303022
 40
0.9986900147
 40
1.0
 40
1.0
 40
1.0
 40
1.0
 10
10.8068016282
 20
0.3188701392
 30
0.0
 10
10.8032248279
 20
0.3188701392
 30
0.0
 10
10.7962084547
 20
0.3189055864
 30
0.0
 10
10.787566055
 20
0.3190396042
 30
0.0
 10
10.7809576259
 20
0.3192018481
 30
0.0
 10
10.7763427915
 20
0.3193453951
 30
0.0
 10
10.7720212698
 20
0.3195115714
 30
0.0
 10
10.7680346166
 20
0.3196986719
 30
0.0
 10
10.7644212032
 20
0.3199047695
 30
0.0
 10
10.7616600498
 20
0.3200965848
 30
0.0
 10
10.7596638865
 20
0.3202605134
 30
0.0
 10
10.7583342323
 20
0.3203825294
 30
0.0
 10
10.7571212969
 20
0.3205076473
 30
0.0
 10
10.7560279768
 20
0.3206355639
 30
0.0
 10
10.7550568753
 20
0.3207658987
 30
0.0
 10
10.7542102368
 20
0.3208981664
 30
0.0
 10
10.7534900391
 20
0.3210320325
 30
0.0
 10
10.7529708023
 20
0.3211499342
 30
0.0
 10
10.7526208824
 20
0.3212472278
 30
0.0
 10
10.7524060369
 20
0.3213162342
 30
0.0
 10
10.7522237405
 20
0.3213853564
 30
0.0
 10
10.7520739413
 20
0.3214545578
 30
0.0
 10
10.7519563222
 20
0.3215238499
 30
0.0
 10
10.7518704587
 20
0.3215936944
 30
0.0
 10
10.7518155223
 20
0.3216655429
 30
0.0
 10
10.7518016282
 20
0.3217187258
 30
0.0
 10
10.7518016282
 20
0.3217428673
 30
0.0
  0
SPLINE
  5
7EC
100
AcDbEntity
  8
0
100
AcDbSpline
 62
7
  6
CONTINUOUS
 70
0
 71
3
 72
23
 73
19
 74
0
 42
0.0000001
 43
0.0000001
 44
0.0000000001
 40
0.0
 40
0.0
 40
0.0
 40
0.0
 40
0.0438037968
 40
0.0885409796
 40
0.1350409428
 40
0.1839948148
 40
0.2359019639
 40
0.2910806856
 40
0.3496806018
 40
0.4117061302
 40
0.477039689
 40
0.5454626512
 40
0.6166733582
 40
0.6903025913
 40
0.7659288596
 40
0.8430835841
 40
0.9212844784
 40
1.0
 40
1.0
 40
1.0
 40
1.0
 10
11.0033016282
 20
14.0745274833
 30
0.0
 10
11.0033016282
 20
14.0730724827
 30
0.0
 10
11.0035654929
 20
14.0701251175
 30
0.0
 10
11.0047415969
 20
14.0657752098
 30
0.0
 10
11.0066821566
 20
14.0615209182
 30
0.0
 10
11.0093611379
 20
14.0574050986
 30
0.0
 10
11.0127484956
 20
14.0534642512
 30
0.0
 10
11.016809197
 20
14.0497330251
 30
0.0
 10
11.0215036457
 20
14.0462442393
 30
0.0
 10
11.0267870212
 20
14.0430291562
 30
0.0
 10
11.0326092705
 20
14.0401171228
 30
0.0
 10
11.0389152627
 20
14.0375351494
 30
0.0
 10
11.0456451571
 20
14.0353074763
 30
0.0
 10
11.0527349597
 20
14.0334551361
 30
0.0
 10
11.0601169479
 20
14.0319958306
 30
0.0
 10
11.0677209508
 20
14.0309432151
 30
0.0
 10
11.0754736807
 20
14.0303077476
 30
0.0
 10
11.0806869887
 20
14.0301661628
 30
0.0
 10
11.0833016282
 20
14.0301661628
 30
0.0
  0
SPLINE
  5
7ED
100
AcDbEntity
  8
0
100
AcDbSpline
 62
7
  6
CONTINUOUS
 70
0
 71
3
 72
23
 73
19
 74
0
 42
0.0000001
 43
0.0000001
 44
0.0000000001
 40
0.0
 40
0.0
 40
0.0
 40
0.0
 40
0.0787155216
 40
0.1569164159
 40
0.2340711404
 40
0.3096974087
 40
0.3833266418
 40
0.4545373488
 40
0.522960311
 40
0.5882938698
 40
0.6503193982
 40
0.7089193144
 40
0.7640980361
 40
0.8160051852
 40
0.8649590572
 40
0.9114590204
 40
0.9561962032
 40
1.0
 40
1.0
 40
1.0
 40
1.0
 10
11.7283016282
 20
14.0301661628
 30
0.0
 10
11.7309162676
 20
14.0301661628
 30
0.0
 10
11.7361295756
 20
14.0303077476
 30
0.0
 10
11.7438823055
 20
14.0309432151
 30
0.0
 10
11.7514863084
 20
14.0319958306
 30
0.0
 10
11.7588682967
 20
14.0334551361
 30
0.0
 10
11.7659580993
 20
14.0353074763
 30
0.0
 10
11.7726879937
 20
14.0375351494
 30
0.0
 10
11.7789939858
 20
14.0401171228
 30
0.0
 10
11.7848162351
 20
14.0430291562
 30
0.0
 10
11.7900996106
 20
14.0462442393
 30
0.0
 10
11.7947940593
 20
14.0497330251
 30
0.0
 10
11.7988547608
 20
14.0534642512
 30
0.0
 10
11.8022421184
 20
14.0574050986
 30
0.0
 10
11.8049210997
 20
14.0615209182
 30
0.0
 10
11.8068616594
 20
14.0657752098
 30
0.0
 10
11.8080377634
 20
14.0701251175
 30
0.0
 10
11.8083016282
 20
14.0730724827
 30
0.0
 10
11.8083016282
 20
14.0745274833
 30
0.0
  0
SPLINE
  5
7EE
100
AcDbEntity
  8
0
100
AcDbSpline
 62
7
  6
CONTINUOUS
 70
0
 71
3
 72
15
 73
11
 74
0
 42
0.0000001
 43
0.0000001
 44
0.0000000001
 40
0.0
 40
0.0
 40
0.0
 40
0.0
 40
0.2527150067
 40
0.3816127028
 40
0.5109505948
 40
0.6393760089
 40
0.76510878
 40
0.8263274444
 40
0.8860616638
 40
1.0
 40
1.0
 40
1.0
 40
1.0
 10
11.6633016282
 20
14.6630843205
 30
0.0
 10
11.6592743893
 20
14.6579102058
 30
0.0
 10
11.6535384018
 20
14.6498120696
 30
0.0
 10
11.6468258666
 20
14.6383727656
 30
0.0
 10
11.6423205508
 20
14.6293998246
 30
0.0
 10
11.6385315232
 20
14.6201886607
 30
0.0
 10
11.6360874156
 20
14.6123653442
 30
0.0
 10
11.6346626322
 20
14.6061222529
 30
0.0
 10
11.6336461946
 20
14.6001116812
 30
0.0
 10
11.6333016282
 20
14.5956007415
 30
0.0
 10
11.6333016282
 20
14.5926446141
 30
0.0
  0
SPLINE
  5
7EF
100
AcDbEntity
  8
0
100
AcDbSpline
 62
7
  6
CONTINUOUS
 70
0
 71
3
 72
15
 73
11
 74
0
 42
0.0000001
 43
0.0000001
 44
0.0000000001
 40
0.0
 40
0.0
 40
0.0
 40
0.0
 40
0.1139383362
 40
0.1736725556
 40
0.23489122
 40
0.3606239911
 40
0.4890494051
 40
0.6183872971
 40
0.7472849933
 40
1.0
 40
1.0
 40
1.0
 40
1.0
 10
11.6933016282
 20
14.5926446141
 30
0.0
 10
11.6933016282
 20
14.5956007415
 30
0.0
 10
11.6929570618
 20
14.6001116812
 30
0.0
 10
11.6919406241
 20
14.6061222529
 30
0.0
 10
11.6905158407
 20
14.6123653442
 30
0.0
 10
11.6880717331
 20
14.6201886607
 30
0.0
 10
11.6842827055
 20
14.6293998246
 30
0.0
 10
11.6797773897
 20
14.6383727656
 30
0.0
 10
11.6730648545
 20
14.6498120696
 30
0.0
 10
11.667328867
 20
14.6579102058
 30
0.0
 10
11.6633016282
 20
14.6630843205
 30
0.0
  0
SPLINE
  5
7F0
100
AcDbEntity
  8
0
100
AcDbSpline
 62
7
  6
CONTINUOUS
 70
0
 71
3
 72
15
 73
11
 74
0
 42
0.0000001
 43
0.0000001
 44
0.0000000001
 40
0.0
 40
0.0
 40
0.0
 40
0.0
 40
0.2527150067
 40
0.3816127029
 40
0.5109505949
 40
0.6393760089
 40
0.76510878
 40
0.8263274444
 40
0.8860616638
 40
1.0
 40
1.0
 40
1.0
 40
1.0
 10
11.1483016282
 20
14.6630843205
 30
0.0
 10
11.1442743893
 20
14.6579102058
 30
0.0
 10
11.1385384018
 20
14.6498120696
 30
0.0
 10
11.1318258666
 20
14.6383727656
 30
0.0
 10
11.1273205508
 20
14.6293998246
 30
0.0
 10
11.1235315232
 20
14.6201886607
 30
0.0
 10
11.1210874156
 20
14.6123653442
 30
0.0
 10
11.1196626322
 20
14.6061222529
 30
0.0
 10
11.1186461946
 20
14.6001116812
 30
0.0
 10
11.1183016282
 20
14.5956007415
 30
0.0
 10
11.1183016282
 20
14.5926446141
 30
0.0
  0
SPLINE
  5
7F1
100
AcDbEntity
  8
0
100
AcDbSpline
 62
7
  6
CONTINUOUS
 70
0
 71
3
 72
15
 73
11
 74
0
 42
0.0000001
 43
0.0000001
 44
0.0000000001
 40
0.0
 40
0.0
 40
0.0
 40
0.0
 40
0.1139383362
 40
0.1736725556
 40
0.23489122
 40
0.3606239911
 40
0.4890494051
 40
0.6183872971
 40
0.7472849933
 40
1.0
 40
1.0
 40
1.0
 40
1.0
 10
11.1783016282
 20
14.5926446141
 30
0.0
 10
11.1783016282
 20
14.5956007415
 30
0.0
 10
11.1779570618
 20
14.6001116812
 30
0.0
 10
11.1769406241
 20
14.6061222529
 30
0.0
 10
11.1755158407
 20
14.6123653442
 30
0.0
 10
11.1730717331
 20
14.6201886607
 30
0.0
 10
11.1692827055
 20
14.6293998246
 30
0.0
 10
11.1647773897
 20
14.6383727656
 30
0.0
 10
11.1580648545
 20
14.6498120696
 30
0.0
 10
11.152328867
 20
14.6579102058
 30
0.0
 10
11.1483016282
 20
14.6630843205
 30
0.0
  0
SPLINE
  5
7F2
100
AcDbEntity
  8
02___PRT_ALL_AXES
100
AcDbSpline
 62
7
  6
CONTINUOUS
 70
0
 71
3
 72
39
 73
35
 74
0
 42
0.0000001
 43
0.0000001
 44
0.0000000001
 40
0.0
 40
0.0
 40
0.0
 40
0.0
 40
0.021902167
 40
0.0442703584
 40
0.0675205118
 40
0.0919974389
 40
0.1179510131
 40
0.145540326
 40
0.1748402404
 40
0.2058530326
 40
0.2385198773
 40
0.2727313835
 40
0.3083366985
 40
0.3451513428
 40
0.3829640401
 40
0.4215427889
 40
0.460640447
 40
0.5
 40
0.539359553
 40
0.5784572111
 40
0.6170359599
 40
0.6548486572
 40
0.6916633015
 40
0.7272686165
 40
0.7614801227
 40
0.7941469674
 40
0.8251597596
 40
0.854459674
 40
0.8820489869
 40
0.9080025611
 40
0.9324794882
 40
0.9557296416
 40
0.978097833
 40
1.0
 40
1.0
 40
1.0
 40
1.0
 10
11.3158016282
 20
14.4283601987
 30
0.0
 10
11.3158016282
 20
14.4267233028
 30
0.0
 10
11.3160984467
 20
14.4234075221
 30
0.0
 10
11.3174216087
 20
14.418513885
 30
0.0
 10
11.3196047005
 20
14.4137278101
 30
0.0
 10
11.3226185909
 20
14.4090975189
 30
0.0
 10
11.3264293706
 20
14.4046640762
 30
0.0
 10
11.3309976341
 20
14.4004664293
 30
0.0
 10
11.3362788747
 20
14.3965415322
 30
0.0
 10
11.342222679
 20
14.3929245658
 30
0.0
 10
11.3487727287
 20
14.3896485452
 30
0.0
 10
11.3558669814
 20
14.3867438444
 30
0.0
 10
11.3634381119
 20
14.3842377026
 30
0.0
 10
11.3714140996
 20
14.3821538169
 30
0.0
 10
11.3797189104
 20
14.3805120084
 30
0.0
 10
11.3882732379
 20
14.3793279522
 30
0.0
 10
11.3969952932
 20
14.3786129564
 30
0.0
 10
11.4058016282
 20
14.3783738617
 30
0.0
 10
11.4146079631
 20
14.3786129564
 30
0.0
 10
11.4233300184
 20
14.3793279522
 30
0.0
 10
11.431884346
 20
14.3805120084
 30
0.0
 10
11.4401891567
 20
14.3821538169
 30
0.0
 10
11.4481651444
 20
14.3842377026
 30
0.0
 10
11.4557362749
 20
14.3867438444
 30
0.0
 10
11.4628305276
 20
14.3896485452
 30
0.0
 10
11.4693805773
 20
14.3929245658
 30
0.0
 10
11.4753243816
 20
14.3965415322
 30
0.0
 10
11.4806056222
 20
14.4004664293
 30
0.0
 10
11.4851738857
 20
14.4046640762
 30
0.0
 10
11.4889846654
 20
14.4090975189
 30
0.0
 10
11.4919985558
 20
14.4137278101
 30
0.0
 10
11.4941816476
 20
14.418513885
 30
0.0
 10
11.4955048096
 20
14.4234075221
 30
0.0
 10
11.4958016282
 20
14.4267233028
 30
0.0
 10
11.4958016282
 20
14.4283601987
 30
0.0
  0
LINE
  5
7F3
100
AcDbEntity
  8
0
100
AcDbLine
 62
7
  6
CONTINUOUS
 10
9.6681105945
 20
-0.0385630851
 11
9.6677884098
 21
-0.0425351031
  0
LINE
  5
7F4
100
AcDbEntity
  8
0
100
AcDbLine
 62
7
  6
CONTINUOUS
 10
9.6677884098
 20
-0.0425351031
 11
9.6671232713
 21
-0.05087301
  0
LINE
  5
7F5
100
AcDbEntity
  8
0
100
AcDbLine
 62
7
  6
CONTINUOUS
 10
9.6671232713
 20
-0.05087301
 11
9.6668709282
 21
-0.0540876313
  0
LINE
  5
7F6
100
AcDbEntity
  8
0
100
AcDbLine
 62
7
  6
CONTINUOUS
 10
9.6668709282
 20
-0.0540876313
 11
9.6666036941
 21
-0.0575238859
  0
LINE
  5
7F7
100
AcDbEntity
  8
0
100
AcDbLine
 62
7
  6
CONTINUOUS
 10
9.664084962
 20
-0.0917126536
 11
9.6681105944
 21
-0.0385630865
  0
LINE
  5
7F8
100
AcDbEntity
  8
0
100
AcDbLine
 62
7
  6
CONTINUOUS
 10
9.6618351362
 20
-0.1256924465
 11
9.661608291
 21
-0.1293452026
  0
LINE
  5
7F9
100
AcDbEntity
  8
0
100
AcDbLine
 62
7
  6
CONTINUOUS
 10
9.661608291
 20
-0.1293452026
 11
9.6613480633
 21
-0.1335950708
  0
LINE
  5
7FA
100
AcDbEntity
  8
0
100
AcDbLine
 62
7
  6
CONTINUOUS
 10
9.6613480633
 20
-0.1335950708
 11
9.660913905
 21
-0.140835822
  0
LINE
  5
7FB
100
AcDbEntity
  8
0
100
AcDbLine
 62
7
  6
CONTINUOUS
 10
9.660913905
 20
-0.140835822
 11
9.6606774341
 21
-0.1448622398
  0
LINE
  5
7FC
100
AcDbEntity
  8
0
100
AcDbLine
 62
7
  6
CONTINUOUS
 10
9.6463674719
 20
-0.3490613088
 11
9.646498677
 21
-0.3476225601
  0
LINE
  5
7FD
100
AcDbEntity
  8
0
100
AcDbLine
 62
7
  6
CONTINUOUS
 10
9.6333885065
 20
-0.5313028938
 11
9.6330181259
 21
-0.5386564916
  0
LINE
  5
7FE
100
AcDbEntity
  8
0
100
AcDbLine
 62
7
  6
CONTINUOUS
 10
9.6330181259
 20
-0.5386564916
 11
9.6328047301
 21
-0.5430121876
  0
LINE
  5
7FF
100
AcDbEntity
  8
0
100
AcDbLine
 62
7
  6
CONTINUOUS
 10
9.6328047301
 20
-0.5430121876
 11
9.6327341619
 21
-0.5444642782
  0
LINE
  5
800
100
AcDbEntity
  8
0
100
AcDbLine
 62
7
  6
CONTINUOUS
 10
9.7127786872
 20
0.7350589999
 11
9.671398263
 21
0.1445078188
  0
LINE
  5
801
100
AcDbEntity
  8
0
100
AcDbLine
 62
7
  6
CONTINUOUS
 10
9.6464986765
 20
-0.3476225649
 11
9.6459359525
 21
-0.3538160659
  0
LINE
  5
802
100
AcDbEntity
  8
0
100
AcDbLine
 62
7
  6
CONTINUOUS
 10
9.6459359525
 20
-0.3538160659
 11
9.6453153809
 21
-0.3607576062
  0
SPLINE
  5
803
100
AcDbEntity
  8
0
100
AcDbSpline
 62
7
  6
CONTINUOUS
 70
0
 71
3
 72
14
 73
10
 74
0
 42
0.0000001
 43
0.0000001
 44
0.0000000001
 40
0.0
 40
0.0
 40
0.0
 40
0.0
 40
0.0192339811
 40
0.0762552152
 40
0.1687603551
 40
0.2932352928
 40
0.4447343938
 40
0.6175762029
 40
1.0
 40
1.0
 40
1.0
 40
1.0
 10
9.632734162
 20
-0.5444642755
 30
0.0
 10
9.6327623026
 20
-0.5438327809
 30
0.0
 10
9.6328898998
 20
-0.5413298982
 30
0.0
 10
9.6331564803
 20
-0.535790041
 30
0.0
 10
9.6336182775
 20
-0.5267968656
 30
0.0
 10
9.6342605754
 20
-0.5147039058
 30
0.0
 10
9.6350900914
 20
-0.4999769635
 30
0.0
 10
9.6364755401
 20
-0.4767905968
 30
0.0
 10
9.6376741532
 20
-0.4585810202
 30
0.0
 10
9.6385510772
 20
-0.4460433623
 30
0.0
  0
LINE
  5
804
100
AcDbEntity
  8
0
100
AcDbLine
 62
7
  6
CONTINUOUS
 10
22.0517934362
 20
1.3857906367
 11
22.0517934232
 21
1.3859642896
  0
LINE
  5
805
100
AcDbEntity
  8
0
100
AcDbLine
 62
7
  6
CONTINUOUS
 10
22.0356963604
 20
1.4262209046
 11
22.0355497852
 21
1.4262887473
  0
LINE
  5
806
100
AcDbEntity
  8
0
100
AcDbLine
 62
7
  6
CONTINUOUS
 10
22.0356961417
 20
1.3962209044
 11
22.035509621
 21
1.3963027093
  0
LINE
  5
807
100
AcDbEntity
  8
0
100
AcDbLine
 62
7
  6
CONTINUOUS
 10
22.0356961363
 20
1.3662209041
 11
22.0354426387
 21
1.3663238759
  0
LINE
  5
808
100
AcDbEntity
  8
0
100
AcDbLine
 62
7
  6
CONTINUOUS
 10
21.2438388463
 20
1.4112209045
 11
21.2440031292
 21
1.4112950793
  0
SPLINE
  5
809
100
AcDbEntity
  8
0
100
AcDbSpline
 62
7
  6
CONTINUOUS
 70
0
 71
3
 72
64
 73
60
 74
0
 42
0.0000001
 43
0.0000001
 44
0.0000000001
 40
0.0
 40
0.0
 40
0.0
 40
0.0
 40
0.0002539057
 40
0.000577626
 40
0.0014372673
 40
0.002581988
 40
0.0040127015
 40
0.0057292587
 40
0.0077306958
 40
0.0100158801
 40
0.0125836044
 40
0.0185616229
 40
0.0256527623
 40
0.0338394741
 40
0.0431030686
 40
0.0534236584
 40
0.0647762423
 40
0.0771343743
 40
0.0904708978
 40
0.1199505377
 40
0.1529435724
 40
0.1891437722
 40
0.2282176138
 40
0.2698037456
 40
0.3135171454
 40
0.3589545395
 40
0.4056953165
 40
0.4533074507
 40
0.5013509567
 40
0.5493813988
 40
0.5969550452
 40
0.6436316387
 40
0.6889800754
 40
0.7325810608
 40
0.7740309688
 40
0.8129476238
 40
0.8489704904
 40
0.8817666195
 40
0.8968592117
 40
0.9110340285
 40
0.9242576463
 40
0.9365008533
 40
0.9477349552
 40
0.9579329909
 40
0.9670729076
 40
0.9751335569
 40
0.9820951502
 40
0.9851592237
 40
0.9879433292
 40
0.9904458787
 40
0.9926653157
 40
0.9946002026
 40
0.9962498102
 40
0.9976138967
 40
0.9986925432
 40
0.9991250782
 40
0.9994867209
 40
0.9997779949
 40
1.0
 40
1.0
 40
1.0
 40
1.0
 10
21.2440031292
 20
1.4112950793
 30
0.0
 10
21.2440663867
 20
1.4113172109
 30
0.0
 10
21.2442131555
 20
1.4113592539
 30
0.0
 10
21.2445834112
 20
1.4114422266
 30
0.0
 10
21.2451904728
 20
1.4115402541
 30
0.0
 10
21.2460902405
 20
1.4116520934
 30
0.0
 10
21.2472176019
 20
1.4117646134
 30
0.0
 10
21.2485718748
 20
1.4118779107
 30
0.0
 10
21.2501523376
 20
1.4119915596
 30
0.0
 10
21.2519579358
 20
1.4121055053
 30
0.0
 10
21.2548122249
 20
1.4122659139
 30
0.0
 10
21.2589348891
 20
1.4124625483
 30
0.0
 10
21.2645407261
 20
1.4126892808
 30
0.0
 10
21.2710143632
 20
1.4129166787
 30
0.0
 10
21.2783408374
 20
1.4131445995
 30
0.0
 10
21.2865032808
 20
1.4133728068
 30
0.0
 10
21.2954827936
 20
1.4136012773
 30
0.0
 10
21.3052585787
 20
1.4138299565
 30
0.0
 10
21.3198181715
 20
1.4141456486
 30
0.0
 10
21.3398238918
 20
1.4145357135
 30
0.0
 10
21.3658641957
 20
1.4149905998
 30
0.0
 10
21.3944371845
 20
1.4154461943
 30
0.0
 10
21.4252785387
 20
1.415902307
 30
0.0
 10
21.4581031655
 20
1.4163587816
 30
0.0
 10
21.4926075732
 20
1.416815532
 30
0.0
 10
21.528472638
 20
1.4172724592
 30
0.0
 10
21.5653668353
 20
1.4177295208
 30
0.0
 10
21.6029489548
 20
1.4181866626
 30
0.0
 10
21.6408715
 20
1.4186438395
 30
0.0
 10
21.6787838857
 20
1.4191010197
 30
0.0
 10
21.7163354553
 20
1.4195581538
 30
0.0
 10
21.7531790693
 20
1.4200152108
 30
0.0
 10
21.7889740363
 20
1.4204721337
 30
0.0
 10
21.8233893297
 20
1.420928859
 30
0.0
 10
21.8561068304
 20
1.4213853307
 30
0.0
 10
21.8868239215
 20
1.4218414031
 30
0.0
 10
21.915256624
 20
1.4222969884
 30
0.0
 10
21.9374013109
 20
1.4226860055
 30
0.0
 10
21.9537796973
 20
1.4230000826
 30
0.0
 10
21.9649926819
 20
1.4232289708
 30
0.0
 10
21.9754534191
 20
1.423457763
 30
0.0
 10
21.9851377724
 20
1.4236863963
 30
0.0
 10
21.9940233018
 20
1.4239148266
 30
0.0
 10
22.0020894419
 20
1.4241430454
 30
0.0
 10
22.0093176077
 20
1.424370882
 30
0.0
 10
22.0156910681
 20
1.4245982384
 30
0.0
 10
22.020460874
 20
1.4247945191
 30
0.0
 10
22.0238382113
 20
1.4249538207
 30
0.0
 10
22.0260393973
 20
1.4250680437
 30
0.0
 10
22.0280173231
 20
1.4251821153
 30
0.0
 10
22.029770703
 20
1.4252959774
 30
0.0
 10
22.0312984309
 20
1.4254095839
 30
0.0
 10
22.0325997386
 20
1.4255226998
 30
0.0
 10
22.0336740555
 20
1.425635266
 30
0.0
 10
22.0344267595
 20
1.4257337236
 30
0.0
 10
22.034914329
 20
1.4258154315
 30
0.0
 10
22.0351953214
 20
1.4258718301
 30
0.0
 10
22.0354194069
 20
1.4259278302
 30
0.0
 10
22.0355484465
 20
1.4259701492
 30
0.0
 10
22.0356025203
 20
1.4259927249
 30
0.0
  0
LINE
  5
80A
100
AcDbEntity
  8
0
100
AcDbLine
 62
7
  6
CONTINUOUS
 10
22.0356025203
 20
1.4259927249
 11
22.0357674574
 21
1.4261305503
  0
LINE
  5
80B
100
AcDbEntity
  8
0
100
AcDbLine
 62
7
  6
CONTINUOUS
 10
21.2438389702
 20
1.3812209043
 11
21.2440541858
 21
1.3813120829
  0
SPLINE
  5
80C
100
AcDbEntity
  8
0
100
AcDbSpline
 62
7
  6
CONTINUOUS
 70
0
 71
3
 72
60
 73
56
 74
0
 42
0.0000001
 43
0.0000001
 44
0.0000000001
 40
0.0
 40
0.0
 40
0.0
 40
0.0
 40
0.0002724013
 40
0.0006140472
 40
0.0015073903
 40
0.0026827092
 40
0.0041403654
 40
0.0058797803
 40
0.0079001279
 40
0.010200461
 40
0.0127797646
 40
0.0187706159
 40
0.0258590029
 40
0.0340280918
 40
0.0432607072
 40
0.0535358577
 40
0.0648290219
 40
0.0771154545
 40
0.0903675624
 40
0.1196427331
 40
0.1523892558
 40
0.1883074149
 40
0.2270696115
 40
0.2683231783
 40
0.3116907104
 40
0.3567771329
 40
0.4031711623
 40
0.4504491428
 40
0.4981801376
 40
0.5459283483
 40
0.5932584274
 40
0.6397382884
 40
0.6849439404
 40
0.7284633675
 40
0.7698986573
 40
0.8088726897
 40
0.8450297664
 40
0.8780392898
 40
0.907601655
 40
0.9210038125
 40
0.933446264
 40
0.9448997164
 40
0.9553377367
 40
0.9647379269
 40
0.973078242
 40
0.9803389998
 40
0.9865054146
 40
0.9915634878
 40
0.9936729031
 40
0.9955013679
 40
0.9970483598
 40
0.9983135451
 40
0.9992969962
 40
0.9996833976
 40
1.0
 40
1.0
 40
1.0
 40
1.0
 10
21.2440541858
 20
1.3813120829
 30
0.0
 10
21.2441226899
 20
1.3813338219
 30
0.0
 10
21.24427944
 20
1.3813754054
 30
0.0
 10
21.2446686532
 20
1.3814575337
 30
0.0
 10
21.2452974377
 20
1.3815550686
 30
0.0
 10
21.2462211816
 20
1.3816663147
 30
0.0
 10
21.2473694511
 20
1.3817782283
 30
0.0
 10
21.2487414311
 20
1.3818908565
 30
0.0
 10
21.2503363666
 20
1.3820038118
 30
0.0
 10
21.2521533562
 20
1.3821170415
 30
0.0
 10
21.2550170291
 20
1.3822762922
 30
0.0
 10
21.2591438399
 20
1.3824715656
 30
0.0
 10
21.2647455172
 20
1.3826968885
 30
0.0
 10
21.2712030793
 20
1.3829228491
 30
0.0
 10
21.2785018713
 20
1.3831492726
 30
0.0
 10
21.2866252668
 20
1.3833760016
 30
0.0
 10
21.2955546601
 20
1.383602996
 30
0.0
 10
21.3052697242
 20
1.3838301657
 30
0.0
 10
21.3197284349
 20
1.3841437249
 30
0.0
 10
21.3395849925
 20
1.3845312083
 30
0.0
 10
21.365421601
 20
1.3849831391
 30
0.0
 10
21.3937616114
 20
1.3854357539
 30
0.0
 10
21.4243463827
 20
1.3858888957
 30
0.0
 10
21.4568968003
 20
1.3863423792
 30
0.0
 10
21.491115957
 20
1.3867961381
 30
0.0
 10
21.5266914902
 20
1.387250077
 30
0.0
 10
21.5632988394
 20
1.3877041418
 30
0.0
 10
21.6006039866
 20
1.3881582926
 30
0.0
 10
21.638266448
 20
1.3886124774
 30
0.0
 10
21.6759426561
 20
1.3890666686
 30
0.0
 10
21.7132887402
 20
1.3895208192
 30
0.0
 10
21.7499639438
 20
1.3899748945
 30
0.0
 10
21.785633664
 20
1.3904288494
 30
0.0
 10
21.8199723107
 20
1.3908826137
 30
0.0
 10
21.8526666546
 20
1.3913361359
 30
0.0
 10
21.8834183167
 20
1.3917893048
 30
0.0
 10
21.9119466678
 20
1.3922419541
 30
0.0
 10
21.937991506
 20
1.3926939852
 30
0.0
 10
21.9580328535
 20
1.3930813342
 30
0.0
 10
21.9726481299
 20
1.3933947826
 30
0.0
 10
21.9824862706
 20
1.3936219641
 30
0.0
 10
21.9915421302
 20
1.3938489678
 30
0.0
 10
21.9997950477
 20
1.3940757769
 30
0.0
 10
22.0072262626
 20
1.3943022456
 30
0.0
 10
22.0138187657
 20
1.3945282858
 30
0.0
 10
22.0195575334
 20
1.3947536694
 30
0.0
 10
22.0244295662
 20
1.3949781892
 30
0.0
 10
22.0279422683
 20
1.3951736725
 30
0.0
 10
22.0303103621
 20
1.3953342976
 30
0.0
 10
22.0317531212
 20
1.3954470759
 30
0.0
 10
22.032972436
 20
1.3955592506
 30
0.0
 10
22.0339676855
 20
1.3956708226
 30
0.0
 10
22.0346562821
 20
1.3957685283
 30
0.0
 10
22.0350937537
 20
1.3958501106
 30
0.0
 10
22.0352746928
 20
1.395891362
 30
0.0
 10
22.0353554518
 20
1.3959127092
 30
0.0
  0
LINE
  5
80D
100
AcDbEntity
  8
0
100
AcDbLine
 62
7
  6
CONTINUOUS
 10
22.0353554518
 20
1.3959127092
 11
22.0357671903
 21
1.3961305504
  0
LINE
  5
80E
100
AcDbEntity
  8
0
100
AcDbLine
 62
7
  6
CONTINUOUS
 10
21.2437675437
 20
1.4206243763
 11
21.2438263281
 21
1.4207065662
  0
SPLINE
  5
80F
100
AcDbEntity
  8
0
100
AcDbSpline
 62
7
  6
CONTINUOUS
 70
0
 71
3
 72
33
 73
29
 74
0
 42
0.0000001
 43
0.0000001
 44
0.0000000001
 40
0.0
 40
0.0
 40
0.0
 40
0.0
 40
0.0003992623
 40
0.0009143956
 40
0.0023090995
 40
0.0042026415
 40
0.0066009902
 40
0.0095066985
 40
0.0129209201
 40
0.0168441334
 40
0.0212764511
 40
0.0316666788
 40
0.0440821433
 40
0.058509988
 40
0.0749368292
 40
0.093348989
 40
0.113730523
 40
0.1360592723
 40
0.1603118935
 40
0.2144950488
 40
0.2760741641
 40
0.3447979567
 40
0.4204031065
 40
0.5025861396
 40
0.5910237092
 40
0.6853691421
 40
0.785244515
 40
1.0
 40
1.0
 40
1.0
 40
1.0
 10
21.2438263281
 20
1.4207065662
 30
0.0
 10
21.2438470385
 20
1.4207210527
 30
0.0
 10
21.2438982055
 20
1.4207487682
 30
0.0
 10
21.2440339135
 20
1.4208033569
 30
0.0
 10
21.2442665997
 20
1.4208674697
 30
0.0
 10
21.2446191049
 20
1.4209403944
 30
0.0
 10
21.2450689179
 20
1.4210138192
 30
0.0
 10
21.2456158439
 20
1.4210878103
 30
0.0
 10
21.2462600296
 20
1.4211620472
 30
0.0
 10
21.2470013667
 20
1.4212364947
 30
0.0
 10
21.2481833694
 20
1.4213415676
 30
0.0
 10
21.2499028579
 20
1.4214701914
 30
0.0
 10
21.2522551821
 20
1.4216183578
 30
0.0
 10
21.25499026
 20
1.4217669654
 30
0.0
 10
21.2581054029
 20
1.4219159357
 30
0.0
 10
21.2615977971
 20
1.4220651267
 30
0.0
 10
21.2654640918
 20
1.4222144665
 30
0.0
 10
21.2697003439
 20
1.4223639463
 30
0.0
 10
21.2760755751
 20
1.4225711245
 30
0.0
 10
21.2849351214
 20
1.4228270618
 30
0.0
 10
21.2966096702
 20
1.4231246449
 30
0.0
 10
21.3096406528
 20
1.4234227531
 30
0.0
 10
21.3239762024
 20
1.4237211928
 30
0.0
 10
21.3395599136
 20
1.4240199199
 30
0.0
 10
21.3563301183
 20
1.4243188477
 30
0.0
 10
21.3742204459
 20
1.4246179215
 30
0.0
 10
21.4001062126
 20
1.4250268292
 30
0.0
 10
21.4200208348
 20
1.4253180948
 30
0.0
 10
21.4336139187
 20
1.4255100554
 30
0.0
  0
LINE
  5
810
100
AcDbEntity
  8
0
100
AcDbLine
 62
7
  6
CONTINUOUS
 10
21.4336139187
 20
1.4255100554
 11
21.4478540067
 21
1.425708689
  0
LINE
  5
811
100
AcDbEntity
  8
0
100
AcDbLine
 62
7
  6
CONTINUOUS
 10
21.4478540067
 20
1.425708689
 11
21.5574202249
 21
1.4271242002
  0
LINE
  5
812
100
AcDbEntity
  8
0
100
AcDbLine
 62
7
  6
CONTINUOUS
 10
21.2437677505
 20
1.3906243765
 11
21.2438547406
 21
1.3907243369
  0
SPLINE
  5
813
100
AcDbEntity
  8
0
100
AcDbSpline
 62
7
  6
CONTINUOUS
 70
0
 71
3
 72
67
 73
63
 74
0
 42
0.0000001
 43
0.0000001
 44
0.0000000001
 40
0.0
 40
0.0
 40
0.0
 40
0.0
 40
0.0001783793
 40
0.0004249712
 40
0.0007417616
 40
0.0011296373
 40
0.0015890544
 40
0.0021202686
 40
0.0033986002
 40
0.0049651552
 40
0.0068192968
 40
0.0089599429
 40
0.011385908
 40
0.0140959477
 40
0.0170887814
 40
0.0239168282
 40
0.0318535079
 40
0.0408799498
 40
0.0509767336
 40
0.0621197955
 40
0.0742824246
 40
0.0874376015
 40
0.101554456
 40
0.1165991687
 40
0.1493330503
 40
0.1853334546
 40
0.2242663605
 40
0.2657684796
 40
0.3094529786
 40
0.3549136959
 40
0.4017264295
 40
0.4494553435
 40
0.4976558689
 40
0.54587876
 40
0.5936750378
 40
0.6405990151
 40
0.6862140268
 40
0.7300949093
 40
0.7718325315
 40
0.8110390224
 40
0.8473482378
 40
0.8804222744
 40
0.8956489619
 40
0.9099540386
 40
0.9233033271
 40
0.9356670994
 40
0.947016332
 40
0.9573234514
 40
0.9665659265
 40
0.9747223652
 40
0.9817725309
 40
0.9848780351
 40
0.9877016408
 40
0.9902417393
 40
0.9924967527
 40
0.9944651979
 40
0.9961462581
 40
0.9975396659
 40
0.9986454647
 40
0.999464428
 40
0.9997672202
 40
1.0
 40
1.0
 40
1.0
 40
1.0
 10
21.2438547406
 20
1.3907243369
 30
0.0
 10
21.243895557
 20
1.3907478222
 30
0.0
 10
21.243999913
 20
1.3907908116
 30
0.0
 10
21.2441876051
 20
1.3908466123
 30
0.0
 10
21.2444325155
 20
1.3909029356
 30
0.0
 10
21.2447345688
 20
1.3909596706
 30
0.0
 10
21.2450940427
 20
1.3910166425
 30
0.0
 10
21.2456875208
 20
1.391097912
 30
0.0
 10
21.2465734018
 20
1.3911968
 30
0.0
 10
21.2478087496
 20
1.3913102376
 30
0.0
 10
21.2492725177
 20
1.3914241062
 30
0.0
 10
21.2509637126
 20
1.3915383432
 30
0.0
 10
21.2528812952
 20
1.3916527955
 30
0.0
 10
21.2550241926
 20
1.3917674209
 30
0.0
 10
21.2583283924
 20
1.391927528
 30
0.0
 10
21.2630121506
 20
1.392124588
 30
0.0
 10
21.2692887101
 20
1.392352739
 30
0.0
 10
21.2764286725
 20
1.3925813964
 30
0.0
 10
21.2844154659
 20
1.3928104076
 30
0.0
 10
21.2932304869
 20
1.3930396835
 30
0.0
 10
21.3028531423
 20
1.3932691838
 30
0.0
 10
21.313261058
 20
1.3934988115
 30
0.0
 10
21.3244299903
 20
1.3937285597
 30
0.0
 10
21.3407668667
 20
1.3940439766
 30
0.0
 10
21.3628804373
 20
1.3944345262
 30
0.0
 10
21.3913000682
 20
1.3948918163
 30
0.0
 10
21.4220347135
 20
1.3953495903
 30
0.0
 10
21.454798103
 20
1.3958077687
 30
0.0
 10
21.4892849391
 20
1.396266227
 30
0.0
 10
21.5251738519
 20
1.3967248728
 30
0.0
 10
21.5621305411
 20
1.3971836615
 30
0.0
 10
21.5998105717
 20
1.3976425337
 30
0.0
 10
21.6378628995
 20
1.3981014462
 30
0.0
 10
21.6759330121
 20
1.3985603644
 30
0.0
 10
21.7136661019
 20
1.3990192393
 30
0.0
 10
21.7507106812
 20
1.3994780396
 30
0.0
 10
21.7867215473
 20
1.3999367056
 30
0.0
 10
21.8213631439
 20
1.4003951781
 30
0.0
 10
21.8543127898
 20
1.4008533965
 30
0.0
 10
21.885263377
 20
1.4013112158
 30
0.0
 10
21.9139265844
 20
1.4017685539
 30
0.0
 10
21.9362595516
 20
1.4021590187
 30
0.0
 10
21.952783993
 20
1.4024742602
 30
0.0
 10
21.964101929
 20
1.4027040266
 30
0.0
 10
21.9746639138
 20
1.4029336993
 30
0.0
 10
21.9844453846
 20
1.4031632163
 30
0.0
 10
21.993423513
 20
1.4033925275
 30
0.0
 10
22.0015773558
 20
1.4036216292
 30
0.0
 10
22.0088879727
 20
1.4038503552
 30
0.0
 10
22.0153383225
 20
1.4040786013
 30
0.0
 10
22.0201686001
 20
1.4042756167
 30
0.0
 10
22.0235913059
 20
1.4044354925
 30
0.0
 10
22.025824178
 20
1.4045501626
 30
0.0
 10
22.0278322115
 20
1.4046646796
 30
0.0
 10
22.0296140906
 20
1.4047790045
 30
0.0
 10
22.0311686968
 20
1.4048930356
 30
0.0
 10
22.0324951473
 20
1.4050067152
 30
0.0
 10
22.0335930589
 20
1.4051195088
 30
0.0
 10
22.0344618275
 20
1.4052315805
 30
0.0
 10
22.0350421778
 20
1.4053297606
 30
0.0
 10
22.035389928
 20
1.4054134008
 30
0.0
 10
22.035525102
 20
1.4054558152
 30
0.0
 10
22.0355822757
 20
1.4054783434
 30
0.0
  0
LINE
  5
814
100
AcDbEntity
  8
0
100
AcDbLine
 62
7
  6
CONTINUOUS
 10
22.0355822757
 20
1.4054783434
 11
22.0356966338
 21
1.405534022
  0
LINE
  5
815
100
AcDbEntity
  8
0
100
AcDbLine
 62
7
  6
CONTINUOUS
 10
21.2437679983
 20
1.3606243765
 11
21.24390919
 21
1.3607518543
  0
SPLINE
  5
816
100
AcDbEntity
  8
0
100
AcDbSpline
 62
7
  6
CONTINUOUS
 70
0
 71
3
 72
63
 73
59
 74
0
 42
0.0000001
 43
0.0000001
 44
0.0000000001
 40
0.0
 40
0.0
 40
0.0
 40
0.0
 40
0.0002088743
 40
0.0004862183
 40
0.0008333608
 40
0.0012509562
 40
0.0022987688
 40
0.0036309891
 40
0.0052473156
 40
0.0071470024
 40
0.0093291382
 40
0.0117927233
 40
0.0145367061
 40
0.0175598793
 40
0.0244359968
 40
0.0324042826
 40
0.0414475376
 40
0.0515457317
 40
0.0626743496
 40
0.0748084384
 40
0.0879210832
 40
0.1019808578
 40
0.116955692
 40
0.149513027
 40
0.1852926147
 40
0.2239661341
 40
0.2651788074
 40
0.3085508726
 40
0.3536844407
 40
0.4001645352
 40
0.4475637003
 40
0.4954466602
 40
0.5433729784
 40
0.5909024654
 40
0.6375979455
 40
0.6830304005
 40
0.7267825653
 40
0.7684514991
 40
0.8076551812
 40
0.844033023
 40
0.8772501045
 40
0.9070026274
 40
0.9204921129
 40
0.9330161665
 40
0.9445451583
 40
0.9550521815
 40
0.9645145389
 40
0.9729099389
 40
0.9802183622
 40
0.9864248033
 40
0.9915151059
 40
0.9936376511
 40
0.9954772279
 40
0.9970333061
 40
0.9983055448
 40
0.9992940122
 40
0.9996821585
 40
1.0
 40
1.0
 40
1.0
 40
1.0
 10
21.24390919
 20
1.3607518543
 30
0.0
 10
21.2439594223
 20
1.3607745474
 30
0.0
 10
21.2440809613
 20
1.3608168656
 30
0.0
 10
21.2442937376
 20
1.3608726131
 30
0.0
 10
21.2445630505
 20
1.3609287866
 30
0.0
 10
21.2450344041
 20
1.361010389
 30
0.0
 10
21.245766346
 20
1.3611085417
 30
0.0
 10
21.2468150193
 20
1.3612206812
 30
0.0
 10
21.2480895202
 20
1.3613333987
 30
0.0
 10
21.249588974
 20
1.3614466425
 30
0.0
 10
21.2513125459
 20
1.3615601655
 30
0.0
 10
21.253259328
 20
1.3616738988
 30
0.0
 10
21.2554283824
 20
1.3617877836
 30
0.0
 10
21.2587610742
 20
1.3619466561
 30
0.0
 10
21.263472174
 20
1.3621423472
 30
0.0
 10
21.2697718924
 20
1.3623690618
 30
0.0
 10
21.2769223609
 20
1.3625962179
 30
0.0
 10
21.2849071782
 20
1.3628237179
 30
0.0
 10
21.2937079341
 20
1.3630514976
 30
0.0
 10
21.3033044187
 20
1.3632794685
 30
0.0
 10
21.3136746118
 20
1.3635075567
 30
0.0
 10
21.3247946218
 20
1.3637357856
 30
0.0
 10
21.3410452653
 20
1.3640490061
 30
0.0
 10
21.3630272137
 20
1.3644369024
 30
0.0
 10
21.3912628316
 20
1.3648911569
 30
0.0
 10
21.4217827934
 20
1.3653459017
 30
0.0
 10
21.4543065549
 20
1.3658010231
 30
0.0
 10
21.4885352291
 20
1.3662564262
 30
0.0
 10
21.5241540517
 20
1.3667120158
 30
0.0
 10
21.5608356783
 20
1.3671677389
 30
0.0
 10
21.5982429026
 20
1.3676235511
 30
0.0
 10
21.636031802
 20
1.3680794006
 30
0.0
 10
21.6738550948
 20
1.368535259
 30
0.0
 10
21.7113649981
 20
1.3689910778
 30
0.0
 10
21.7482167412
 20
1.3694468236
 30
0.0
 10
21.7840716005
 20
1.369902448
 30
0.0
 10
21.8185998836
 20
1.3703578833
 30
0.0
 10
21.8514842941
 20
1.3708130763
 30
0.0
 10
21.8824224841
 20
1.3712679134
 30
0.0
 10
21.9111300448
 20
1.3717222319
 30
0.0
 10
21.9373431858
 20
1.3721759278
 30
0.0
 10
21.9575164498
 20
1.3725646937
 30
0.0
 10
21.9722293432
 20
1.3728792916
 30
0.0
 10
21.9821339203
 20
1.3731073138
 30
0.0
 10
21.9912512274
 20
1.3733351552
 30
0.0
 10
21.9995603066
 20
1.3735628026
 30
0.0
 10
22.0070421245
 20
1.3737901088
 30
0.0
 10
22.0136794359
 20
1.3740169822
 30
0.0
 10
22.0194570017
 20
1.3742431964
 30
0.0
 10
22.0243616311
 20
1.3744685434
 30
0.0
 10
22.0278975497
 20
1.3746647491
 30
0.0
 10
22.0302810047
 20
1.3748259742
 30
0.0
 10
22.031732837
 20
1.3749391673
 30
0.0
 10
22.0329595769
 20
1.3750517519
 30
0.0
 10
22.0339605956
 20
1.3751637299
 30
0.0
 10
22.0346529627
 20
1.3752617934
 30
0.0
 10
22.0350926123
 20
1.375343689
 30
0.0
 10
22.0352743609
 20
1.3753851004
 30
0.0
 10
22.0353554518
 20
1.3754065353
 30
0.0
  0
LINE
  5
817
100
AcDbEntity
  8
0
100
AcDbLine
 62
7
  6
CONTINUOUS
 10
22.0353554518
 20
1.3754065353
 11
22.0356964869
 21
1.3755340223
  0
LINE
  5
818
100
AcDbEntity
  8
0
100
AcDbLine
 62
7
  6
CONTINUOUS
 10
21.2439637516
 20
1.420474139
 11
21.243838513
 21
1.4205340218
  0
LINE
  5
819
100
AcDbEntity
  8
0
100
AcDbLine
 62
7
  6
CONTINUOUS
 10
21.2439435857
 20
1.3904819996
 11
21.2438384792
 21
1.3905340222
  0
LINE
  5
81A
100
AcDbEntity
  8
0
100
AcDbLine
 62
7
  6
CONTINUOUS
 10
21.2442238365
 20
1.3603951496
 11
21.24383873
 21
1.3605340223
  0
SPLINE
  5
81B
100
AcDbEntity
  8
0
100
AcDbSpline
 62
7
  6
CONTINUOUS
 70
0
 71
3
 72
32
 73
28
 74
0
 42
0.0000001
 43
0.0000001
 44
0.0000000001
 40
0.0
 40
0.0
 40
0.0
 40
0.0
 40
0.1898793348
 40
0.2826493466
 40
0.3728485263
 40
0.4596594676
 40
0.5422847954
 40
0.6199740516
 40
0.6920227848
 40
0.7577723671
 40
0.8166262122
 40
0.8432976034
 40
0.8680502839
 40
0.8908255158
 40
0.9115740363
 40
0.9302492479
 40
0.9468060143
 40
0.9612090082
 40
0.9734272376
 40
0.9834309111
 40
0.9875957328
 40
0.9912003536
 40
0.9942434055
 40
0.9967239203
 40
0.9986418023
 40
0.9993904425
 40
1.0
 40
1.0
 40
1.0
 40
1.0
 10
21.639767539
 20
1.3381243762
 30
0.0
 10
21.6648127936
 20
1.3384263517
 30
0.0
 10
21.7020944977
 20
1.3388757626
 30
0.0
 10
21.7512733527
 20
1.3394851399
 30
0.0
 10
21.7868572933
 20
1.339938536
 30
0.0
 10
21.8211029341
 20
1.3403917443
 30
0.0
 10
21.8536982378
 20
1.3408447027
 30
0.0
 10
21.8843460583
 20
1.3412973206
 30
0.0
 10
21.9127675413
 20
1.3417494045
 30
0.0
 10
21.9387041053
 20
1.3422008582
 30
0.0
 10
21.95865511
 20
1.3425877815
 30
0.0
 10
21.9731985589
 20
1.3429008744
 30
0.0
 10
21.9829836002
 20
1.3431277657
 30
0.0
 10
21.9919871301
 20
1.3433545057
 30
0.0
 10
22.000188708
 20
1.3435810153
 30
0.0
 10
22.0075696731
 20
1.3438071765
 30
0.0
 10
22.0141131714
 20
1.3440329521
 30
0.0
 10
22.0198043889
 20
1.3442580189
 30
0.0
 10
22.0246304319
 20
1.3444821816
 30
0.0
 10
22.0281057445
 20
1.3446774702
 30
0.0
 10
22.0304447394
 20
1.3448379732
 30
0.0
 10
22.0318665949
 20
1.3449505808
 30
0.0
 10
22.033065558
 20
1.3450625554
 30
0.0
 10
22.0340408665
 20
1.3451739094
 30
0.0
 10
22.0347130595
 20
1.3452714492
 30
0.0
 10
22.0351374934
 20
1.3453530704
 30
0.0
 10
22.0353119482
 20
1.3453943536
 30
0.0
 10
22.0353894531
 20
1.3454157614
 30
0.0
  0
LINE
  5
81C
100
AcDbEntity
  8
0
100
AcDbLine
 62
7
  6
CONTINUOUS
 10
22.0353894531
 20
1.3454157614
 11
22.0356962219
 21
1.3455340223
  0
SPLINE
  5
81D
100
AcDbEntity
  8
0
100
AcDbSpline
 62
7
  6
CONTINUOUS
 70
0
 71
3
 72
33
 73
29
 74
0
 42
0.0000001
 43
0.0000001
 44
0.0000000001
 40
0.0
 40
0.0
 40
0.0
 40
0.0
 40
0.1906681511
 40
0.2838038409
 40
0.3743351972
 40
0.4614338988
 40
0.5442930699
 40
0.6221532008
 40
0.6943019367
 40
0.7600740116
 40
0.8188668304
 40
0.8454753141
 40
0.8701425401
 40
0.8928097235
 40
0.9134276409
 40
0.931949083
 40
0.9483289911
 40
0.9625326473
 40
0.9745286968
 40
0.9796892724
 40
0.9842876345
 40
0.9883220676
 40
0.9917910187
 40
0.9946931843
 40
0.9970277565
 40
0.9987950748
 40
0.9994672044
 40
1.0
 40
1.0
 40
1.0
 40
1.0
 10
21.639767539
 20
1.3586305501
 30
0.0
 10
21.6649240974
 20
1.3589338675
 30
0.0
 10
21.702368884
 20
1.3593852424
 30
0.0
 10
21.7517580795
 20
1.3599973768
 30
0.0
 10
21.7874823268
 20
1.3604527893
 30
0.0
 10
21.8218504911
 20
1.3609080104
 30
0.0
 10
21.8545465564
 20
1.3613629737
 30
0.0
 10
21.8852697989
 20
1.3618175879
 30
0.0
 10
21.91373817
 20
1.3622716542
 30
0.0
 10
21.9396902998
 20
1.3627250665
 30
0.0
 10
21.9596336428
 20
1.3631137937
 30
0.0
 10
21.9741536233
 20
1.363428414
 30
0.0
 10
21.983907625
 20
1.3636563038
 30
0.0
 10
21.9928709511
 20
1.3638840367
 30
0.0
 10
22.0010230724
 20
1.3641115176
 30
0.0
 10
22.0083452516
 20
1.3643386513
 30
0.0
 10
22.0148206441
 20
1.364565329
 30
0.0
 10
22.0204344401
 20
1.3647913927
 30
0.0
 10
22.0245678072
 20
1.3649873044
 30
0.0
 10
22.0274339126
 20
1.3651470984
 30
0.0
 10
22.0292503954
 20
1.3652606907
 30
0.0
 10
22.0308432076
 20
1.3653740016
 30
0.0
 10
22.0322115746
 20
1.3654869803
 30
0.0
 10
22.0333548812
 20
1.3655992212
 30
0.0
 10
22.0342723259
 20
1.3657107736
 30
0.0
 10
22.034895011
 20
1.3658085503
 30
0.0
 10
22.0352784938
 20
1.3658910577
 30
0.0
 10
22.0354320758
 20
1.3659328439
 30
0.0
 10
22.0354988805
 20
1.3659547403
 30
0.0
  0
LINE
  5
81E
100
AcDbEntity
  8
0
100
AcDbLine
 62
7
  6
CONTINUOUS
 10
22.0354988805
 20
1.3659547403
 11
22.0357670188
 21
1.3661305502
  0
SPLINE
  5
81F
100
AcDbEntity
  8
0
100
AcDbSpline
 62
7
  6
CONTINUOUS
 70
0
 71
3
 72
69
 73
65
 74
0
 42
0.0000001
 43
0.0000001
 44
0.0000000001
 40
0.0
 40
0.0
 40
0.0
 40
0.0
 40
0.0001630491
 40
0.0003945627
 40
0.0006968574
 40
0.0010709143
 40
0.0015172222
 40
0.0020360496
 40
0.0032917928
 40
0.0048386701
 40
0.0066760274
 40
0.0088027846
 40
0.0112177594
 40
0.0139197116
 40
0.0169073655
 40
0.0237335751
 40
0.0316795132
 40
0.0407263425
 40
0.0508543757
 40
0.0620388929
 40
0.0742531737
 40
0.0874698856
 40
0.1016571931
 40
0.116781184
 40
0.1496978913
 40
0.1859092529
 40
0.2250755205
 40
0.2668284188
 40
0.3107744402
 40
0.3565008693
 40
0.403577329
 40
0.4515607318
 40
0.5000000047
 40
0.5484391464
 40
0.5964227038
 40
0.6434990953
 40
0.6892253329
 40
0.7331717852
 40
0.7749243211
 40
0.8140904835
 40
0.8503024605
 40
0.8832184878
 40
0.8983432116
 40
0.9125298842
 40
0.9257464089
 40
0.9379615451
 40
0.9491454328
 40
0.9592731562
 40
0.9683209359
 40
0.9762662828
 40
0.9830920604
 40
0.9860802322
 40
0.9887826767
 40
0.9911975936
 40
0.9933238869
 40
0.9951607749
 40
0.9967075775
 40
0.9979638102
 40
0.9984829398
 40
0.998929481
 40
0.9993036249
 40
0.9996058472
 40
0.99983718
 40
1.0
 40
1.0
 40
1.0
 40
1.0
 10
21.227741958
 20
1.4009642897
 30
0.0
 10
21.2277797532
 20
1.4009883447
 30
0.0
 10
21.2278800842
 20
1.4010317486
 30
0.0
 10
21.2280631532
 20
1.4010875968
 30
0.0
 10
21.2283063743
 20
1.4011440474
 30
0.0
 10
21.2286095628
 20
1.4012009801
 30
0.0
 10
21.2289731135
 20
1.4012581782
 30
0.0
 10
21.229577864
 20
1.4013399698
 30
0.0
 10
21.2304851961
 20
1.4014393434
 30
0.0
 10
21.2317550573
 20
1.4015532606
 30
0.0
 10
21.2332650234
 20
1.4016676337
 30
0.0
 10
21.2350140597
 20
1.4017823983
 30
0.0
 10
21.2370010928
 20
1.4018973884
 30
0.0
 10
21.2392250129
 20
1.4020125599
 30
0.0
 10
21.2426602164
 20
1.4021735176
 30
0.0
 10
21.2475360868
 20
1.402371564
 30
0.0
 10
21.2540768143
 20
1.4026007996
 30
0.0
 10
21.2615252517
 20
1.4028305489
 30
0.0
 10
21.2698639123
 20
1.4030606586
 30
0.0
 10
21.2790731814
 20
1.4032910491
 30
0.0
 10
21.2891313601
 20
1.4035216638
 30
0.0
 10
21.3000148095
 20
1.4037524026
 30
0.0
 10
21.3116979215
 20
1.4039832751
 30
0.0
 10
21.3287933288
 20
1.4043002636
 30
0.0
 10
21.3519398912
 20
1.4046927316
 30
0.0
 10
21.3816923043
 20
1.4051522316
 30
0.0
 10
21.4138728896
 20
1.4056122328
 30
0.0
 10
21.4481789175
 20
1.4060726325
 30
0.0
 10
21.4842876253
 20
1.4065333194
 30
0.0
 10
21.5218591953
 20
1.406994199
 30
0.0
 10
21.5605401924
 20
1.4074552154
 30
0.0
 10
21.5999666462
 20
1.4079163207
 30
0.0
 10
21.6397675478
 20
1.4083774624
 30
0.0
 10
21.6795684919
 20
1.4088386082
 30
0.0
 10
21.7189949334
 20
1.4092997102
 30
0.0
 10
21.7576759016
 20
1.4097607265
 30
0.0
 10
21.7952475185
 20
1.4102216121
 30
0.0
 10
21.8313561927
 20
1.4106822888
 30
0.0
 10
21.8656622104
 20
1.4111426945
 30
0.0
 10
21.8978428362
 20
1.411602704
 30
0.0
 10
21.927595203
 20
1.4120621781
 30
0.0
 10
21.9507419485
 20
1.4124546834
 30
0.0
 10
21.9678371964
 20
1.4127716378
 30
0.0
 10
21.9795202836
 20
1.4130025276
 30
0.0
 10
21.990403742
 20
1.4132332769
 30
0.0
 10
22.000461932
 20
1.4134638593
 30
0.0
 10
22.0096711777
 20
1.4136942696
 30
0.0
 10
22.0180098406
 20
1.4139244004
 30
0.0
 10
22.0254582931
 20
1.4141541019
 30
0.0
 10
22.0319989999
 20
1.4143833597
 30
0.0
 10
22.0368747301
 20
1.4145814346
 30
0.0
 10
22.0403100937
 20
1.4147423684
 30
0.0
 10
22.0425342766
 20
1.4148575258
 30
0.0
 10
22.0445213016
 20
1.4149725166
 30
0.0
 10
22.0462700644
 20
1.4150872903
 30
0.0
 10
22.0477797518
 20
1.4152016761
 30
0.0
 10
22.0490495962
 20
1.4153156104
 30
0.0
 10
22.0499571279
 20
1.4154149673
 30
0.0
 10
22.0505621641
 20
1.4154967474
 30
0.0
 10
22.0509258892
 20
1.415553939
 30
0.0
 10
22.0512291478
 20
1.415610866
 30
0.0
 10
22.0514723239
 20
1.4156673154
 30
0.0
 10
22.0516552537
 20
1.4157231614
 30
0.0
 10
22.0517554639
 20
1.4157665742
 30
0.0
 10
22.0517931793
 20
1.4157906372
 30
0.0
  0
SPLINE
  5
820
100
AcDbEntity
  8
0
100
AcDbSpline
 62
7
  6
CONTINUOUS
 70
0
 71
3
 72
69
 73
65
 74
0
 42
0.0000001
 43
0.0000001
 44
0.0000000001
 40
0.0
 40
0.0
 40
0.0
 40
0.0
 40
0.0001629163
 40
0.0003944545
 40
0.0006969069
 40
0.0010712046
 40
0.0015177841
 40
0.0020368606
 40
0.0032928215
 40
0.0048393154
 40
0.0066760796
 40
0.0088026419
 40
0.0112179723
 40
0.0139204453
 40
0.0169083689
 40
0.0237336826
 40
0.0316796555
 40
0.0407272898
 40
0.050854538
 40
0.0620389726
 40
0.0742540389
 40
0.0874700966
 40
0.1016572211
 40
0.1167819452
 40
0.1496978815
 40
0.1859095243
 40
0.2250760306
 40
0.2668283797
 40
0.310774697
 40
0.3565011105
 40
0.4035773202
 40
0.4515608841
 40
0.5000000065
 40
0.54843921
 40
0.5964226684
 40
0.6434989247
 40
0.6892254799
 40
0.7331715075
 40
0.7749240668
 40
0.8140906886
 40
0.8503019315
 40
0.8832182403
 40
0.8983425701
 40
0.912530093
 40
0.9257461944
 40
0.9379608086
 40
0.9491456198
 40
0.9592729901
 40
0.9683201278
 40
0.9762664334
 40
0.9830919538
 40
0.98607961
 40
0.9887818249
 40
0.991197104
 40
0.9933239883
 40
0.9951610873
 40
0.9967075369
 40
0.9979632375
 40
0.9984821662
 40
0.9989286199
 40
0.9993028386
 40
0.9996052831
 40
0.9998369067
 40
1.0
 40
1.0
 40
1.0
 40
1.0
 10
21.2277415914
 20
1.3709642893
 30
0.0
 10
21.2277793339
 20
1.3709883591
 30
0.0
 10
21.2278796366
 20
1.3710317716
 30
0.0
 10
21.2280627215
 20
1.3710876062
 30
0.0
 10
21.2283060651
 20
1.3711440499
 30
0.0
 10
21.2286094414
 20
1.3712009783
 30
0.0
 10
21.2289732046
 20
1.371258174
 30
0.0
 10
21.2295781617
 20
1.3713399541
 30
0.0
 10
21.2304855181
 20
1.3714393182
 30
0.0
 10
21.2317551687
 20
1.3715532581
 30
0.0
 10
21.2332648119
 20
1.3716676481
 30
0.0
 10
21.2350137305
 20
1.371782412
 30
0.0
 10
21.2370009534
 20
1.3718973898
 30
0.0
 10
21.2392251908
 20
1.3720125533
 30
0.0
 10
21.2426603685
 20
1.3721734938
 30
0.0
 10
21.2475360777
 20
1.3723715882
 30
0.0
 10
21.2540767952
 20
1.3726008081
 30
0.0
 10
21.2615252539
 20
1.3728305236
 30
0.0
 10
21.2698639021
 20
1.3730606709
 30
0.0
 10
21.2790731554
 20
1.3732910579
 30
0.0
 10
21.2891313552
 20
1.373521646
 30
0.0
 10
21.3000147977
 20
1.3737524091
 30
0.0
 10
21.3116978894
 20
1.3739832826
 30
0.0
 10
21.3287932486
 20
1.3743002449
 30
0.0
 10
21.3519398938
 20
1.3746927451
 30
0.0
 10
21.3816922593
 20
1.3751522285
 30
0.0
 10
21.4138728595
 20
1.3756122272
 30
0.0
 10
21.4481789076
 20
1.3760726385
 30
0.0
 10
21.4842875673
 20
1.3765333163
 30
0.0
 10
21.5218591723
 20
1.3769941973
 30
0.0
 10
21.5605401681
 20
1.3774552177
 30
0.0
 10
21.5999665842
 20
1.3779163179
 30
0.0
 10
21.6397675339
 20
1.3783774636
 30
0.0
 10
21.6795684547
 20
1.3788386068
 30
0.0
 10
21.7189948769
 20
1.3792997091
 30
0.0
 10
21.7576758955
 20
1.3797607296
 30
0.0
 10
21.7952474727
 20
1.3802216065
 30
0.0
 10
21.8313561494
 20
1.3806822909
 30
0.0
 10
21.8656622074
 20
1.381142699
 30
0.0
 10
21.8978427872
 20
1.3816026916
 30
0.0
 10
21.9275951767
 20
1.3820621909
 30
0.0
 10
21.9507417064
 20
1.3824546698
 30
0.0
 10
21.9678371688
 20
1.3827716516
 30
0.0
 10
21.9795202739
 20
1.3830025138
 30
0.0
 10
21.9904037137
 20
1.3832332733
 30
0.0
 10
22.0004619044
 20
1.3834638786
 30
0.0
 10
22.0096711707
 20
1.3836942531
 30
0.0
 10
22.0180098198
 20
1.3839243912
 30
0.0
 10
22.0254582663
 20
1.3841541317
 30
0.0
 10
22.0319989958
 20
1.3843833386
 30
0.0
 10
22.0368747805
 20
1.3845814191
 30
0.0
 10
22.0403098699
 20
1.3847423724
 30
0.0
 10
22.0425339484
 20
1.3848575397
 30
0.0
 10
22.0445211743
 20
1.3849725249
 30
0.0
 10
22.04627026
 20
1.3850872812
 30
0.0
 10
22.0477800733
 20
1.3852016548
 30
0.0
 10
22.0490497322
 20
1.3853155974
 30
0.0
 10
22.049956963
 20
1.3854149678
 30
0.0
 10
22.0505617716
 20
1.385496752
 30
0.0
 10
22.0509254364
 20
1.3855539494
 30
0.0
 10
22.0512287528
 20
1.385610881
 30
0.0
 10
22.051472094
 20
1.3856673292
 30
0.0
 10
22.0516552503
 20
1.3857231739
 30
0.0
 10
22.0517556301
 20
1.3857665762
 30
0.0
 10
22.0517934362
 20
1.3857906367
 30
0.0
  0
SPLINE
  5
821
100
AcDbEntity
  8
0
100
AcDbSpline
 62
7
  6
CONTINUOUS
 70
0
 71
3
 72
38
 73
34
 74
0
 42
0.0000001
 43
0.0000001
 44
0.0000000001
 40
0.0
 40
0.0
 40
0.0
 40
0.0
 40
0.0968625573
 40
0.1928513551
 40
0.2869988259
 40
0.3784496824
 40
0.4663438464
 40
0.5498492757
 40
0.6281811557
 40
0.7006047718
 40
0.7664378267
 40
0.7966862514
 40
0.8250599906
 40
0.8514937628
 40
0.8759229645
 40
0.8982910492
 40
0.9185473348
 40
0.9366418056
 40
0.9525326909
 40
0.9661851874
 40
0.9721613104
 40
0.9775653723
 40
0.9823949092
 40
0.9866478411
 40
0.9903222033
 40
0.993416234
 40
0.9959285644
 40
0.9969664483
 40
0.9978590874
 40
0.9986070699
 40
0.9992114261
 40
0.9996741721
 40
1.0
 40
1.0
 40
1.0
 40
1.0
 10
21.639767539
 20
1.3483774632
 30
0.0
 10
21.6530740677
 20
1.3485316367
 30
0.0
 10
21.6795670921
 20
1.3488385909
 30
0.0
 10
21.7189936092
 20
1.3492996952
 30
0.0
 10
21.7576765915
 20
1.3497607339
 30
0.0
 10
21.795247417
 20
1.3502216102
 30
0.0
 10
21.8313560792
 20
1.3506822907
 30
0.0
 10
21.8656622468
 20
1.3511426918
 30
0.0
 10
21.8978428037
 20
1.3516027016
 30
0.0
 10
21.9275951905
 20
1.3520621874
 30
0.0
 10
21.9507418793
 20
1.3524546703
 30
0.0
 10
21.9678371723
 20
1.3527716441
 30
0.0
 10
21.9795202686
 20
1.3530025302
 30
0.0
 10
21.9904037301
 20
1.3532332656
 30
0.0
 10
22.0004619112
 20
1.3534638669
 30
0.0
 10
22.0096711644
 20
1.353694275
 30
0.0
 10
22.0180098335
 20
1.3539243843
 30
0.0
 10
22.0254582748
 20
1.3541541112
 30
0.0
 10
22.0319989855
 20
1.3543833687
 30
0.0
 10
22.0368748402
 20
1.3545814254
 30
0.0
 10
22.0403101881
 20
1.3547423597
 30
0.0
 10
22.0425341845
 20
1.3548575314
 30
0.0
 10
22.0445211016
 20
1.354972525
 30
0.0
 10
22.0462699514
 20
1.3550872949
 30
0.0
 10
22.0477798257
 20
1.355201675
 30
0.0
 10
22.0490497912
 20
1.3553156014
 30
0.0
 10
22.049957312
 20
1.3554149516
 30
0.0
 10
22.0505622145
 20
1.3554967427
 30
0.0
 10
22.050925782
 20
1.3555539409
 30
0.0
 10
22.0512289227
 20
1.3556108732
 30
0.0
 10
22.0514720533
 20
1.3556673238
 30
0.0
 10
22.0516550093
 20
1.3557231716
 30
0.0
 10
22.0517552582
 20
1.3557665798
 30
0.0
 10
22.051793008
 20
1.3557906369
 30
0.0
  0
LINE
  5
822
100
AcDbEntity
  8
02___PRT_ALL_AXES
100
AcDbLine
 62
7
  6
CONTINUOUS
 10
21.0135402382
 20
9.7238827089
 11
21.0139694306
 21
9.7232384227
  0
LINE
  5
823
100
AcDbEntity
  8
02___PRT_ALL_AXES
100
AcDbLine
 62
7
  6
CONTINUOUS
 10
16.2657801769
 20
6.5606882396
 11
16.2653510719
 21
6.561332584
  0
LINE
  5
824
100
AcDbEntity
  8
02___PRT_ALL_AXES
100
AcDbLine
 62
7
  6
CONTINUOUS
 10
21.0369251214
 20
9.6882135534
 11
21.0371349431
 21
9.6878881838
  0
LINE
  5
825
100
AcDbEntity
  8
02___PRT_ALL_AXES
100
AcDbLine
 62
7
  6
CONTINUOUS
 10
21.4922674339
 20
8.1428986902
 11
21.4922675128
 21
8.1425115332
  0
LINE
  5
826
100
AcDbEntity
  8
02___PRT_ALL_AXES
100
AcDbLine
 62
7
  6
CONTINUOUS
 10
21.4922675128
 20
8.1425115332
 11
21.492267539
 21
8.1421243762
  0
SPLINE
  5
827
100
AcDbEntity
  8
02___PRT_ALL_AXES
100
AcDbSpline
 62
7
  6
CONTINUOUS
 70
0
 71
3
 72
24
 73
20
 74
0
 42
0.0000001
 43
0.0000001
 44
0.0000000001
 40
0.0
 40
0.0
 40
0.0
 40
0.0
 40
0.0587460316
 40
0.1176132605
 40
0.1767065268
 40
0.2361397662
 40
0.2660206077
 40
0.2960227992
 40
0.3564239086
 40
0.4174331646
 40
0.4791162142
 40
0.5415248344
 40
0.6046961745
 40
0.6686526126
 40
0.7334019401
 40
0.7989377353
 40
0.8652399365
 40
0.9322756133
 40
1.0
 40
1.0
 40
1.0
 40
1.0
 10
11.7143016282
 20
-11.7434354639
 30
0.0
 10
11.7143016282
 20
-11.7491684321
 30
0.0
 10
11.7138387676
 20
-11.7606515111
 30
0.0
 10
11.7117604673
 20
-11.7777882647
 30
0.0
 10
11.7083069255
 20
-11.7947704692
 30
0.0
 10
11.7043031237
 20
-11.8087057599
 30
0.0
 10
11.70043818
 20
-11.8196922169
 30
0.0
 10
11.6961161864
 20
-11.8306087522
 30
0.0
 10
11.6898861168
 20
-11.8440245311
 30
0.0
 10
11.6811529806
 20
-11.8596313441
 30
0.0
 10
11.6711845586
 20
-11.8747149856
 30
0.0
 10
11.6600262814
 20
-11.8892072949
 30
0.0
 10
11.6477285411
 20
-11.9030436736
 30
0.0
 10
11.6343469309
 20
-11.9161623829
 30
0.0
 10
11.6199417031
 20
-11.928504969
 30
0.0
 10
11.6045776607
 20
-11.9400163915
 30
0.0
 10
11.5883235465
 20
-11.9506454443
 30
0.0
 10
11.5712531498
 20
-11.9603444649
 30
0.0
 10
11.5594347865
 20
-11.9661347326
 30
0.0
 10
11.5534155749
 20
-11.9688642106
 30
0.0
  0
SPLINE
  5
828
100
AcDbEntity
  8
0
100
AcDbSpline
 62
7
  6
CONTINUOUS
 70
0
 71
3
 72
23
 73
19
 74
0
 42
0.0000001
 43
0.0000001
 44
0.0000000001
 40
0.0
 40
0.0
 40
0.0
 40
0.0
 40
0.1358134502
 40
0.2032786538
 40
0.2701691427
 40
0.3363161314
 40
0.4015791735
 40
0.4658455669
 40
0.5290367364
 40
0.5911125183
 40
0.6520745454
 40
0.7119684302
 40
0.7415519895
 40
0.7709062139
 40
0.8289782147
 40
0.8863755047
 40
0.9433109984
 40
1.0
 40
1.0
 40
1.0
 40
1.0
 10
11.7283016282
 20
-10.6658507065
 30
0.0
 10
11.7335215468
 20
-10.6658507065
 30
0.0
 10
11.7413548992
 20
-10.6664888014
 30
0.0
 10
11.751528713
 20
-10.6686070046
 30
0.0
 10
11.7589249847
 20
-10.6708056402
 30
0.0
 10
11.7660271554
 20
-10.6735966434
 30
0.0
 10
11.7727682368
 20
-10.6769535388
 30
0.0
 10
11.7790832105
 20
-10.680844569
 30
0.0
 10
11.7849113899
 20
-10.6852328214
 30
0.0
 10
11.7901965902
 20
-10.6900768266
 30
0.0
 10
11.7948872906
 20
-10.6953301487
 30
0.0
 10
11.7982776665
 20
-10.7000284247
 30
0.0
 10
11.8006432262
 20
-10.703937635
 30
0.0
 10
11.8027593432
 20
-10.7079080315
 30
0.0
 10
11.804966815
 20
-10.7130315595
 30
0.0
 10
11.8068846337
 20
-10.7193894405
 30
0.0
 10
11.8080430318
 20
-10.725874292
 30
0.0
 10
11.8083016282
 20
-10.7302457125
 30
0.0
 10
11.8083016282
 20
-10.7324245246
 30
0.0
  0
SPLINE
  5
829
100
AcDbEntity
  8
0
100
AcDbSpline
 62
7
  6
CONTINUOUS
 70
0
 71
3
 72
20
 73
16
 74
0
 42
0.0000001
 43
0.0000001
 44
0.0000000001
 40
0.0
 40
0.0
 40
0.0
 40
0.0
 40
0.0772931413
 40
0.1501998133
 40
0.2839189578
 40
0.3458202578
 40
0.4051532361
 40
0.4626042904
 40
0.5188876919
 40
0.5747201433
 40
0.630789825
 40
0.6877093479
 40
0.7460066358
 40
0.8682431638
 40
1.0
 40
1.0
 40
1.0
 40
1.0
 10
11.6933016282
 20
-10.4666481469
 30
0.0
 10
11.6933016282
 20
-10.4661525502
 30
0.0
 10
11.6932694079
 20
-10.4651888495
 30
0.0
 10
11.6930700116
 20
-10.4633784753
 30
0.0
 10
11.6926672049
 20
-10.4616916694
 30
0.0
 10
11.6920387614
 20
-10.4601794591
 30
0.0
 10
11.6914821928
 20
-10.4591750349
 30
0.0
 10
11.6908321166
 20
-10.4582724123
 30
0.0
 10
11.6900924275
 20
-10.4574718496
 30
0.0
 10
11.6892673899
 20
-10.4567733303
 30
0.0
 10
11.6883620637
 20
-10.4561755025
 30
0.0
 10
11.6873810659
 20
-10.4556767598
 30
0.0
 10
11.6859565129
 20
-10.4551325715
 30
0.0
 10
11.683990514
 20
-10.4546970231
 30
0.0
 10
11.6823591974
 20
-10.4545976479
 30
0.0
 10
11.6815143847
 20
-10.4545970589
 30
0.0
  0
SPLINE
  5
82A
100
AcDbEntity
  8
0
100
AcDbSpline
 62
7
  6
CONTINUOUS
 70
0
 71
3
 72
20
 73
16
 74
0
 42
0.0000001
 43
0.0000001
 44
0.0000000001
 40
0.0
 40
0.0
 40
0.0
 40
0.0
 40
0.1317568362
 40
0.2539933642
 40
0.3122906521
 40
0.369210175
 40
0.4252798567
 40
0.4811123081
 40
0.5373957096
 40
0.5948467639
 40
0.6541797422
 40
0.7160810422
 40
0.8498001867
 40
0.9227068587
 40
1.0
 40
1.0
 40
1.0
 40
1.0
 10
11.6450888716
 20
-10.4545970589
 30
0.0
 10
11.6442440589
 20
-10.4545976479
 30
0.0
 10
11.6426127423
 20
-10.4546970231
 30
0.0
 10
11.6406467434
 20
-10.4551325715
 30
0.0
 10
11.6392221904
 20
-10.4556767598
 30
0.0
 10
11.6382411926
 20
-10.4561755025
 30
0.0
 10
11.6373358664
 20
-10.4567733303
 30
0.0
 10
11.6365108288
 20
-10.4574718496
 30
0.0
 10
11.6357711397
 20
-10.4582724123
 30
0.0
 10
11.6351210636
 20
-10.4591750349
 30
0.0
 10
11.6345644949
 20
-10.4601794591
 30
0.0
 10
11.6339360514
 20
-10.4616916694
 30
0.0
 10
11.6335332447
 20
-10.4633784753
 30
0.0
 10
11.6333338484
 20
-10.4651888495
 30
0.0
 10
11.6333016282
 20
-10.4661525502
 30
0.0
 10
11.6333016282
 20
-10.4666481469
 30
0.0
  0
SPLINE
  5
82B
100
AcDbEntity
  8
02___PRT_ALL_AXES
100
AcDbSpline
 62
7
  6
CONTINUOUS
 70
0
 71
3
 72
22
 73
18
 74
0
 42
0.0000001
 43
0.0000001
 44
0.0000000001
 40
0.0
 40
0.0
 40
0.0
 40
0.0
 40
0.1358726577
 40
0.2028562158
 40
0.269061313
 40
0.3344213905
 40
0.3988889407
 40
0.4624373314
 40
0.5250623692
 40
0.5867834766
 40
0.6476442146
 40
0.7077119538
 40
0.7670771445
 40
0.8258519109
 40
0.8841639373
 40
0.9421651357
 40
1.0
 40
1.0
 40
1.0
 40
1.0
 10
11.449512121
 20
-11.6262035291
 30
0.0
 10
11.4568995555
 20
-11.6281110198
 30
0.0
 10
11.4677583853
 20
-11.6317080521
 30
0.0
 10
11.4815268716
 20
-11.6379508935
 30
0.0
 10
11.4913339724
 20
-11.6432763994
 30
0.0
 10
11.5006034009
 20
-11.649232307
 30
0.0
 10
11.5092779444
 20
-11.6557818778
 30
0.0
 10
11.517302581
 20
-11.6628842395
 30
0.0
 10
11.5246266356
 20
-11.670495148
 30
0.0
 10
11.531203708
 20
-11.6785670232
 30
0.0
 10
11.5369919672
 20
-11.6870493726
 30
0.0
 10
11.5419544301
 20
-11.695888997
 30
0.0
 10
11.5460592119
 20
-11.7050303718
 30
0.0
 10
11.5492796705
 20
-11.7144156496
 30
0.0
 10
11.5515953832
 20
-11.7239859035
 30
0.0
 10
11.5529906176
 20
-11.7336789957
 30
0.0
 10
11.5533016282
 20
-11.7401878339
 30
0.0
 10
11.5533016282
 20
-11.7434354639
 30
0.0
  0
SPLINE
  5
82C
100
AcDbEntity
  8
02___PRT_ALL_AXES
100
AcDbSpline
 62
7
  6
CONTINUOUS
 70
0
 71
3
 72
24
 73
20
 74
0
 42
0.0000001
 43
0.0000001
 44
0.0000000001
 40
0.0
 40
0.0
 40
0.0
 40
0.0
 40
0.0683130144
 40
0.1362121277
 40
0.2035465426
 40
0.236965236
 40
0.2701931392
 40
0.3360080913
 40
0.4009092494
 40
0.4648273185
 40
0.5277221153
 40
0.5895851756
 40
0.6504416016
 40
0.7103508982
 40
0.7694065862
 40
0.8277342064
 40
0.8854880449
 40
0.9428451283
 40
1.0
 40
1.0
 40
1.0
 40
1.0
 10
11.4472395444
 20
-11.4890366811
 30
0.0
 10
11.4563629381
 20
-11.4900657923
 30
0.0
 10
11.4744853026
 20
-11.4928004103
 30
0.0
 10
11.5011730131
 20
-11.4989238229
 30
0.0
 10
11.5228351515
 20
-11.5056822313
 30
0.0
 10
11.5396831281
 20
-11.5120497308
 30
0.0
 10
11.5560774809
 20
-11.5189999951
 30
0.0
 10
11.5758356132
 20
-11.5288117403
 30
0.0
 10
11.5982539919
 20
-11.5423490288
 30
0.0
 10
11.6191298644
 20
-11.5575065982
 30
0.0
 10
11.6382940252
 20
-11.5741636879
 30
0.0
 10
11.6555917409
 20
-11.5921879592
 30
0.0
 10
11.6708824742
 20
-11.6114358169
 30
0.0
 10
11.684041413
 20
-11.6317535014
 30
0.0
 10
11.6949604206
 20
-11.6529781984
 30
0.0
 10
11.7035491861
 20
-11.6749387441
 30
0.0
 10
11.7097360535
 20
-11.6974584038
 30
0.0
 10
11.7134692186
 20
-11.720350655
 30
0.0
 10
11.7143016282
 20
-11.7357538638
 30
0.0
 10
11.7143016282
 20
-11.7434354639
 30
0.0
  0
SPLINE
  5
82D
100
AcDbEntity
  8
0
100
AcDbSpline
 62
7
  6
CONTINUOUS
 70
0
 71
3
 72
33
 73
29
 74
0
 42
0.0000001
 43
0.0000001
 44
0.0000000001
 40
0.0
 40
0.0
 40
0.0
 40
0.0
 40
0.0041243031
 40
0.0075338819
 40
0.0119984215
 40
0.0175540165
 40
0.0242133115
 40
0.0408456125
 40
0.0618408081
 40
0.0869968334
 40
0.148806154
 40
0.2240938539
 40
0.3099391457
 40
0.4031269659
 40
0.5000290507
 40
0.5969150975
 40
0.6900775466
 40
0.7759110903
 40
0.8511965593
 40
0.9130060863
 40
0.9381623941
 40
0.9591582123
 40
0.9757903239
 40
0.9824489607
 40
0.9880037162
 40
0.9924673848
 40
0.9958762173
 40
1.0
 40
1.0
 40
1.0
 40
1.0
 10
9.664084962
 20
-15.8978557773
 30
0.0
 10
9.6639376959
 20
-15.8978557773
 30
0.0
 10
9.6637151972
 20
-15.8976197016
 30
0.0
 10
9.6635284667
 20
-15.8972513642
 30
0.0
 10
9.6633540628
 20
-15.8967979529
 30
0.0
 10
9.6631872166
 20
-15.8962279105
 30
0.0
 10
9.6629472637
 20
-15.8952249627
 30
0.0
 10
9.6626711703
 20
-15.8936673638
 30
0.0
 10
9.6623732285
 20
-15.8914449399
 30
0.0
 10
9.6619725016
 20
-15.8876105489
 30
0.0
 10
9.6615541377
 20
-15.8818309011
 30
0.0
 10
9.6611696461
 20
-15.8738792615
 30
0.0
 10
9.6608872003
 20
-15.8648022416
 30
0.0
 10
9.660715772
 20
-15.8549506968
 30
0.0
 10
9.6606578871
 20
-15.8447036093
 30
0.0
 10
9.6607157839
 20
-15.8344574275
 30
0.0
 10
9.66088727
 20
-15.8246077822
 30
0.0
 10
9.6611696879
 20
-15.8155321676
 30
0.0
 10
9.6615541556
 20
-15.8075810189
 30
0.0
 10
9.6619725509
 20
-15.8018014356
 30
0.0
 10
9.6623733049
 20
-15.7979670074
 30
0.0
 10
9.6626712325
 20
-15.7957445568
 30
0.0
 10
9.6629472943
 20
-15.7941869594
 30
0.0
 10
9.663187241
 20
-15.7931840726
 30
0.0
 10
9.6633540786
 20
-15.7926141135
 30
0.0
 10
9.6635284757
 20
-15.7921607991
 30
0.0
 10
9.6637152098
 20
-15.791792531
 30
0.0
 10
9.6639377144
 20
-15.7915565647
 30
0.0
 10
9.664084962
 20
-15.7915565647
 30
0.0
  0
SPLINE
  5
82E
100
AcDbEntity
  8
0
100
AcDbSpline
 62
7
  6
CONTINUOUS
 70
0
 71
3
 72
35
 73
31
 74
0
 42
0.0000001
 43
0.0000001
 44
0.0000000001
 40
0.0
 40
0.0
 40
0.0
 40
0.0
 40
0.0041065024
 40
0.007499912
 40
0.0119482401
 40
0.0174897696
 40
0.0241389208
 40
0.0318996852
 40
0.0407686178
 40
0.0617487507
 40
0.0868811975
 40
0.1487093644
 40
0.2239962165
 40
0.3098846157
 40
0.4030833867
 40
0.5000135799
 40
0.5969401913
 40
0.6901284695
 40
0.7760108701
 40
0.8512992854
 40
0.913127662
 40
0.9382567173
 40
0.9592331928
 40
0.9681008203
 40
0.9758608191
 40
0.9825096326
 40
0.9880511362
 40
0.992499632
 40
0.9958932814
 40
1.0
 40
1.0
 40
1.0
 40
1.0
 10
9.6385510772
 20
-15.9431313678
 30
0.0
 10
9.6382796576
 20
-15.9431313678
 30
0.0
 10
9.6378694567
 20
-15.9426955067
 30
0.0
 10
9.6375306706
 20
-15.9420136762
 30
0.0
 10
9.6372156009
 20
-15.9411747952
 30
0.0
 10
9.6369170752
 20
-15.9401194168
 30
0.0
 10
9.6366213001
 20
-15.938832614
 30
0.0
 10
9.6363349604
 20
-15.9373210097
 30
0.0
 10
9.6359428761
 20
-15.9348658685
 30
0.0
 10
9.635493811
 20
-15.9312588813
 30
0.0
 10
9.634810953
 20
-15.9241567255
 30
0.0
 10
9.634120534
 20
-15.9134530578
 30
0.0
 10
9.6335001289
 20
-15.8987262181
 30
0.0
 10
9.6330575801
 20
-15.8819185487
 30
0.0
 10
9.6327926381
 20
-15.863676777
 30
0.0
 10
9.6327043375
 20
-15.8447037296
 30
0.0
 10
9.6327926844
 20
-15.8257313759
 30
0.0
 10
9.6330576222
 20
-15.8074909313
 30
0.0
 10
9.6335001885
 20
-15.7906842485
 30
0.0
 10
9.6341207016
 20
-15.7759576943
 30
0.0
 10
9.6348110121
 20
-15.7652541265
 30
0.0
 10
9.6354938626
 20
-15.7581524234
 30
0.0
 10
9.6359429141
 20
-15.7545459908
 30
0.0
 10
9.636334979
 20
-15.75209123
 30
0.0
 10
9.6366213083
 20
-15.7505797859
 30
0.0
 10
9.6369170779
 20
-15.7492930582
 30
0.0
 10
9.6372156017
 20
-15.7482376942
 30
0.0
 10
9.6375306705
 20
-15.7473987822
 30
0.0
 10
9.6378694532
 20
-15.746716918
 30
0.0
 10
9.6382796433
 20
-15.7462809741
 30
0.0
 10
9.6385510772
 20
-15.7462809741
 30
0.0
  0
SPLINE
  5
82F
100
AcDbEntity
  8
0
100
AcDbSpline
 62
7
  6
CONTINUOUS
 70
0
 71
3
 72
35
 73
31
 74
0
 42
0.0000001
 43
0.0000001
 44
0.0000000001
 40
0.0
 40
0.0
 40
0.0
 40
0.0
 40
0.0041858492
 40
0.007637234
 40
0.012144167
 40
0.017741989
 40
0.0244435464
 40
0.0322517694
 40
0.0411623946
 40
0.062207017
 40
0.0873781568
 40
0.1492077664
 40
0.2244148917
 40
0.310179136
 40
0.4032348779
 40
0.5000171876
 40
0.5967948766
 40
0.6898367612
 40
0.7755925387
 40
0.8508010394
 40
0.91263107
 40
0.9377987559
 40
0.9588396378
 40
0.9677489344
 40
0.975556368
 40
0.9822575525
 40
0.9878553074
 40
0.9923623669
 40
0.9958139564
 40
1.0
 40
1.0
 40
1.0
 40
1.0
 10
9.6385510773
 20
-15.7462809741
 30
0.0
 10
9.6388283441
 20
-15.7462809741
 30
0.0
 10
9.6392495904
 20
-15.7467165339
 30
0.0
 10
9.6396206658
 20
-15.7473981016
 30
0.0
 10
9.6399707864
 20
-15.7482374626
 30
0.0
 10
9.6403142395
 20
-15.7492932328
 30
0.0
 10
9.6406634075
 20
-15.750580294
 30
0.0
 10
9.6410117294
 20
-15.7520918929
 30
0.0
 10
9.641502654
 20
-15.7545451068
 30
0.0
 10
9.6420928185
 20
-15.7581495289
 30
0.0
 10
9.6430384974
 20
-15.7652442751
 30
0.0
 10
9.6440848089
 20
-15.775940569
 30
0.0
 10
9.6451093546
 20
-15.7906642242
 30
0.0
 10
9.6458926742
 20
-15.8074738697
 30
0.0
 10
9.6463883274
 20
-15.8257238109
 30
0.0
 10
9.6465549612
 20
-15.8447092682
 30
0.0
 10
9.6463882294
 20
-15.8636938059
 30
0.0
 10
9.6458926242
 20
-15.881941963
 30
0.0
 10
9.6451092075
 20
-15.8987502161
 30
0.0
 10
9.6440845718
 20
-15.9134734196
 30
0.0
 10
9.6430383771
 20
-15.924169615
 30
0.0
 10
9.6420927213
 20
-15.9312639124
 30
0.0
 10
9.6415025899
 20
-15.9348677681
 30
0.0
 10
9.6410116982
 20
-15.9373205927
 30
0.0
 10
9.6406633929
 20
-15.9388320259
 30
0.0
 10
9.6403142342
 20
-15.9401190055
 30
0.0
 10
9.6399707851
 20
-15.9411747537
 30
0.0
 10
9.6396206664
 20
-15.9420141377
 30
0.0
 10
9.6392495939
 20
-15.9426957343
 30
0.0
 10
9.6388283569
 20
-15.9431313678
 30
0.0
 10
9.6385510773
 20
-15.9431313678
 30
0.0
  0
SPLINE
  5
830
100
AcDbEntity
  8
0
100
AcDbSpline
 62
7
  6
CONTINUOUS
 70
0
 71
3
 72
33
 73
29
 74
0
 42
0.0000001
 43
0.0000001
 44
0.0000000001
 40
0.0
 40
0.0
 40
0.0
 40
0.0
 40
0.0041671866
 40
0.007607967
 40
0.0121039877
 40
0.0176897782
 40
0.0243771544
 40
0.0410571666
 40
0.062086435
 40
0.0872623534
 40
0.1490721066
 40
0.2243181549
 40
0.3100975643
 40
0.4032136802
 40
0.5000397865
 40
0.5968440355
 40
0.6899254549
 40
0.7756882455
 40
0.8509303337
 40
0.9127401719
 40
0.9379165695
 40
0.9589466345
 40
0.975626534
 40
0.9823132628
 40
0.9878982112
 40
0.992393349
 40
0.9958333654
 40
1.0
 40
1.0
 40
1.0
 40
1.0
 10
9.664084962
 20
-15.7915565647
 30
0.0
 10
9.6642339336
 20
-15.7915565647
 30
0.0
 10
9.6644596678
 20
-15.7917925326
 30
0.0
 10
9.6646558143
 20
-15.792160795
 30
0.0
 10
9.6648404163
 20
-15.7926143364
 30
0.0
 10
9.6650203068
 20
-15.7931844858
 30
0.0
 10
9.6652824659
 20
-15.7941870257
 30
0.0
 10
9.6655924346
 20
-15.7957441357
 30
0.0
 10
9.6659371051
 20
-15.7979661497
 30
0.0
 10
9.6664141806
 20
-15.8017983307
 30
0.0
 10
9.6669358335
 20
-15.8075758245
 30
0.0
 10
9.6674369882
 20
-15.8155266492
 30
0.0
 10
9.6678192505
 20
-15.8246044575
 30
0.0
 10
9.668056109
 20
-15.834458754
 30
0.0
 10
9.668138353
 20
-15.844709678
 30
0.0
 10
9.6680561772
 20
-15.854959364
 30
0.0
 10
9.6678190948
 20
-15.8648110383
 30
0.0
 10
9.6674369062
 20
-15.8738868705
 30
0.0
 10
9.6669358042
 20
-15.8818369648
 30
0.0
 10
9.6664141344
 20
-15.8876143354
 30
0.0
 10
9.66593703
 20
-15.891446562
 30
0.0
 10
9.6655923643
 20
-15.8936686179
 30
0.0
 10
9.6652824199
 20
-15.8952257351
 30
0.0
 10
9.6650202677
 20
-15.896228217
 30
0.0
 10
9.6648403887
 20
-15.8967982832
 30
0.0
 10
9.6646557972
 20
-15.8972517275
 30
0.0
 10
9.6644596516
 20
-15.8976199193
 30
0.0
 10
9.6642339138
 20
-15.8978557773
 30
0.0
 10
9.664084962
 20
-15.8978557773
 30
0.0
  0
ENDSEC
  0
SECTION
  2
OBJECTS
  0
DICTIONARY
  5
C
100
AcDbDictionary
280
0
281
1
  3
ACAD_GROUP
350
D
  3
ACAD_MLINESTYLE
350
17
  3
ACAD_LAYOUT
350
1A
  3
ACAD_PLOTSETTINGS
350
19
  3
ACAD_PLOTSTYLENAME
350
E
  0
DICTIONARY
  5
D
102
{ACAD_REACTORS
330
C
102
}
100
AcDbDictionary
280
0
281
1
  0
ACDBDICTIONARYWDFLT
  5
E
102
{ACAD_REACTORS
330
C
102
}
100
AcDbDictionary
281
1
  3
Normal
350
F
100
AcDbDictionaryWithDefault
340
F
  0
DICTIONARY
  5
17
102
{ACAD_REACTORS
330
C
102
}
100
AcDbDictionary
280
0
281
1
  3
Standard
350
18
  0
DICTIONARY
  5
19
102
{ACAD_REACTORS
330
C
102
}
100
AcDbDictionary
281
1
  0
DICTIONARY
  5
1A
102
{ACAD_REACTORS
330
C
102
}
100
AcDbDictionary
281
1
  3
Model
350
831
  3
Layout1
350
832
  0
ACDBPLACEHOLDER
  5
F
102
{ACAD_REACTORS
330
E
102
}
  0
MLINESTYLE
  5
18
102
{ACAD_REACTORS
330
17
102
}
100
AcDbMlineStyle
  2
STANDARD
 70
0
  3

 62
256
 51
90.0
 52
90.0
 71
2
 49
0.5
 62
256
  6
BYLAYER
 49
-0.5
 62
256
  6
BYLAYER
  0
LAYOUT
  5
831
102
{ACAD_REACTORS
330
1A
102
}
100
AcDbPlotSettings
  1

  2
none_device
  4

  6

 40
0.0
 41
0.0
 42
0.0
 43
0.0
 44
431.8
 45
279.4
 46
0.0
 47
0.0
 48
0.0
 49
0.0
140
0.0
141
0.0
142
1.0
143
1.0
 70
1024
 72
0
 73
0
 74
0
  7

 75
0
147
1.0
148
0.0
149
0.0
100
AcDbLayout
  1
Model
 70
0
 71
0
 10
0.0
 20
0.0
 11
17.0
 21
11.0
 12
0.0
 22
0.0
 32
0.0
 14
0.0
 24
0.0
 34
0.0
 15
0.0
 25
0.0
 35
0.0
146
0.0
 13
0.0
 23
0.0
 33
0.0
 16
1.0
 26
0.0
 36
0.0
 17
0.0
 27
1.0
 37
0.0
 76
0
330
21D
345
0
346
0
  0
LAYOUT
  5
832
102
{ACAD_REACTORS
330
1A
102
}
100
AcDbPlotSettings
  1

  2
none_device
  4

  6

 40
0.0
 41
0.0
 42
0.0
 43
0.0
 44
431.8
 45
279.4
 46
0.0
 47
0.0
 48
0.0
 49
0.0
140
0.0
141
0.0
142
1.0
143
1.0
 70
0
 72
0
 73
0
 74
0
  7

 75
0
147
1.0
148
0.0
149
0.0
100
AcDbLayout
  1
Layout1
 70
0
 71
1
 10
0.0
 20
0.0
 11
17.0
 21
11.0
 12
0.0
 22
0.0
 32
0.0
 14
0.0
 24
0.0
 34
0.0
 15
0.0
 25
0.0
 35
0.0
146
0.0
 13
0.0
 23
0.0
 33
0.0
 16
1.0
 26
0.0
 36
0.0
 17
0.0
 27
1.0
 37
0.0
 76
0
330
21E
345
0
346
0
  0
ENDSEC
  0
EOF
