999
DXF file: N:\Master\master\M3_ProE_files\Lenexa\MADAM DXF\411336.dxf
999
Pro/ENGINEER 2010280 by Parametric Technology Corporation
  0
SECTION
  2
HEADER
  9
$ACADVER
  1
AC1021
  9
$DWGCODEPAGE
  3
ANSI_1252
  9
$EXTMAX
 10
17.0
 20
11.0
 30
0.0
  9
$EXTMIN
 10
0.0
 20
-0.0
 30
0.0
  9
$LIMMIN
 10
0.0
 20
-0.0
  9
$LIMMAX
 10
17.0
 20
11.0
  9
$VIEWCTR
 10
8.5
 20
5.5
  9
$VIEWSIZE
 40
11.0
  9
$CLAYER
  8
0
  9
$LTSCALE
 40
0.935
  9
$CELTYPE
  6
BYLAYER
  9
$DIMSCALE
 40
1.0
  9
$DIMASZ
 40
0.125
  9
$DIMEXO
 40
0.10625
  9
$DIMDLI
 40
0.646
  9
$DIMEXE
 40
0.306
  9
$DIMCEN
 40
0.153
  9
$DIMLFAC
 40
1.0
  9
$DIMBLK
  1
_FILLED
  9
$DIMTXT
 40
0.125
  9
$DIMTOL
 70
1
  9
$DIMLIM
 70
0
  9
$DIMTFAC
 40
1.0
  9
$DIMTP
 40
0.01
  9
$DIMTM
 40
0.01
  9
$PDMODE
 70
3
  9
$PDSIZE
 40
0.3125
  9
$HANDSEED
  5
872
  9
$TILEMODE
 70
1
  9
$MEASUREMENT
 70
0
  9
$INSUNITS
 70
1
  0
ENDSEC
  0
SECTION
  2
CLASSES
  0
CLASS
  1
ACDBDICTIONARYWDFLT
  2
AcDbDictionaryWithDefault
  3
AutoCAD 2000
 90
0
 91
1
280
0
281
0
  0
CLASS
  1
ACDBPLACEHOLDER
  2
AcDbPlaceHolder
  3
AutoCAD 2000
 90
0
 91
1
280
0
281
0
  0
CLASS
  1
LAYOUT
  2
AcDbLayout
  3
AutoCAD 2000
 90
0
 91
0
280
0
281
0
  0
ENDSEC
  0
SECTION
  2
TABLES
  0
TABLE
  2
VPORT
  5
8
100
AcDbSymbolTable
 70
2
  0
VPORT
  5
1F4
100
AcDbSymbolTableRecord
100
AcDbViewportTableRecord
  2
*ACTIVE
 70
0
 10
0.0
 20
0.0
 11
1.0
 21
1.0
 12
8.5
 22
5.5
 13
0.0
 23
0.0
 14
1.0
 24
1.0
 15
0.0
 25
0.0
 16
0.0
 26
0.0
 36
1.0
 17
0.0
 27
0.0
 37
0.0
 40
11.0
 41
1.5454545455
 42
50.0
 43
0.0
 44
0.0
 50
0.0
 51
0.0
 71
0
 72
100
 73
1
 74
1
 75
0
 76
0
 77
0
 78
0
  0
ENDTAB
  0
TABLE
  2
LTYPE
  5
5
100
AcDbSymbolTable
 70
6
  0
LTYPE
  5
14
100
AcDbSymbolTableRecord
100
AcDbLinetypeTableRecord
  2
BYBLOCK
 70
0
  3

 72
65
 73
0
 40
0.0
  0
LTYPE
  5
15
100
AcDbSymbolTableRecord
100
AcDbLinetypeTableRecord
  2
BYLAYER
 70
0
  3

 72
65
 73
0
 40
0.0
  0
LTYPE
  5
16
100
AcDbSymbolTableRecord
100
AcDbLinetypeTableRecord
  2
CONTINUOUS
 70
64
  3
Solid line
 72
65
 73
0
 40
0.0
  0
LTYPE
  5
1F5
100
AcDbSymbolTableRecord
100
AcDbLinetypeTableRecord
  2
CENTER
 70
64
  3
____ _ ____ _ ____ _ ____ _ ____ _ ____ _ ____
 72
65
 73
4
 40
0.6
 49
0.375
 74
0
 49
-0.075
 74
0
 49
0.075
 74
0
 49
-0.075
 74
0
  0
LTYPE
  5
1F6
100
AcDbSymbolTableRecord
100
AcDbLinetypeTableRecord
  2
HIDDEN
 70
64
  3
- - - - - - - - - - - - - - - - - - - -
 72
65
 73
2
 40
0.2
 49
0.1
 74
0
 49
-0.1
 74
0
  0
LTYPE
  5
1F7
100
AcDbSymbolTableRecord
100
AcDbLinetypeTableRecord
  2
PHANTOM
 70
64
  3
_____ _ _ _____ _ _ _____ _ _ _____
 72
65
 73
6
 40
0.8
 49
0.45
 74
0
 49
-0.05
 74
0
 49
0.1
 74
0
 49
-0.05
 74
0
 49
0.1
 74
0
 49
-0.05
 74
0
  0
LTYPE
  5
1F8
100
AcDbSymbolTableRecord
100
AcDbLinetypeTableRecord
  2
DOT
 70
64
  3
. . . . . . . . . . . . . . . . . . . .
 72
65
 73
2
 40
0.2
 49
0.1
 74
0
 49
-0.1
 74
0
  0
LTYPE
  5
1F9
100
AcDbSymbolTableRecord
100
AcDbLinetypeTableRecord
  2
DASHED
 70
64
  3
- - - - - - - - - - - - - - - - - - - -
 72
65
 73
2
 40
0.2
 49
0.1
 74
0
 49
-0.1
 74
0
  0
ENDTAB
  0
TABLE
  2
LAYER
  5
2
100
AcDbSymbolTable
 70
36
  0
LAYER
  5
10
100
AcDbSymbolTableRecord
100
AcDbLayerTableRecord
  2
0
 70
0
 62
7
  6
CONTINUOUS
370
-3
390
F
  0
LAYER
  5
1FA
100
AcDbSymbolTableRecord
100
AcDbLayerTableRecord
  2
DEFAULT_1
 70
0
 62
7
  6
CENTER
370
-3
390
F
  0
LAYER
  5
1FB
100
AcDbSymbolTableRecord
100
AcDbLayerTableRecord
  2
DEFAULT_2
 70
0
 62
8
  6
HIDDEN
370
-3
390
F
  0
LAYER
  5
1FC
100
AcDbSymbolTableRecord
100
AcDbLayerTableRecord
  2
DEFAULT_3
 70
0
 62
7
  6
PHANTOM
370
-3
390
F
  0
LAYER
  5
1FD
100
AcDbSymbolTableRecord
100
AcDbLayerTableRecord
  2
01___PRT_ALL_DTM_PLN
 70
0
 62
7
  6
CONTINUOUS
370
-3
390
F
  0
LAYER
  5
1FE
100
AcDbSymbolTableRecord
100
AcDbLayerTableRecord
  2
01___PRT_DEF_DTM_PLN
 70
0
 62
7
  6
CONTINUOUS
370
-3
390
F
  0
LAYER
  5
1FF
100
AcDbSymbolTableRecord
100
AcDbLayerTableRecord
  2
02___PRT_ALL_AXES
 70
0
 62
7
  6
CONTINUOUS
370
-3
390
F
  0
LAYER
  5
200
100
AcDbSymbolTableRecord
100
AcDbLayerTableRecord
  2
03___PRT_ALL_CURVES
 70
0
 62
7
  6
CONTINUOUS
370
-3
390
F
  0
LAYER
  5
201
100
AcDbSymbolTableRecord
100
AcDbLayerTableRecord
  2
04___PRT_ALL_DTM_PNT
 70
0
 62
7
  6
CONTINUOUS
370
-3
390
F
  0
LAYER
  5
202
100
AcDbSymbolTableRecord
100
AcDbLayerTableRecord
  2
05___PRT_ALL_DTM_CSYS
 70
0
 62
7
  6
CONTINUOUS
370
-3
390
F
  0
LAYER
  5
203
100
AcDbSymbolTableRecord
100
AcDbLayerTableRecord
  2
05___PRT_DEF_DTM_CSYS
 70
0
 62
7
  6
CONTINUOUS
370
-3
390
F
  0
LAYER
  5
204
100
AcDbSymbolTableRecord
100
AcDbLayerTableRecord
  2
06___PRT_ALL_SURFS
 70
0
 62
7
  6
CONTINUOUS
370
-3
390
F
  0
LAYER
  5
205
100
AcDbSymbolTableRecord
100
AcDbLayerTableRecord
  2
1_ALL_PLANES
 70
0
 62
7
  6
CONTINUOUS
370
-3
390
F
  0
LAYER
  5
206
100
AcDbSymbolTableRecord
100
AcDbLayerTableRecord
  2
1__DEF_ASM_PLN
 70
0
 62
7
  6
CONTINUOUS
370
-3
390
F
  0
LAYER
  5
207
100
AcDbSymbolTableRecord
100
AcDbLayerTableRecord
  2
1__DEF_PLANES
 70
0
 62
7
  6
CONTINUOUS
370
-3
390
F
  0
LAYER
  5
208
100
AcDbSymbolTableRecord
100
AcDbLayerTableRecord
  2
2_ALL_CSYS
 70
0
 62
7
  6
CONTINUOUS
370
-3
390
F
  0
LAYER
  5
209
100
AcDbSymbolTableRecord
100
AcDbLayerTableRecord
  2
2__DEF_ASM_CSYS
 70
0
 62
7
  6
CONTINUOUS
370
-3
390
F
  0
LAYER
  5
20A
100
AcDbSymbolTableRecord
100
AcDbLayerTableRecord
  2
2__DEF_CSYS
 70
0
 62
7
  6
CONTINUOUS
370
-3
390
F
  0
LAYER
  5
20B
100
AcDbSymbolTableRecord
100
AcDbLayerTableRecord
  2
3_ALL_AXES
 70
0
 62
7
  6
CONTINUOUS
370
-3
390
F
  0
LAYER
  5
20C
100
AcDbSymbolTableRecord
100
AcDbLayerTableRecord
  2
4_ALL_POINTS
 70
0
 62
7
  6
CONTINUOUS
370
-3
390
F
  0
LAYER
  5
20D
100
AcDbSymbolTableRecord
100
AcDbLayerTableRecord
  2
5_ALL_CURVES
 70
0
 62
7
  6
CONTINUOUS
370
-3
390
F
  0
LAYER
  5
20E
100
AcDbSymbolTableRecord
100
AcDbLayerTableRecord
  2
6_ALL_SURFS
 70
0
 62
7
  6
CONTINUOUS
370
-3
390
F
  0
LAYER
  5
20F
100
AcDbSymbolTableRecord
100
AcDbLayerTableRecord
  2
COSMETIC
 70
0
 62
7
  6
CONTINUOUS
370
-3
390
F
  0
LAYER
  5
210
100
AcDbSymbolTableRecord
100
AcDbLayerTableRecord
  2
LAY0001
 70
0
 62
7
  6
CONTINUOUS
370
-3
390
F
  0
LAYER
  5
211
100
AcDbSymbolTableRecord
100
AcDbLayerTableRecord
  2
XSEC_DATUMS
 70
0
 62
7
  6
CONTINUOUS
370
-3
390
F
  0
ENDTAB
  0
TABLE
  2
STYLE
  5
3
100
AcDbSymbolTable
 70
1
  0
STYLE
  5
11
100
AcDbSymbolTableRecord
100
AcDbTextStyleTableRecord
  2
STANDARD
 70
0
 40
0.0
 41
0.8
 50
0.0
 71
0
 42
0.2
  3
txt
  4

  0
STYLE
  5
212
100
AcDbSymbolTableRecord
100
AcDbTextStyleTableRecord
  2
TEXTSTYLE_1
 70
0
 40
0.0
 41
0.8
 50
0.0
 71
0
 42
0.2
  3
gdt
  4

  0
ENDTAB
  0
TABLE
  2
VIEW
  5
6
100
AcDbSymbolTable
 70
0
  0
ENDTAB
  0
TABLE
  2
UCS
  5
7
100
AcDbSymbolTable
 70
0
  0
ENDTAB
  0
TABLE
  2
APPID
  5
9
100
AcDbSymbolTable
 70
1
  0
APPID
  5
213
100
AcDbSymbolTableRecord
100
AcDbRegAppTableRecord
  2
ACAD
 70
0
  0
ENDTAB
  0
TABLE
  2
BLOCK_RECORD
  5
1
100
AcDbSymbolTable
 70
0
  0
BLOCK_RECORD
  5
214
100
AcDbSymbolTableRecord
100
AcDbBlockTableRecord
  2
*Model_Space
  0
BLOCK_RECORD
  5
215
100
AcDbSymbolTableRecord
100
AcDbBlockTableRecord
  2
*Paper_Space
  0
ENDTAB
  0
TABLE
  2
DIMSTYLE
  5
A
100
AcDbSymbolTable
 70
1
100
AcDbDimStyleTable
 71
0
  0
DIMSTYLE
105
216
100
AcDbSymbolTableRecord
100
AcDbDimStyleTableRecord
  2
STANDARD
 70
0
  3

  4

 40
1.0
 41
0.125
 42
0.0625
 43
0.38
 44
0.18
 45
0.0
 46
0.0
 47
0.01
 48
0.01
140
0.125
141
0.09
142
0.0
143
25.4
144
1.0
145
0.0
146
1.0
147
0.09
 71
1.0
 72
0.0
 73
1
 74
1
 75
0
 76
0
 77
0
 78
4
170
0
171
2
172
0
173
0
174
0
175
0
176
0
177
0
178
0
270
2
271
2
272
2
273
2
274
2
275
0
280
0
281
0
282
0
283
1
284
4
285
0
286
0
287
3
288
0
340
11
  0
ENDTAB
  0
ENDSEC
  0
SECTION
  2
BLOCKS
  0
BLOCK
  5
20
100
AcDbEntity
  8
0
100
AcDbBlockBegin
  2
*Model_Space
 70
0
 10
0.0
 20
0.0
 30
0.0
  3
*Model_Space
  1

  0
ENDBLK
  5
21
100
AcDbEntity
  8
0
100
AcDbBlockEnd
  0
BLOCK
  5
1C
100
AcDbEntity
  8
0
100
AcDbBlockBegin
  2
*Paper_Space
 70
0
 10
0.0
 20
0.0
 30
0.0
  3
*Paper_Space
  1

  0
ENDBLK
  5
1D
100
AcDbEntity
  8
0
100
AcDbBlockEnd
  0
ENDSEC
  0
SECTION
  2
ENTITIES
  0
MTEXT
  5
217
100
AcDbEntity
  8
0
100
AcDbMText
 62
2
  6
CONTINUOUS
  7
STANDARD
 71
1
 72
1
 10
18.6652381326
 20
-6.0658445413
 30
0.0
 11
1.0
 21
0.0
 31
0.0
 44
0.9
  1
411336
 40
2.0
 41
9.6
  0
LINE
  5
218
100
AcDbEntity
  8
0
100
AcDbLine
 62
7
  6
CONTINUOUS
 10
-5.0138538245
 20
11.0636651442
 11
-5.0138538245
 21
9.5872871915
  0
LINE
  5
219
100
AcDbEntity
  8
0
100
AcDbLine
 62
7
  6
CONTINUOUS
 10
-4.935113667
 20
9.5872871915
 11
-4.935113667
 21
7.9620260814
  0
LINE
  5
21A
100
AcDbEntity
  8
0
100
AcDbLine
 62
7
  6
CONTINUOUS
 10
-4.935113667
 20
11.0636651442
 11
-4.935113667
 21
11.3106491109
  0
LINE
  5
21B
100
AcDbEntity
  8
0
100
AcDbLine
 62
7
  6
CONTINUOUS
 10
-3.3507435883
 20
14.5325241442
 11
-2.340113667
 21
15.1047218124
  0
LINE
  5
21C
100
AcDbEntity
  8
0
100
AcDbLine
 62
7
  6
CONTINUOUS
 10
-2.340113667
 20
4.0609879789
 11
5.559886333
 21
4.0609879789
  0
LINE
  5
21D
100
AcDbEntity
  8
0
100
AcDbLine
 62
7
  6
CONTINUOUS
 10
-4.7606845778
 20
11.7762635694
 11
-3.390113667
 21
13.3488163006
  0
LINE
  5
21E
100
AcDbEntity
  8
0
100
AcDbLine
 62
7
  6
CONTINUOUS
 10
-3.3007435883
 20
5.8683895537
 11
-2.340113667
 21
5.5609879789
  0
LINE
  5
21F
100
AcDbEntity
  8
0
100
AcDbLine
 62
7
  6
CONTINUOUS
 10
-3.390113667
 20
13.3488163006
 11
-3.390113667
 21
14.4790194749
  0
LINE
  5
220
100
AcDbEntity
  8
0
100
AcDbLine
 62
7
  6
CONTINUOUS
 10
-3.3507435883
 20
14.5325241442
 11
-3.3507435883
 21
14.4790194749
  0
LINE
  5
221
100
AcDbEntity
  8
0
100
AcDbLine
 62
7
  6
CONTINUOUS
 10
-3.340113667
 20
7.1009879789
 11
-3.340113667
 21
5.9006730182
  0
LINE
  5
222
100
AcDbEntity
  8
0
100
AcDbLine
 62
7
  6
CONTINUOUS
 10
-3.3007435883
 20
5.9006730182
 11
-3.3007435883
 21
5.8683895537
  0
LINE
  5
223
100
AcDbEntity
  8
0
100
AcDbLine
 62
7
  6
CONTINUOUS
 10
-2.340113667
 20
5.5609879789
 11
5.559886333
 21
5.5609879789
  0
LINE
  5
224
100
AcDbEntity
  8
0
100
AcDbLine
 62
7
  6
CONTINUOUS
 10
6.5205162543
 20
5.8683895537
 11
-3.3007435883
 21
5.8683895537
  0
LINE
  5
225
100
AcDbEntity
  8
0
100
AcDbLine
 62
7
  6
CONTINUOUS
 10
6.559886333
 20
5.9006730182
 11
-3.340113667
 21
5.9006730182
  0
LINE
  5
226
100
AcDbEntity
  8
0
100
AcDbLine
 62
7
  6
CONTINUOUS
 10
-2.340113667
 20
5.5609879789
 11
-2.340113667
 21
4.0609879789
  0
LINE
  5
227
100
AcDbEntity
  8
0
100
AcDbLine
 62
7
  6
CONTINUOUS
 10
-2.340113667
 20
15.1047218124
 11
-2.340113667
 21
16.6034619699
  0
LINE
  5
228
100
AcDbEntity
  8
0
100
AcDbLine
 62
7
  6
CONTINUOUS
 10
7.5573388953
 20
7.2609879789
 11
6.559886333
 21
7.1009879789
  0
LINE
  5
229
100
AcDbEntity
  8
0
100
AcDbLine
 62
7
  6
CONTINUOUS
 10
-4.3375662293
 20
7.2609879789
 11
-3.340113667
 21
7.1009879789
  0
LINE
  5
22A
100
AcDbEntity
  8
0
100
AcDbLine
 62
7
  6
CONTINUOUS
 10
-3.340113667
 20
7.1009879789
 11
6.559886333
 21
7.1009879789
  0
LINE
  5
22B
100
AcDbEntity
  8
LAY0001
100
AcDbLine
 62
7
  6
CONTINUOUS
 10
1.3157756723
 20
13.0041471346
 11
1.310280274
 21
13.0006143845
  0
LINE
  5
22C
100
AcDbEntity
  8
LAY0001
100
AcDbLine
 62
7
  6
CONTINUOUS
 10
1.317149518
 20
12.9935488841
 11
1.3212710707
 21
12.9953152592
  0
LINE
  5
22D
100
AcDbEntity
  8
LAY0001
100
AcDbLine
 62
7
  6
CONTINUOUS
 10
1.7430433223
 20
12.9705860031
 11
1.747164875
 21
12.9723523782
  0
LINE
  5
22E
100
AcDbEntity
  8
LAY0001
100
AcDbLine
 62
7
  6
CONTINUOUS
 10
1.3212710707
 20
13.0059135097
 11
1.3157756723
 21
13.0041471346
  0
LINE
  5
22F
100
AcDbEntity
  8
LAY0001
100
AcDbLine
 62
7
  6
CONTINUOUS
 10
1.3350095901
 20
12.9352584978
 11
1.3295141761
 21
12.9334921227
  0
LINE
  5
230
100
AcDbEntity
  8
LAY0001
100
AcDbLine
 62
7
  6
CONTINUOUS
 10
1.6056582221
 20
12.9953152592
 11
1.600162808
 21
12.9935488841
  0
LINE
  5
231
100
AcDbEntity
  8
LAY0001
100
AcDbLine
 62
7
  6
CONTINUOUS
 10
1.5232271683
 20
12.9352584978
 11
1.5177317542
 21
12.9334921227
  0
LINE
  5
232
100
AcDbEntity
  8
LAY0001
100
AcDbLine
 62
7
  6
CONTINUOUS
 10
1.6180228802
 20
12.9334921227
 11
1.6235182628
 21
12.9352584978
  0
LINE
  5
233
100
AcDbEntity
  8
LAY0001
100
AcDbLine
 62
7
  6
CONTINUOUS
 10
1.310280274
 20
13.0006143845
 11
1.3047848678
 21
12.9935488841
  0
LINE
  5
234
100
AcDbEntity
  8
LAY0001
100
AcDbLine
 62
7
  6
CONTINUOUS
 10
1.3418788341
 20
12.9281929969
 11
1.3473742482
 21
12.9352584978
  0
LINE
  5
235
100
AcDbEntity
  8
LAY0001
100
AcDbLine
 62
7
  6
CONTINUOUS
 10
1.3130279653
 20
12.990016134
 11
1.317149518
 21
12.9935488841
  0
LINE
  5
236
100
AcDbEntity
  8
LAY0001
100
AcDbLine
 62
7
  6
CONTINUOUS
 10
1.3391311428
 20
12.9387912492
 11
1.3350095901
 21
12.9352584978
  0
LINE
  5
237
100
AcDbEntity
  8
LAY0001
100
AcDbLine
 62
7
  6
CONTINUOUS
 10
1.527348721
 20
12.9387912492
 11
1.5232271683
 21
12.9352584978
  0
LINE
  5
238
100
AcDbEntity
  8
LAY0001
100
AcDbLine
 62
7
  6
CONTINUOUS
 10
1.600162808
 20
12.9935488841
 11
1.5960412553
 21
12.990016134
  0
LINE
  5
239
100
AcDbEntity
  8
LAY0001
100
AcDbLine
 62
7
  6
CONTINUOUS
 10
1.6235182628
 20
12.9352584978
 11
1.6276398155
 21
12.9387912492
  0
LINE
  5
23A
100
AcDbEntity
  8
LAY0001
100
AcDbLine
 62
7
  6
CONTINUOUS
 10
1.2208534519
 20
12.3127298823
 11
1.2240552
 21
12.3150392915
  0
LINE
  5
23B
100
AcDbEntity
  8
LAY0001
100
AcDbLine
 62
7
  6
CONTINUOUS
 10
1.2416648326
 20
12.2653869866
 11
1.23846308
 21
12.2630775771
  0
LINE
  5
23C
100
AcDbEntity
  8
LAY0001
100
AcDbLine
 62
7
  6
CONTINUOUS
 10
1.3363834358
 20
12.9246602462
 11
1.3418788341
 21
12.9281929969
  0
LINE
  5
23D
100
AcDbEntity
  8
LAY0001
100
AcDbLine
 62
7
  6
CONTINUOUS
 10
1.593293564
 20
13.0006143845
 11
1.5987889467
 21
13.0041471346
  0
LINE
  5
23E
100
AcDbEntity
  8
LAY0001
100
AcDbLine
 62
7
  6
CONTINUOUS
 10
1.5300964123
 20
12.9281929969
 11
1.5246009982
 21
12.9246602462
  0
LINE
  5
23F
100
AcDbEntity
  8
LAY0001
100
AcDbLine
 62
7
  6
CONTINUOUS
 10
1.6303875383
 20
12.9281929969
 11
1.6248921242
 21
12.9246602462
  0
LINE
  5
240
100
AcDbEntity
  8
LAY0001
100
AcDbLine
 62
7
  6
CONTINUOUS
 10
1.7485387049
 20
12.9635205028
 11
1.7540340875
 21
12.967053253
  0
LINE
  5
241
100
AcDbEntity
  8
LAY0001
100
AcDbLine
 62
7
  6
CONTINUOUS
 10
2.0397951161
 20
12.9281929969
 11
2.0342996705
 21
12.9246602462
  0
LINE
  5
242
100
AcDbEntity
  8
LAY0001
100
AcDbLine
 62
7
  6
CONTINUOUS
 10
1.609886333
 20
12.8628777426
 11
1.048862711
 21
12.5872871915
  0
LINE
  5
243
100
AcDbEntity
  8
LAY0001
100
AcDbLine
 62
7
  6
CONTINUOUS
 10
1.2248556393
 20
12.3081110638
 11
1.2280573919
 21
12.3092657684
  0
LINE
  5
244
100
AcDbEntity
  8
LAY0001
100
AcDbLine
 62
7
  6
CONTINUOUS
 10
1.2376626452
 20
12.2700058055
 11
1.2344608926
 21
12.2688511009
  0
LINE
  5
245
100
AcDbEntity
  8
LAY0001
100
AcDbLine
 62
7
  6
CONTINUOUS
 10
1.7051183058
 20
12.3092657684
 11
1.7019165669
 21
12.3081110638
  0
LINE
  5
246
100
AcDbEntity
  8
LAY0001
100
AcDbLine
 62
7
  6
CONTINUOUS
 10
1.8307870612
 20
12.3161939962
 11
1.8275852857
 21
12.3150392915
  0
LINE
  5
247
100
AcDbEntity
  8
LAY0001
100
AcDbLine
 62
7
  6
CONTINUOUS
 10
1.7123222458
 20
12.2688511009
 11
1.7155239846
 21
12.2700058055
  0
LINE
  5
248
100
AcDbEntity
  8
LAY0001
100
AcDbLine
 62
7
  6
CONTINUOUS
 10
1.8387913902
 20
12.2700058055
 11
1.8355896879
 21
12.2688511009
  0
LINE
  5
249
100
AcDbEntity
  8
LAY0001
100
AcDbLine
 62
7
  6
CONTINUOUS
 10
2.0329258406
 20
12.9352584978
 11
2.027430458
 21
12.9334921227
  0
LINE
  5
24A
100
AcDbEntity
  8
03___PRT_ALL_CURVES
100
AcDbLine
 62
4
  6
CONTINUOUS
 10
4.1092537716
 20
13.0152263927
 11
4.1063466562
 21
13.014376294
  0
LINE
  5
24B
100
AcDbEntity
  8
03___PRT_ALL_CURVES
100
AcDbLine
 62
4
  6
CONTINUOUS
 10
4.1367621
 20
12.9812224417
 11
4.1338549846
 21
12.9803723431
  0
LINE
  5
24C
100
AcDbEntity
  8
03___PRT_ALL_CURVES
100
AcDbLine
 62
4
  6
CONTINUOUS
 10
4.2915509481
 20
12.9812224417
 11
4.288643846
 21
12.9803723431
  0
LINE
  5
24D
100
AcDbEntity
  8
03___PRT_ALL_CURVES
100
AcDbLine
 62
4
  6
CONTINUOUS
 10
4.1826422391
 20
12.9446213303
 11
4.1855493557
 21
12.9454714289
  0
LINE
  5
24E
100
AcDbEntity
  8
03___PRT_ALL_CURVES
100
AcDbLine
 62
4
  6
CONTINUOUS
 10
4.4851270121
 20
13.0101258007
 11
4.48221991
 21
13.009275702
  0
LINE
  5
24F
100
AcDbEntity
  8
03___PRT_ALL_CURVES
100
AcDbLine
 62
4
  6
CONTINUOUS
 10
4.2118918774
 20
12.91656807
 11
4.2089847608
 21
12.9157179713
  0
LINE
  5
250
100
AcDbEntity
  8
LAY0001
100
AcDbLine
 62
7
  6
CONTINUOUS
 10
1.2240552
 20
12.3150392915
 11
1.2280573919
 21
12.3161939962
  0
LINE
  5
251
100
AcDbEntity
  8
LAY0001
100
AcDbLine
 62
7
  6
CONTINUOUS
 10
1.23846308
 20
12.2630775771
 11
1.2344608926
 21
12.2619228724
  0
LINE
  5
252
100
AcDbEntity
  8
LAY0001
100
AcDbLine
 62
7
  6
CONTINUOUS
 10
1.7011161047
 20
12.3150392915
 11
1.7051183058
 21
12.3161939962
  0
LINE
  5
253
100
AcDbEntity
  8
LAY0001
100
AcDbLine
 62
7
  6
CONTINUOUS
 10
1.7163244469
 20
12.2630775771
 11
1.7123222458
 21
12.2619228724
  0
LINE
  5
254
100
AcDbEntity
  8
LAY0001
100
AcDbLine
 62
7
  6
CONTINUOUS
 10
1.8355896879
 20
12.2619228724
 11
1.8395918524
 21
12.2630775771
  0
LINE
  5
255
100
AcDbEntity
  8
LAY0001
100
AcDbLine
 62
7
  6
CONTINUOUS
 10
1.9548548923
 20
12.2619228724
 11
1.9588570568
 21
12.2630775771
  0
LINE
  5
256
100
AcDbEntity
  8
0
100
AcDbLine
 62
7
  6
CONTINUOUS
 10
-0.090113667
 20
11.8258376411
 11
-0.090113667
 21
14.1591612072
  0
LINE
  5
257
100
AcDbEntity
  8
0
100
AcDbLine
 62
7
  6
CONTINUOUS
 10
-0.047176667
 20
14.1591612072
 11
-0.047176667
 21
14.1994112072
  0
LINE
  5
258
100
AcDbEntity
  8
0
100
AcDbLine
 62
7
  6
CONTINUOUS
 10
0.098823333
 20
14.2547729823
 11
0.098823333
 21
14.2651414357
  0
LINE
  5
259
100
AcDbEntity
  8
0
100
AcDbLine
 62
7
  6
CONTINUOUS
 10
0.128823333
 20
14.2651414357
 11
0.128823333
 21
14.2547729823
  0
LINE
  5
25A
100
AcDbEntity
  8
0
100
AcDbLine
 62
7
  6
CONTINUOUS
 10
0.274823333
 20
14.1591612072
 11
0.274823333
 21
14.1994112072
  0
LINE
  5
25B
100
AcDbEntity
  8
LAY0001
100
AcDbLine
 62
7
  6
CONTINUOUS
 10
1.3473742482
 20
12.9352584978
 11
1.3501219395
 21
12.9423239994
  0
LINE
  5
25C
100
AcDbEntity
  8
LAY0001
100
AcDbLine
 62
7
  6
CONTINUOUS
 10
1.2208534519
 20
12.3023375374
 11
1.2224543259
 21
12.3058016546
  0
LINE
  5
25D
100
AcDbEntity
  8
LAY0001
100
AcDbLine
 62
7
  6
CONTINUOUS
 10
1.2416648326
 20
12.2757793295
 11
1.2400639586
 21
12.2723152156
  0
LINE
  5
25E
100
AcDbEntity
  8
LAY0001
100
AcDbLine
 62
7
  6
CONTINUOUS
 10
1.3418788341
 20
12.9440903744
 11
1.3391311428
 21
12.9387912492
  0
LINE
  5
25F
100
AcDbEntity
  8
LAY0001
100
AcDbLine
 62
7
  6
CONTINUOUS
 10
1.5300964123
 20
12.9440903744
 11
1.527348721
 21
12.9387912492
  0
LINE
  5
260
100
AcDbEntity
  8
LAY0001
100
AcDbLine
 62
7
  6
CONTINUOUS
 10
1.5960412553
 20
12.990016134
 11
1.593293564
 21
12.9847170038
  0
LINE
  5
261
100
AcDbEntity
  8
LAY0001
100
AcDbLine
 62
7
  6
CONTINUOUS
 10
1.7540340875
 20
12.967053253
 11
1.7581556402
 21
12.9741187533
  0
LINE
  5
262
100
AcDbEntity
  8
LAY0001
100
AcDbLine
 62
7
  6
CONTINUOUS
 10
1.2176516993
 20
12.3081110638
 11
1.2208534519
 21
12.3127298823
  0
LINE
  5
263
100
AcDbEntity
  8
LAY0001
100
AcDbLine
 62
7
  6
CONTINUOUS
 10
1.2448665852
 20
12.2700058055
 11
1.2416648326
 21
12.2653869866
  0
LINE
  5
264
100
AcDbEntity
  8
LAY0001
100
AcDbLine
 62
7
  6
CONTINUOUS
 10
1.5355918264
 20
12.9352584978
 11
1.5300964123
 21
12.9281929969
  0
LINE
  5
265
100
AcDbEntity
  8
LAY0001
100
AcDbLine
 62
7
  6
CONTINUOUS
 10
1.58779815
 20
12.9935488841
 11
1.593293564
 21
13.0006143845
  0
LINE
  5
266
100
AcDbEntity
  8
LAY0001
100
AcDbLine
 62
7
  6
CONTINUOUS
 10
1.6358829209
 20
12.9352584978
 11
1.6303875383
 21
12.9281929969
  0
LINE
  5
267
100
AcDbEntity
  8
LAY0001
100
AcDbLine
 62
7
  6
CONTINUOUS
 10
1.747164875
 20
12.9723523782
 11
1.7499125349
 21
12.9758851284
  0
LINE
  5
268
100
AcDbEntity
  8
LAY0001
100
AcDbLine
 62
7
  6
CONTINUOUS
 10
2.0452904987
 20
12.9352584978
 11
2.0397951161
 21
12.9281929969
  0
LINE
  5
269
100
AcDbEntity
  8
LAY0001
100
AcDbLine
 62
7
  6
CONTINUOUS
 10
1.2224543259
 20
12.3058016546
 11
1.2248556393
 21
12.3081110638
  0
LINE
  5
26A
100
AcDbEntity
  8
LAY0001
100
AcDbLine
 62
7
  6
CONTINUOUS
 10
1.2400639586
 20
12.2723152156
 11
1.2376626452
 21
12.2700058055
  0
LINE
  5
26B
100
AcDbEntity
  8
LAY0001
100
AcDbLine
 62
7
  6
CONTINUOUS
 10
1.7019165669
 20
12.3081110638
 11
1.6995152535
 21
12.3058016546
  0
LINE
  5
26C
100
AcDbEntity
  8
LAY0001
100
AcDbLine
 62
7
  6
CONTINUOUS
 10
1.7155239846
 20
12.2700058055
 11
1.717925298
 21
12.2723152156
  0
LINE
  5
26D
100
AcDbEntity
  8
LAY0001
100
AcDbLine
 62
7
  6
CONTINUOUS
 10
1.8259844346
 20
12.3058016546
 11
1.8283857479
 21
12.3081110638
  0
LINE
  5
26E
100
AcDbEntity
  8
LAY0001
100
AcDbLine
 62
7
  6
CONTINUOUS
 10
1.8411927035
 20
12.2723152156
 11
1.8387913902
 21
12.2700058055
  0
LINE
  5
26F
100
AcDbEntity
  8
LAY0001
100
AcDbLine
 62
7
  6
CONTINUOUS
 10
1.9604579812
 20
12.2723152156
 11
1.9580566679
 21
12.2700058055
  0
LINE
  5
270
100
AcDbEntity
  8
LAY0001
100
AcDbLine
 62
7
  6
CONTINUOUS
 10
2.0370473933
 20
12.9387912492
 11
2.0329258406
 21
12.9352584978
  0
LINE
  5
271
100
AcDbEntity
  8
LAY0001
100
AcDbLine
 62
7
  6
CONTINUOUS
 10
1.6979143658
 20
12.3127298823
 11
1.7011161047
 21
12.3150392915
  0
LINE
  5
272
100
AcDbEntity
  8
LAY0001
100
AcDbLine
 62
7
  6
CONTINUOUS
 10
1.7195261858
 20
12.2653869866
 11
1.7163244469
 21
12.2630775771
  0
LINE
  5
273
100
AcDbEntity
  8
LAY0001
100
AcDbLine
 62
7
  6
CONTINUOUS
 10
1.8275852857
 20
12.3150392915
 11
1.8243835102
 21
12.3127298823
  0
LINE
  5
274
100
AcDbEntity
  8
LAY0001
100
AcDbLine
 62
7
  6
CONTINUOUS
 10
1.8395918524
 20
12.2630775771
 11
1.8427936279
 21
12.2653869866
  0
LINE
  5
275
100
AcDbEntity
  8
LAY0001
100
AcDbLine
 62
7
  6
CONTINUOUS
 10
1.9588570568
 20
12.2630775771
 11
1.9620588323
 21
12.2653869866
  0
LINE
  5
276
100
AcDbEntity
  8
LAY0001
100
AcDbLine
 62
7
  6
CONTINUOUS
 10
1.8283857479
 20
12.3081110638
 11
1.8307870612
 21
12.3092657684
  0
LINE
  5
277
100
AcDbEntity
  8
03___PRT_ALL_CURVES
100
AcDbLine
 62
4
  6
CONTINUOUS
 10
4.1100499851
 20
13.009275702
 11
4.1121112594
 21
13.0101258007
  0
LINE
  5
278
100
AcDbEntity
  8
03___PRT_ALL_CURVES
100
AcDbLine
 62
4
  6
CONTINUOUS
 10
4.3200888212
 20
12.9982244169
 11
4.3221500955
 21
12.9990745156
  0
LINE
  5
279
100
AcDbEntity
  8
03___PRT_ALL_CURVES
100
AcDbLine
 62
4
  6
CONTINUOUS
 10
4.2404297505
 20
12.9335700452
 11
4.2424910248
 21
12.9344201439
  0
LINE
  5
27A
100
AcDbEntity
  8
LAY0001
100
AcDbLine
 62
7
  6
CONTINUOUS
 10
1.9580566679
 20
12.2700058055
 11
1.9548548923
 21
12.2688511009
  0
LINE
  5
27B
100
AcDbEntity
  8
03___PRT_ALL_CURVES
100
AcDbLine
 62
4
  6
CONTINUOUS
 10
4.5094082596
 20
12.9803723431
 11
4.5123154004
 21
12.9812224417
  0
LINE
  5
27C
100
AcDbEntity
  8
0
100
AcDbLine
 62
7
  6
CONTINUOUS
 10
0.609886333
 20
10.166027334
 11
0.609886333
 21
11.0085470489
  0
LINE
  5
27D
100
AcDbEntity
  8
0
100
AcDbLine
 62
7
  6
CONTINUOUS
 10
0.9734491495
 20
12.0046942103
 11
0.9734491495
 21
13.2045955136
  0
LINE
  5
27E
100
AcDbEntity
  8
1_ALL_PLANES
100
AcDbLine
 62
7
  6
CONTINUOUS
 10
0.984886333
 20
12.0422871915
 11
0.984886333
 21
13.132674382
  0
LINE
  5
27F
100
AcDbEntity
  8
LAY0001
100
AcDbLine
 62
7
  6
CONTINUOUS
 10
1.2152503859
 20
12.2977187189
 11
1.2160508252
 21
12.3034922453
  0
LINE
  5
280
100
AcDbEntity
  8
LAY0001
100
AcDbLine
 62
7
  6
CONTINUOUS
 10
1.2472678986
 20
12.280398148
 11
1.2464674593
 21
12.2746246248
  0
LINE
  5
281
100
AcDbEntity
  8
LAY0001
100
AcDbLine
 62
7
  6
CONTINUOUS
 10
1.2200530126
 20
12.2977187189
 11
1.2208534519
 21
12.3023375374
  0
LINE
  5
282
100
AcDbEntity
  8
LAY0001
100
AcDbLine
 62
7
  6
CONTINUOUS
 10
1.2424652719
 20
12.280398148
 11
1.2416648326
 21
12.2757793295
  0
LINE
  5
283
100
AcDbEntity
  8
LAY0001
100
AcDbLine
 62
7
  6
CONTINUOUS
 10
1.3047848678
 20
12.9935488841
 11
1.3034110143
 21
12.9864833838
  0
LINE
  5
284
100
AcDbEntity
  8
LAY0001
100
AcDbLine
 62
7
  6
CONTINUOUS
 10
1.5314702737
 20
12.9511558748
 11
1.5300964123
 21
12.9440903744
  0
LINE
  5
285
100
AcDbEntity
  8
LAY0001
100
AcDbLine
 62
7
  6
CONTINUOUS
 10
1.4041536953
 20
12.3161939962
 11
1.3913467031
 21
12.2619228724
  0
LINE
  5
286
100
AcDbEntity
  8
LAY0001
100
AcDbLine
 62
7
  6
CONTINUOUS
 10
1.3881449459
 20
12.2688511009
 11
1.3993510686
 21
12.3161939962
  0
LINE
  5
287
100
AcDbEntity
  8
LAY0001
100
AcDbLine
 62
7
  6
CONTINUOUS
 10
1.2728819059
 20
12.2676963963
 11
1.2848884726
 21
12.3161939962
  0
LINE
  5
288
100
AcDbEntity
  8
LAY0001
100
AcDbLine
 62
7
  6
CONTINUOUS
 10
1.3116541196
 20
12.9847170038
 11
1.3130279653
 21
12.990016134
  0
LINE
  5
289
100
AcDbEntity
  8
LAY0001
100
AcDbLine
 62
7
  6
CONTINUOUS
 10
1.6276398155
 20
12.9387912492
 11
1.6290136769
 21
12.9440903744
  0
LINE
  5
28A
100
AcDbEntity
  8
LAY0001
100
AcDbLine
 62
7
  6
CONTINUOUS
 10
1.7499125349
 20
12.9758851284
 11
1.7512864277
 21
12.9811842536
  0
LINE
  5
28B
100
AcDbEntity
  8
LAY0001
100
AcDbLine
 62
7
  6
CONTINUOUS
 10
1.2872897859
 20
12.3046469499
 11
1.276083654
 21
12.2619228724
  0
LINE
  5
28C
100
AcDbEntity
  8
LAY0001
100
AcDbLine
 62
7
  6
CONTINUOUS
 10
1.2160508252
 20
12.3034922453
 11
1.2176516993
 21
12.3081110638
  0
LINE
  5
28D
100
AcDbEntity
  8
LAY0001
100
AcDbLine
 62
7
  6
CONTINUOUS
 10
1.2464674593
 20
12.2746246248
 11
1.2448665852
 21
12.2700058055
  0
LINE
  5
28E
100
AcDbEntity
  8
LAY0001
100
AcDbLine
 62
7
  6
CONTINUOUS
 10
1.6931117391
 20
12.3034922453
 11
1.6947126269
 21
12.3081110638
  0
LINE
  5
28F
100
AcDbEntity
  8
LAY0001
100
AcDbLine
 62
7
  6
CONTINUOUS
 10
1.5383395177
 20
12.9423239994
 11
1.5355918264
 21
12.9352584978
  0
LINE
  5
290
100
AcDbEntity
  8
LAY0001
100
AcDbLine
 62
7
  6
CONTINUOUS
 10
1.5850504586
 20
12.9864833838
 11
1.58779815
 21
12.9935488841
  0
LINE
  5
291
100
AcDbEntity
  8
LAY0001
100
AcDbLine
 62
7
  6
CONTINUOUS
 10
2.0480382214
 20
12.9423239994
 11
2.0452904987
 21
12.9352584978
  0
LINE
  5
292
100
AcDbEntity
  8
LAY0001
100
AcDbLine
 62
7
  6
CONTINUOUS
 10
1.5507041757
 20
12.9440903744
 11
1.5685642479
 21
12.9882497589
  0
LINE
  5
293
100
AcDbEntity
  8
LAY0001
100
AcDbLine
 62
7
  6
CONTINUOUS
 10
1.5726858006
 20
12.9847170038
 11
1.5548257284
 21
12.9405576243
  0
LINE
  5
294
100
AcDbEntity
  8
LAY0001
100
AcDbLine
 62
7
  6
CONTINUOUS
 10
1.6995152535
 20
12.3058016546
 11
1.6979143658
 21
12.3023375374
  0
LINE
  5
295
100
AcDbEntity
  8
LAY0001
100
AcDbLine
 62
7
  6
CONTINUOUS
 10
1.8427936279
 20
12.2757793295
 11
1.8411927035
 21
12.2723152156
  0
LINE
  5
296
100
AcDbEntity
  8
LAY0001
100
AcDbLine
 62
7
  6
CONTINUOUS
 10
2.0397951161
 20
12.9440903744
 11
2.0370473933
 21
12.9387912492
  0
LINE
  5
297
100
AcDbEntity
  8
LAY0001
100
AcDbLine
 62
7
  6
CONTINUOUS
 10
1.9187977767
 20
12.5583372695
 11
1.767676517
 21
12.3332169771
  0
LINE
  5
298
100
AcDbEntity
  8
LAY0001
100
AcDbLine
 62
7
  6
CONTINUOUS
 10
1.7298962021
 20
12.3619557461
 11
1.8621272949
 21
12.5583372695
  0
LINE
  5
299
100
AcDbEntity
  8
LAY0001
100
AcDbLine
 62
7
  6
CONTINUOUS
 10
1.6947126269
 20
12.3081110638
 11
1.6979143658
 21
12.3127298823
  0
LINE
  5
29A
100
AcDbEntity
  8
LAY0001
100
AcDbLine
 62
7
  6
CONTINUOUS
 10
1.7227279246
 20
12.2700058055
 11
1.7195261858
 21
12.2653869866
  0
LINE
  5
29B
100
AcDbEntity
  8
LAY0001
100
AcDbLine
 62
7
  6
CONTINUOUS
 10
1.8243835102
 20
12.3127298823
 11
1.8211818079
 21
12.3081110638
  0
LINE
  5
29C
100
AcDbEntity
  8
LAY0001
100
AcDbLine
 62
7
  6
CONTINUOUS
 10
1.8427936279
 20
12.2653869866
 11
1.8459953302
 21
12.2700058055
  0
LINE
  5
29D
100
AcDbEntity
  8
LAY0001
100
AcDbLine
 62
7
  6
CONTINUOUS
 10
1.9620588323
 20
12.2653869866
 11
1.9652606079
 21
12.2700058055
  0
LINE
  5
29E
100
AcDbEntity
  8
03___PRT_ALL_CURVES
100
AcDbLine
 62
4
  6
CONTINUOUS
 10
4.1063466562
 20
13.014376294
 11
4.1039157894
 21
13.0126760967
  0
LINE
  5
29F
100
AcDbEntity
  8
03___PRT_ALL_CURVES
100
AcDbLine
 62
4
  6
CONTINUOUS
 10
4.140465428
 20
12.9761218492
 11
4.1428962941
 21
12.9778220468
  0
LINE
  5
2A0
100
AcDbEntity
  8
03___PRT_ALL_CURVES
100
AcDbLine
 62
4
  6
CONTINUOUS
 10
4.1765080451
 20
12.9480217249
 11
4.1789389138
 21
12.9497219223
  0
LINE
  5
2A1
100
AcDbEntity
  8
03___PRT_ALL_CURVES
100
AcDbLine
 62
4
  6
CONTINUOUS
 10
4.2976851567
 20
12.9778220468
 11
4.2952542833
 21
12.9761218492
  0
LINE
  5
2A2
100
AcDbEntity
  8
03___PRT_ALL_CURVES
100
AcDbLine
 62
4
  6
CONTINUOUS
 10
4.3253771824
 20
12.9948240222
 11
4.3278080559
 21
12.9965242196
  0
LINE
  5
2A3
100
AcDbEntity
  8
03___PRT_ALL_CURVES
100
AcDbLine
 62
4
  6
CONTINUOUS
 10
4.2180260715
 20
12.913167675
 11
4.2155952078
 21
12.9114674775
  0
LINE
  5
2A4
100
AcDbEntity
  8
03___PRT_ALL_CURVES
100
AcDbLine
 62
4
  6
CONTINUOUS
 10
4.2457181021
 20
12.9301696505
 11
4.2481489756
 21
12.9318698478
  0
LINE
  5
2A5
100
AcDbEntity
  8
03___PRT_ALL_CURVES
100
AcDbLine
 62
4
  6
CONTINUOUS
 10
4.4760857016
 20
13.0126760967
 11
4.4785165944
 21
13.014376294
  0
LINE
  5
2A6
100
AcDbEntity
  8
0
100
AcDbLine
 62
7
  6
CONTINUOUS
 10
8.2336260604
 20
9.5872871915
 11
-5.0138533944
 21
9.5872871915
  0
LINE
  5
2A7
100
AcDbEntity
  8
LAY0001
100
AcDbLine
 62
7
  6
CONTINUOUS
 10
1.087630886
 20
12.3332169771
 11
1.087630886
 21
12.5583372695
  0
LINE
  5
2A8
100
AcDbEntity
  8
LAY0001
100
AcDbLine
 62
7
  6
CONTINUOUS
 10
1.1443013678
 20
12.5583372695
 11
1.1443013678
 21
12.4673311918
  0
LINE
  5
2A9
100
AcDbEntity
  8
LAY0001
100
AcDbLine
 62
7
  6
CONTINUOUS
 10
1.1443013678
 20
12.4385924322
 11
1.1443013678
 21
12.3332169771
  0
LINE
  5
2AA
100
AcDbEntity
  8
LAY0001
100
AcDbLine
 62
7
  6
CONTINUOUS
 10
1.1756428808
 20
12.9970816343
 11
1.1756428808
 21
13.0059135097
  0
LINE
  5
2AB
100
AcDbEntity
  8
LAY0001
100
AcDbLine
 62
7
  6
CONTINUOUS
 10
1.1768293726
 20
12.2619228724
 11
1.1768293726
 21
12.3161939962
  0
LINE
  5
2AC
100
AcDbEntity
  8
LAY0001
100
AcDbLine
 62
7
  6
CONTINUOUS
 10
1.1816319993
 20
12.3161939962
 11
1.1816319993
 21
12.2942546051
  0
LINE
  5
2AD
100
AcDbEntity
  8
LAY0001
100
AcDbLine
 62
7
  6
CONTINUOUS
 10
1.1816319993
 20
12.2873263773
 11
1.1816319993
 21
12.2619228724
  0
LINE
  5
2AE
100
AcDbEntity
  8
LAY0001
100
AcDbLine
 62
7
  6
CONTINUOUS
 10
1.1976244958
 20
12.922893871
 11
1.1976244958
 21
12.9970816343
  0
LINE
  5
2AF
100
AcDbEntity
  8
LAY0001
100
AcDbLine
 62
7
  6
CONTINUOUS
 10
1.2040442563
 20
12.2619228724
 11
1.2040442563
 21
12.2873263773
  0
LINE
  5
2B0
100
AcDbEntity
  8
LAY0001
100
AcDbLine
 62
7
  6
CONTINUOUS
 10
1.2040442563
 20
12.2942546051
 11
1.2040442563
 21
12.3161939962
  0
LINE
  5
2B1
100
AcDbEntity
  8
LAY0001
100
AcDbLine
 62
7
  6
CONTINUOUS
 10
1.2058676012
 20
12.9970816343
 11
1.2058676012
 21
12.922893871
  0
LINE
  5
2B2
100
AcDbEntity
  8
LAY0001
100
AcDbLine
 62
7
  6
CONTINUOUS
 10
1.208846883
 20
12.3161939962
 11
1.208846883
 21
12.2619228724
  0
LINE
  5
2B3
100
AcDbEntity
  8
LAY0001
100
AcDbLine
 62
7
  6
CONTINUOUS
 10
1.2152503859
 20
12.280398148
 11
1.2152503859
 21
12.2977187189
  0
LINE
  5
2B4
100
AcDbEntity
  8
LAY0001
100
AcDbLine
 62
7
  6
CONTINUOUS
 10
1.2200530126
 20
12.280398148
 11
1.2200530126
 21
12.2977187189
  0
LINE
  5
2B5
100
AcDbEntity
  8
LAY0001
100
AcDbLine
 62
7
  6
CONTINUOUS
 10
1.2278492162
 20
13.0059135097
 11
1.2278492162
 21
12.9970816343
  0
LINE
  5
2B6
100
AcDbEntity
  8
LAY0001
100
AcDbLine
 62
7
  6
CONTINUOUS
 10
1.2388400208
 20
12.922893871
 11
1.2388400208
 21
13.0059135097
  0
LINE
  5
2B7
100
AcDbEntity
  8
LAY0001
100
AcDbLine
 62
7
  6
CONTINUOUS
 10
1.2424652719
 20
12.2977187189
 11
1.2424652719
 21
12.280398148
  0
LINE
  5
2B8
100
AcDbEntity
  8
LAY0001
100
AcDbLine
 62
7
  6
CONTINUOUS
 10
1.2470831301
 20
12.9953152592
 11
1.2470831301
 21
12.9723523782
  0
LINE
  5
2B9
100
AcDbEntity
  8
LAY0001
100
AcDbLine
 62
7
  6
CONTINUOUS
 10
1.2470831301
 20
12.9617541277
 11
1.2470831301
 21
12.9334921227
  0
LINE
  5
2BA
100
AcDbEntity
  8
LAY0001
100
AcDbLine
 62
7
  6
CONTINUOUS
 10
1.2472678986
 20
12.2977187189
 11
1.2472678986
 21
12.280398148
  0
LINE
  5
2BB
100
AcDbEntity
  8
LAY0001
100
AcDbLine
 62
7
  6
CONTINUOUS
 10
1.2536713993
 20
12.2619228724
 11
1.2536713993
 21
12.3161939962
  0
LINE
  5
2BC
100
AcDbEntity
  8
LAY0001
100
AcDbLine
 62
7
  6
CONTINUOUS
 10
1.2584740259
 20
12.3046469499
 11
1.2584740259
 21
12.2619228724
  0
LINE
  5
2BD
100
AcDbEntity
  8
LAY0001
100
AcDbLine
 62
7
  6
CONTINUOUS
 10
1.2828032508
 20
12.9723523782
 11
1.2828032508
 21
12.9617541277
  0
LINE
  5
2BE
100
AcDbEntity
  8
LAY0001
100
AcDbLine
 62
7
  6
CONTINUOUS
 10
1.2872897859
 20
12.2619228724
 11
1.2872897859
 21
12.3046469499
  0
LINE
  5
2BF
100
AcDbEntity
  8
LAY0001
100
AcDbLine
 62
7
  6
CONTINUOUS
 10
1.288298657
 20
13.0059135097
 11
1.288298657
 21
12.9953152592
  0
LINE
  5
2C0
100
AcDbEntity
  8
LAY0001
100
AcDbLine
 62
7
  6
CONTINUOUS
 10
1.288298657
 20
12.9334921227
 11
1.288298657
 21
12.922893871
  0
LINE
  5
2C1
100
AcDbEntity
  8
LAY0001
100
AcDbLine
 62
7
  6
CONTINUOUS
 10
1.2920924126
 20
12.3161939962
 11
1.2920924126
 21
12.2619228724
  0
LINE
  5
2C2
100
AcDbEntity
  8
LAY0001
100
AcDbLine
 62
7
  6
CONTINUOUS
 10
1.2984959178
 20
12.2619228724
 11
1.2984959178
 21
12.3161939962
  0
LINE
  5
2C3
100
AcDbEntity
  8
LAY0001
100
AcDbLine
 62
7
  6
CONTINUOUS
 10
1.3032985445
 20
12.3092657684
 11
1.3032985445
 21
12.2942546051
  0
LINE
  5
2C4
100
AcDbEntity
  8
LAY0001
100
AcDbLine
 62
7
  6
CONTINUOUS
 10
1.3032985445
 20
12.2873263773
 11
1.3032985445
 21
12.2688511009
  0
LINE
  5
2C5
100
AcDbEntity
  8
LAY0001
100
AcDbLine
 62
7
  6
CONTINUOUS
 10
1.3034110143
 20
12.9864833838
 11
1.3034110143
 21
12.9794178785
  0
LINE
  5
2C6
100
AcDbEntity
  8
LAY0001
100
AcDbLine
 62
7
  6
CONTINUOUS
 10
1.3116541196
 20
12.9811842536
 11
1.3116541196
 21
12.9847170038
  0
LINE
  5
2C7
100
AcDbEntity
  8
LAY0001
100
AcDbLine
 62
7
  6
CONTINUOUS
 10
1.3241099206
 20
12.2942546051
 11
1.3241099206
 21
12.2873263773
  0
LINE
  5
2C8
100
AcDbEntity
  8
LAY0001
100
AcDbLine
 62
7
  6
CONTINUOUS
 10
1.3273116778
 20
12.3161939962
 11
1.3273116778
 21
12.3092657684
  0
LINE
  5
2C9
100
AcDbEntity
  8
LAY0001
100
AcDbLine
 62
7
  6
CONTINUOUS
 10
1.3273116778
 20
12.2688511009
 11
1.3273116778
 21
12.2619228724
  0
LINE
  5
2CA
100
AcDbEntity
  8
LAY0001
100
AcDbLine
 62
7
  6
CONTINUOUS
 10
1.3418788341
 20
12.9493894997
 11
1.3418788341
 21
12.9440903744
  0
LINE
  5
2CB
100
AcDbEntity
  8
LAY0001
100
AcDbLine
 62
7
  6
CONTINUOUS
 10
1.3501219395
 20
12.9423239994
 11
1.3501219395
 21
12.9511558748
  0
LINE
  5
2CC
100
AcDbEntity
  8
LAY0001
100
AcDbLine
 62
7
  6
CONTINUOUS
 10
1.3611127519
 20
12.9970816343
 11
1.3611127519
 21
13.0059135097
  0
LINE
  5
2CD
100
AcDbEntity
  8
LAY0001
100
AcDbLine
 62
7
  6
CONTINUOUS
 10
1.3830943611
 20
12.922893871
 11
1.3830943611
 21
12.9970816343
  0
LINE
  5
2CE
100
AcDbEntity
  8
LAY0001
100
AcDbLine
 62
7
  6
CONTINUOUS
 10
1.3913374664
 20
12.9970816343
 11
1.3913374664
 21
12.922893871
  0
LINE
  5
2CF
100
AcDbEntity
  8
LAY0001
100
AcDbLine
 62
7
  6
CONTINUOUS
 10
1.4087635535
 20
12.3332169771
 11
1.4087635535
 21
12.4385924322
  0
LINE
  5
2D0
100
AcDbEntity
  8
LAY0001
100
AcDbLine
 62
7
  6
CONTINUOUS
 10
1.4087635535
 20
12.4673311918
 11
1.4087635535
 21
12.5583372695
  0
LINE
  5
2D1
100
AcDbEntity
  8
LAY0001
100
AcDbLine
 62
7
  6
CONTINUOUS
 10
1.4105572097
 20
12.2619228724
 11
1.4105572097
 21
12.3161939962
  0
LINE
  5
2D2
100
AcDbEntity
  8
LAY0001
100
AcDbLine
 62
7
  6
CONTINUOUS
 10
1.4133190913
 20
13.0059135097
 11
1.4133190913
 21
12.9970816343
  0
LINE
  5
2D3
100
AcDbEntity
  8
LAY0001
100
AcDbLine
 62
7
  6
CONTINUOUS
 10
1.4153598364
 20
12.3092657684
 11
1.4153598364
 21
12.2942546051
  0
LINE
  5
2D4
100
AcDbEntity
  8
LAY0001
100
AcDbLine
 62
7
  6
CONTINUOUS
 10
1.4153598364
 20
12.2873263773
 11
1.4153598364
 21
12.2688511009
  0
LINE
  5
2D5
100
AcDbEntity
  8
LAY0001
100
AcDbLine
 62
7
  6
CONTINUOUS
 10
1.424309888
 20
12.922893871
 11
1.424309888
 21
13.0059135097
  0
LINE
  5
2D6
100
AcDbEntity
  8
LAY0001
100
AcDbLine
 62
7
  6
CONTINUOUS
 10
1.4325529933
 20
12.9953152592
 11
1.4325529933
 21
12.9723523782
  0
LINE
  5
2D7
100
AcDbEntity
  8
LAY0001
100
AcDbLine
 62
7
  6
CONTINUOUS
 10
1.4325529933
 20
12.9617541277
 11
1.4325529933
 21
12.9334921227
  0
LINE
  5
2D8
100
AcDbEntity
  8
LAY0001
100
AcDbLine
 62
7
  6
CONTINUOUS
 10
1.4361712125
 20
12.2942546051
 11
1.4361712125
 21
12.2873263773
  0
LINE
  5
2D9
100
AcDbEntity
  8
LAY0001
100
AcDbLine
 62
7
  6
CONTINUOUS
 10
1.4393729697
 20
12.3161939962
 11
1.4393729697
 21
12.3092657684
  0
LINE
  5
2DA
100
AcDbEntity
  8
LAY0001
100
AcDbLine
 62
7
  6
CONTINUOUS
 10
1.4393729697
 20
12.2688511009
 11
1.4393729697
 21
12.2619228724
  0
LINE
  5
2DB
100
AcDbEntity
  8
LAY0001
100
AcDbLine
 62
7
  6
CONTINUOUS
 10
1.4457764659
 20
12.2619228724
 11
1.4457764659
 21
12.3161939962
  0
LINE
  5
2DC
100
AcDbEntity
  8
LAY0001
100
AcDbLine
 62
7
  6
CONTINUOUS
 10
1.4505790925
 20
12.3092657684
 11
1.4505790925
 21
12.2619228724
  0
LINE
  5
2DD
100
AcDbEntity
  8
LAY0001
100
AcDbLine
 62
7
  6
CONTINUOUS
 10
1.4654340165
 20
12.5583372695
 11
1.4654340165
 21
12.3332169771
  0
LINE
  5
2DE
100
AcDbEntity
  8
LAY0001
100
AcDbLine
 62
7
  6
CONTINUOUS
 10
1.4682731219
 20
12.9723523782
 11
1.4682731219
 21
12.9617541277
  0
LINE
  5
2DF
100
AcDbEntity
  8
LAY0001
100
AcDbLine
 62
7
  6
CONTINUOUS
 10
1.4729913564
 20
12.2700058055
 11
1.4729913564
 21
12.3161939962
  0
LINE
  5
2E0
100
AcDbEntity
  8
LAY0001
100
AcDbLine
 62
7
  6
CONTINUOUS
 10
1.473768536
 20
13.0059135097
 11
1.473768536
 21
12.9953152592
  0
LINE
  5
2E1
100
AcDbEntity
  8
LAY0001
100
AcDbLine
 62
7
  6
CONTINUOUS
 10
1.473768536
 20
12.9334921227
 11
1.473768536
 21
12.922893871
  0
LINE
  5
2E2
100
AcDbEntity
  8
LAY0001
100
AcDbLine
 62
7
  6
CONTINUOUS
 10
1.4777939831
 20
12.3161939962
 11
1.4777939831
 21
12.2619228724
  0
LINE
  5
2E3
100
AcDbEntity
  8
LAY0001
100
AcDbLine
 62
7
  6
CONTINUOUS
 10
1.4841974792
 20
12.3104204731
 11
1.4841974792
 21
12.3161939962
  0
LINE
  5
2E4
100
AcDbEntity
  8
LAY0001
100
AcDbLine
 62
7
  6
CONTINUOUS
 10
1.4847593327
 20
12.922893871
 11
1.4847593327
 21
13.0059135097
  0
LINE
  5
2E5
100
AcDbEntity
  8
LAY0001
100
AcDbLine
 62
7
  6
CONTINUOUS
 10
1.4930024381
 20
12.9334921227
 11
1.4930024381
 21
12.9953152592
  0
LINE
  5
2E6
100
AcDbEntity
  8
LAY0001
100
AcDbLine
 62
7
  6
CONTINUOUS
 10
1.4970044714
 20
12.2619228724
 11
1.4970044714
 21
12.3104204731
  0
LINE
  5
2E7
100
AcDbEntity
  8
LAY0001
100
AcDbLine
 62
7
  6
CONTINUOUS
 10
1.5018070981
 20
12.3104204731
 11
1.5018070981
 21
12.2619228724
  0
LINE
  5
2E8
100
AcDbEntity
  8
LAY0001
100
AcDbLine
 62
7
  6
CONTINUOUS
 10
1.5146141269
 20
12.3161939962
 11
1.5146141269
 21
12.3104204731
  0
LINE
  5
2E9
100
AcDbEntity
  8
LAY0001
100
AcDbLine
 62
7
  6
CONTINUOUS
 10
1.5210176047
 20
12.2619228724
 11
1.5210176047
 21
12.3161939962
  0
LINE
  5
2EA
100
AcDbEntity
  8
LAY0001
100
AcDbLine
 62
7
  6
CONTINUOUS
 10
1.5258202314
 20
12.3161939962
 11
1.5258202314
 21
12.2619228724
  0
LINE
  5
2EB
100
AcDbEntity
  8
LAY0001
100
AcDbLine
 62
7
  6
CONTINUOUS
 10
1.5314702737
 20
12.9776515035
 11
1.5314702737
 21
12.9511558748
  0
LINE
  5
2EC
100
AcDbEntity
  8
LAY0001
100
AcDbLine
 62
7
  6
CONTINUOUS
 10
1.5322237458
 20
12.2619228724
 11
1.5322237458
 21
12.3161939962
  0
LINE
  5
2ED
100
AcDbEntity
  8
LAY0001
100
AcDbLine
 62
7
  6
CONTINUOUS
 10
1.5370263725
 20
12.3161939962
 11
1.5370263725
 21
12.2688511009
  0
LINE
  5
2EE
100
AcDbEntity
  8
LAY0001
100
AcDbLine
 62
7
  6
CONTINUOUS
 10
1.539713379
 20
12.9776515035
 11
1.539713379
 21
12.9511558748
  0
LINE
  5
2EF
100
AcDbEntity
  8
LAY0001
100
AcDbLine
 62
7
  6
CONTINUOUS
 10
1.5610395058
 20
12.2688511009
 11
1.5610395058
 21
12.2619228724
  0
LINE
  5
2F0
100
AcDbEntity
  8
LAY0001
100
AcDbLine
 62
7
  6
CONTINUOUS
 10
1.5836765973
 20
12.9511558748
 11
1.5836765973
 21
12.9776515035
  0
LINE
  5
2F1
100
AcDbEntity
  8
LAY0001
100
AcDbLine
 62
7
  6
CONTINUOUS
 10
1.5919197027
 20
12.9776515035
 11
1.5919197027
 21
12.9511558748
  0
LINE
  5
2F2
100
AcDbEntity
  8
LAY0001
100
AcDbLine
 62
7
  6
CONTINUOUS
 10
1.6058640336
 20
12.3104204731
 11
1.6058640336
 21
12.3161939962
  0
LINE
  5
2F3
100
AcDbEntity
  8
LAY0001
100
AcDbLine
 62
7
  6
CONTINUOUS
 10
1.6186710258
 20
12.2619228724
 11
1.6186710258
 21
12.3104204731
  0
LINE
  5
2F4
100
AcDbEntity
  8
LAY0001
100
AcDbLine
 62
7
  6
CONTINUOUS
 10
1.6234736525
 20
12.3104204731
 11
1.6234736525
 21
12.2619228724
  0
LINE
  5
2F5
100
AcDbEntity
  8
LAY0001
100
AcDbLine
 62
7
  6
CONTINUOUS
 10
1.6362806447
 20
12.3161939962
 11
1.6362806447
 21
12.3104204731
  0
LINE
  5
2F6
100
AcDbEntity
  8
LAY0001
100
AcDbLine
 62
7
  6
CONTINUOUS
 10
1.6426841591
 20
12.2619228724
 11
1.6426841591
 21
12.3161939962
  0
LINE
  5
2F7
100
AcDbEntity
  8
LAY0001
100
AcDbLine
 62
7
  6
CONTINUOUS
 10
1.6474867858
 20
12.3161939962
 11
1.6474867858
 21
12.2619228724
  0
LINE
  5
2F8
100
AcDbEntity
  8
LAY0001
100
AcDbLine
 62
7
  6
CONTINUOUS
 10
1.6482475789
 20
12.922893871
 11
1.6482475789
 21
13.0059135097
  0
LINE
  5
2F9
100
AcDbEntity
  8
LAY0001
100
AcDbLine
 62
7
  6
CONTINUOUS
 10
1.6538903002
 20
12.2619228724
 11
1.6538903002
 21
12.3161939962
  0
LINE
  5
2FA
100
AcDbEntity
  8
LAY0001
100
AcDbLine
 62
7
  6
CONTINUOUS
 10
1.6564906843
 20
12.9953152592
 11
1.6564906843
 21
12.9723523782
  0
LINE
  5
2FB
100
AcDbEntity
  8
LAY0001
100
AcDbLine
 62
7
  6
CONTINUOUS
 10
1.6564906843
 20
12.9617541277
 11
1.6564906843
 21
12.9334921227
  0
LINE
  5
2FC
100
AcDbEntity
  8
LAY0001
100
AcDbLine
 62
7
  6
CONTINUOUS
 10
1.6586929269
 20
12.3092657684
 11
1.6586929269
 21
12.2619228724
  0
LINE
  5
2FD
100
AcDbEntity
  8
LAY0001
100
AcDbLine
 62
7
  6
CONTINUOUS
 10
1.6811051724
 20
12.2700058055
 11
1.6811051724
 21
12.3161939962
  0
LINE
  5
2FE
100
AcDbEntity
  8
LAY0001
100
AcDbLine
 62
7
  6
CONTINUOUS
 10
1.6859077991
 20
12.3161939962
 11
1.6859077991
 21
12.2619228724
  0
LINE
  5
2FF
100
AcDbEntity
  8
LAY0001
100
AcDbLine
 62
7
  6
CONTINUOUS
 10
1.6923113135
 20
12.2977187189
 11
1.6931117391
 21
12.3034922453
  0
LINE
  5
300
100
AcDbEntity
  8
LAY0001
100
AcDbLine
 62
7
  6
CONTINUOUS
 10
1.539713379
 20
12.9511558748
 11
1.5383395177
 21
12.9423239994
  0
LINE
  5
301
100
AcDbEntity
  8
LAY0001
100
AcDbLine
 62
7
  6
CONTINUOUS
 10
1.5836765973
 20
12.9776515035
 11
1.5850504586
 21
12.9864833838
  0
LINE
  5
302
100
AcDbEntity
  8
LAY0001
100
AcDbLine
 62
7
  6
CONTINUOUS
 10
1.6372567823
 20
12.9440903744
 11
1.6358829209
 21
12.9352584978
  0
LINE
  5
303
100
AcDbEntity
  8
LAY0001
100
AcDbLine
 62
7
  6
CONTINUOUS
 10
2.0494120514
 20
12.9511558748
 11
2.0480382214
 21
12.9423239994
  0
LINE
  5
304
100
AcDbEntity
  8
LAY0001
100
AcDbLine
 62
7
  6
CONTINUOUS
 10
1.6979143658
 20
12.3023375374
 11
1.6971139402
 21
12.2977187189
  0
LINE
  5
305
100
AcDbEntity
  8
LAY0001
100
AcDbLine
 62
7
  6
CONTINUOUS
 10
1.7235283869
 20
12.2746246248
 11
1.7227279246
 21
12.2700058055
  0
LINE
  5
306
100
AcDbEntity
  8
LAY0001
100
AcDbLine
 62
7
  6
CONTINUOUS
 10
1.8211818079
 20
12.3081110638
 11
1.8203813457
 21
12.3034922453
  0
LINE
  5
307
100
AcDbEntity
  8
LAY0001
100
AcDbLine
 62
7
  6
CONTINUOUS
 10
1.9628592945
 20
12.280398148
 11
1.9620588323
 21
12.2757793295
  0
LINE
  5
308
100
AcDbEntity
  8
LAY0001
100
AcDbLine
 62
7
  6
CONTINUOUS
 10
1.593293564
 20
12.9847170038
 11
1.5919197027
 21
12.9776515035
  0
LINE
  5
309
100
AcDbEntity
  8
LAY0001
100
AcDbLine
 62
7
  6
CONTINUOUS
 10
2.041168946
 20
12.9511558748
 11
2.0397951161
 21
12.9440903744
  0
LINE
  5
30A
100
AcDbEntity
  8
LAY0001
100
AcDbLine
 62
7
  6
CONTINUOUS
 10
1.5762478114
 20
12.280398148
 11
1.5834517514
 21
12.3115751777
  0
LINE
  5
30B
100
AcDbEntity
  8
LAY0001
100
AcDbLine
 62
7
  6
CONTINUOUS
 10
1.5754473858
 20
12.2757793295
 11
1.5722456469
 21
12.2619228724
  0
LINE
  5
30C
100
AcDbEntity
  8
LAY0001
100
AcDbLine
 62
7
  6
CONTINUOUS
 10
1.717925298
 20
12.2723152156
 11
1.7187257602
 21
12.2757793295
  0
LINE
  5
30D
100
AcDbEntity
  8
LAY0001
100
AcDbLine
 62
7
  6
CONTINUOUS
 10
1.8251839724
 20
12.3023375374
 11
1.8259844346
 21
12.3058016546
  0
LINE
  5
30E
100
AcDbEntity
  8
LAY0001
100
AcDbLine
 62
7
  6
CONTINUOUS
 10
1.5674430202
 20
12.2619228724
 11
1.5802500125
 21
12.3161939962
  0
LINE
  5
30F
100
AcDbEntity
  8
LAY0001
100
AcDbLine
 62
7
  6
CONTINUOUS
 10
1.7581556402
 20
12.9741187533
 11
1.7595295331
 21
12.9794178785
  0
LINE
  5
310
100
AcDbEntity
  8
LAY0001
100
AcDbLine
 62
7
  6
CONTINUOUS
 10
1.8459953302
 20
12.2700058055
 11
1.8475962546
 21
12.2746246248
  0
LINE
  5
311
100
AcDbEntity
  8
LAY0001
100
AcDbLine
 62
7
  6
CONTINUOUS
 10
1.9652606079
 20
12.2700058055
 11
1.966861459
 21
12.2746246248
  0
LINE
  5
312
100
AcDbEntity
  8
LAY0001
100
AcDbLine
 62
7
  6
CONTINUOUS
 10
1.9620588323
 20
12.2757793295
 11
1.9604579812
 21
12.2723152156
  0
LINE
  5
313
100
AcDbEntity
  8
03___PRT_ALL_CURVES
100
AcDbLine
 62
4
  6
CONTINUOUS
 10
4.1084649582
 20
13.0075755046
 11
4.1100499851
 21
13.009275702
  0
LINE
  5
314
100
AcDbEntity
  8
03___PRT_ALL_CURVES
100
AcDbLine
 62
4
  6
CONTINUOUS
 10
4.138347126
 20
12.9829226397
 11
4.1367621
 21
12.9812224417
  0
LINE
  5
315
100
AcDbEntity
  8
03___PRT_ALL_CURVES
100
AcDbLine
 62
4
  6
CONTINUOUS
 10
4.5184495703
 20
12.9778220468
 11
4.5160187163
 21
12.9761218492
  0
LINE
  5
316
100
AcDbEntity
  8
0
100
AcDbLine
 62
7
  6
CONTINUOUS
 10
3.403642792
 20
10.0853186875
 11
4.348381526
 21
10.0853186875
  0
LINE
  5
317
100
AcDbEntity
  8
0
100
AcDbLine
 62
7
  6
CONTINUOUS
 10
0.6886263559
 20
10.0872871915
 11
2.5311463101
 21
10.0872871915
  0
LINE
  5
318
100
AcDbEntity
  8
0
100
AcDbLine
 62
7
  6
CONTINUOUS
 10
3.4604829867
 20
10.1443738056
 11
4.2942344033
 21
10.1443738056
  0
LINE
  5
319
100
AcDbEntity
  8
0
100
AcDbLine
 62
7
  6
CONTINUOUS
 10
3.4604829867
 20
10.2747695816
 11
4.2942344033
 21
10.2747695816
  0
LINE
  5
31A
100
AcDbEntity
  8
0
100
AcDbLine
 62
7
  6
CONTINUOUS
 10
3.4604829867
 20
10.294454621
 11
4.2942344033
 21
10.294454621
  0
LINE
  5
31B
100
AcDbEntity
  8
LAY0001
100
AcDbLine
 62
7
  6
CONTINUOUS
 10
1.2208534519
 20
12.2757793295
 11
1.2200530126
 21
12.280398148
  0
LINE
  5
31C
100
AcDbEntity
  8
LAY0001
100
AcDbLine
 62
7
  6
CONTINUOUS
 10
1.2416648326
 20
12.3023375374
 11
1.2424652719
 21
12.2977187189
  0
LINE
  5
31D
100
AcDbEntity
  8
LAY0001
100
AcDbLine
 62
7
  6
CONTINUOUS
 10
1.2160508252
 20
12.2746246248
 11
1.2152503859
 21
12.280398148
  0
LINE
  5
31E
100
AcDbEntity
  8
LAY0001
100
AcDbLine
 62
7
  6
CONTINUOUS
 10
1.2464674593
 20
12.3034922453
 11
1.2472678986
 21
12.2977187189
  0
LINE
  5
31F
100
AcDbEntity
  8
LAY0001
100
AcDbLine
 62
7
  6
CONTINUOUS
 10
1.6922108286
 20
12.9723523782
 11
1.6922108286
 21
12.9617541277
  0
LINE
  5
320
100
AcDbEntity
  8
LAY0001
100
AcDbLine
 62
7
  6
CONTINUOUS
 10
1.6923113135
 20
12.280398148
 11
1.6923113135
 21
12.2977187189
  0
LINE
  5
321
100
AcDbEntity
  8
LAY0001
100
AcDbLine
 62
7
  6
CONTINUOUS
 10
1.6971139402
 20
12.2977187189
 11
1.6971139402
 21
12.280398148
  0
LINE
  5
322
100
AcDbEntity
  8
LAY0001
100
AcDbLine
 62
7
  6
CONTINUOUS
 10
1.6977062112
 20
13.0059135097
 11
1.6977062112
 21
12.9953152592
  0
LINE
  5
323
100
AcDbEntity
  8
LAY0001
100
AcDbLine
 62
7
  6
CONTINUOUS
 10
1.6977062112
 20
12.9334921227
 11
1.6977062112
 21
12.922893871
  0
LINE
  5
324
100
AcDbEntity
  8
LAY0001
100
AcDbLine
 62
7
  6
CONTINUOUS
 10
1.7086970079
 20
13.0059135097
 11
1.7086970079
 21
12.922893871
  0
LINE
  5
325
100
AcDbEntity
  8
LAY0001
100
AcDbLine
 62
7
  6
CONTINUOUS
 10
1.7115218202
 20
12.2850169681
 11
1.7115218202
 21
12.2919451958
  0
LINE
  5
326
100
AcDbEntity
  8
LAY0001
100
AcDbLine
 62
7
  6
CONTINUOUS
 10
1.7169401133
 20
12.9970816343
 11
1.7169401133
 21
12.9705860031
  0
LINE
  5
327
100
AcDbEntity
  8
LAY0001
100
AcDbLine
 62
7
  6
CONTINUOUS
 10
1.7169401133
 20
12.922893871
 11
1.7169401133
 21
12.9599877526
  0
LINE
  5
328
100
AcDbEntity
  8
LAY0001
100
AcDbLine
 62
7
  6
CONTINUOUS
 10
1.7187257602
 20
12.2757793295
 11
1.7187257602
 21
12.2850169681
  0
LINE
  5
329
100
AcDbEntity
  8
LAY0001
100
AcDbLine
 62
7
  6
CONTINUOUS
 10
1.7235283869
 20
12.2919451958
 11
1.7235283869
 21
12.2746246248
  0
LINE
  5
32A
100
AcDbEntity
  8
LAY0001
100
AcDbLine
 62
7
  6
CONTINUOUS
 10
1.7512864277
 20
12.9811842536
 11
1.7512864277
 21
12.9864833838
  0
LINE
  5
32B
100
AcDbEntity
  8
LAY0001
100
AcDbLine
 62
7
  6
CONTINUOUS
 10
1.7595295331
 20
12.9794178785
 11
1.7595295331
 21
12.9864833838
  0
LINE
  5
32C
100
AcDbEntity
  8
LAY0001
100
AcDbLine
 62
7
  6
CONTINUOUS
 10
1.768352878
 20
12.2619228724
 11
1.768352878
 21
12.3161939962
  0
LINE
  5
32D
100
AcDbEntity
  8
LAY0001
100
AcDbLine
 62
7
  6
CONTINUOUS
 10
1.7718941911
 20
12.9970816343
 11
1.7718941911
 21
13.0059135097
  0
LINE
  5
32E
100
AcDbEntity
  8
LAY0001
100
AcDbLine
 62
7
  6
CONTINUOUS
 10
1.7731555046
 20
12.3161939962
 11
1.7731555046
 21
12.2619228724
  0
LINE
  5
32F
100
AcDbEntity
  8
LAY0001
100
AcDbLine
 62
7
  6
CONTINUOUS
 10
1.7795590191
 20
12.2619228724
 11
1.7795590191
 21
12.3161939962
  0
LINE
  5
330
100
AcDbEntity
  8
LAY0001
100
AcDbLine
 62
7
  6
CONTINUOUS
 10
1.7843616457
 20
12.3092657684
 11
1.7843616457
 21
12.2619228724
  0
LINE
  5
331
100
AcDbEntity
  8
LAY0001
100
AcDbLine
 62
7
  6
CONTINUOUS
 10
1.7938757845
 20
12.922893871
 11
1.7938757845
 21
12.9970816343
  0
LINE
  5
332
100
AcDbEntity
  8
LAY0001
100
AcDbLine
 62
7
  6
CONTINUOUS
 10
1.8021188899
 20
12.9970816343
 11
1.8021188899
 21
12.922893871
  0
LINE
  5
333
100
AcDbEntity
  8
LAY0001
100
AcDbLine
 62
7
  6
CONTINUOUS
 10
1.8067739279
 20
12.2700058055
 11
1.8067739279
 21
12.3161939962
  0
LINE
  5
334
100
AcDbEntity
  8
LAY0001
100
AcDbLine
 62
7
  6
CONTINUOUS
 10
1.8115765546
 20
12.3161939962
 11
1.8115765546
 21
12.2619228724
  0
LINE
  5
335
100
AcDbEntity
  8
LAY0001
100
AcDbLine
 62
7
  6
CONTINUOUS
 10
1.8203813457
 20
12.3034922453
 11
1.8203813457
 21
12.2988734236
  0
LINE
  5
336
100
AcDbEntity
  8
LAY0001
100
AcDbLine
 62
7
  6
CONTINUOUS
 10
1.8241004833
 20
13.0059135097
 11
1.8241004833
 21
12.9970816343
  0
LINE
  5
337
100
AcDbEntity
  8
LAY0001
100
AcDbLine
 62
7
  6
CONTINUOUS
 10
1.8251839724
 20
12.3000281282
 11
1.8251839724
 21
12.3023375374
  0
LINE
  5
338
100
AcDbEntity
  8
LAY0001
100
AcDbLine
 62
7
  6
CONTINUOUS
 10
1.8350913114
 20
12.922893871
 11
1.8350913114
 21
13.0059135097
  0
LINE
  5
339
100
AcDbEntity
  8
LAY0001
100
AcDbLine
 62
7
  6
CONTINUOUS
 10
1.8427936279
 20
12.2792434433
 11
1.8427936279
 21
12.2757793295
  0
LINE
  5
33A
100
AcDbEntity
  8
LAY0001
100
AcDbLine
 62
7
  6
CONTINUOUS
 10
1.8433344168
 20
13.0059135097
 11
1.8433344168
 21
12.922893871
  0
LINE
  5
33B
100
AcDbEntity
  8
LAY0001
100
AcDbLine
 62
7
  6
CONTINUOUS
 10
1.8475962546
 20
12.2746246248
 11
1.8475962546
 21
12.280398148
  0
LINE
  5
33C
100
AcDbEntity
  8
LAY0001
100
AcDbLine
 62
7
  6
CONTINUOUS
 10
1.8539997324
 20
12.3104204731
 11
1.8539997324
 21
12.3161939962
  0
LINE
  5
33D
100
AcDbEntity
  8
LAY0001
100
AcDbLine
 62
7
  6
CONTINUOUS
 10
1.854325245
 20
12.922893871
 11
1.854325245
 21
13.0059135097
  0
LINE
  5
33E
100
AcDbEntity
  8
LAY0001
100
AcDbLine
 62
7
  6
CONTINUOUS
 10
1.8625683503
 20
12.9953152592
 11
1.8625683503
 21
12.9723523782
  0
LINE
  5
33F
100
AcDbEntity
  8
LAY0001
100
AcDbLine
 62
7
  6
CONTINUOUS
 10
1.8625683503
 20
12.9617541277
 11
1.8625683503
 21
12.922893871
  0
LINE
  5
340
100
AcDbEntity
  8
LAY0001
100
AcDbLine
 62
7
  6
CONTINUOUS
 10
1.8668067612
 20
12.2619228724
 11
1.8668067612
 21
12.3104204731
  0
LINE
  5
341
100
AcDbEntity
  8
LAY0001
100
AcDbLine
 62
7
  6
CONTINUOUS
 10
1.8716093879
 20
12.3104204731
 11
1.8716093879
 21
12.2619228724
  0
LINE
  5
342
100
AcDbEntity
  8
LAY0001
100
AcDbLine
 62
7
  6
CONTINUOUS
 10
1.8844163435
 20
12.3161939962
 11
1.8844163435
 21
12.3104204731
  0
LINE
  5
343
100
AcDbEntity
  8
LAY0001
100
AcDbLine
 62
7
  6
CONTINUOUS
 10
1.8908198946
 20
12.2619228724
 11
1.8908198946
 21
12.3161939962
  0
LINE
  5
344
100
AcDbEntity
  8
LAY0001
100
AcDbLine
 62
7
  6
CONTINUOUS
 10
1.8956225212
 20
12.3161939962
 11
1.8956225212
 21
12.2619228724
  0
LINE
  5
345
100
AcDbEntity
  8
LAY0001
100
AcDbLine
 62
7
  6
CONTINUOUS
 10
1.8982884317
 20
12.9723523782
 11
1.8982884317
 21
12.9617541277
  0
LINE
  5
346
100
AcDbEntity
  8
LAY0001
100
AcDbLine
 62
7
  6
CONTINUOUS
 10
1.902025999
 20
12.3104204731
 11
1.902025999
 21
12.3161939962
  0
LINE
  5
347
100
AcDbEntity
  8
LAY0001
100
AcDbLine
 62
7
  6
CONTINUOUS
 10
1.9037838773
 20
13.0059135097
 11
1.9037838773
 21
12.9953152592
  0
LINE
  5
348
100
AcDbEntity
  8
LAY0001
100
AcDbLine
 62
7
  6
CONTINUOUS
 10
1.9147746425
 20
12.922893871
 11
1.9147746425
 21
13.0059135097
  0
LINE
  5
349
100
AcDbEntity
  8
LAY0001
100
AcDbLine
 62
7
  6
CONTINUOUS
 10
1.9148330279
 20
12.2619228724
 11
1.9148330279
 21
12.3104204731
  0
LINE
  5
34A
100
AcDbEntity
  8
LAY0001
100
AcDbLine
 62
7
  6
CONTINUOUS
 10
1.9196356545
 20
12.3104204731
 11
1.9196356545
 21
12.2619228724
  0
LINE
  5
34B
100
AcDbEntity
  8
LAY0001
100
AcDbLine
 62
7
  6
CONTINUOUS
 10
1.9230177479
 20
13.0059135097
 11
1.9230177479
 21
12.922893871
  0
LINE
  5
34C
100
AcDbEntity
  8
LAY0001
100
AcDbLine
 62
7
  6
CONTINUOUS
 10
1.9324426101
 20
12.3161939962
 11
1.9324426101
 21
12.3104204731
  0
LINE
  5
34D
100
AcDbEntity
  8
LAY0001
100
AcDbLine
 62
7
  6
CONTINUOUS
 10
1.934008576
 20
12.922893871
 11
1.934008576
 21
13.0059135097
  0
LINE
  5
34E
100
AcDbEntity
  8
LAY0001
100
AcDbLine
 62
7
  6
CONTINUOUS
 10
1.9388461612
 20
12.3161939962
 11
1.9388461612
 21
12.280398148
  0
LINE
  5
34F
100
AcDbEntity
  8
LAY0001
100
AcDbLine
 62
7
  6
CONTINUOUS
 10
1.9422516814
 20
12.9953152592
 11
1.9422516814
 21
12.9723523782
  0
LINE
  5
350
100
AcDbEntity
  8
LAY0001
100
AcDbLine
 62
7
  6
CONTINUOUS
 10
1.9422516814
 20
12.9617541277
 11
1.9422516814
 21
12.9334921227
  0
LINE
  5
351
100
AcDbEntity
  8
LAY0001
100
AcDbLine
 62
7
  6
CONTINUOUS
 10
1.9436487879
 20
12.280398148
 11
1.9436487879
 21
12.3161939962
  0
LINE
  5
352
100
AcDbEntity
  8
LAY0001
100
AcDbLine
 62
7
  6
CONTINUOUS
 10
1.9628592945
 20
12.3161939962
 11
1.9628592945
 21
12.280398148
  0
LINE
  5
353
100
AcDbEntity
  8
LAY0001
100
AcDbLine
 62
7
  6
CONTINUOUS
 10
1.9676619212
 20
12.280398148
 11
1.9676619212
 21
12.3161939962
  0
LINE
  5
354
100
AcDbEntity
  8
LAY0001
100
AcDbLine
 62
7
  6
CONTINUOUS
 10
1.974065399
 20
12.3104204731
 11
1.974065399
 21
12.3161939962
  0
LINE
  5
355
100
AcDbEntity
  8
LAY0001
100
AcDbLine
 62
7
  6
CONTINUOUS
 10
1.9779718257
 20
12.9723523782
 11
1.9779718257
 21
12.9617541277
  0
LINE
  5
356
100
AcDbEntity
  8
LAY0001
100
AcDbLine
 62
7
  6
CONTINUOUS
 10
1.9834672083
 20
13.0059135097
 11
1.9834672083
 21
12.9953152592
  0
LINE
  5
357
100
AcDbEntity
  8
LAY0001
100
AcDbLine
 62
7
  6
CONTINUOUS
 10
1.9834672083
 20
12.9334921227
 11
1.9834672083
 21
12.922893871
  0
LINE
  5
358
100
AcDbEntity
  8
LAY0001
100
AcDbLine
 62
7
  6
CONTINUOUS
 10
1.9868724279
 20
12.2619228724
 11
1.9868724279
 21
12.3104204731
  0
LINE
  5
359
100
AcDbEntity
  8
LAY0001
100
AcDbLine
 62
7
  6
CONTINUOUS
 10
1.9916750545
 20
12.3104204731
 11
1.9916750545
 21
12.2619228724
  0
LINE
  5
35A
100
AcDbEntity
  8
LAY0001
100
AcDbLine
 62
7
  6
CONTINUOUS
 10
1.9943584065
 20
12.3332169771
 11
1.9943584065
 21
12.486490368
  0
LINE
  5
35B
100
AcDbEntity
  8
LAY0001
100
AcDbLine
 62
7
  6
CONTINUOUS
 10
1.9943584065
 20
12.5343883039
 11
1.9943584065
 21
12.5583372695
  0
LINE
  5
35C
100
AcDbEntity
  8
LAY0001
100
AcDbLine
 62
7
  6
CONTINUOUS
 10
1.9944580365
 20
12.922893871
 11
1.9944580365
 21
13.0059135097
  0
LINE
  5
35D
100
AcDbEntity
  8
LAY0001
100
AcDbLine
 62
7
  6
CONTINUOUS
 10
2.0027011418
 20
12.9334921227
 11
2.0027011418
 21
12.9953152592
  0
LINE
  5
35E
100
AcDbEntity
  8
LAY0001
100
AcDbLine
 62
7
  6
CONTINUOUS
 10
2.0044820101
 20
12.3161939962
 11
2.0044820101
 21
12.3104204731
  0
LINE
  5
35F
100
AcDbEntity
  8
LAY0001
100
AcDbLine
 62
7
  6
CONTINUOUS
 10
2.0108855612
 20
12.2619228724
 11
2.0108855612
 21
12.3161939962
  0
LINE
  5
360
100
AcDbEntity
  8
LAY0001
100
AcDbLine
 62
7
  6
CONTINUOUS
 10
2.0156881878
 20
12.3092657684
 11
2.0156881878
 21
12.2942546051
  0
LINE
  5
361
100
AcDbEntity
  8
LAY0001
100
AcDbLine
 62
7
  6
CONTINUOUS
 10
2.0156881878
 20
12.2873263773
 11
2.0156881878
 21
12.2688511009
  0
LINE
  5
362
100
AcDbEntity
  8
LAY0001
100
AcDbLine
 62
7
  6
CONTINUOUS
 10
2.0364995456
 20
12.2942546051
 11
2.0364995456
 21
12.2873263773
  0
LINE
  5
363
100
AcDbEntity
  8
LAY0001
100
AcDbLine
 62
7
  6
CONTINUOUS
 10
2.0397013212
 20
12.3161939962
 11
2.0397013212
 21
12.3092657684
  0
LINE
  5
364
100
AcDbEntity
  8
LAY0001
100
AcDbLine
 62
7
  6
CONTINUOUS
 10
2.0397013212
 20
12.2688511009
 11
2.0397013212
 21
12.2619228724
  0
LINE
  5
365
100
AcDbEntity
  8
LAY0001
100
AcDbLine
 62
7
  6
CONTINUOUS
 10
2.041168946
 20
12.9776515035
 11
2.041168946
 21
12.9511558748
  0
LINE
  5
366
100
AcDbEntity
  8
LAY0001
100
AcDbLine
 62
7
  6
CONTINUOUS
 10
2.0415837955
 20
12.5583372695
 11
2.0415837955
 21
12.5343883039
  0
LINE
  5
367
100
AcDbEntity
  8
LAY0001
100
AcDbLine
 62
7
  6
CONTINUOUS
 10
2.0415837955
 20
12.486490368
 11
2.0415837955
 21
12.3332169771
  0
LINE
  5
368
100
AcDbEntity
  8
LAY0001
100
AcDbLine
 62
7
  6
CONTINUOUS
 10
2.0494120514
 20
12.9776515035
 11
2.0494120514
 21
12.9511558748
  0
LINE
  5
369
100
AcDbEntity
  8
0
100
AcDbLine
 62
7
  6
CONTINUOUS
 10
2.1535871204
 20
13.4219328607
 11
2.1535871204
 21
13.626572784
  0
LINE
  5
36A
100
AcDbEntity
  8
1_ALL_PLANES
100
AcDbLine
 62
7
  6
CONTINUOUS
 10
2.234886333
 20
13.1322871915
 11
2.234886333
 21
12.0422871915
  0
LINE
  5
36B
100
AcDbEntity
  8
0
100
AcDbLine
 62
7
  6
CONTINUOUS
 10
2.237113324
 20
13.2045955136
 11
2.237113324
 21
12.0046942103
  0
LINE
  5
36C
100
AcDbEntity
  8
LAY0001
100
AcDbLine
 62
7
  6
CONTINUOUS
 10
1.966861459
 20
12.2746246248
 11
1.9676619212
 21
12.280398148
  0
LINE
  5
36D
100
AcDbEntity
  8
0
100
AcDbLine
 62
7
  6
CONTINUOUS
 10
3.9632228661
 20
13.1757541427
 11
3.9656457292
 21
13.1790393114
  0
LINE
  5
36E
100
AcDbEntity
  8
03___PRT_ALL_CURVES
100
AcDbLine
 62
4
  6
CONTINUOUS
 10
4.1810572127
 20
12.9429211329
 11
4.1826422391
 21
12.9446213303
  0
LINE
  5
36F
100
AcDbEntity
  8
03___PRT_ALL_CURVES
100
AcDbLine
 62
4
  6
CONTINUOUS
 10
4.2134769034
 20
12.9182682679
 11
4.2118918774
 21
12.91656807
  0
LINE
  5
370
100
AcDbEntity
  8
03___PRT_ALL_CURVES
100
AcDbLine
 62
4
  6
CONTINUOUS
 10
4.293135974
 20
12.9829226397
 11
4.2915509481
 21
12.9812224417
  0
LINE
  5
371
100
AcDbEntity
  8
03___PRT_ALL_CURVES
100
AcDbLine
 62
4
  6
CONTINUOUS
 10
4.48221991
 20
13.009275702
 11
4.4806348837
 21
13.0075755046
  0
LINE
  5
372
100
AcDbEntity
  8
03___PRT_ALL_CURVES
100
AcDbLine
 62
4
  6
CONTINUOUS
 10
4.5123154004
 20
12.9812224417
 11
4.5139004264
 21
12.9829226397
  0
LINE
  5
373
100
AcDbEntity
  8
LAY0001
100
AcDbLine
 62
7
  6
CONTINUOUS
 10
1.2224543259
 20
12.2723152156
 11
1.2208534519
 21
12.2757793295
  0
LINE
  5
374
100
AcDbEntity
  8
LAY0001
100
AcDbLine
 62
7
  6
CONTINUOUS
 10
1.2400639586
 20
12.3058016546
 11
1.2416648326
 21
12.3023375374
  0
LINE
  5
375
100
AcDbEntity
  8
LAY0001
100
AcDbLine
 62
7
  6
CONTINUOUS
 10
1.4529804058
 20
12.3161939962
 11
1.4729913564
 21
12.2700058055
  0
LINE
  5
376
100
AcDbEntity
  8
LAY0001
100
AcDbLine
 62
7
  6
CONTINUOUS
 10
1.4705900431
 20
12.2619228724
 11
1.4505790925
 21
12.3092657684
  0
LINE
  5
377
100
AcDbEntity
  8
LAY0001
100
AcDbLine
 62
7
  6
CONTINUOUS
 10
1.2176516993
 20
12.2700058055
 11
1.2160508252
 21
12.2746246248
  0
LINE
  5
378
100
AcDbEntity
  8
LAY0001
100
AcDbLine
 62
7
  6
CONTINUOUS
 10
1.2448665852
 20
12.3081110638
 11
1.2464674593
 21
12.3034922453
  0
LINE
  5
379
100
AcDbEntity
  8
LAY0001
100
AcDbLine
 62
7
  6
CONTINUOUS
 10
1.2696801579
 20
12.2619228724
 11
1.2584740259
 21
12.3046469499
  0
LINE
  5
37A
100
AcDbEntity
  8
LAY0001
100
AcDbLine
 62
7
  6
CONTINUOUS
 10
1.3089064126
 20
12.9405576243
 11
1.307532567
 21
12.9458567495
  0
LINE
  5
37B
100
AcDbEntity
  8
LAY0001
100
AcDbLine
 62
7
  6
CONTINUOUS
 10
1.3130279653
 20
12.9758851284
 11
1.3116541196
 21
12.9811842536
  0
LINE
  5
37C
100
AcDbEntity
  8
LAY0001
100
AcDbLine
 62
7
  6
CONTINUOUS
 10
1.3460003868
 20
12.9864833838
 11
1.3446265412
 21
12.9917825091
  0
LINE
  5
37D
100
AcDbEntity
  8
LAY0001
100
AcDbLine
 62
7
  6
CONTINUOUS
 10
1.6290136769
 20
12.9847170038
 11
1.6276398155
 21
12.990016134
  0
LINE
  5
37E
100
AcDbEntity
  8
LAY0001
100
AcDbLine
 62
7
  6
CONTINUOUS
 10
1.2608753393
 20
12.3161939962
 11
1.2728819059
 21
12.2676963963
  0
LINE
  5
37F
100
AcDbEntity
  8
LAY0001
100
AcDbLine
 62
7
  6
CONTINUOUS
 10
1.3769388231
 20
12.3161939962
 11
1.3881449459
 21
12.2688511009
  0
LINE
  5
380
100
AcDbEntity
  8
LAY0001
100
AcDbLine
 62
7
  6
CONTINUOUS
 10
1.3849431887
 20
12.2619228724
 11
1.3721361964
 21
12.3161939962
  0
LINE
  5
381
100
AcDbEntity
  8
LAY0001
100
AcDbLine
 62
7
  6
CONTINUOUS
 10
1.5866535269
 20
12.3161939962
 11
1.5994605191
 21
12.2619228724
  0
LINE
  5
382
100
AcDbEntity
  8
LAY0001
100
AcDbLine
 62
7
  6
CONTINUOUS
 10
1.5946578925
 20
12.2619228724
 11
1.5914561536
 21
12.2757793295
  0
LINE
  5
383
100
AcDbEntity
  8
LAY0001
100
AcDbLine
 62
7
  6
CONTINUOUS
 10
1.5834517514
 20
12.3115751777
 11
1.5906556914
 21
12.280398148
  0
LINE
  5
384
100
AcDbEntity
  8
LAY0001
100
AcDbLine
 62
7
  6
CONTINUOUS
 10
1.7187257602
 20
12.3023375374
 11
1.717925298
 21
12.3058016546
  0
LINE
  5
385
100
AcDbEntity
  8
LAY0001
100
AcDbLine
 62
7
  6
CONTINUOUS
 10
1.8235831213
 20
12.2734699202
 11
1.822782659
 21
12.2769340341
  0
LINE
  5
386
100
AcDbEntity
  8
LAY0001
100
AcDbLine
 62
7
  6
CONTINUOUS
 10
1.8259844346
 20
12.2965640143
 11
1.8251839724
 21
12.3000281282
  0
LINE
  5
387
100
AcDbEntity
  8
LAY0001
100
AcDbLine
 62
7
  6
CONTINUOUS
 10
1.8451949412
 20
12.3034922453
 11
1.844394479
 21
12.3069563592
  0
LINE
  5
388
100
AcDbEntity
  8
LAY0001
100
AcDbLine
 62
7
  6
CONTINUOUS
 10
1.2992894616
 20
12.9458567495
 11
1.3006633151
 21
12.9387912492
  0
LINE
  5
389
100
AcDbEntity
  8
LAY0001
100
AcDbLine
 62
7
  6
CONTINUOUS
 10
1.3034110143
 20
12.9794178785
 11
1.3047848678
 21
12.9723523782
  0
LINE
  5
38A
100
AcDbEntity
  8
LAY0001
100
AcDbLine
 62
7
  6
CONTINUOUS
 10
1.5300964123
 20
12.9847170038
 11
1.5314702737
 21
12.9776515035
  0
LINE
  5
38B
100
AcDbEntity
  8
LAY0001
100
AcDbLine
 62
7
  6
CONTINUOUS
 10
1.5919197027
 20
12.9511558748
 11
1.593293564
 21
12.9440903744
  0
LINE
  5
38C
100
AcDbEntity
  8
LAY0001
100
AcDbLine
 62
7
  6
CONTINUOUS
 10
1.6971139402
 20
12.280398148
 11
1.6979143658
 21
12.2757793295
  0
LINE
  5
38D
100
AcDbEntity
  8
LAY0001
100
AcDbLine
 62
7
  6
CONTINUOUS
 10
1.8179800324
 20
12.2769340341
 11
1.8187804946
 21
12.2723152156
  0
LINE
  5
38E
100
AcDbEntity
  8
LAY0001
100
AcDbLine
 62
7
  6
CONTINUOUS
 10
1.8203813457
 20
12.2988734236
 11
1.8211818079
 21
12.2942546051
  0
LINE
  5
38F
100
AcDbEntity
  8
LAY0001
100
AcDbLine
 62
7
  6
CONTINUOUS
 10
1.9444491768
 20
12.2757793295
 11
1.9436487879
 21
12.280398148
  0
LINE
  5
390
100
AcDbEntity
  8
LAY0001
100
AcDbLine
 62
7
  6
CONTINUOUS
 10
1.5383395177
 20
12.9864833838
 11
1.539713379
 21
12.9776515035
  0
LINE
  5
391
100
AcDbEntity
  8
LAY0001
100
AcDbLine
 62
7
  6
CONTINUOUS
 10
1.5850504586
 20
12.9423239994
 11
1.5836765973
 21
12.9511558748
  0
LINE
  5
392
100
AcDbEntity
  8
LAY0001
100
AcDbLine
 62
7
  6
CONTINUOUS
 10
1.6358829209
 20
12.9935488841
 11
1.6372567823
 21
12.9847170038
  0
LINE
  5
393
100
AcDbEntity
  8
LAY0001
100
AcDbLine
 62
7
  6
CONTINUOUS
 10
1.6931117391
 20
12.2746246248
 11
1.6923113135
 21
12.280398148
  0
LINE
  5
394
100
AcDbEntity
  8
LAY0001
100
AcDbLine
 62
7
  6
CONTINUOUS
 10
1.7227279246
 20
12.3081110638
 11
1.7235283869
 21
12.3023375374
  0
LINE
  5
395
100
AcDbEntity
  8
LAY0001
100
AcDbLine
 62
7
  6
CONTINUOUS
 10
1.9388461612
 20
12.280398148
 11
1.9396465501
 21
12.2746246248
  0
LINE
  5
396
100
AcDbEntity
  8
0
100
AcDbLine
 62
7
  6
CONTINUOUS
 10
2.4130359393
 20
13.4219328607
 11
2.4130359393
 21
13.7789181069
  0
LINE
  5
397
100
AcDbEntity
  8
0
100
AcDbLine
 62
7
  6
CONTINUOUS
 10
2.5508312149
 20
13.4219328607
 11
2.5508312149
 21
13.7574523056
  0
LINE
  5
398
100
AcDbEntity
  8
0
100
AcDbLine
 62
7
  6
CONTINUOUS
 10
2.609886333
 20
10.1660273341
 11
2.609886333
 21
11.0085470488
  0
LINE
  5
399
100
AcDbEntity
  8
03___PRT_ALL_CURVES
100
AcDbLine
 62
4
  6
CONTINUOUS
 10
4.1039157894
 20
13.0126760967
 11
4.1024374181
 21
13.009275702
  0
LINE
  5
39A
100
AcDbEntity
  8
03___PRT_ALL_CURVES
100
AcDbLine
 62
4
  6
CONTINUOUS
 10
4.1428962941
 20
12.9778220468
 11
4.1443746667
 21
12.9812224417
  0
LINE
  5
39B
100
AcDbEntity
  8
0
100
AcDbLine
 62
7
  6
CONTINUOUS
 10
4.2271810815
 20
12.7045909089
 11
4.2296039446
 21
12.7078760776
  0
LINE
  5
39C
100
AcDbEntity
  8
0
100
AcDbLine
 62
7
  6
CONTINUOUS
 10
4.7059588584
 20
12.7045909089
 11
4.7083817215
 21
12.7078760776
  0
LINE
  5
39D
100
AcDbEntity
  8
0
100
AcDbLine
 62
7
  6
CONTINUOUS
 10
3.4604829867
 20
11.0302005773
 11
4.2942344033
 21
11.0302005773
  0
LINE
  5
39E
100
AcDbEntity
  8
0
100
AcDbLine
 62
7
  6
CONTINUOUS
 10
8.2336260604
 20
11.0636651442
 11
4.348381526
 21
11.0636651442
  0
LINE
  5
39F
100
AcDbEntity
  8
0
100
AcDbLine
 62
7
  6
CONTINUOUS
 10
3.403642792
 20
11.0636651442
 11
-5.0138533944
 21
11.0636651442
  0
LINE
  5
3A0
100
AcDbEntity
  8
0
100
AcDbLine
 62
7
  6
CONTINUOUS
 10
0.6886263559
 20
11.0872871915
 11
2.5311463101
 21
11.0872871915
  0
LINE
  5
3A1
100
AcDbEntity
  8
0
100
AcDbLine
 62
7
  6
CONTINUOUS
 10
3.403642792
 20
11.0892556954
 11
4.348381526
 21
11.0892556954
  0
LINE
  5
3A2
100
AcDbEntity
  8
0
100
AcDbLine
 62
7
  6
CONTINUOUS
 10
2.7603456336
 20
11.5361060891
 11
0.4594270324
 21
11.5361060891
  0
LINE
  5
3A3
100
AcDbEntity
  8
LAY0001
100
AcDbLine
 62
7
  6
CONTINUOUS
 10
1.2248556393
 20
12.2700058055
 11
1.2224543259
 21
12.2723152156
  0
LINE
  5
3A4
100
AcDbEntity
  8
LAY0001
100
AcDbLine
 62
7
  6
CONTINUOUS
 10
1.2376626452
 20
12.3081110638
 11
1.2400639586
 21
12.3058016546
  0
LINE
  5
3A5
100
AcDbEntity
  8
LAY0001
100
AcDbLine
 62
7
  6
CONTINUOUS
 10
1.2208534519
 20
12.2653869866
 11
1.2176516993
 21
12.2700058055
  0
LINE
  5
3A6
100
AcDbEntity
  8
LAY0001
100
AcDbLine
 62
7
  6
CONTINUOUS
 10
1.2416648326
 20
12.3127298823
 11
1.2448665852
 21
12.3081110638
  0
LINE
  5
3A7
100
AcDbEntity
  8
LAY0001
100
AcDbLine
 62
7
  6
CONTINUOUS
 10
1.6979143658
 20
12.2653869866
 11
1.6947126269
 21
12.2700058055
  0
LINE
  5
3A8
100
AcDbEntity
  8
LAY0001
100
AcDbLine
 62
7
  6
CONTINUOUS
 10
1.7195261858
 20
12.3127298823
 11
1.7227279246
 21
12.3081110638
  0
LINE
  5
3A9
100
AcDbEntity
  8
LAY0001
100
AcDbLine
 62
7
  6
CONTINUOUS
 10
1.8259844346
 20
12.2700058055
 11
1.8235831213
 21
12.2734699202
  0
LINE
  5
3AA
100
AcDbEntity
  8
LAY0001
100
AcDbLine
 62
7
  6
CONTINUOUS
 10
1.8211818079
 20
12.2942546051
 11
1.8243835102
 21
12.2896357866
  0
LINE
  5
3AB
100
AcDbEntity
  8
LAY0001
100
AcDbLine
 62
7
  6
CONTINUOUS
 10
1.5976651093
 20
12.5583372695
 11
1.7298962021
 21
12.3619557461
  0
LINE
  5
3AC
100
AcDbEntity
  8
LAY0001
100
AcDbLine
 62
7
  6
CONTINUOUS
 10
1.6921158872
 20
12.3332169771
 11
1.5409946416
 21
12.5583372695
  0
LINE
  5
3AD
100
AcDbEntity
  8
LAY0001
100
AcDbLine
 62
7
  6
CONTINUOUS
 10
1.3446265412
 20
12.9917825091
 11
1.3405049885
 21
12.9988480094
  0
LINE
  5
3AE
100
AcDbEntity
  8
LAY0001
100
AcDbLine
 62
7
  6
CONTINUOUS
 10
1.844394479
 20
12.3069563592
 11
1.8419931657
 21
12.3115751777
  0
LINE
  5
3AF
100
AcDbEntity
  8
LAY0001
100
AcDbLine
 62
7
  6
CONTINUOUS
 10
1.3391311428
 20
12.9546886274
 11
1.3418788341
 21
12.9493894997
  0
LINE
  5
3B0
100
AcDbEntity
  8
LAY0001
100
AcDbLine
 62
7
  6
CONTINUOUS
 10
1.527348721
 20
12.990016134
 11
1.5300964123
 21
12.9847170038
  0
LINE
  5
3B1
100
AcDbEntity
  8
LAY0001
100
AcDbLine
 62
7
  6
CONTINUOUS
 10
1.593293564
 20
12.9440903744
 11
1.5960412553
 21
12.9387912492
  0
LINE
  5
3B2
100
AcDbEntity
  8
LAY0001
100
AcDbLine
 62
7
  6
CONTINUOUS
 10
1.3006633151
 20
12.9387912492
 11
1.3047848678
 21
12.9299593719
  0
LINE
  5
3B3
100
AcDbEntity
  8
LAY0001
100
AcDbLine
 62
7
  6
CONTINUOUS
 10
1.6979143658
 20
12.2757793295
 11
1.6995152535
 21
12.2723152156
  0
LINE
  5
3B4
100
AcDbEntity
  8
LAY0001
100
AcDbLine
 62
7
  6
CONTINUOUS
 10
1.8411927035
 20
12.2827075588
 11
1.8427936279
 21
12.2792434433
  0
LINE
  5
3B5
100
AcDbEntity
  8
LAY0001
100
AcDbLine
 62
7
  6
CONTINUOUS
 10
1.9460501012
 20
12.2723152156
 11
1.9444491768
 21
12.2757793295
  0
LINE
  5
3B6
100
AcDbEntity
  8
LAY0001
100
AcDbLine
 62
7
  6
CONTINUOUS
 10
1.6610942402
 20
12.3161939962
 11
1.6811051724
 21
12.2700058055
  0
LINE
  5
3B7
100
AcDbEntity
  8
LAY0001
100
AcDbLine
 62
7
  6
CONTINUOUS
 10
1.7867629591
 20
12.3161939962
 11
1.8067739279
 21
12.2700058055
  0
LINE
  5
3B8
100
AcDbEntity
  8
LAY0001
100
AcDbLine
 62
7
  6
CONTINUOUS
 10
1.6787038591
 20
12.2619228724
 11
1.6586929269
 21
12.3092657684
  0
LINE
  5
3B9
100
AcDbEntity
  8
LAY0001
100
AcDbLine
 62
7
  6
CONTINUOUS
 10
1.8043726146
 20
12.2619228724
 11
1.7843616457
 21
12.3092657684
  0
LINE
  5
3BA
100
AcDbEntity
  8
LAY0001
100
AcDbLine
 62
7
  6
CONTINUOUS
 10
1.8187804946
 20
12.2723152156
 11
1.8211818079
 21
12.2665416913
  0
LINE
  5
3BB
100
AcDbEntity
  8
LAY0001
100
AcDbLine
 62
7
  6
CONTINUOUS
 10
1.3501219395
 20
12.9511558748
 11
1.3473742482
 21
12.9582213776
  0
LINE
  5
3BC
100
AcDbEntity
  8
LAY0001
100
AcDbLine
 62
7
  6
CONTINUOUS
 10
1.3363834358
 20
12.990016134
 11
1.3377572815
 21
12.9864833838
  0
LINE
  5
3BD
100
AcDbEntity
  8
LAY0001
100
AcDbLine
 62
7
  6
CONTINUOUS
 10
1.5355918264
 20
12.9935488841
 11
1.5383395177
 21
12.9864833838
  0
LINE
  5
3BE
100
AcDbEntity
  8
LAY0001
100
AcDbLine
 62
7
  6
CONTINUOUS
 10
1.58779815
 20
12.9352584978
 11
1.5850504586
 21
12.9423239994
  0
LINE
  5
3BF
100
AcDbEntity
  8
LAY0001
100
AcDbLine
 62
7
  6
CONTINUOUS
 10
1.6947126269
 20
12.2700058055
 11
1.6931117391
 21
12.2746246248
  0
LINE
  5
3C0
100
AcDbEntity
  8
LAY0001
100
AcDbLine
 62
7
  6
CONTINUOUS
 10
1.8475962546
 20
12.280398148
 11
1.8459953302
 21
12.2850169681
  0
LINE
  5
3C1
100
AcDbEntity
  8
LAY0001
100
AcDbLine
 62
7
  6
CONTINUOUS
 10
1.8395918524
 20
12.3058016546
 11
1.8403923146
 21
12.3034922453
  0
LINE
  5
3C2
100
AcDbEntity
  8
LAY0001
100
AcDbLine
 62
7
  6
CONTINUOUS
 10
1.9396465501
 20
12.2746246248
 11
1.9412474745
 21
12.2700058055
  0
LINE
  5
3C3
100
AcDbEntity
  8
LAY0001
100
AcDbLine
 62
7
  6
CONTINUOUS
 10
1.760903363
 20
12.922893871
 11
1.7485387049
 21
12.9635205028
  0
LINE
  5
3C4
100
AcDbEntity
  8
LAY0001
100
AcDbLine
 62
7
  6
CONTINUOUS
 10
1.7402955995
 20
12.9599877526
 11
1.7512864277
 21
12.922893871
  0
LINE
  5
3C5
100
AcDbEntity
  8
LAY0001
100
AcDbLine
 62
7
  6
CONTINUOUS
 10
1.7512864277
 20
12.9864833838
 11
1.7499125349
 21
12.9917825091
  0
LINE
  5
3C6
100
AcDbEntity
  8
LAY0001
100
AcDbLine
 62
7
  6
CONTINUOUS
 10
1.7595295331
 20
12.9864833838
 11
1.7581556402
 21
12.9917825091
  0
LINE
  5
3C7
100
AcDbEntity
  8
LAY0001
100
AcDbLine
 62
7
  6
CONTINUOUS
 10
2.0397951161
 20
12.9847170038
 11
2.041168946
 21
12.9776515035
  0
LINE
  5
3C8
100
AcDbEntity
  8
LAY0001
100
AcDbLine
 62
7
  6
CONTINUOUS
 10
2.0480382214
 20
12.9864833838
 11
2.0494120514
 21
12.9776515035
  0
LINE
  5
3C9
100
AcDbEntity
  8
0
100
AcDbLine
 62
7
  6
CONTINUOUS
 10
2.944949333
 20
14.1591612072
 11
2.944949333
 21
14.1994112072
  0
LINE
  5
3CA
100
AcDbEntity
  8
0
100
AcDbLine
 62
7
  6
CONTINUOUS
 10
3.090949333
 20
14.2547729823
 11
3.090949333
 21
14.2651414357
  0
LINE
  5
3CB
100
AcDbEntity
  8
0
100
AcDbLine
 62
7
  6
CONTINUOUS
 10
3.120949333
 20
14.2651414357
 11
3.120949333
 21
14.2547729823
  0
LINE
  5
3CC
100
AcDbEntity
  8
0
100
AcDbLine
 62
7
  6
CONTINUOUS
 10
3.266949333
 20
14.1591612072
 11
3.266949333
 21
14.1994112072
  0
LINE
  5
3CD
100
AcDbEntity
  8
0
100
AcDbLine
 62
7
  6
CONTINUOUS
 10
3.309886333
 20
14.0557911285
 11
3.309886333
 21
11.8258376411
  0
LINE
  5
3CE
100
AcDbEntity
  8
0
100
AcDbLine
 62
7
  6
CONTINUOUS
 10
3.309886333
 20
14.1197911285
 11
3.309886333
 21
14.1591612072
  0
LINE
  5
3CF
100
AcDbEntity
  8
0
100
AcDbLine
 62
7
  6
CONTINUOUS
 10
3.403642792
 20
11.0892556954
 11
3.403642792
 21
10.0853186875
  0
LINE
  5
3D0
100
AcDbEntity
  8
0
100
AcDbLine
 62
7
  6
CONTINUOUS
 10
3.404989328
 20
11.0892556954
 11
3.404989328
 21
10.0853186875
  0
LINE
  5
3D1
100
AcDbEntity
  8
0
100
AcDbLine
 62
7
  6
CONTINUOUS
 10
3.4604829867
 20
11.0302005773
 11
3.4604829867
 21
10.294454621
  0
LINE
  5
3D2
100
AcDbEntity
  8
0
100
AcDbLine
 62
7
  6
CONTINUOUS
 10
3.4604829867
 20
10.2747695816
 11
3.4604829867
 21
10.1443738056
  0
LINE
  5
3D3
100
AcDbEntity
  8
0
100
AcDbLine
 62
7
  6
CONTINUOUS
 10
3.4618295227
 20
11.0302005773
 11
3.4618295227
 21
10.294454621
  0
LINE
  5
3D4
100
AcDbEntity
  8
0
100
AcDbLine
 62
7
  6
CONTINUOUS
 10
3.4618295227
 20
10.2747695816
 11
3.4618295227
 21
10.1443738056
  0
LINE
  5
3D5
100
AcDbEntity
  8
03___PRT_ALL_CURVES
100
AcDbLine
 62
4
  6
CONTINUOUS
 10
4.1750296748
 20
12.9446213303
 11
4.1765080451
 21
12.9480217249
  0
LINE
  5
3D6
100
AcDbEntity
  8
03___PRT_ALL_CURVES
100
AcDbLine
 62
4
  6
CONTINUOUS
 10
4.2195044441
 20
12.91656807
 11
4.2180260715
 21
12.913167675
  0
LINE
  5
3D7
100
AcDbEntity
  8
03___PRT_ALL_CURVES
100
AcDbLine
 62
4
  6
CONTINUOUS
 10
4.2424910248
 20
12.9344201439
 11
4.2432302136
 21
12.9361203412
  0
LINE
  5
3D8
100
AcDbEntity
  8
03___PRT_ALL_CURVES
100
AcDbLine
 62
4
  6
CONTINUOUS
 10
4.2991635147
 20
12.9812224417
 11
4.2976851567
 21
12.9778220468
  0
LINE
  5
3D9
100
AcDbEntity
  8
03___PRT_ALL_CURVES
100
AcDbLine
 62
4
  6
CONTINUOUS
 10
4.3221500955
 20
12.9990745156
 11
4.3228892939
 21
13.0007747129
  0
LINE
  5
3DA
100
AcDbEntity
  8
03___PRT_ALL_CURVES
100
AcDbLine
 62
4
  6
CONTINUOUS
 10
4.4746073433
 20
13.009275702
 11
4.4760857016
 21
13.0126760967
  0
LINE
  5
3DB
100
AcDbEntity
  8
03___PRT_ALL_CURVES
100
AcDbLine
 62
4
  6
CONTINUOUS
 10
4.519927967
 20
12.9812224417
 11
4.5184495703
 21
12.9778220468
  0
LINE
  5
3DC
100
AcDbEntity
  8
0
100
AcDbLine
 62
7
  6
CONTINUOUS
 10
4.7588087968
 20
11.8513235941
 11
6.5532829844
 21
11.8513235941
  0
LINE
  5
3DD
100
AcDbEntity
  8
0
100
AcDbLine
 62
3
  6
CONTINUOUS
 10
4.7626243293
 20
11.8564970881
 11
6.5570985169
 21
11.8564970881
  0
LINE
  5
3DE
100
AcDbEntity
  8
1_ALL_PLANES
100
AcDbLine
 62
7
  6
CONTINUOUS
 10
2.154886333
 20
11.9622871915
 11
1.064886333
 21
11.9622871915
  0
LINE
  5
3DF
100
AcDbEntity
  8
0
100
AcDbLine
 62
7
  6
CONTINUOUS
 10
2.237113324
 20
12.0046942103
 11
0.9734491495
 21
12.0046942103
  0
LINE
  5
3E0
100
AcDbEntity
  8
LAY0001
100
AcDbLine
 62
7
  6
CONTINUOUS
 10
1.2280573919
 20
12.2619228724
 11
1.2240552
 21
12.2630775771
  0
LINE
  5
3E1
100
AcDbEntity
  8
LAY0001
100
AcDbLine
 62
7
  6
CONTINUOUS
 10
1.2344608926
 20
12.3161939962
 11
1.23846308
 21
12.3150392915
  0
LINE
  5
3E2
100
AcDbEntity
  8
LAY0001
100
AcDbLine
 62
7
  6
CONTINUOUS
 10
1.7051183058
 20
12.2619228724
 11
1.7011161047
 21
12.2630775771
  0
LINE
  5
3E3
100
AcDbEntity
  8
LAY0001
100
AcDbLine
 62
7
  6
CONTINUOUS
 10
1.2280573919
 20
12.2688511009
 11
1.2248556393
 21
12.2700058055
  0
LINE
  5
3E4
100
AcDbEntity
  8
LAY0001
100
AcDbLine
 62
7
  6
CONTINUOUS
 10
1.2344608926
 20
12.3092657684
 11
1.2376626452
 21
12.3081110638
  0
LINE
  5
3E5
100
AcDbEntity
  8
LAY0001
100
AcDbLine
 62
7
  6
CONTINUOUS
 10
1.7019165669
 20
12.2700058055
 11
1.7051183058
 21
12.2688511009
  0
LINE
  5
3E6
100
AcDbEntity
  8
LAY0001
100
AcDbLine
 62
7
  6
CONTINUOUS
 10
1.7155239846
 20
12.3081110638
 11
1.7123222458
 21
12.3092657684
  0
LINE
  5
3E7
100
AcDbEntity
  8
LAY0001
100
AcDbLine
 62
7
  6
CONTINUOUS
 10
1.8291861368
 20
12.2688511009
 11
1.8259844346
 21
12.2700058055
  0
LINE
  5
3E8
100
AcDbEntity
  8
LAY0001
100
AcDbLine
 62
7
  6
CONTINUOUS
 10
1.8307870612
 20
12.2930999004
 11
1.8283857479
 21
12.2942546051
  0
LINE
  5
3E9
100
AcDbEntity
  8
LAY0001
100
AcDbLine
 62
7
  6
CONTINUOUS
 10
1.8355896879
 20
12.3092657684
 11
1.8379910012
 21
12.3081110638
  0
LINE
  5
3EA
100
AcDbEntity
  8
LAY0001
100
AcDbLine
 62
7
  6
CONTINUOUS
 10
1.8243835102
 20
12.2896357866
 11
1.8275852857
 21
12.2873263773
  0
LINE
  5
3EB
100
AcDbEntity
  8
LAY0001
100
AcDbLine
 62
7
  6
CONTINUOUS
 10
1.8427936279
 20
12.2896357866
 11
1.8395918524
 21
12.2919451958
  0
LINE
  5
3EC
100
AcDbEntity
  8
LAY0001
100
AcDbLine
 62
7
  6
CONTINUOUS
 10
1.9444491768
 20
12.2653869866
 11
1.9476509523
 21
12.2630775771
  0
LINE
  5
3ED
100
AcDbEntity
  8
LAY0001
100
AcDbLine
 62
7
  6
CONTINUOUS
 10
1.2240552
 20
12.2630775771
 11
1.2208534519
 21
12.2653869866
  0
LINE
  5
3EE
100
AcDbEntity
  8
LAY0001
100
AcDbLine
 62
7
  6
CONTINUOUS
 10
1.23846308
 20
12.3150392915
 11
1.2416648326
 21
12.3127298823
  0
LINE
  5
3EF
100
AcDbEntity
  8
LAY0001
100
AcDbLine
 62
7
  6
CONTINUOUS
 10
1.7011161047
 20
12.2630775771
 11
1.6979143658
 21
12.2653869866
  0
LINE
  5
3F0
100
AcDbEntity
  8
LAY0001
100
AcDbLine
 62
7
  6
CONTINUOUS
 10
1.7163244469
 20
12.3150392915
 11
1.7195261858
 21
12.3127298823
  0
LINE
  5
3F1
100
AcDbEntity
  8
LAY0001
100
AcDbLine
 62
7
  6
CONTINUOUS
 10
1.3047848678
 20
12.9299593719
 11
1.3116541196
 21
12.9246602462
  0
LINE
  5
3F2
100
AcDbEntity
  8
LAY0001
100
AcDbLine
 62
7
  6
CONTINUOUS
 10
1.317149518
 20
12.9723523782
 11
1.3130279653
 21
12.9758851284
  0
LINE
  5
3F3
100
AcDbEntity
  8
LAY0001
100
AcDbLine
 62
7
  6
CONTINUOUS
 10
1.3350095901
 20
12.9582213776
 11
1.3391311428
 21
12.9546886274
  0
LINE
  5
3F4
100
AcDbEntity
  8
LAY0001
100
AcDbLine
 62
7
  6
CONTINUOUS
 10
1.8211818079
 20
12.2665416913
 11
1.8251839724
 21
12.2630775771
  0
LINE
  5
3F5
100
AcDbEntity
  8
LAY0001
100
AcDbLine
 62
7
  6
CONTINUOUS
 10
1.6995152535
 20
12.2723152156
 11
1.7019165669
 21
12.2700058055
  0
LINE
  5
3F6
100
AcDbEntity
  8
LAY0001
100
AcDbLine
 62
7
  6
CONTINUOUS
 10
1.717925298
 20
12.3058016546
 11
1.7155239846
 21
12.3081110638
  0
LINE
  5
3F7
100
AcDbEntity
  8
LAY0001
100
AcDbLine
 62
7
  6
CONTINUOUS
 10
1.8283857479
 20
12.2942546051
 11
1.8259844346
 21
12.2965640143
  0
LINE
  5
3F8
100
AcDbEntity
  8
LAY0001
100
AcDbLine
 62
7
  6
CONTINUOUS
 10
1.8387913902
 20
12.2850169681
 11
1.8411927035
 21
12.2827075588
  0
LINE
  5
3F9
100
AcDbEntity
  8
LAY0001
100
AcDbLine
 62
7
  6
CONTINUOUS
 10
1.9484514145
 20
12.2700058055
 11
1.9460501012
 21
12.2723152156
  0
LINE
  5
3FA
100
AcDbEntity
  8
LAY0001
100
AcDbLine
 62
7
  6
CONTINUOUS
 10
1.3405049885
 20
12.9988480094
 11
1.3350095901
 21
13.0041471346
  0
LINE
  5
3FB
100
AcDbEntity
  8
LAY0001
100
AcDbLine
 62
7
  6
CONTINUOUS
 10
1.8419931657
 20
12.3115751777
 11
1.8387913902
 21
12.3150392915
  0
LINE
  5
3FC
100
AcDbEntity
  8
LAY0001
100
AcDbLine
 62
7
  6
CONTINUOUS
 10
1.3130279653
 20
12.9352584978
 11
1.3089064126
 21
12.9405576243
  0
LINE
  5
3FD
100
AcDbEntity
  8
LAY0001
100
AcDbLine
 62
7
  6
CONTINUOUS
 10
1.3047848678
 20
12.9723523782
 11
1.310280274
 21
12.9652868779
  0
LINE
  5
3FE
100
AcDbEntity
  8
LAY0001
100
AcDbLine
 62
7
  6
CONTINUOUS
 10
1.3473742482
 20
12.9582213776
 11
1.3418788341
 21
12.9652868779
  0
LINE
  5
3FF
100
AcDbEntity
  8
LAY0001
100
AcDbLine
 62
7
  6
CONTINUOUS
 10
1.3336357288
 20
12.9935488841
 11
1.3363834358
 21
12.990016134
  0
LINE
  5
400
100
AcDbEntity
  8
LAY0001
100
AcDbLine
 62
7
  6
CONTINUOUS
 10
1.5300964123
 20
13.0006143845
 11
1.5355918264
 21
12.9935488841
  0
LINE
  5
401
100
AcDbEntity
  8
LAY0001
100
AcDbLine
 62
7
  6
CONTINUOUS
 10
1.593293564
 20
12.9281929969
 11
1.58779815
 21
12.9352584978
  0
LINE
  5
402
100
AcDbEntity
  8
LAY0001
100
AcDbLine
 62
7
  6
CONTINUOUS
 10
1.6303875383
 20
13.0006143845
 11
1.6358829209
 21
12.9935488841
  0
LINE
  5
403
100
AcDbEntity
  8
LAY0001
100
AcDbLine
 62
7
  6
CONTINUOUS
 10
1.7499125349
 20
12.9917825091
 11
1.747164875
 21
12.9953152592
  0
LINE
  5
404
100
AcDbEntity
  8
LAY0001
100
AcDbLine
 62
7
  6
CONTINUOUS
 10
1.8459953302
 20
12.2850169681
 11
1.8427936279
 21
12.2896357866
  0
LINE
  5
405
100
AcDbEntity
  8
LAY0001
100
AcDbLine
 62
7
  6
CONTINUOUS
 10
1.8379910012
 20
12.3081110638
 11
1.8395918524
 21
12.3058016546
  0
LINE
  5
406
100
AcDbEntity
  8
LAY0001
100
AcDbLine
 62
7
  6
CONTINUOUS
 10
1.9412474745
 20
12.2700058055
 11
1.9444491768
 21
12.2653869866
  0
LINE
  5
407
100
AcDbEntity
  8
LAY0001
100
AcDbLine
 62
7
  6
CONTINUOUS
 10
1.7581556402
 20
12.9917825091
 11
1.7540340875
 21
12.9988480094
  0
LINE
  5
408
100
AcDbEntity
  8
LAY0001
100
AcDbLine
 62
7
  6
CONTINUOUS
 10
2.0370473933
 20
12.990016134
 11
2.0397951161
 21
12.9847170038
  0
LINE
  5
409
100
AcDbEntity
  8
LAY0001
100
AcDbLine
 62
7
  6
CONTINUOUS
 10
2.0452904987
 20
12.9935488841
 11
2.0480382214
 21
12.9864833838
  0
LINE
  5
40A
100
AcDbEntity
  8
0
100
AcDbLine
 62
7
  6
CONTINUOUS
 10
3.901886333
 20
14.1197911285
 11
3.901886333
 21
14.0557911285
  0
LINE
  5
40B
100
AcDbEntity
  8
03___PRT_ALL_CURVES
100
AcDbLine
 62
4
  6
CONTINUOUS
 10
4.138610062
 20
12.9854729357
 11
4.138347126
 21
12.9829226397
  0
LINE
  5
40C
100
AcDbEntity
  8
03___PRT_ALL_CURVES
100
AcDbLine
 62
4
  6
CONTINUOUS
 10
4.1807942781
 20
12.9403708345
 11
4.1810572127
 21
12.9429211329
  0
LINE
  5
40D
100
AcDbEntity
  8
03___PRT_ALL_CURVES
100
AcDbLine
 62
4
  6
CONTINUOUS
 10
4.2137398394
 20
12.920818564
 11
4.2134769034
 21
12.9182682679
  0
LINE
  5
40E
100
AcDbEntity
  8
03___PRT_ALL_CURVES
100
AcDbLine
 62
4
  6
CONTINUOUS
 10
4.2933989246
 20
12.9854729357
 11
4.293135974
 21
12.9829226397
  0
LINE
  5
40F
100
AcDbEntity
  8
03___PRT_ALL_CURVES
100
AcDbLine
 62
4
  6
CONTINUOUS
 10
4.3877771243
 20
12.9106173787
 11
4.3907264581
 21
12.9310197492
  0
LINE
  5
410
100
AcDbEntity
  8
03___PRT_ALL_CURVES
100
AcDbLine
 62
4
  6
CONTINUOUS
 10
4.3913589885
 20
12.9344201439
 11
4.3941520592
 21
12.950572021
  0
LINE
  5
411
100
AcDbEntity
  8
03___PRT_ALL_CURVES
100
AcDbLine
 62
4
  6
CONTINUOUS
 10
4.3956452201
 20
12.9267692558
 11
4.3928521687
 21
12.9106173787
  0
LINE
  5
412
100
AcDbEntity
  8
03___PRT_ALL_CURVES
100
AcDbLine
 62
4
  6
CONTINUOUS
 10
4.3992271036
 20
12.950572021
 11
4.3958015025
 21
12.9310197492
  0
LINE
  5
413
100
AcDbEntity
  8
03___PRT_ALL_CURVES
100
AcDbLine
 62
4
  6
CONTINUOUS
 10
4.2481489756
 20
12.9318698478
 11
4.248781506
 21
12.9352702425
  0
LINE
  5
414
100
AcDbEntity
  8
03___PRT_ALL_CURVES
100
AcDbLine
 62
4
  6
CONTINUOUS
 10
4.3278080559
 20
12.9965242196
 11
4.3284405863
 21
12.9999246142
  0
LINE
  5
415
100
AcDbEntity
  8
LAY0001
100
AcDbLine
 62
7
  6
CONTINUOUS
 10
2.0342996705
 20
12.9246602462
 11
2.027430458
 21
12.922893871
  0
LINE
  5
416
100
AcDbEntity
  8
LAY0001
100
AcDbLine
 62
7
  6
CONTINUOUS
 10
1.6248921242
 20
12.9246602462
 11
1.6180228802
 21
12.922893871
  0
LINE
  5
417
100
AcDbEntity
  8
03___PRT_ALL_CURVES
100
AcDbLine
 62
4
  6
CONTINUOUS
 10
4.5160187163
 20
12.9761218492
 11
4.5122657477
 21
12.9752717504
  0
LINE
  5
418
100
AcDbEntity
  8
03___PRT_ALL_CURVES
100
AcDbLine
 62
4
  6
CONTINUOUS
 10
4.2155952078
 20
12.9114674775
 11
4.2118422489
 21
12.9106173787
  0
LINE
  5
419
100
AcDbEntity
  8
03___PRT_ALL_CURVES
100
AcDbLine
 62
4
  6
CONTINUOUS
 10
4.4785165944
 20
13.014376294
 11
4.4822695243
 21
13.0152263927
  0
LINE
  5
41A
100
AcDbEntity
  8
03___PRT_ALL_CURVES
100
AcDbLine
 62
4
  6
CONTINUOUS
 10
4.1789389138
 20
12.9497219223
 11
4.1826918679
 21
12.950572021
  0
LINE
  5
41B
100
AcDbEntity
  8
03___PRT_ALL_CURVES
100
AcDbLine
 62
4
  6
CONTINUOUS
 10
4.2952542833
 20
12.9761218492
 11
4.2915013341
 21
12.9752717504
  0
LINE
  5
41C
100
AcDbEntity
  8
03___PRT_ALL_CURVES
100
AcDbLine
 62
4
  6
CONTINUOUS
 10
4.1367124727
 20
12.9752717504
 11
4.140465428
 21
12.9761218492
  0
LINE
  5
41D
100
AcDbEntity
  8
LAY0001
100
AcDbLine
 62
7
  6
CONTINUOUS
 10
2.0397013212
 20
12.2619228724
 11
2.0108855612
 21
12.2619228724
  0
LINE
  5
41E
100
AcDbEntity
  8
LAY0001
100
AcDbLine
 62
7
  6
CONTINUOUS
 10
1.9916750545
 20
12.2619228724
 11
1.9868724279
 21
12.2619228724
  0
LINE
  5
41F
100
AcDbEntity
  8
LAY0001
100
AcDbLine
 62
7
  6
CONTINUOUS
 10
1.9196356545
 20
12.2619228724
 11
1.9148330279
 21
12.2619228724
  0
LINE
  5
420
100
AcDbEntity
  8
LAY0001
100
AcDbLine
 62
7
  6
CONTINUOUS
 10
1.8956225212
 20
12.2619228724
 11
1.8908198946
 21
12.2619228724
  0
LINE
  5
421
100
AcDbEntity
  8
LAY0001
100
AcDbLine
 62
7
  6
CONTINUOUS
 10
1.8716093879
 20
12.2619228724
 11
1.8668067612
 21
12.2619228724
  0
LINE
  5
422
100
AcDbEntity
  8
LAY0001
100
AcDbLine
 62
7
  6
CONTINUOUS
 10
1.8115765546
 20
12.2619228724
 11
1.8043726146
 21
12.2619228724
  0
LINE
  5
423
100
AcDbEntity
  8
LAY0001
100
AcDbLine
 62
7
  6
CONTINUOUS
 10
1.7731555046
 20
12.2619228724
 11
1.768352878
 21
12.2619228724
  0
LINE
  5
424
100
AcDbEntity
  8
LAY0001
100
AcDbLine
 62
7
  6
CONTINUOUS
 10
1.7843616457
 20
12.2619228724
 11
1.7795590191
 21
12.2619228724
  0
LINE
  5
425
100
AcDbEntity
  8
LAY0001
100
AcDbLine
 62
7
  6
CONTINUOUS
 10
1.7123222458
 20
12.2619228724
 11
1.7051183058
 21
12.2619228724
  0
LINE
  5
426
100
AcDbEntity
  8
LAY0001
100
AcDbLine
 62
7
  6
CONTINUOUS
 10
1.6859077991
 20
12.2619228724
 11
1.6787038591
 21
12.2619228724
  0
LINE
  5
427
100
AcDbEntity
  8
LAY0001
100
AcDbLine
 62
7
  6
CONTINUOUS
 10
1.6586929269
 20
12.2619228724
 11
1.6538903002
 21
12.2619228724
  0
LINE
  5
428
100
AcDbEntity
  8
LAY0001
100
AcDbLine
 62
7
  6
CONTINUOUS
 10
1.6474867858
 20
12.2619228724
 11
1.6426841591
 21
12.2619228724
  0
LINE
  5
429
100
AcDbEntity
  8
LAY0001
100
AcDbLine
 62
7
  6
CONTINUOUS
 10
1.6234736525
 20
12.2619228724
 11
1.6186710258
 21
12.2619228724
  0
LINE
  5
42A
100
AcDbEntity
  8
LAY0001
100
AcDbLine
 62
7
  6
CONTINUOUS
 10
1.5994605191
 20
12.2619228724
 11
1.5946578925
 21
12.2619228724
  0
LINE
  5
42B
100
AcDbEntity
  8
LAY0001
100
AcDbLine
 62
7
  6
CONTINUOUS
 10
1.5722456469
 20
12.2619228724
 11
1.5674430202
 21
12.2619228724
  0
LINE
  5
42C
100
AcDbEntity
  8
LAY0001
100
AcDbLine
 62
7
  6
CONTINUOUS
 10
1.5610395058
 20
12.2619228724
 11
1.5322237458
 21
12.2619228724
  0
LINE
  5
42D
100
AcDbEntity
  8
LAY0001
100
AcDbLine
 62
7
  6
CONTINUOUS
 10
1.5258202314
 20
12.2619228724
 11
1.5210176047
 21
12.2619228724
  0
LINE
  5
42E
100
AcDbEntity
  8
LAY0001
100
AcDbLine
 62
7
  6
CONTINUOUS
 10
1.5018070981
 20
12.2619228724
 11
1.4970044714
 21
12.2619228724
  0
LINE
  5
42F
100
AcDbEntity
  8
LAY0001
100
AcDbLine
 62
7
  6
CONTINUOUS
 10
1.4777939831
 20
12.2619228724
 11
1.4705900431
 21
12.2619228724
  0
LINE
  5
430
100
AcDbEntity
  8
LAY0001
100
AcDbLine
 62
7
  6
CONTINUOUS
 10
1.4505790925
 20
12.2619228724
 11
1.4457764659
 21
12.2619228724
  0
LINE
  5
431
100
AcDbEntity
  8
LAY0001
100
AcDbLine
 62
7
  6
CONTINUOUS
 10
1.4393729697
 20
12.2619228724
 11
1.4105572097
 21
12.2619228724
  0
LINE
  5
432
100
AcDbEntity
  8
LAY0001
100
AcDbLine
 62
7
  6
CONTINUOUS
 10
1.3913467031
 20
12.2619228724
 11
1.3849431887
 21
12.2619228724
  0
LINE
  5
433
100
AcDbEntity
  8
LAY0001
100
AcDbLine
 62
7
  6
CONTINUOUS
 10
1.3273116778
 20
12.2619228724
 11
1.2984959178
 21
12.2619228724
  0
LINE
  5
434
100
AcDbEntity
  8
LAY0001
100
AcDbLine
 62
7
  6
CONTINUOUS
 10
1.2920924126
 20
12.2619228724
 11
1.2872897859
 21
12.2619228724
  0
LINE
  5
435
100
AcDbEntity
  8
LAY0001
100
AcDbLine
 62
7
  6
CONTINUOUS
 10
1.276083654
 20
12.2619228724
 11
1.2696801579
 21
12.2619228724
  0
LINE
  5
436
100
AcDbEntity
  8
LAY0001
100
AcDbLine
 62
7
  6
CONTINUOUS
 10
1.2584740259
 20
12.2619228724
 11
1.2536713993
 21
12.2619228724
  0
LINE
  5
437
100
AcDbEntity
  8
LAY0001
100
AcDbLine
 62
7
  6
CONTINUOUS
 10
1.2344608926
 20
12.2619228724
 11
1.2280573919
 21
12.2619228724
  0
LINE
  5
438
100
AcDbEntity
  8
LAY0001
100
AcDbLine
 62
7
  6
CONTINUOUS
 10
1.208846883
 20
12.2619228724
 11
1.2040442563
 21
12.2619228724
  0
LINE
  5
439
100
AcDbEntity
  8
LAY0001
100
AcDbLine
 62
7
  6
CONTINUOUS
 10
1.1816319993
 20
12.2619228724
 11
1.1768293726
 21
12.2619228724
  0
LINE
  5
43A
100
AcDbEntity
  8
LAY0001
100
AcDbLine
 62
7
  6
CONTINUOUS
 10
1.8291861368
 20
12.2619228724
 11
1.8355896879
 21
12.2619228724
  0
LINE
  5
43B
100
AcDbEntity
  8
LAY0001
100
AcDbLine
 62
7
  6
CONTINUOUS
 10
1.9516531168
 20
12.2619228724
 11
1.9548548923
 21
12.2619228724
  0
LINE
  5
43C
100
AcDbEntity
  8
LAY0001
100
AcDbLine
 62
7
  6
CONTINUOUS
 10
1.9548548923
 20
12.2688511009
 11
1.9516531168
 21
12.2688511009
  0
LINE
  5
43D
100
AcDbEntity
  8
LAY0001
100
AcDbLine
 62
7
  6
CONTINUOUS
 10
1.8355896879
 20
12.2688511009
 11
1.8291861368
 21
12.2688511009
  0
LINE
  5
43E
100
AcDbEntity
  8
LAY0001
100
AcDbLine
 62
7
  6
CONTINUOUS
 10
1.2344608926
 20
12.2688511009
 11
1.2280573919
 21
12.2688511009
  0
LINE
  5
43F
100
AcDbEntity
  8
LAY0001
100
AcDbLine
 62
7
  6
CONTINUOUS
 10
1.3032985445
 20
12.2688511009
 11
1.3273116778
 21
12.2688511009
  0
LINE
  5
440
100
AcDbEntity
  8
LAY0001
100
AcDbLine
 62
7
  6
CONTINUOUS
 10
1.4153598364
 20
12.2688511009
 11
1.4393729697
 21
12.2688511009
  0
LINE
  5
441
100
AcDbEntity
  8
LAY0001
100
AcDbLine
 62
7
  6
CONTINUOUS
 10
1.5370263725
 20
12.2688511009
 11
1.5610395058
 21
12.2688511009
  0
LINE
  5
442
100
AcDbEntity
  8
LAY0001
100
AcDbLine
 62
7
  6
CONTINUOUS
 10
1.7051183058
 20
12.2688511009
 11
1.7123222458
 21
12.2688511009
  0
LINE
  5
443
100
AcDbEntity
  8
LAY0001
100
AcDbLine
 62
7
  6
CONTINUOUS
 10
2.0156881878
 20
12.2688511009
 11
2.0397013212
 21
12.2688511009
  0
LINE
  5
444
100
AcDbEntity
  8
LAY0001
100
AcDbLine
 62
7
  6
CONTINUOUS
 10
1.5914561536
 20
12.2757793295
 11
1.5754473858
 21
12.2757793295
  0
LINE
  5
445
100
AcDbEntity
  8
LAY0001
100
AcDbLine
 62
7
  6
CONTINUOUS
 10
1.822782659
 20
12.2769340341
 11
1.8179800324
 21
12.2769340341
  0
LINE
  5
446
100
AcDbEntity
  8
LAY0001
100
AcDbLine
 62
7
  6
CONTINUOUS
 10
1.5906556914
 20
12.280398148
 11
1.5762478114
 21
12.280398148
  0
LINE
  5
447
100
AcDbEntity
  8
LAY0001
100
AcDbLine
 62
7
  6
CONTINUOUS
 10
1.7187257602
 20
12.2850169681
 11
1.7115218202
 21
12.2850169681
  0
LINE
  5
448
100
AcDbEntity
  8
LAY0001
100
AcDbLine
 62
7
  6
CONTINUOUS
 10
1.8307870612
 20
12.2861716727
 11
1.8355896879
 21
12.2861716727
  0
LINE
  5
449
100
AcDbEntity
  8
LAY0001
100
AcDbLine
 62
7
  6
CONTINUOUS
 10
2.0364995456
 20
12.2873263773
 11
2.0156881878
 21
12.2873263773
  0
LINE
  5
44A
100
AcDbEntity
  8
LAY0001
100
AcDbLine
 62
7
  6
CONTINUOUS
 10
1.4361712125
 20
12.2873263773
 11
1.4153598364
 21
12.2873263773
  0
LINE
  5
44B
100
AcDbEntity
  8
LAY0001
100
AcDbLine
 62
7
  6
CONTINUOUS
 10
1.3241099206
 20
12.2873263773
 11
1.3032985445
 21
12.2873263773
  0
LINE
  5
44C
100
AcDbEntity
  8
LAY0001
100
AcDbLine
 62
7
  6
CONTINUOUS
 10
1.2040442563
 20
12.2873263773
 11
1.1816319993
 21
12.2873263773
  0
LINE
  5
44D
100
AcDbEntity
  8
LAY0001
100
AcDbLine
 62
7
  6
CONTINUOUS
 10
1.7115218202
 20
12.2919451958
 11
1.7235283869
 21
12.2919451958
  0
LINE
  5
44E
100
AcDbEntity
  8
LAY0001
100
AcDbLine
 62
7
  6
CONTINUOUS
 10
1.8355896879
 20
12.2930999004
 11
1.8307870612
 21
12.2930999004
  0
LINE
  5
44F
100
AcDbEntity
  8
LAY0001
100
AcDbLine
 62
7
  6
CONTINUOUS
 10
1.1816319993
 20
12.2942546051
 11
1.2040442563
 21
12.2942546051
  0
LINE
  5
450
100
AcDbEntity
  8
LAY0001
100
AcDbLine
 62
7
  6
CONTINUOUS
 10
1.3032985445
 20
12.2942546051
 11
1.3241099206
 21
12.2942546051
  0
LINE
  5
451
100
AcDbEntity
  8
LAY0001
100
AcDbLine
 62
7
  6
CONTINUOUS
 10
1.4153598364
 20
12.2942546051
 11
1.4361712125
 21
12.2942546051
  0
LINE
  5
452
100
AcDbEntity
  8
LAY0001
100
AcDbLine
 62
7
  6
CONTINUOUS
 10
2.0156881878
 20
12.2942546051
 11
2.0364995456
 21
12.2942546051
  0
LINE
  5
453
100
AcDbEntity
  8
LAY0001
100
AcDbLine
 62
7
  6
CONTINUOUS
 10
1.7235283869
 20
12.3023375374
 11
1.7187257602
 21
12.3023375374
  0
LINE
  5
454
100
AcDbEntity
  8
LAY0001
100
AcDbLine
 62
7
  6
CONTINUOUS
 10
1.8403923146
 20
12.3034922453
 11
1.8451949412
 21
12.3034922453
  0
LINE
  5
455
100
AcDbEntity
  8
LAY0001
100
AcDbLine
 62
7
  6
CONTINUOUS
 10
2.0397013212
 20
12.3092657684
 11
2.0156881878
 21
12.3092657684
  0
LINE
  5
456
100
AcDbEntity
  8
LAY0001
100
AcDbLine
 62
7
  6
CONTINUOUS
 10
1.7123222458
 20
12.3092657684
 11
1.7051183058
 21
12.3092657684
  0
LINE
  5
457
100
AcDbEntity
  8
LAY0001
100
AcDbLine
 62
7
  6
CONTINUOUS
 10
1.4393729697
 20
12.3092657684
 11
1.4153598364
 21
12.3092657684
  0
LINE
  5
458
100
AcDbEntity
  8
LAY0001
100
AcDbLine
 62
7
  6
CONTINUOUS
 10
1.3273116778
 20
12.3092657684
 11
1.3032985445
 21
12.3092657684
  0
LINE
  5
459
100
AcDbEntity
  8
LAY0001
100
AcDbLine
 62
7
  6
CONTINUOUS
 10
1.2280573919
 20
12.3092657684
 11
1.2344608926
 21
12.3092657684
  0
LINE
  5
45A
100
AcDbEntity
  8
LAY0001
100
AcDbLine
 62
7
  6
CONTINUOUS
 10
1.8307870612
 20
12.3092657684
 11
1.8355896879
 21
12.3092657684
  0
LINE
  5
45B
100
AcDbEntity
  8
LAY0001
100
AcDbLine
 62
7
  6
CONTINUOUS
 10
2.0044820101
 20
12.3104204731
 11
1.9916750545
 21
12.3104204731
  0
LINE
  5
45C
100
AcDbEntity
  8
LAY0001
100
AcDbLine
 62
7
  6
CONTINUOUS
 10
1.9868724279
 20
12.3104204731
 11
1.974065399
 21
12.3104204731
  0
LINE
  5
45D
100
AcDbEntity
  8
LAY0001
100
AcDbLine
 62
7
  6
CONTINUOUS
 10
1.9324426101
 20
12.3104204731
 11
1.9196356545
 21
12.3104204731
  0
LINE
  5
45E
100
AcDbEntity
  8
LAY0001
100
AcDbLine
 62
7
  6
CONTINUOUS
 10
1.9148330279
 20
12.3104204731
 11
1.902025999
 21
12.3104204731
  0
LINE
  5
45F
100
AcDbEntity
  8
LAY0001
100
AcDbLine
 62
7
  6
CONTINUOUS
 10
1.8844163435
 20
12.3104204731
 11
1.8716093879
 21
12.3104204731
  0
LINE
  5
460
100
AcDbEntity
  8
LAY0001
100
AcDbLine
 62
7
  6
CONTINUOUS
 10
1.8668067612
 20
12.3104204731
 11
1.8539997324
 21
12.3104204731
  0
LINE
  5
461
100
AcDbEntity
  8
LAY0001
100
AcDbLine
 62
7
  6
CONTINUOUS
 10
1.6362806447
 20
12.3104204731
 11
1.6234736525
 21
12.3104204731
  0
LINE
  5
462
100
AcDbEntity
  8
LAY0001
100
AcDbLine
 62
7
  6
CONTINUOUS
 10
1.6186710258
 20
12.3104204731
 11
1.6058640336
 21
12.3104204731
  0
LINE
  5
463
100
AcDbEntity
  8
LAY0001
100
AcDbLine
 62
7
  6
CONTINUOUS
 10
1.5146141269
 20
12.3104204731
 11
1.5018070981
 21
12.3104204731
  0
LINE
  5
464
100
AcDbEntity
  8
LAY0001
100
AcDbLine
 62
7
  6
CONTINUOUS
 10
1.4970044714
 20
12.3104204731
 11
1.4841974792
 21
12.3104204731
  0
LINE
  5
465
100
AcDbEntity
  8
LAY0001
100
AcDbLine
 62
7
  6
CONTINUOUS
 10
1.9676619212
 20
12.3161939962
 11
1.9628592945
 21
12.3161939962
  0
LINE
  5
466
100
AcDbEntity
  8
LAY0001
100
AcDbLine
 62
7
  6
CONTINUOUS
 10
1.9436487879
 20
12.3161939962
 11
1.9388461612
 21
12.3161939962
  0
LINE
  5
467
100
AcDbEntity
  8
LAY0001
100
AcDbLine
 62
7
  6
CONTINUOUS
 10
1.8347892257
 20
12.3161939962
 11
1.8307870612
 21
12.3161939962
  0
LINE
  5
468
100
AcDbEntity
  8
LAY0001
100
AcDbLine
 62
7
  6
CONTINUOUS
 10
1.1768293726
 20
12.3161939962
 11
1.1816319993
 21
12.3161939962
  0
LINE
  5
469
100
AcDbEntity
  8
LAY0001
100
AcDbLine
 62
7
  6
CONTINUOUS
 10
1.2040442563
 20
12.3161939962
 11
1.208846883
 21
12.3161939962
  0
LINE
  5
46A
100
AcDbEntity
  8
LAY0001
100
AcDbLine
 62
7
  6
CONTINUOUS
 10
1.2280573919
 20
12.3161939962
 11
1.2344608926
 21
12.3161939962
  0
LINE
  5
46B
100
AcDbEntity
  8
LAY0001
100
AcDbLine
 62
7
  6
CONTINUOUS
 10
1.2536713993
 20
12.3161939962
 11
1.2608753393
 21
12.3161939962
  0
LINE
  5
46C
100
AcDbEntity
  8
LAY0001
100
AcDbLine
 62
7
  6
CONTINUOUS
 10
1.2848884726
 20
12.3161939962
 11
1.2920924126
 21
12.3161939962
  0
LINE
  5
46D
100
AcDbEntity
  8
LAY0001
100
AcDbLine
 62
7
  6
CONTINUOUS
 10
1.2984959178
 20
12.3161939962
 11
1.3273116778
 21
12.3161939962
  0
LINE
  5
46E
100
AcDbEntity
  8
LAY0001
100
AcDbLine
 62
7
  6
CONTINUOUS
 10
1.3721361964
 20
12.3161939962
 11
1.3769388231
 21
12.3161939962
  0
LINE
  5
46F
100
AcDbEntity
  8
LAY0001
100
AcDbLine
 62
7
  6
CONTINUOUS
 10
1.3993510686
 20
12.3161939962
 11
1.4041536953
 21
12.3161939962
  0
LINE
  5
470
100
AcDbEntity
  8
LAY0001
100
AcDbLine
 62
7
  6
CONTINUOUS
 10
1.4105572097
 20
12.3161939962
 11
1.4393729697
 21
12.3161939962
  0
LINE
  5
471
100
AcDbEntity
  8
LAY0001
100
AcDbLine
 62
7
  6
CONTINUOUS
 10
1.4457764659
 20
12.3161939962
 11
1.4529804058
 21
12.3161939962
  0
LINE
  5
472
100
AcDbEntity
  8
LAY0001
100
AcDbLine
 62
7
  6
CONTINUOUS
 10
1.4729913564
 20
12.3161939962
 11
1.4777939831
 21
12.3161939962
  0
LINE
  5
473
100
AcDbEntity
  8
LAY0001
100
AcDbLine
 62
7
  6
CONTINUOUS
 10
1.4841974792
 20
12.3161939962
 11
1.5146141269
 21
12.3161939962
  0
LINE
  5
474
100
AcDbEntity
  8
LAY0001
100
AcDbLine
 62
7
  6
CONTINUOUS
 10
1.5210176047
 20
12.3161939962
 11
1.5258202314
 21
12.3161939962
  0
LINE
  5
475
100
AcDbEntity
  8
LAY0001
100
AcDbLine
 62
7
  6
CONTINUOUS
 10
1.5322237458
 20
12.3161939962
 11
1.5370263725
 21
12.3161939962
  0
LINE
  5
476
100
AcDbEntity
  8
LAY0001
100
AcDbLine
 62
7
  6
CONTINUOUS
 10
1.5802500125
 20
12.3161939962
 11
1.5866535269
 21
12.3161939962
  0
LINE
  5
477
100
AcDbEntity
  8
LAY0001
100
AcDbLine
 62
7
  6
CONTINUOUS
 10
1.6058640336
 20
12.3161939962
 11
1.6362806447
 21
12.3161939962
  0
LINE
  5
478
100
AcDbEntity
  8
LAY0001
100
AcDbLine
 62
7
  6
CONTINUOUS
 10
1.6426841591
 20
12.3161939962
 11
1.6474867858
 21
12.3161939962
  0
LINE
  5
479
100
AcDbEntity
  8
LAY0001
100
AcDbLine
 62
7
  6
CONTINUOUS
 10
1.6538903002
 20
12.3161939962
 11
1.6610942402
 21
12.3161939962
  0
LINE
  5
47A
100
AcDbEntity
  8
LAY0001
100
AcDbLine
 62
7
  6
CONTINUOUS
 10
1.6811051724
 20
12.3161939962
 11
1.6859077991
 21
12.3161939962
  0
LINE
  5
47B
100
AcDbEntity
  8
LAY0001
100
AcDbLine
 62
7
  6
CONTINUOUS
 10
1.7051183058
 20
12.3161939962
 11
1.7123222458
 21
12.3161939962
  0
LINE
  5
47C
100
AcDbEntity
  8
LAY0001
100
AcDbLine
 62
7
  6
CONTINUOUS
 10
1.768352878
 20
12.3161939962
 11
1.7731555046
 21
12.3161939962
  0
LINE
  5
47D
100
AcDbEntity
  8
LAY0001
100
AcDbLine
 62
7
  6
CONTINUOUS
 10
1.7795590191
 20
12.3161939962
 11
1.7867629591
 21
12.3161939962
  0
LINE
  5
47E
100
AcDbEntity
  8
LAY0001
100
AcDbLine
 62
7
  6
CONTINUOUS
 10
1.8067739279
 20
12.3161939962
 11
1.8115765546
 21
12.3161939962
  0
LINE
  5
47F
100
AcDbEntity
  8
LAY0001
100
AcDbLine
 62
7
  6
CONTINUOUS
 10
1.8539997324
 20
12.3161939962
 11
1.8844163435
 21
12.3161939962
  0
LINE
  5
480
100
AcDbEntity
  8
LAY0001
100
AcDbLine
 62
7
  6
CONTINUOUS
 10
1.8908198946
 20
12.3161939962
 11
1.8956225212
 21
12.3161939962
  0
LINE
  5
481
100
AcDbEntity
  8
LAY0001
100
AcDbLine
 62
7
  6
CONTINUOUS
 10
1.902025999
 20
12.3161939962
 11
1.9324426101
 21
12.3161939962
  0
LINE
  5
482
100
AcDbEntity
  8
LAY0001
100
AcDbLine
 62
7
  6
CONTINUOUS
 10
1.974065399
 20
12.3161939962
 11
2.0044820101
 21
12.3161939962
  0
LINE
  5
483
100
AcDbEntity
  8
LAY0001
100
AcDbLine
 62
7
  6
CONTINUOUS
 10
2.0108855612
 20
12.3161939962
 11
2.0397013212
 21
12.3161939962
  0
LINE
  5
484
100
AcDbEntity
  8
LAY0001
100
AcDbLine
 62
7
  6
CONTINUOUS
 10
2.0415837955
 20
12.3332169771
 11
1.9943584065
 21
12.3332169771
  0
LINE
  5
485
100
AcDbEntity
  8
LAY0001
100
AcDbLine
 62
7
  6
CONTINUOUS
 10
1.767676517
 20
12.3332169771
 11
1.6921158872
 21
12.3332169771
  0
LINE
  5
486
100
AcDbEntity
  8
LAY0001
100
AcDbLine
 62
7
  6
CONTINUOUS
 10
1.4654340165
 20
12.3332169771
 11
1.4087635535
 21
12.3332169771
  0
LINE
  5
487
100
AcDbEntity
  8
LAY0001
100
AcDbLine
 62
7
  6
CONTINUOUS
 10
1.1443013678
 20
12.3332169771
 11
1.087630886
 21
12.3332169771
  0
LINE
  5
488
100
AcDbEntity
  8
LAY0001
100
AcDbLine
 62
7
  6
CONTINUOUS
 10
1.4087635535
 20
12.4385924322
 11
1.1443013678
 21
12.4385924322
  0
LINE
  5
489
100
AcDbEntity
  8
LAY0001
100
AcDbLine
 62
7
  6
CONTINUOUS
 10
1.1443013678
 20
12.4673311918
 11
1.4087635535
 21
12.4673311918
  0
LINE
  5
48A
100
AcDbEntity
  8
LAY0001
100
AcDbLine
 62
7
  6
CONTINUOUS
 10
1.9943584065
 20
12.486490368
 11
2.0415837955
 21
12.486490368
  0
LINE
  5
48B
100
AcDbEntity
  8
LAY0001
100
AcDbLine
 62
7
  6
CONTINUOUS
 10
2.0415837955
 20
12.5343883039
 11
1.9943584065
 21
12.5343883039
  0
LINE
  5
48C
100
AcDbEntity
  8
LAY0001
100
AcDbLine
 62
7
  6
CONTINUOUS
 10
1.087630886
 20
12.5583372695
 11
1.1443013678
 21
12.5583372695
  0
LINE
  5
48D
100
AcDbEntity
  8
LAY0001
100
AcDbLine
 62
7
  6
CONTINUOUS
 10
1.4087635535
 20
12.5583372695
 11
1.4654340165
 21
12.5583372695
  0
LINE
  5
48E
100
AcDbEntity
  8
LAY0001
100
AcDbLine
 62
7
  6
CONTINUOUS
 10
1.5409946416
 20
12.5583372695
 11
1.5976651093
 21
12.5583372695
  0
LINE
  5
48F
100
AcDbEntity
  8
LAY0001
100
AcDbLine
 62
7
  6
CONTINUOUS
 10
1.8621272949
 20
12.5583372695
 11
1.9187977767
 21
12.5583372695
  0
LINE
  5
490
100
AcDbEntity
  8
LAY0001
100
AcDbLine
 62
7
  6
CONTINUOUS
 10
1.9943584065
 20
12.5583372695
 11
2.0415837955
 21
12.5583372695
  0
LINE
  5
491
100
AcDbEntity
  8
LAY0001
100
AcDbLine
 62
7
  6
CONTINUOUS
 10
1.048862711
 20
12.5872871915
 11
2.1709099551
 21
12.5872871915
  0
LINE
  5
492
100
AcDbEntity
  8
0
100
AcDbLine
 62
7
  6
CONTINUOUS
 10
4.2271810815
 20
12.7045909089
 11
4.7059588584
 21
12.7045909089
  0
LINE
  5
493
100
AcDbEntity
  8
0
100
AcDbLine
 62
7
  6
CONTINUOUS
 10
4.2296039446
 20
12.7078760776
 11
4.7083817215
 21
12.7078760776
  0
LINE
  5
494
100
AcDbEntity
  8
LAY0001
100
AcDbLine
 62
7
  6
CONTINUOUS
 10
1.3116541196
 20
12.9246602462
 11
1.3185233794
 21
12.922893871
  0
LINE
  5
495
100
AcDbEntity
  8
LAY0001
100
AcDbLine
 62
7
  6
CONTINUOUS
 10
1.3363834358
 20
12.968819628
 11
1.3295141761
 21
12.9705860031
  0
LINE
  5
496
100
AcDbEntity
  8
LAY0001
100
AcDbLine
 62
7
  6
CONTINUOUS
 10
1.6056582221
 20
12.922893871
 11
1.5987889467
 21
12.9246602462
  0
LINE
  5
497
100
AcDbEntity
  8
LAY0001
100
AcDbLine
 62
7
  6
CONTINUOUS
 10
1.8251839724
 20
12.2630775771
 11
1.8291861368
 21
12.2619228724
  0
LINE
  5
498
100
AcDbEntity
  8
LAY0001
100
AcDbLine
 62
7
  6
CONTINUOUS
 10
1.7123222458
 20
12.3161939962
 11
1.7163244469
 21
12.3150392915
  0
LINE
  5
499
100
AcDbEntity
  8
LAY0001
100
AcDbLine
 62
7
  6
CONTINUOUS
 10
1.8395918524
 20
12.2919451958
 11
1.8355896879
 21
12.2930999004
  0
LINE
  5
49A
100
AcDbEntity
  8
LAY0001
100
AcDbLine
 62
7
  6
CONTINUOUS
 10
1.9476509523
 20
12.2630775771
 11
1.9516531168
 21
12.2619228724
  0
LINE
  5
49B
100
AcDbEntity
  8
LAY0001
100
AcDbLine
 62
7
  6
CONTINUOUS
 10
1.8387913902
 20
12.3150392915
 11
1.8347892257
 21
12.3161939962
  0
LINE
  5
49C
100
AcDbEntity
  8
LAY0001
100
AcDbLine
 62
7
  6
CONTINUOUS
 10
1.3185233794
 20
12.9334921227
 11
1.3130279653
 21
12.9352584978
  0
LINE
  5
49D
100
AcDbEntity
  8
LAY0001
100
AcDbLine
 62
7
  6
CONTINUOUS
 10
1.3157756723
 20
12.9617541277
 11
1.3212710707
 21
12.9599877526
  0
LINE
  5
49E
100
AcDbEntity
  8
LAY0001
100
AcDbLine
 62
7
  6
CONTINUOUS
 10
1.3295141761
 20
12.9599877526
 11
1.3350095901
 21
12.9582213776
  0
LINE
  5
49F
100
AcDbEntity
  8
LAY0001
100
AcDbLine
 62
7
  6
CONTINUOUS
 10
1.600162808
 20
12.9352584978
 11
1.6056582221
 21
12.9334921227
  0
LINE
  5
4A0
100
AcDbEntity
  8
LAY0001
100
AcDbLine
 62
7
  6
CONTINUOUS
 10
1.5177317542
 20
12.9953152592
 11
1.5232271683
 21
12.9935488841
  0
LINE
  5
4A1
100
AcDbEntity
  8
LAY0001
100
AcDbLine
 62
7
  6
CONTINUOUS
 10
1.8275852857
 20
12.2873263773
 11
1.8307870612
 21
12.2861716727
  0
LINE
  5
4A2
100
AcDbEntity
  8
LAY0001
100
AcDbLine
 62
7
  6
CONTINUOUS
 10
1.8355896879
 20
12.2861716727
 11
1.8387913902
 21
12.2850169681
  0
LINE
  5
4A3
100
AcDbEntity
  8
LAY0001
100
AcDbLine
 62
7
  6
CONTINUOUS
 10
1.9516531168
 20
12.2688511009
 11
1.9484514145
 21
12.2700058055
  0
LINE
  5
4A4
100
AcDbEntity
  8
LAY0001
100
AcDbLine
 62
7
  6
CONTINUOUS
 10
1.3212710707
 20
12.9705860031
 11
1.317149518
 21
12.9723523782
  0
LINE
  5
4A5
100
AcDbEntity
  8
LAY0001
100
AcDbLine
 62
7
  6
CONTINUOUS
 10
1.3295141761
 20
12.9953152592
 11
1.3336357288
 21
12.9935488841
  0
LINE
  5
4A6
100
AcDbEntity
  8
LAY0001
100
AcDbLine
 62
7
  6
CONTINUOUS
 10
1.747164875
 20
12.9953152592
 11
1.7430433223
 21
12.9970816343
  0
LINE
  5
4A7
100
AcDbEntity
  8
LAY0001
100
AcDbLine
 62
7
  6
CONTINUOUS
 10
2.1709099551
 20
12.5872871915
 11
1.609886333
 21
12.8628777426
  0
LINE
  5
4A8
100
AcDbEntity
  8
LAY0001
100
AcDbLine
 62
7
  6
CONTINUOUS
 10
1.310280274
 20
12.9652868779
 11
1.3157756723
 21
12.9617541277
  0
LINE
  5
4A9
100
AcDbEntity
  8
LAY0001
100
AcDbLine
 62
7
  6
CONTINUOUS
 10
1.3418788341
 20
12.9652868779
 11
1.3363834358
 21
12.968819628
  0
LINE
  5
4AA
100
AcDbEntity
  8
LAY0001
100
AcDbLine
 62
7
  6
CONTINUOUS
 10
1.5987889467
 20
12.9246602462
 11
1.593293564
 21
12.9281929969
  0
LINE
  5
4AB
100
AcDbEntity
  8
LAY0001
100
AcDbLine
 62
7
  6
CONTINUOUS
 10
1.5246009982
 20
13.0041471346
 11
1.5300964123
 21
13.0006143845
  0
LINE
  5
4AC
100
AcDbEntity
  8
LAY0001
100
AcDbLine
 62
7
  6
CONTINUOUS
 10
1.6248921242
 20
13.0041471346
 11
1.6303875383
 21
13.0006143845
  0
LINE
  5
4AD
100
AcDbEntity
  8
LAY0001
100
AcDbLine
 62
7
  6
CONTINUOUS
 10
2.0342996705
 20
13.0041471346
 11
2.0397951161
 21
13.0006143845
  0
LINE
  5
4AE
100
AcDbEntity
  8
LAY0001
100
AcDbLine
 62
7
  6
CONTINUOUS
 10
1.5548257284
 20
12.9405576243
 11
1.5507041757
 21
12.9440903744
  0
LINE
  5
4AF
100
AcDbEntity
  8
LAY0001
100
AcDbLine
 62
7
  6
CONTINUOUS
 10
1.5232271683
 20
12.9935488841
 11
1.527348721
 21
12.990016134
  0
LINE
  5
4B0
100
AcDbEntity
  8
LAY0001
100
AcDbLine
 62
7
  6
CONTINUOUS
 10
1.5960412553
 20
12.9387912492
 11
1.600162808
 21
12.9352584978
  0
LINE
  5
4B1
100
AcDbEntity
  8
LAY0001
100
AcDbLine
 62
7
  6
CONTINUOUS
 10
1.5685642479
 20
12.9882497589
 11
1.5726858006
 21
12.9847170038
  0
LINE
  5
4B2
100
AcDbEntity
  8
LAY0001
100
AcDbLine
 62
7
  6
CONTINUOUS
 10
1.6276398155
 20
12.990016134
 11
1.6235182628
 21
12.9935488841
  0
LINE
  5
4B3
100
AcDbEntity
  8
LAY0001
100
AcDbLine
 62
7
  6
CONTINUOUS
 10
2.0329258406
 20
12.9935488841
 11
2.0370473933
 21
12.990016134
  0
LINE
  5
4B4
100
AcDbEntity
  8
LAY0001
100
AcDbLine
 62
7
  6
CONTINUOUS
 10
1.7540340875
 20
12.9988480094
 11
1.7485387049
 21
13.0041471346
  0
LINE
  5
4B5
100
AcDbEntity
  8
LAY0001
100
AcDbLine
 62
7
  6
CONTINUOUS
 10
2.0397951161
 20
13.0006143845
 11
2.0452904987
 21
12.9935488841
  0
LINE
  5
4B6
100
AcDbEntity
  8
03___PRT_ALL_CURVES
100
AcDbLine
 62
4
  6
CONTINUOUS
 10
4.1443746667
 20
12.9812224417
 11
4.1441613544
 21
12.984622837
  0
LINE
  5
4B7
100
AcDbEntity
  8
03___PRT_ALL_CURVES
100
AcDbLine
 62
4
  6
CONTINUOUS
 10
4.1752429844
 20
12.9412209356
 11
4.1750296748
 21
12.9446213303
  0
LINE
  5
4B8
100
AcDbEntity
  8
03___PRT_ALL_CURVES
100
AcDbLine
 62
4
  6
CONTINUOUS
 10
4.2192911318
 20
12.9199684653
 11
4.2195044441
 21
12.91656807
  0
LINE
  5
4B9
100
AcDbEntity
  8
03___PRT_ALL_CURVES
100
AcDbLine
 62
4
  6
CONTINUOUS
 10
4.298950217
 20
12.984622837
 11
4.2991635147
 21
12.9812224417
  0
LINE
  5
4BA
100
AcDbEntity
  8
03___PRT_ALL_CURVES
100
AcDbLine
 62
4
  6
CONTINUOUS
 10
4.4748206408
 20
13.0058753073
 11
4.4746073433
 21
13.009275702
  0
LINE
  5
4BB
100
AcDbEntity
  8
0
100
AcDbLine
 62
7
  6
CONTINUOUS
 10
4.2942344033
 20
10.1443738056
 11
4.2942344033
 21
10.2747695816
  0
LINE
  5
4BC
100
AcDbEntity
  8
0
100
AcDbLine
 62
7
  6
CONTINUOUS
 10
4.2942344033
 20
10.294454621
 11
4.2942344033
 21
11.0302005773
  0
LINE
  5
4BD
100
AcDbEntity
  8
0
100
AcDbLine
 62
7
  6
CONTINUOUS
 10
4.348381526
 20
10.0853186875
 11
4.348381526
 21
11.0892556954
  0
LINE
  5
4BE
100
AcDbEntity
  8
03___PRT_ALL_CURVES
100
AcDbLine
 62
4
  6
CONTINUOUS
 10
4.4806348837
 20
13.0075755046
 11
4.4803719345
 21
13.0050252063
  0
LINE
  5
4BF
100
AcDbEntity
  8
LAY0001
100
AcDbLine
 62
7
  6
CONTINUOUS
 10
1.5246009982
 20
12.9246602462
 11
1.5177317542
 21
12.922893871
  0
LINE
  5
4C0
100
AcDbEntity
  8
LAY0001
100
AcDbLine
 62
7
  6
CONTINUOUS
 10
1.3295141761
 20
12.922893871
 11
1.3363834358
 21
12.9246602462
  0
LINE
  5
4C1
100
AcDbEntity
  8
LAY0001
100
AcDbLine
 62
7
  6
CONTINUOUS
 10
1.5987889467
 20
13.0041471346
 11
1.6056582221
 21
13.0059135097
  0
LINE
  5
4C2
100
AcDbEntity
  8
03___PRT_ALL_CURVES
100
AcDbLine
 62
4
  6
CONTINUOUS
 10
4.4469859825
 20
12.9106173787
 11
4.441910938
 21
12.9106173787
  0
LINE
  5
4C3
100
AcDbEntity
  8
03___PRT_ALL_CURVES
100
AcDbLine
 62
4
  6
CONTINUOUS
 10
4.4216107603
 20
12.9106173787
 11
4.4165357159
 21
12.9106173787
  0
LINE
  5
4C4
100
AcDbEntity
  8
03___PRT_ALL_CURVES
100
AcDbLine
 62
4
  6
CONTINUOUS
 10
4.3928521687
 20
12.9106173787
 11
4.3877771243
 21
12.9106173787
  0
LINE
  5
4C5
100
AcDbEntity
  8
03___PRT_ALL_CURVES
100
AcDbLine
 62
4
  6
CONTINUOUS
 10
4.3810104048
 20
12.9106173787
 11
4.3505601382
 21
12.9106173787
  0
LINE
  5
4C6
100
AcDbEntity
  8
03___PRT_ALL_CURVES
100
AcDbLine
 62
4
  6
CONTINUOUS
 10
4.3302599605
 20
12.9106173787
 11
4.325184916
 21
12.9106173787
  0
LINE
  5
4C7
100
AcDbEntity
  8
03___PRT_ALL_CURVES
100
AcDbLine
 62
4
  6
CONTINUOUS
 10
4.2118422489
 20
12.9106173787
 11
4.2050755246
 21
12.9106173787
  0
LINE
  5
4C8
100
AcDbEntity
  8
03___PRT_ALL_CURVES
100
AcDbLine
 62
4
  6
CONTINUOUS
 10
4.1594001247
 20
12.9106173787
 11
4.1543250802
 21
12.9106173787
  0
LINE
  5
4C9
100
AcDbEntity
  8
03___PRT_ALL_CURVES
100
AcDbLine
 62
4
  6
CONTINUOUS
 10
4.2321424266
 20
12.9106173787
 11
4.2372174759
 21
12.9106173787
  0
LINE
  5
4CA
100
AcDbEntity
  8
03___PRT_ALL_CURVES
100
AcDbLine
 62
4
  6
CONTINUOUS
 10
4.2583634912
 20
12.9106173787
 11
4.2642843731
 21
12.9106173787
  0
LINE
  5
4CB
100
AcDbEntity
  8
03___PRT_ALL_CURVES
100
AcDbLine
 62
4
  6
CONTINUOUS
 10
4.2089847608
 20
12.9157179713
 11
4.2022180365
 21
12.9157179713
  0
LINE
  5
4CC
100
AcDbEntity
  8
03___PRT_ALL_CURVES
100
AcDbLine
 62
4
  6
CONTINUOUS
 10
4.3527776946
 20
12.9157179713
 11
4.3781529167
 21
12.9157179713
  0
LINE
  5
4CD
100
AcDbEntity
  8
LAY0001
100
AcDbLine
 62
7
  6
CONTINUOUS
 10
2.027430458
 20
12.922893871
 11
1.9944580365
 21
12.922893871
  0
LINE
  5
4CE
100
AcDbEntity
  8
LAY0001
100
AcDbLine
 62
7
  6
CONTINUOUS
 10
1.9834672083
 20
12.922893871
 11
1.934008576
 21
12.922893871
  0
LINE
  5
4CF
100
AcDbEntity
  8
LAY0001
100
AcDbLine
 62
7
  6
CONTINUOUS
 10
1.9230177479
 20
12.922893871
 11
1.9147746425
 21
12.922893871
  0
LINE
  5
4D0
100
AcDbEntity
  8
LAY0001
100
AcDbLine
 62
7
  6
CONTINUOUS
 10
1.8625683503
 20
12.922893871
 11
1.854325245
 21
12.922893871
  0
LINE
  5
4D1
100
AcDbEntity
  8
LAY0001
100
AcDbLine
 62
7
  6
CONTINUOUS
 10
1.8433344168
 20
12.922893871
 11
1.8350913114
 21
12.922893871
  0
LINE
  5
4D2
100
AcDbEntity
  8
LAY0001
100
AcDbLine
 62
7
  6
CONTINUOUS
 10
1.8021188899
 20
12.922893871
 11
1.7938757845
 21
12.922893871
  0
LINE
  5
4D3
100
AcDbEntity
  8
LAY0001
100
AcDbLine
 62
7
  6
CONTINUOUS
 10
1.6977062112
 20
12.922893871
 11
1.6482475789
 21
12.922893871
  0
LINE
  5
4D4
100
AcDbEntity
  8
LAY0001
100
AcDbLine
 62
7
  6
CONTINUOUS
 10
1.6180228802
 20
12.922893871
 11
1.6056582221
 21
12.922893871
  0
LINE
  5
4D5
100
AcDbEntity
  8
LAY0001
100
AcDbLine
 62
7
  6
CONTINUOUS
 10
1.5177317542
 20
12.922893871
 11
1.4847593327
 21
12.922893871
  0
LINE
  5
4D6
100
AcDbEntity
  8
LAY0001
100
AcDbLine
 62
7
  6
CONTINUOUS
 10
1.473768536
 20
12.922893871
 11
1.424309888
 21
12.922893871
  0
LINE
  5
4D7
100
AcDbEntity
  8
LAY0001
100
AcDbLine
 62
7
  6
CONTINUOUS
 10
1.3913374664
 20
12.922893871
 11
1.3830943611
 21
12.922893871
  0
LINE
  5
4D8
100
AcDbEntity
  8
LAY0001
100
AcDbLine
 62
7
  6
CONTINUOUS
 10
1.288298657
 20
12.922893871
 11
1.2388400208
 21
12.922893871
  0
LINE
  5
4D9
100
AcDbEntity
  8
LAY0001
100
AcDbLine
 62
7
  6
CONTINUOUS
 10
1.2058676012
 20
12.922893871
 11
1.1976244958
 21
12.922893871
  0
LINE
  5
4DA
100
AcDbEntity
  8
LAY0001
100
AcDbLine
 62
7
  6
CONTINUOUS
 10
1.3185233794
 20
12.922893871
 11
1.3295141761
 21
12.922893871
  0
LINE
  5
4DB
100
AcDbEntity
  8
LAY0001
100
AcDbLine
 62
7
  6
CONTINUOUS
 10
1.7086970079
 20
12.922893871
 11
1.7169401133
 21
12.922893871
  0
LINE
  5
4DC
100
AcDbEntity
  8
LAY0001
100
AcDbLine
 62
7
  6
CONTINUOUS
 10
1.7512864277
 20
12.922893871
 11
1.760903363
 21
12.922893871
  0
LINE
  5
4DD
100
AcDbEntity
  8
03___PRT_ALL_CURVES
100
AcDbLine
 62
4
  6
CONTINUOUS
 10
4.2272162675
 20
12.9284694532
 11
4.2415955536
 21
12.9284694532
  0
LINE
  5
4DE
100
AcDbEntity
  8
03___PRT_ALL_CURVES
100
AcDbLine
 62
4
  6
CONTINUOUS
 10
4.367149579
 20
12.9293195518
 11
4.3451577262
 21
12.9293195518
  0
LINE
  5
4DF
100
AcDbEntity
  8
03___PRT_ALL_CURVES
100
AcDbLine
 62
4
  6
CONTINUOUS
 10
4.1709145283
 20
12.9293195518
 11
4.1489226683
 21
12.9293195518
  0
LINE
  5
4E0
100
AcDbEntity
  8
LAY0001
100
AcDbLine
 62
7
  6
CONTINUOUS
 10
2.027430458
 20
12.9334921227
 11
2.0027011418
 21
12.9334921227
  0
LINE
  5
4E1
100
AcDbEntity
  8
LAY0001
100
AcDbLine
 62
7
  6
CONTINUOUS
 10
1.5177317542
 20
12.9334921227
 11
1.4930024381
 21
12.9334921227
  0
LINE
  5
4E2
100
AcDbEntity
  8
LAY0001
100
AcDbLine
 62
7
  6
CONTINUOUS
 10
1.3295141761
 20
12.9334921227
 11
1.3185233794
 21
12.9334921227
  0
LINE
  5
4E3
100
AcDbEntity
  8
LAY0001
100
AcDbLine
 62
7
  6
CONTINUOUS
 10
1.2470831301
 20
12.9334921227
 11
1.288298657
 21
12.9334921227
  0
LINE
  5
4E4
100
AcDbEntity
  8
LAY0001
100
AcDbLine
 62
7
  6
CONTINUOUS
 10
1.4325529933
 20
12.9334921227
 11
1.473768536
 21
12.9334921227
  0
LINE
  5
4E5
100
AcDbEntity
  8
LAY0001
100
AcDbLine
 62
7
  6
CONTINUOUS
 10
1.6056582221
 20
12.9334921227
 11
1.6180228802
 21
12.9334921227
  0
LINE
  5
4E6
100
AcDbEntity
  8
LAY0001
100
AcDbLine
 62
7
  6
CONTINUOUS
 10
1.6564906843
 20
12.9334921227
 11
1.6977062112
 21
12.9334921227
  0
LINE
  5
4E7
100
AcDbEntity
  8
LAY0001
100
AcDbLine
 62
7
  6
CONTINUOUS
 10
1.9422516814
 20
12.9334921227
 11
1.9834672083
 21
12.9334921227
  0
LINE
  5
4E8
100
AcDbEntity
  8
03___PRT_ALL_CURVES
100
AcDbLine
 62
4
  6
CONTINUOUS
 10
4.2243587797
 20
12.9335700452
 11
4.2404297505
 21
12.9335700452
  0
LINE
  5
4E9
100
AcDbEntity
  8
03___PRT_ALL_CURVES
100
AcDbLine
 62
4
  6
CONTINUOUS
 10
4.1460651805
 20
12.9344201439
 11
4.1680570406
 21
12.9344201439
  0
LINE
  5
4EA
100
AcDbEntity
  8
03___PRT_ALL_CURVES
100
AcDbLine
 62
4
  6
CONTINUOUS
 10
4.3423002385
 20
12.9344201439
 11
4.3642920913
 21
12.9344201439
  0
LINE
  5
4EB
100
AcDbEntity
  8
LAY0001
100
AcDbLine
 62
7
  6
CONTINUOUS
 10
1.6290136769
 20
12.9440903744
 11
1.6372567823
 21
12.9440903744
  0
LINE
  5
4EC
100
AcDbEntity
  8
03___PRT_ALL_CURVES
100
AcDbLine
 62
4
  6
CONTINUOUS
 10
4.3614842359
 20
12.9454714289
 11
4.3361090137
 21
12.9454714289
  0
LINE
  5
4ED
100
AcDbEntity
  8
03___PRT_ALL_CURVES
100
AcDbLine
 62
4
  6
CONTINUOUS
 10
4.1652491779
 20
12.9454714289
 11
4.1398739557
 21
12.9454714289
  0
LINE
  5
4EE
100
AcDbEntity
  8
03___PRT_ALL_CURVES
100
AcDbLine
 62
4
  6
CONTINUOUS
 10
4.1855493557
 20
12.9454714289
 11
4.19231608
 21
12.9454714289
  0
LINE
  5
4EF
100
AcDbEntity
  8
LAY0001
100
AcDbLine
 62
7
  6
CONTINUOUS
 10
1.307532567
 20
12.9458567495
 11
1.2992894616
 21
12.9458567495
  0
LINE
  5
4F0
100
AcDbEntity
  8
03___PRT_ALL_CURVES
100
AcDbLine
 62
4
  6
CONTINUOUS
 10
4.4405170045
 20
12.9463215276
 11
4.4269835656
 21
12.9463215276
  0
LINE
  5
4F1
100
AcDbEntity
  8
03___PRT_ALL_CURVES
100
AcDbLine
 62
4
  6
CONTINUOUS
 10
4.4219085212
 20
12.9463215276
 11
4.4083750629
 21
12.9463215276
  0
LINE
  5
4F2
100
AcDbEntity
  8
03___PRT_ALL_CURVES
100
AcDbLine
 62
4
  6
CONTINUOUS
 10
4.3237909825
 20
12.9463215276
 11
4.3102575436
 21
12.9463215276
  0
LINE
  5
4F3
100
AcDbEntity
  8
03___PRT_ALL_CURVES
100
AcDbLine
 62
4
  6
CONTINUOUS
 10
4.3051824991
 20
12.9463215276
 11
4.2916490409
 21
12.9463215276
  0
LINE
  5
4F4
100
AcDbEntity
  8
03___PRT_ALL_CURVES
100
AcDbLine
 62
4
  6
CONTINUOUS
 10
4.2332860298
 20
12.9463215276
 11
4.217215059
 21
12.9463215276
  0
LINE
  5
4F5
100
AcDbEntity
  8
03___PRT_ALL_CURVES
100
AcDbLine
 62
4
  6
CONTINUOUS
 10
4.2300589525
 20
12.950572021
 11
4.20975877
 21
12.950572021
  0
LINE
  5
4F6
100
AcDbEntity
  8
03___PRT_ALL_CURVES
100
AcDbLine
 62
4
  6
CONTINUOUS
 10
4.1319414236
 20
12.950572021
 11
4.1623916902
 21
12.950572021
  0
LINE
  5
4F7
100
AcDbEntity
  8
03___PRT_ALL_CURVES
100
AcDbLine
 62
4
  6
CONTINUOUS
 10
4.1826918679
 20
12.950572021
 11
4.1894585922
 21
12.950572021
  0
LINE
  5
4F8
100
AcDbEntity
  8
03___PRT_ALL_CURVES
100
AcDbLine
 62
4
  6
CONTINUOUS
 10
4.2892678011
 20
12.950572021
 11
4.3214097427
 21
12.950572021
  0
LINE
  5
4F9
100
AcDbEntity
  8
03___PRT_ALL_CURVES
100
AcDbLine
 62
4
  6
CONTINUOUS
 10
4.3281764815
 20
12.950572021
 11
4.3586267481
 21
12.950572021
  0
LINE
  5
4FA
100
AcDbEntity
  8
03___PRT_ALL_CURVES
100
AcDbLine
 62
4
  6
CONTINUOUS
 10
4.3653934676
 20
12.950572021
 11
4.370468512
 21
12.950572021
  0
LINE
  5
4FB
100
AcDbEntity
  8
03___PRT_ALL_CURVES
100
AcDbLine
 62
4
  6
CONTINUOUS
 10
4.3941520592
 20
12.950572021
 11
4.3992271036
 21
12.950572021
  0
LINE
  5
4FC
100
AcDbEntity
  8
03___PRT_ALL_CURVES
100
AcDbLine
 62
4
  6
CONTINUOUS
 10
4.4059938231
 20
12.950572021
 11
4.4381357647
 21
12.950572021
  0
LINE
  5
4FD
100
AcDbEntity
  8
LAY0001
100
AcDbLine
 62
7
  6
CONTINUOUS
 10
1.3212710707
 20
12.9599877526
 11
1.3295141761
 21
12.9599877526
  0
LINE
  5
4FE
100
AcDbEntity
  8
LAY0001
100
AcDbLine
 62
7
  6
CONTINUOUS
 10
1.7169401133
 20
12.9599877526
 11
1.7402955995
 21
12.9599877526
  0
LINE
  5
4FF
100
AcDbEntity
  8
LAY0001
100
AcDbLine
 62
7
  6
CONTINUOUS
 10
1.9779718257
 20
12.9617541277
 11
1.9422516814
 21
12.9617541277
  0
LINE
  5
500
100
AcDbEntity
  8
LAY0001
100
AcDbLine
 62
7
  6
CONTINUOUS
 10
1.8982884317
 20
12.9617541277
 11
1.8625683503
 21
12.9617541277
  0
LINE
  5
501
100
AcDbEntity
  8
LAY0001
100
AcDbLine
 62
7
  6
CONTINUOUS
 10
1.6922108286
 20
12.9617541277
 11
1.6564906843
 21
12.9617541277
  0
LINE
  5
502
100
AcDbEntity
  8
LAY0001
100
AcDbLine
 62
7
  6
CONTINUOUS
 10
1.4682731219
 20
12.9617541277
 11
1.4325529933
 21
12.9617541277
  0
LINE
  5
503
100
AcDbEntity
  8
LAY0001
100
AcDbLine
 62
7
  6
CONTINUOUS
 10
1.2828032508
 20
12.9617541277
 11
1.2470831301
 21
12.9617541277
  0
LINE
  5
504
100
AcDbEntity
  8
LAY0001
100
AcDbLine
 62
7
  6
CONTINUOUS
 10
1.3295141761
 20
12.9705860031
 11
1.3212710707
 21
12.9705860031
  0
LINE
  5
505
100
AcDbEntity
  8
LAY0001
100
AcDbLine
 62
7
  6
CONTINUOUS
 10
1.7169401133
 20
12.9705860031
 11
1.7430433223
 21
12.9705860031
  0
LINE
  5
506
100
AcDbEntity
  8
LAY0001
100
AcDbLine
 62
7
  6
CONTINUOUS
 10
1.2470831301
 20
12.9723523782
 11
1.2828032508
 21
12.9723523782
  0
LINE
  5
507
100
AcDbEntity
  8
LAY0001
100
AcDbLine
 62
7
  6
CONTINUOUS
 10
1.4325529933
 20
12.9723523782
 11
1.4682731219
 21
12.9723523782
  0
LINE
  5
508
100
AcDbEntity
  8
LAY0001
100
AcDbLine
 62
7
  6
CONTINUOUS
 10
1.6564906843
 20
12.9723523782
 11
1.6922108286
 21
12.9723523782
  0
LINE
  5
509
100
AcDbEntity
  8
LAY0001
100
AcDbLine
 62
7
  6
CONTINUOUS
 10
1.8625683503
 20
12.9723523782
 11
1.8982884317
 21
12.9723523782
  0
LINE
  5
50A
100
AcDbEntity
  8
LAY0001
100
AcDbLine
 62
7
  6
CONTINUOUS
 10
1.9422516814
 20
12.9723523782
 11
1.9779718257
 21
12.9723523782
  0
LINE
  5
50B
100
AcDbEntity
  8
03___PRT_ALL_CURVES
100
AcDbLine
 62
4
  6
CONTINUOUS
 10
4.5122657477
 20
12.9752717504
 11
4.504653181
 21
12.9752717504
  0
LINE
  5
50C
100
AcDbEntity
  8
03___PRT_ALL_CURVES
100
AcDbLine
 62
4
  6
CONTINUOUS
 10
4.4843530033
 20
12.9752717504
 11
4.4767404366
 21
12.9752717504
  0
LINE
  5
50D
100
AcDbEntity
  8
03___PRT_ALL_CURVES
100
AcDbLine
 62
4
  6
CONTINUOUS
 10
4.4437526478
 20
12.9752717504
 11
4.4386776227
 21
12.9752717504
  0
LINE
  5
50E
100
AcDbEntity
  8
03___PRT_ALL_CURVES
100
AcDbLine
 62
4
  6
CONTINUOUS
 10
4.455594431
 20
12.9752717504
 11
4.4505193866
 21
12.9752717504
  0
LINE
  5
50F
100
AcDbEntity
  8
03___PRT_ALL_CURVES
100
AcDbLine
 62
4
  6
CONTINUOUS
 10
4.4251441644
 20
12.9752717504
 11
4.418377445
 21
12.9752717504
  0
LINE
  5
510
100
AcDbEntity
  8
03___PRT_ALL_CURVES
100
AcDbLine
 62
4
  6
CONTINUOUS
 10
4.4048439867
 20
12.9752717504
 11
4.3980772672
 21
12.9752717504
  0
LINE
  5
511
100
AcDbEntity
  8
03___PRT_ALL_CURVES
100
AcDbLine
 62
4
  6
CONTINUOUS
 10
4.3845438089
 20
12.9752717504
 11
4.3794687645
 21
12.9752717504
  0
LINE
  5
512
100
AcDbEntity
  8
03___PRT_ALL_CURVES
100
AcDbLine
 62
4
  6
CONTINUOUS
 10
4.3557852173
 20
12.9752717504
 11
4.3507101729
 21
12.9752717504
  0
LINE
  5
513
100
AcDbEntity
  8
03___PRT_ALL_CURVES
100
AcDbLine
 62
4
  6
CONTINUOUS
 10
4.2915013341
 20
12.9752717504
 11
4.2712011466
 21
12.9752717504
  0
LINE
  5
514
100
AcDbEntity
  8
03___PRT_ALL_CURVES
100
AcDbLine
 62
4
  6
CONTINUOUS
 10
4.2238340717
 20
12.9752717504
 11
4.1933838002
 21
12.9752717504
  0
LINE
  5
515
100
AcDbEntity
  8
03___PRT_ALL_CURVES
100
AcDbLine
 62
4
  6
CONTINUOUS
 10
4.1866170759
 20
12.9752717504
 11
4.1561668093
 21
12.9752717504
  0
LINE
  5
516
100
AcDbEntity
  8
03___PRT_ALL_CURVES
100
AcDbLine
 62
4
  6
CONTINUOUS
 10
4.129945746
 20
12.9752717504
 11
4.1367124727
 21
12.9752717504
  0
LINE
  5
517
100
AcDbEntity
  8
03___PRT_ALL_CURVES
100
AcDbLine
 62
4
  6
CONTINUOUS
 10
4.3118015118
 20
12.9752717504
 11
4.3168765562
 21
12.9752717504
  0
LINE
  5
518
100
AcDbEntity
  8
03___PRT_ALL_CURVES
100
AcDbLine
 62
4
  6
CONTINUOUS
 10
4.3380225618
 20
12.9752717504
 11
4.3439434534
 21
12.9752717504
  0
LINE
  5
519
100
AcDbEntity
  8
03___PRT_ALL_CURVES
100
AcDbLine
 62
4
  6
CONTINUOUS
 10
4.288643846
 20
12.9803723431
 11
4.273418703
 21
12.9803723431
  0
LINE
  5
51A
100
AcDbEntity
  8
03___PRT_ALL_CURVES
100
AcDbLine
 62
4
  6
CONTINUOUS
 10
4.1338549846
 20
12.9803723431
 11
4.1270882579
 21
12.9803723431
  0
LINE
  5
51B
100
AcDbEntity
  8
03___PRT_ALL_CURVES
100
AcDbLine
 62
4
  6
CONTINUOUS
 10
4.1583843657
 20
12.9803723431
 11
4.1837595879
 21
12.9803723431
  0
LINE
  5
51C
100
AcDbEntity
  8
03___PRT_ALL_CURVES
100
AcDbLine
 62
4
  6
CONTINUOUS
 10
4.1956013566
 20
12.9803723431
 11
4.2209765836
 21
12.9803723431
  0
LINE
  5
51D
100
AcDbEntity
  8
03___PRT_ALL_CURVES
100
AcDbLine
 62
4
  6
CONTINUOUS
 10
4.5017956929
 20
12.9803723431
 11
4.5094082596
 21
12.9803723431
  0
LINE
  5
51E
100
AcDbEntity
  8
LAY0001
100
AcDbLine
 62
7
  6
CONTINUOUS
 10
1.6372567823
 20
12.9847170038
 11
1.6290136769
 21
12.9847170038
  0
LINE
  5
51F
100
AcDbEntity
  8
03___PRT_ALL_CURVES
100
AcDbLine
 62
4
  6
CONTINUOUS
 10
4.3703704189
 20
12.9854729357
 11
4.3534536106
 21
12.9854729357
  0
LINE
  5
520
100
AcDbEntity
  8
03___PRT_ALL_CURVES
100
AcDbLine
 62
4
  6
CONTINUOUS
 10
4.1169877964
 20
12.9863230343
 11
4.1119127519
 21
12.9863230343
  0
LINE
  5
521
100
AcDbEntity
  8
LAY0001
100
AcDbLine
 62
7
  6
CONTINUOUS
 10
1.3377572815
 20
12.9864833838
 11
1.3460003868
 21
12.9864833838
  0
LINE
  5
522
100
AcDbEntity
  8
03___PRT_ALL_CURVES
100
AcDbLine
 62
4
  6
CONTINUOUS
 10
4.3676195993
 20
12.9888733303
 11
4.352394466
 21
12.9888733303
  0
LINE
  5
523
100
AcDbEntity
  8
03___PRT_ALL_CURVES
100
AcDbLine
 62
4
  6
CONTINUOUS
 10
4.509507526
 20
12.9922737262
 11
4.5018949593
 21
12.9922737262
  0
LINE
  5
524
100
AcDbEntity
  8
03___PRT_ALL_CURVES
100
AcDbLine
 62
4
  6
CONTINUOUS
 10
4.1216362198
 20
12.9931238249
 11
4.1267112643
 21
12.9931238249
  0
LINE
  5
525
100
AcDbEntity
  8
03___PRT_ALL_CURVES
100
AcDbLine
 62
4
  6
CONTINUOUS
 10
4.3068753478
 20
12.9931238249
 11
4.3212546339
 21
12.9931238249
  0
LINE
  5
526
100
AcDbEntity
  8
03___PRT_ALL_CURVES
100
AcDbLine
 62
4
  6
CONTINUOUS
 10
4.2099732459
 20
12.9939739236
 11
4.1879813883
 21
12.9939739236
  0
LINE
  5
527
100
AcDbEntity
  8
03___PRT_ALL_CURVES
100
AcDbLine
 62
4
  6
CONTINUOUS
 10
4.172756255
 20
12.9939739236
 11
4.1507643974
 21
12.9939739236
  0
LINE
  5
528
100
AcDbEntity
  8
LAY0001
100
AcDbLine
 62
7
  6
CONTINUOUS
 10
1.9834672083
 20
12.9953152592
 11
1.9422516814
 21
12.9953152592
  0
LINE
  5
529
100
AcDbEntity
  8
LAY0001
100
AcDbLine
 62
7
  6
CONTINUOUS
 10
1.9037838773
 20
12.9953152592
 11
1.8625683503
 21
12.9953152592
  0
LINE
  5
52A
100
AcDbEntity
  8
LAY0001
100
AcDbLine
 62
7
  6
CONTINUOUS
 10
1.6977062112
 20
12.9953152592
 11
1.6564906843
 21
12.9953152592
  0
LINE
  5
52B
100
AcDbEntity
  8
LAY0001
100
AcDbLine
 62
7
  6
CONTINUOUS
 10
1.6180228802
 20
12.9953152592
 11
1.6056582221
 21
12.9953152592
  0
LINE
  5
52C
100
AcDbEntity
  8
LAY0001
100
AcDbLine
 62
7
  6
CONTINUOUS
 10
1.473768536
 20
12.9953152592
 11
1.4325529933
 21
12.9953152592
  0
LINE
  5
52D
100
AcDbEntity
  8
LAY0001
100
AcDbLine
 62
7
  6
CONTINUOUS
 10
1.288298657
 20
12.9953152592
 11
1.2470831301
 21
12.9953152592
  0
LINE
  5
52E
100
AcDbEntity
  8
LAY0001
100
AcDbLine
 62
7
  6
CONTINUOUS
 10
1.3212710707
 20
12.9953152592
 11
1.3295141761
 21
12.9953152592
  0
LINE
  5
52F
100
AcDbEntity
  8
LAY0001
100
AcDbLine
 62
7
  6
CONTINUOUS
 10
1.4930024381
 20
12.9953152592
 11
1.5177317542
 21
12.9953152592
  0
LINE
  5
530
100
AcDbEntity
  8
LAY0001
100
AcDbLine
 62
7
  6
CONTINUOUS
 10
2.0027011418
 20
12.9953152592
 11
2.027430458
 21
12.9953152592
  0
LINE
  5
531
100
AcDbEntity
  8
LAY0001
100
AcDbLine
 62
7
  6
CONTINUOUS
 10
1.8241004833
 20
12.9970816343
 11
1.8021188899
 21
12.9970816343
  0
LINE
  5
532
100
AcDbEntity
  8
LAY0001
100
AcDbLine
 62
7
  6
CONTINUOUS
 10
1.7938757845
 20
12.9970816343
 11
1.7718941911
 21
12.9970816343
  0
LINE
  5
533
100
AcDbEntity
  8
LAY0001
100
AcDbLine
 62
7
  6
CONTINUOUS
 10
1.7430433223
 20
12.9970816343
 11
1.7169401133
 21
12.9970816343
  0
LINE
  5
534
100
AcDbEntity
  8
LAY0001
100
AcDbLine
 62
7
  6
CONTINUOUS
 10
1.4133190913
 20
12.9970816343
 11
1.3913374664
 21
12.9970816343
  0
LINE
  5
535
100
AcDbEntity
  8
LAY0001
100
AcDbLine
 62
7
  6
CONTINUOUS
 10
1.3830943611
 20
12.9970816343
 11
1.3611127519
 21
12.9970816343
  0
LINE
  5
536
100
AcDbEntity
  8
LAY0001
100
AcDbLine
 62
7
  6
CONTINUOUS
 10
1.2278492162
 20
12.9970816343
 11
1.2058676012
 21
12.9970816343
  0
LINE
  5
537
100
AcDbEntity
  8
LAY0001
100
AcDbLine
 62
7
  6
CONTINUOUS
 10
1.1976244958
 20
12.9970816343
 11
1.1756428808
 21
12.9970816343
  0
LINE
  5
538
100
AcDbEntity
  8
03___PRT_ALL_CURVES
100
AcDbLine
 62
4
  6
CONTINUOUS
 10
4.4990374716
 20
12.9973743182
 11
4.5117250827
 21
12.9973743182
  0
LINE
  5
539
100
AcDbEntity
  8
03___PRT_ALL_CURVES
100
AcDbLine
 62
4
  6
CONTINUOUS
 10
4.1238537765
 20
12.9982244169
 11
4.1187787321
 21
12.9982244169
  0
LINE
  5
53A
100
AcDbEntity
  8
03___PRT_ALL_CURVES
100
AcDbLine
 62
4
  6
CONTINUOUS
 10
4.3040178601
 20
12.9982244169
 11
4.3200888212
 21
12.9982244169
  0
LINE
  5
53B
100
AcDbEntity
  8
03___PRT_ALL_CURVES
100
AcDbLine
 62
4
  6
CONTINUOUS
 10
4.1479069096
 20
12.9990745156
 11
4.1698987672
 21
12.9990745156
  0
LINE
  5
53C
100
AcDbEntity
  8
03___PRT_ALL_CURVES
100
AcDbLine
 62
4
  6
CONTINUOUS
 10
4.1851239005
 20
12.9990745156
 11
4.2071157581
 21
12.9990745156
  0
LINE
  5
53D
100
AcDbEntity
  8
03___PRT_ALL_CURVES
100
AcDbLine
 62
4
  6
CONTINUOUS
 10
4.5074388511
 20
13.0050252063
 11
4.5023638066
 21
13.0050252063
  0
LINE
  5
53E
100
AcDbEntity
  8
03___PRT_ALL_CURVES
100
AcDbLine
 62
4
  6
CONTINUOUS
 10
4.1246425868
 20
13.0058753073
 11
4.1297176312
 21
13.0058753073
  0
LINE
  5
53F
100
AcDbEntity
  8
LAY0001
100
AcDbLine
 62
7
  6
CONTINUOUS
 10
1.7416694295
 20
13.0059135097
 11
1.7086970079
 21
13.0059135097
  0
LINE
  5
540
100
AcDbEntity
  8
LAY0001
100
AcDbLine
 62
7
  6
CONTINUOUS
 10
1.3281403304
 20
13.0059135097
 11
1.3212710707
 21
13.0059135097
  0
LINE
  5
541
100
AcDbEntity
  8
LAY0001
100
AcDbLine
 62
7
  6
CONTINUOUS
 10
1.1756428808
 20
13.0059135097
 11
1.2278492162
 21
13.0059135097
  0
LINE
  5
542
100
AcDbEntity
  8
LAY0001
100
AcDbLine
 62
7
  6
CONTINUOUS
 10
1.2388400208
 20
13.0059135097
 11
1.288298657
 21
13.0059135097
  0
LINE
  5
543
100
AcDbEntity
  8
LAY0001
100
AcDbLine
 62
7
  6
CONTINUOUS
 10
1.3611127519
 20
13.0059135097
 11
1.4133190913
 21
13.0059135097
  0
LINE
  5
544
100
AcDbEntity
  8
LAY0001
100
AcDbLine
 62
7
  6
CONTINUOUS
 10
1.424309888
 20
13.0059135097
 11
1.473768536
 21
13.0059135097
  0
LINE
  5
545
100
AcDbEntity
  8
LAY0001
100
AcDbLine
 62
7
  6
CONTINUOUS
 10
1.4847593327
 20
13.0059135097
 11
1.5177317542
 21
13.0059135097
  0
LINE
  5
546
100
AcDbEntity
  8
LAY0001
100
AcDbLine
 62
7
  6
CONTINUOUS
 10
1.6056582221
 20
13.0059135097
 11
1.6180228802
 21
13.0059135097
  0
LINE
  5
547
100
AcDbEntity
  8
LAY0001
100
AcDbLine
 62
7
  6
CONTINUOUS
 10
1.6482475789
 20
13.0059135097
 11
1.6977062112
 21
13.0059135097
  0
LINE
  5
548
100
AcDbEntity
  8
LAY0001
100
AcDbLine
 62
7
  6
CONTINUOUS
 10
1.7718941911
 20
13.0059135097
 11
1.8241004833
 21
13.0059135097
  0
LINE
  5
549
100
AcDbEntity
  8
LAY0001
100
AcDbLine
 62
7
  6
CONTINUOUS
 10
1.8350913114
 20
13.0059135097
 11
1.8433344168
 21
13.0059135097
  0
LINE
  5
54A
100
AcDbEntity
  8
LAY0001
100
AcDbLine
 62
7
  6
CONTINUOUS
 10
1.854325245
 20
13.0059135097
 11
1.9037838773
 21
13.0059135097
  0
LINE
  5
54B
100
AcDbEntity
  8
LAY0001
100
AcDbLine
 62
7
  6
CONTINUOUS
 10
1.9147746425
 20
13.0059135097
 11
1.9230177479
 21
13.0059135097
  0
LINE
  5
54C
100
AcDbEntity
  8
LAY0001
100
AcDbLine
 62
7
  6
CONTINUOUS
 10
1.934008576
 20
13.0059135097
 11
1.9834672083
 21
13.0059135097
  0
LINE
  5
54D
100
AcDbEntity
  8
LAY0001
100
AcDbLine
 62
7
  6
CONTINUOUS
 10
1.9944580365
 20
13.0059135097
 11
2.027430458
 21
13.0059135097
  0
LINE
  5
54E
100
AcDbEntity
  8
03___PRT_ALL_CURVES
100
AcDbLine
 62
4
  6
CONTINUOUS
 10
4.4927395787
 20
13.0101258007
 11
4.4851270121
 21
13.0101258007
  0
LINE
  5
54F
100
AcDbEntity
  8
03___PRT_ALL_CURVES
100
AcDbLine
 62
4
  6
CONTINUOUS
 10
4.2043079028
 20
13.0101258007
 11
4.1789326758
 21
13.0101258007
  0
LINE
  5
550
100
AcDbEntity
  8
03___PRT_ALL_CURVES
100
AcDbLine
 62
4
  6
CONTINUOUS
 10
4.167090907
 20
13.0101258007
 11
4.1417156848
 21
13.0101258007
  0
LINE
  5
551
100
AcDbEntity
  8
03___PRT_ALL_CURVES
100
AcDbLine
 62
4
  6
CONTINUOUS
 10
4.1121112594
 20
13.0101258007
 11
4.1171863038
 21
13.0101258007
  0
LINE
  5
552
100
AcDbEntity
  8
03___PRT_ALL_CURVES
100
AcDbLine
 62
4
  6
CONTINUOUS
 10
4.2567500222
 20
13.0101258007
 11
4.2719751651
 21
13.0101258007
  0
LINE
  5
553
100
AcDbEntity
  8
03___PRT_ALL_CURVES
100
AcDbLine
 62
4
  6
CONTINUOUS
 10
4.3129451005
 20
13.0109758993
 11
4.2968741394
 21
13.0109758993
  0
LINE
  5
554
100
AcDbEntity
  8
03___PRT_ALL_CURVES
100
AcDbLine
 62
4
  6
CONTINUOUS
 10
4.3097180329
 20
13.0152263927
 11
4.2894178551
 21
13.0152263927
  0
LINE
  5
555
100
AcDbEntity
  8
03___PRT_ALL_CURVES
100
AcDbLine
 62
4
  6
CONTINUOUS
 10
4.1134829749
 20
13.0152263927
 11
4.1092537716
 21
13.0152263927
  0
LINE
  5
556
100
AcDbEntity
  8
03___PRT_ALL_CURVES
100
AcDbLine
 62
4
  6
CONTINUOUS
 10
4.1337831527
 20
13.0152263927
 11
4.1642334193
 21
13.0152263927
  0
LINE
  5
557
100
AcDbEntity
  8
03___PRT_ALL_CURVES
100
AcDbLine
 62
4
  6
CONTINUOUS
 10
4.1710001436
 20
13.0152263927
 11
4.201450415
 21
13.0152263927
  0
LINE
  5
558
100
AcDbEntity
  8
03___PRT_ALL_CURVES
100
AcDbLine
 62
4
  6
CONTINUOUS
 10
4.24881749
 20
13.0152263927
 11
4.2691176774
 21
13.0152263927
  0
LINE
  5
559
100
AcDbEntity
  8
03___PRT_ALL_CURVES
100
AcDbLine
 62
4
  6
CONTINUOUS
 10
4.3418599745
 20
13.0152263927
 11
4.348626694
 21
13.0152263927
  0
LINE
  5
55A
100
AcDbEntity
  8
03___PRT_ALL_CURVES
100
AcDbLine
 62
4
  6
CONTINUOUS
 10
4.3689268717
 20
13.0152263927
 11
4.3740019162
 21
13.0152263927
  0
LINE
  5
55B
100
AcDbEntity
  8
03___PRT_ALL_CURVES
100
AcDbLine
 62
4
  6
CONTINUOUS
 10
4.3858436994
 20
13.0152263927
 11
4.3926104189
 21
13.0152263927
  0
LINE
  5
55C
100
AcDbEntity
  8
03___PRT_ALL_CURVES
100
AcDbLine
 62
4
  6
CONTINUOUS
 10
4.4044521828
 20
13.0152263927
 11
4.4095272272
 21
13.0152263927
  0
LINE
  5
55D
100
AcDbEntity
  8
03___PRT_ALL_CURVES
100
AcDbLine
 62
4
  6
CONTINUOUS
 10
4.416293966
 20
13.0152263927
 11
4.4213689911
 21
13.0152263927
  0
LINE
  5
55E
100
AcDbEntity
  8
03___PRT_ALL_CURVES
100
AcDbLine
 62
4
  6
CONTINUOUS
 10
4.4281357299
 20
13.0152263927
 11
4.4357482966
 21
13.0152263927
  0
LINE
  5
55F
100
AcDbEntity
  8
03___PRT_ALL_CURVES
100
AcDbLine
 62
4
  6
CONTINUOUS
 10
4.4568943022
 20
13.0152263927
 11
4.4619693466
 21
13.0152263927
  0
LINE
  5
560
100
AcDbEntity
  8
03___PRT_ALL_CURVES
100
AcDbLine
 62
4
  6
CONTINUOUS
 10
4.4822695243
 20
13.0152263927
 11
4.489882091
 21
13.0152263927
  0
LINE
  5
561
100
AcDbEntity
  8
0
100
AcDbLine
 62
3
  6
CONTINUOUS
 10
4.4462639453
 20
13.1757541427
 11
5.8180155138
 21
13.1757541427
  0
LINE
  5
562
100
AcDbEntity
  8
0
100
AcDbLine
 62
7
  6
CONTINUOUS
 10
4.4444235062
 20
13.1790393114
 11
3.9656457292
 21
13.1790393114
  0
LINE
  5
563
100
AcDbEntity
  8
0
100
AcDbLine
 62
7
  6
CONTINUOUS
 10
0.9734491495
 20
13.2045955136
 11
2.237113324
 21
13.2045955136
  0
LINE
  5
564
100
AcDbEntity
  8
1_ALL_PLANES
100
AcDbLine
 62
7
  6
CONTINUOUS
 10
1.0644991424
 20
13.2122871915
 11
2.154886333
 21
13.2122871915
  0
LINE
  5
565
100
AcDbEntity
  8
0
100
AcDbLine
 62
7
  6
CONTINUOUS
 10
-3.390113667
 20
13.3488163006
 11
-0.090113667
 21
13.3488163006
  0
LINE
  5
566
100
AcDbEntity
  8
0
100
AcDbLine
 62
7
  6
CONTINUOUS
 10
6.609886333
 20
13.3488163006
 11
3.309886333
 21
13.3488163006
  0
LINE
  5
567
100
AcDbEntity
  8
0
100
AcDbLine
 62
7
  6
CONTINUOUS
 10
2.0913380377
 20
13.4219328607
 11
2.7753895927
 21
13.4219328607
  0
LINE
  5
568
100
AcDbEntity
  8
03___PRT_ALL_CURVES
100
AcDbLine
 62
4
  6
CONTINUOUS
 10
4.2050755246
 20
12.9106173787
 11
4.2003700745
 21
12.9114674775
  0
LINE
  5
569
100
AcDbEntity
  8
03___PRT_ALL_CURVES
100
AcDbLine
 62
4
  6
CONTINUOUS
 10
4.1894585922
 20
12.950572021
 11
4.1941640471
 21
12.9497219223
  0
LINE
  5
56A
100
AcDbEntity
  8
03___PRT_ALL_CURVES
100
AcDbLine
 62
4
  6
CONTINUOUS
 10
4.2347643977
 20
12.9497219223
 11
4.2300589525
 21
12.950572021
  0
LINE
  5
56B
100
AcDbEntity
  8
03___PRT_ALL_CURVES
100
AcDbLine
 62
4
  6
CONTINUOUS
 10
4.1252402947
 20
12.9761218492
 11
4.129945746
 21
12.9752717504
  0
LINE
  5
56C
100
AcDbEntity
  8
03___PRT_ALL_CURVES
100
AcDbLine
 62
4
  6
CONTINUOUS
 10
4.1285592278
 20
12.9973743182
 11
4.1238537765
 21
12.9982244169
  0
LINE
  5
56D
100
AcDbEntity
  8
03___PRT_ALL_CURVES
100
AcDbLine
 62
4
  6
CONTINUOUS
 10
4.1181884274
 20
13.014376294
 11
4.1134829749
 21
13.0152263927
  0
LINE
  5
56E
100
AcDbEntity
  8
03___PRT_ALL_CURVES
100
AcDbLine
 62
4
  6
CONTINUOUS
 10
4.2691176774
 20
13.0152263927
 11
4.2738231226
 21
13.014376294
  0
LINE
  5
56F
100
AcDbEntity
  8
03___PRT_ALL_CURVES
100
AcDbLine
 62
4
  6
CONTINUOUS
 10
4.504653181
 20
12.9752717504
 11
4.4999477551
 21
12.9761218492
  0
LINE
  5
570
100
AcDbEntity
  8
03___PRT_ALL_CURVES
100
AcDbLine
 62
4
  6
CONTINUOUS
 10
4.3144234781
 20
13.014376294
 11
4.3097180329
 21
13.0152263927
  0
LINE
  5
571
100
AcDbEntity
  8
03___PRT_ALL_CURVES
100
AcDbLine
 62
4
  6
CONTINUOUS
 10
4.2022180365
 20
12.9157179713
 11
4.198358424
 21
12.91656807
  0
LINE
  5
572
100
AcDbEntity
  8
03___PRT_ALL_CURVES
100
AcDbLine
 62
4
  6
CONTINUOUS
 10
4.19231608
 20
12.9454714289
 11
4.1961756925
 21
12.9446213303
  0
LINE
  5
573
100
AcDbEntity
  8
LAY0001
100
AcDbLine
 62
7
  6
CONTINUOUS
 10
1.3350095901
 20
13.0041471346
 11
1.3281403304
 21
13.0059135097
  0
LINE
  5
574
100
AcDbEntity
  8
LAY0001
100
AcDbLine
 62
7
  6
CONTINUOUS
 10
1.5177317542
 20
13.0059135097
 11
1.5246009982
 21
13.0041471346
  0
LINE
  5
575
100
AcDbEntity
  8
LAY0001
100
AcDbLine
 62
7
  6
CONTINUOUS
 10
1.6180228802
 20
13.0059135097
 11
1.6248921242
 21
13.0041471346
  0
LINE
  5
576
100
AcDbEntity
  8
LAY0001
100
AcDbLine
 62
7
  6
CONTINUOUS
 10
1.7485387049
 20
13.0041471346
 11
1.7416694295
 21
13.0059135097
  0
LINE
  5
577
100
AcDbEntity
  8
LAY0001
100
AcDbLine
 62
7
  6
CONTINUOUS
 10
2.027430458
 20
13.0059135097
 11
2.0342996705
 21
13.0041471346
  0
LINE
  5
578
100
AcDbEntity
  8
LAY0001
100
AcDbLine
 62
7
  6
CONTINUOUS
 10
1.6235182628
 20
12.9935488841
 11
1.6180228802
 21
12.9953152592
  0
LINE
  5
579
100
AcDbEntity
  8
LAY0001
100
AcDbLine
 62
7
  6
CONTINUOUS
 10
2.027430458
 20
12.9953152592
 11
2.0329258406
 21
12.9935488841
  0
LINE
  5
57A
100
AcDbEntity
  8
03___PRT_ALL_CURVES
100
AcDbLine
 62
4
  6
CONTINUOUS
 10
4.1090478629
 20
13.0050252063
 11
4.1084649582
 21
13.0075755046
  0
LINE
  5
57B
100
AcDbEntity
  8
0
100
AcDbLine
 62
7
  6
CONTINUOUS
 10
3.901886333
 20
14.0557911285
 11
-0.090113667
 21
14.0557911285
  0
LINE
  5
57C
100
AcDbEntity
  8
03___PRT_ALL_CURVES
100
AcDbLine
 62
4
  6
CONTINUOUS
 10
4.489882091
 20
13.0152263927
 11
4.4945875555
 21
13.014376294
  0
LINE
  5
57D
100
AcDbEntity
  8
03___PRT_ALL_CURVES
100
AcDbLine
 62
4
  6
CONTINUOUS
 10
4.1270882579
 20
12.9803723431
 11
4.1232286472
 21
12.9812224417
  0
LINE
  5
57E
100
AcDbEntity
  8
03___PRT_ALL_CURVES
100
AcDbLine
 62
4
  6
CONTINUOUS
 10
4.1177766085
 20
12.9939739236
 11
4.1216362198
 21
12.9931238249
  0
LINE
  5
57F
100
AcDbEntity
  8
03___PRT_ALL_CURVES
100
AcDbLine
 62
4
  6
CONTINUOUS
 10
4.1267112643
 20
12.9931238249
 11
4.1305708756
 21
12.9922737262
  0
LINE
  5
580
100
AcDbEntity
  8
03___PRT_ALL_CURVES
100
AcDbLine
 62
4
  6
CONTINUOUS
 10
4.2719751651
 20
13.0101258007
 11
4.2758347631
 21
13.009275702
  0
LINE
  5
581
100
AcDbEntity
  8
03___PRT_ALL_CURVES
100
AcDbLine
 62
4
  6
CONTINUOUS
 10
4.4979360949
 20
12.9812224417
 11
4.5017956929
 21
12.9803723431
  0
LINE
  5
582
100
AcDbEntity
  8
03___PRT_ALL_CURVES
100
AcDbLine
 62
4
  6
CONTINUOUS
 10
4.4965992155
 20
13.009275702
 11
4.4927395787
 21
13.0101258007
  0
LINE
  5
583
100
AcDbEntity
  8
03___PRT_ALL_CURVES
100
AcDbLine
 62
4
  6
CONTINUOUS
 10
4.2362998
 20
12.9454714289
 11
4.2332860298
 21
12.9463215276
  0
LINE
  5
584
100
AcDbEntity
  8
03___PRT_ALL_CURVES
100
AcDbLine
 62
4
  6
CONTINUOUS
 10
4.1187787321
 20
12.9982244169
 11
4.1157649619
 21
12.9990745156
  0
LINE
  5
585
100
AcDbEntity
  8
03___PRT_ALL_CURVES
100
AcDbLine
 62
4
  6
CONTINUOUS
 10
4.1171863038
 20
13.0101258007
 11
4.1202000728
 21
13.009275702
  0
LINE
  5
586
100
AcDbEntity
  8
03___PRT_ALL_CURVES
100
AcDbLine
 62
4
  6
CONTINUOUS
 10
4.3159588707
 20
13.0101258007
 11
4.3129451005
 21
13.0109758993
  0
LINE
  5
587
100
AcDbEntity
  8
03___PRT_ALL_CURVES
100
AcDbLine
 62
4
  6
CONTINUOUS
 10
4.2003700745
 20
12.9114674775
 11
4.1960342139
 21
12.913167675
  0
LINE
  5
588
100
AcDbEntity
  8
03___PRT_ALL_CURVES
100
AcDbLine
 62
4
  6
CONTINUOUS
 10
4.1941640471
 20
12.9497219223
 11
4.1984999027
 21
12.9480217249
  0
LINE
  5
589
100
AcDbEntity
  8
03___PRT_ALL_CURVES
100
AcDbLine
 62
4
  6
CONTINUOUS
 10
4.1134407499
 20
12.9956741209
 11
4.1177766085
 21
12.9939739236
  0
LINE
  5
58A
100
AcDbEntity
  8
03___PRT_ALL_CURVES
100
AcDbLine
 62
4
  6
CONTINUOUS
 10
4.1328950859
 20
12.9956741209
 11
4.1285592278
 21
12.9973743182
  0
LINE
  5
58B
100
AcDbEntity
  8
03___PRT_ALL_CURVES
100
AcDbLine
 62
4
  6
CONTINUOUS
 10
4.2738231226
 20
13.014376294
 11
4.2781589879
 21
13.0126760967
  0
LINE
  5
58C
100
AcDbEntity
  8
03___PRT_ALL_CURVES
100
AcDbLine
 62
4
  6
CONTINUOUS
 10
4.4999477551
 20
12.9761218492
 11
4.4956118703
 21
12.9778220468
  0
LINE
  5
58D
100
AcDbEntity
  8
03___PRT_ALL_CURVES
100
AcDbLine
 62
4
  6
CONTINUOUS
 10
4.4945875555
 20
13.014376294
 11
4.4989234015
 21
13.0126760967
  0
LINE
  5
58E
100
AcDbEntity
  8
03___PRT_ALL_CURVES
100
AcDbLine
 62
4
  6
CONTINUOUS
 10
4.1195823471
 20
12.9786721454
 11
4.1252402947
 21
12.9761218492
  0
LINE
  5
58F
100
AcDbEntity
  8
03___PRT_ALL_CURVES
100
AcDbLine
 62
4
  6
CONTINUOUS
 10
4.198358424
 20
12.91656807
 11
4.1948684055
 21
12.9182682679
  0
LINE
  5
590
100
AcDbEntity
  8
03___PRT_ALL_CURVES
100
AcDbLine
 62
4
  6
CONTINUOUS
 10
4.1961756925
 20
12.9446213303
 11
4.1996657106
 21
12.9429211329
  0
LINE
  5
591
100
AcDbEntity
  8
03___PRT_ALL_CURVES
100
AcDbLine
 62
4
  6
CONTINUOUS
 10
4.1157649619
 20
12.9990745156
 11
4.1122749432
 21
13.0007747129
  0
LINE
  5
592
100
AcDbEntity
  8
03___PRT_ALL_CURVES
100
AcDbLine
 62
4
  6
CONTINUOUS
 10
4.1305708756
 20
12.9922737262
 11
4.1340608937
 21
12.9905735289
  0
LINE
  5
593
100
AcDbEntity
  8
03___PRT_ALL_CURVES
100
AcDbLine
 62
4
  6
CONTINUOUS
 10
4.2758347631
 20
13.009275702
 11
4.2793247813
 21
13.0075755046
  0
LINE
  5
594
100
AcDbEntity
  8
03___PRT_ALL_CURVES
100
AcDbLine
 62
4
  6
CONTINUOUS
 10
4.4944460764
 20
12.9829226397
 11
4.4979360949
 21
12.9812224417
  0
LINE
  5
595
100
AcDbEntity
  8
03___PRT_ALL_CURVES
100
AcDbLine
 62
4
  6
CONTINUOUS
 10
4.5000892336
 20
13.0075755046
 11
4.4965992155
 21
13.009275702
  0
LINE
  5
596
100
AcDbEntity
  8
03___PRT_ALL_CURVES
100
AcDbLine
 62
4
  6
CONTINUOUS
 10
4.239576511
 20
12.9471716263
 11
4.2347643977
 21
12.9497219223
  0
LINE
  5
597
100
AcDbEntity
  8
03___PRT_ALL_CURVES
100
AcDbLine
 62
4
  6
CONTINUOUS
 10
4.1230005334
 20
13.011825998
 11
4.1181884274
 21
13.014376294
  0
LINE
  5
598
100
AcDbEntity
  8
03___PRT_ALL_CURVES
100
AcDbLine
 62
4
  6
CONTINUOUS
 10
4.3192355914
 20
13.011825998
 11
4.3144234781
 21
13.014376294
  0
LINE
  5
599
100
AcDbEntity
  8
03___PRT_ALL_CURVES
100
AcDbLine
 62
4
  6
CONTINUOUS
 10
4.1960342139
 20
12.913167675
 11
4.1907458597
 21
12.91656807
  0
LINE
  5
59A
100
AcDbEntity
  8
03___PRT_ALL_CURVES
100
AcDbLine
 62
4
  6
CONTINUOUS
 10
4.1232286472
 20
12.9812224417
 11
4.1192623808
 21
12.9837727383
  0
LINE
  5
59B
100
AcDbEntity
  8
03___PRT_ALL_CURVES
100
AcDbLine
 62
4
  6
CONTINUOUS
 10
4.108152395
 20
12.9990745156
 11
4.1134407499
 21
12.9956741209
  0
LINE
  5
59C
100
AcDbEntity
  8
03___PRT_ALL_CURVES
100
AcDbLine
 62
4
  6
CONTINUOUS
 10
4.1984999027
 20
12.9480217249
 11
4.2037882591
 21
12.9446213303
  0
LINE
  5
59D
100
AcDbEntity
  8
03___PRT_ALL_CURVES
100
AcDbLine
 62
4
  6
CONTINUOUS
 10
4.1381834423
 20
12.9922737262
 11
4.1328950859
 21
12.9956741209
  0
LINE
  5
59E
100
AcDbEntity
  8
03___PRT_ALL_CURVES
100
AcDbLine
 62
4
  6
CONTINUOUS
 10
4.1202000728
 20
13.009275702
 11
4.122844251
 21
13.0075755046
  0
LINE
  5
59F
100
AcDbEntity
  8
03___PRT_ALL_CURVES
100
AcDbLine
 62
4
  6
CONTINUOUS
 10
4.2389439806
 20
12.9437712316
 11
4.2362998
 21
12.9454714289
  0
LINE
  5
5A0
100
AcDbEntity
  8
03___PRT_ALL_CURVES
100
AcDbLine
 62
4
  6
CONTINUOUS
 10
4.2781589879
 20
13.0126760967
 11
4.2834473298
 21
13.009275702
  0
LINE
  5
5A1
100
AcDbEntity
  8
03___PRT_ALL_CURVES
100
AcDbLine
 62
4
  6
CONTINUOUS
 10
4.318603061
 20
13.0084256033
 11
4.3159588707
 21
13.0101258007
  0
LINE
  5
5A2
100
AcDbEntity
  8
03___PRT_ALL_CURVES
100
AcDbLine
 62
4
  6
CONTINUOUS
 10
4.1274430474
 20
13.0084256033
 11
4.1230005334
 21
13.011825998
  0
LINE
  5
5A3
100
AcDbEntity
  8
03___PRT_ALL_CURVES
100
AcDbLine
 62
4
  6
CONTINUOUS
 10
4.2440190251
 20
12.9437712316
 11
4.239576511
 21
12.9471716263
  0
LINE
  5
5A4
100
AcDbEntity
  8
03___PRT_ALL_CURVES
100
AcDbLine
 62
4
  6
CONTINUOUS
 10
4.1948684055
 20
12.9182682679
 11
4.1917479818
 21
12.920818564
  0
LINE
  5
5A5
100
AcDbEntity
  8
03___PRT_ALL_CURVES
100
AcDbLine
 62
4
  6
CONTINUOUS
 10
4.1340608937
 20
12.9905735289
 11
4.1371813181
 21
12.9880232317
  0
LINE
  5
5A6
100
AcDbEntity
  8
03___PRT_ALL_CURVES
100
AcDbLine
 62
4
  6
CONTINUOUS
 10
4.1996657106
 20
12.9429211329
 11
4.2027861357
 21
12.9403708345
  0
LINE
  5
5A7
100
AcDbEntity
  8
03___PRT_ALL_CURVES
100
AcDbLine
 62
4
  6
CONTINUOUS
 10
4.1146635845
 20
12.9829226397
 11
4.1195823471
 21
12.9786721454
  0
LINE
  5
5A8
100
AcDbEntity
  8
03___PRT_ALL_CURVES
100
AcDbLine
 62
4
  6
CONTINUOUS
 10
4.1907458597
 20
12.91656807
 11
4.1871491853
 21
12.9199684653
  0
LINE
  5
5A9
100
AcDbEntity
  8
03___PRT_ALL_CURVES
100
AcDbLine
 62
4
  6
CONTINUOUS
 10
4.1417801146
 20
12.9888733303
 11
4.1381834423
 21
12.9922737262
  0
LINE
  5
5AA
100
AcDbEntity
  8
03___PRT_ALL_CURVES
100
AcDbLine
 62
4
  6
CONTINUOUS
 10
4.122844251
 20
13.0075755046
 11
4.1246425868
 21
13.0058753073
  0
LINE
  5
5AB
100
AcDbEntity
  8
03___PRT_ALL_CURVES
100
AcDbLine
 62
4
  6
CONTINUOUS
 10
4.2037882591
 20
12.9446213303
 11
4.2073849308
 21
12.9412209356
  0
LINE
  5
5AC
100
AcDbEntity
  8
03___PRT_ALL_CURVES
100
AcDbLine
 62
4
  6
CONTINUOUS
 10
4.2642843731
 20
12.9106173787
 11
4.2457181021
 21
12.9301696505
  0
LINE
  5
5AD
100
AcDbEntity
  8
03___PRT_ALL_CURVES
100
AcDbLine
 62
4
  6
CONTINUOUS
 10
4.2415955536
 20
12.9284694532
 11
4.2583634912
 21
12.9106173787
  0
LINE
  5
5AE
100
AcDbEntity
  8
03___PRT_ALL_CURVES
100
AcDbLine
 62
4
  6
CONTINUOUS
 10
4.1192623808
 20
12.9837727383
 11
4.1169877964
 21
12.9863230343
  0
LINE
  5
5AF
100
AcDbEntity
  8
03___PRT_ALL_CURVES
100
AcDbLine
 62
4
  6
CONTINUOUS
 10
4.1122749432
 20
13.0007747129
 11
4.1100003588
 21
13.0033250089
  0
LINE
  5
5B0
100
AcDbEntity
  8
03___PRT_ALL_CURVES
100
AcDbLine
 62
4
  6
CONTINUOUS
 10
4.1297176312
 20
13.0058753073
 11
4.1274430474
 21
13.0084256033
  0
LINE
  5
5B1
100
AcDbEntity
  8
03___PRT_ALL_CURVES
100
AcDbLine
 62
4
  6
CONTINUOUS
 10
4.241218562
 20
12.9412209356
 11
4.2389439806
 21
12.9437712316
  0
LINE
  5
5B2
100
AcDbEntity
  8
03___PRT_ALL_CURVES
100
AcDbLine
 62
4
  6
CONTINUOUS
 10
4.2462936065
 20
12.9412209356
 11
4.2440190251
 21
12.9437712316
  0
LINE
  5
5B3
100
AcDbEntity
  8
03___PRT_ALL_CURVES
100
AcDbLine
 62
4
  6
CONTINUOUS
 10
4.1119127519
 20
12.9863230343
 11
4.1146635845
 21
12.9829226397
  0
LINE
  5
5B4
100
AcDbEntity
  8
03___PRT_ALL_CURVES
100
AcDbLine
 62
4
  6
CONTINUOUS
 10
4.1054015623
 20
13.0024749102
 11
4.108152395
 21
12.9990745156
  0
LINE
  5
5B5
100
AcDbEntity
  8
03___PRT_ALL_CURVES
100
AcDbLine
 62
4
  6
CONTINUOUS
 10
4.1917479818
 20
12.920818564
 11
4.1889971476
 21
12.9242189586
  0
LINE
  5
5B6
100
AcDbEntity
  8
03___PRT_ALL_CURVES
100
AcDbLine
 62
4
  6
CONTINUOUS
 10
4.2027861357
 20
12.9403708345
 11
4.2055369699
 21
12.9369704399
  0
LINE
  5
5B7
100
AcDbEntity
  8
03___PRT_ALL_CURVES
100
AcDbLine
 62
4
  6
CONTINUOUS
 10
4.1871491853
 20
12.9199684653
 11
4.1839221056
 21
12.9242189586
  0
LINE
  5
5B8
100
AcDbEntity
  8
03___PRT_ALL_CURVES
100
AcDbLine
 62
4
  6
CONTINUOUS
 10
4.2073849308
 20
12.9412209356
 11
4.2106120143
 21
12.9369704399
  0
LINE
  5
5B9
100
AcDbEntity
  8
0
100
AcDbLine
 62
7
  6
CONTINUOUS
 10
4.6652357584
 20
11.9106827417
 11
3.992661912
 21
13.1112215012
  0
LINE
  5
5BA
100
AcDbEntity
  8
0
100
AcDbLine
 62
7
  6
CONTINUOUS
 10
3.9632228661
 20
13.1757541427
 11
3.9964774444
 21
13.1163949952
  0
LINE
  5
5BB
100
AcDbEntity
  8
0
100
AcDbLine
 62
3
  6
CONTINUOUS
 10
4.6690512909
 20
11.9158562356
 11
3.9964774444
 21
13.1163949952
  0
LINE
  5
5BC
100
AcDbEntity
  8
0
100
AcDbLine
 62
7
  6
CONTINUOUS
 10
3.9656457292
 20
13.1790393114
 11
4.2296039446
 21
12.7078760776
  0
LINE
  5
5BD
100
AcDbEntity
  8
03___PRT_ALL_CURVES
100
AcDbLine
 62
4
  6
CONTINUOUS
 10
4.1543250802
 20
12.9106173787
 11
4.1319414236
 21
12.950572021
  0
LINE
  5
5BE
100
AcDbEntity
  8
03___PRT_ALL_CURVES
100
AcDbLine
 62
4
  6
CONTINUOUS
 10
4.1034965691
 20
13.0058753073
 11
4.1054015623
 21
13.0024749102
  0
LINE
  5
5BF
100
AcDbEntity
  8
03___PRT_ALL_CURVES
100
AcDbLine
 62
4
  6
CONTINUOUS
 10
4.1398739557
 20
12.9454714289
 11
4.1460651805
 21
12.9344201439
  0
LINE
  5
5C0
100
AcDbEntity
  8
03___PRT_ALL_CURVES
100
AcDbLine
 62
4
  6
CONTINUOUS
 10
4.1489226683
 20
12.9293195518
 11
4.1594001247
 21
12.9106173787
  0
LINE
  5
5C1
100
AcDbEntity
  8
03___PRT_ALL_CURVES
100
AcDbLine
 62
4
  6
CONTINUOUS
 10
4.1100003588
 20
13.0033250089
 11
4.1090478629
 21
13.0050252063
  0
LINE
  5
5C2
100
AcDbEntity
  8
03___PRT_ALL_CURVES
100
AcDbLine
 62
4
  6
CONTINUOUS
 10
4.1371813181
 20
12.9880232317
 11
4.138610062
 21
12.9854729357
  0
LINE
  5
5C3
100
AcDbEntity
  8
03___PRT_ALL_CURVES
100
AcDbLine
 62
4
  6
CONTINUOUS
 10
4.1680570406
 20
12.9344201439
 11
4.1709145283
 21
12.9293195518
  0
LINE
  5
5C4
100
AcDbEntity
  8
03___PRT_ALL_CURVES
100
AcDbLine
 62
4
  6
CONTINUOUS
 10
4.1623916902
 20
12.950572021
 11
4.1652491779
 21
12.9454714289
  0
LINE
  5
5C5
100
AcDbEntity
  8
03___PRT_ALL_CURVES
100
AcDbLine
 62
4
  6
CONTINUOUS
 10
4.1441613544
 20
12.984622837
 11
4.1417801146
 21
12.9888733303
  0
LINE
  5
5C6
100
AcDbEntity
  8
03___PRT_ALL_CURVES
100
AcDbLine
 62
4
  6
CONTINUOUS
 10
4.1839221056
 20
12.9242189586
 11
4.1767783856
 21
12.9369704399
  0
LINE
  5
5C7
100
AcDbEntity
  8
03___PRT_ALL_CURVES
100
AcDbLine
 62
4
  6
CONTINUOUS
 10
4.1561668093
 20
12.9752717504
 11
4.1337831527
 21
13.0152263927
  0
LINE
  5
5C8
100
AcDbEntity
  8
03___PRT_ALL_CURVES
100
AcDbLine
 62
4
  6
CONTINUOUS
 10
4.1889971476
 20
12.9242189586
 11
4.1818534276
 21
12.9369704399
  0
LINE
  5
5C9
100
AcDbEntity
  8
03___PRT_ALL_CURVES
100
AcDbLine
 62
4
  6
CONTINUOUS
 10
4.1417156848
 20
13.0101258007
 11
4.1479069096
 21
12.9990745156
  0
LINE
  5
5CA
100
AcDbEntity
  8
03___PRT_ALL_CURVES
100
AcDbLine
 62
4
  6
CONTINUOUS
 10
4.1507643974
 20
12.9939739236
 11
4.1583843657
 21
12.9803723431
  0
LINE
  5
5CB
100
AcDbEntity
  8
03___PRT_ALL_CURVES
100
AcDbLine
 62
4
  6
CONTINUOUS
 10
4.1698987672
 20
12.9990745156
 11
4.172756255
 21
12.9939739236
  0
LINE
  5
5CC
100
AcDbEntity
  8
03___PRT_ALL_CURVES
100
AcDbLine
 62
4
  6
CONTINUOUS
 10
4.2055369699
 20
12.9369704399
 11
4.2126806899
 21
12.9242189586
  0
LINE
  5
5CD
100
AcDbEntity
  8
03___PRT_ALL_CURVES
100
AcDbLine
 62
4
  6
CONTINUOUS
 10
4.1642334193
 20
13.0152263927
 11
4.167090907
 21
13.0101258007
  0
LINE
  5
5CE
100
AcDbEntity
  8
03___PRT_ALL_CURVES
100
AcDbLine
 62
4
  6
CONTINUOUS
 10
4.1837595879
 20
12.9803723431
 11
4.1866170759
 21
12.9752717504
  0
LINE
  5
5CF
100
AcDbEntity
  8
03___PRT_ALL_CURVES
100
AcDbLine
 62
4
  6
CONTINUOUS
 10
4.2106120143
 20
12.9369704399
 11
4.2177557343
 21
12.9242189586
  0
LINE
  5
5D0
100
AcDbEntity
  8
03___PRT_ALL_CURVES
100
AcDbLine
 62
4
  6
CONTINUOUS
 10
4.1933838002
 20
12.9752717504
 11
4.1710001436
 21
13.0152263927
  0
LINE
  5
5D1
100
AcDbEntity
  8
03___PRT_ALL_CURVES
100
AcDbLine
 62
4
  6
CONTINUOUS
 10
4.20975877
 20
12.950572021
 11
4.2321424266
 21
12.9106173787
  0
LINE
  5
5D2
100
AcDbEntity
  8
03___PRT_ALL_CURVES
100
AcDbLine
 62
4
  6
CONTINUOUS
 10
4.1789326758
 20
13.0101258007
 11
4.1851239005
 21
12.9990745156
  0
LINE
  5
5D3
100
AcDbEntity
  8
03___PRT_ALL_CURVES
100
AcDbLine
 62
4
  6
CONTINUOUS
 10
4.1879813883
 20
12.9939739236
 11
4.1956013566
 21
12.9803723431
  0
LINE
  5
5D4
100
AcDbEntity
  8
03___PRT_ALL_CURVES
100
AcDbLine
 62
4
  6
CONTINUOUS
 10
4.217215059
 20
12.9463215276
 11
4.2243587797
 21
12.9335700452
  0
LINE
  5
5D5
100
AcDbEntity
  8
03___PRT_ALL_CURVES
100
AcDbLine
 62
4
  6
CONTINUOUS
 10
4.2372174759
 20
12.9106173787
 11
4.2272162675
 21
12.9284694532
  0
LINE
  5
5D6
100
AcDbEntity
  8
03___PRT_ALL_CURVES
100
AcDbLine
 62
4
  6
CONTINUOUS
 10
4.2071157581
 20
12.9990745156
 11
4.2099732459
 21
12.9939739236
  0
LINE
  5
5D7
100
AcDbEntity
  8
03___PRT_ALL_CURVES
100
AcDbLine
 62
4
  6
CONTINUOUS
 10
4.2426473072
 20
12.9386706372
 11
4.241218562
 21
12.9412209356
  0
LINE
  5
5D8
100
AcDbEntity
  8
03___PRT_ALL_CURVES
100
AcDbLine
 62
4
  6
CONTINUOUS
 10
4.201450415
 20
13.0152263927
 11
4.2043079028
 21
13.0101258007
  0
LINE
  5
5D9
100
AcDbEntity
  8
03___PRT_ALL_CURVES
100
AcDbLine
 62
4
  6
CONTINUOUS
 10
4.2209765836
 20
12.9803723431
 11
4.2238340717
 21
12.9752717504
  0
LINE
  5
5DA
100
AcDbEntity
  8
03___PRT_ALL_CURVES
100
AcDbLine
 62
4
  6
CONTINUOUS
 10
4.2481985996
 20
12.9378205385
 11
4.2462936065
 21
12.9412209356
  0
LINE
  5
5DB
100
AcDbEntity
  8
03___PRT_ALL_CURVES
100
AcDbLine
 62
4
  6
CONTINUOUS
 10
4.2712011466
 20
12.9752717504
 11
4.24881749
 21
13.0152263927
  0
LINE
  5
5DC
100
AcDbEntity
  8
03___PRT_ALL_CURVES
100
AcDbLine
 62
4
  6
CONTINUOUS
 10
4.2916490409
 20
12.9463215276
 11
4.2892678011
 21
12.950572021
  0
LINE
  5
5DD
100
AcDbEntity
  8
03___PRT_ALL_CURVES
100
AcDbLine
 62
4
  6
CONTINUOUS
 10
4.273418703
 20
12.9803723431
 11
4.2567500222
 21
13.0101258007
  0
LINE
  5
5DE
100
AcDbEntity
  8
03___PRT_ALL_CURVES
100
AcDbLine
 62
4
  6
CONTINUOUS
 10
4.325184916
 20
12.9106173787
 11
4.3051824991
 21
12.9463215276
  0
LINE
  5
5DF
100
AcDbEntity
  8
03___PRT_ALL_CURVES
100
AcDbLine
 62
4
  6
CONTINUOUS
 10
4.3102575436
 20
12.9463215276
 11
4.3302599605
 21
12.9106173787
  0
LINE
  5
5E0
100
AcDbEntity
  8
03___PRT_ALL_CURVES
100
AcDbLine
 62
4
  6
CONTINUOUS
 10
4.2851960405
 20
13.0016248116
 11
4.2923397606
 21
12.9888733303
  0
LINE
  5
5E1
100
AcDbEntity
  8
03___PRT_ALL_CURVES
100
AcDbLine
 62
4
  6
CONTINUOUS
 10
4.290271085
 20
13.0016248116
 11
4.297414805
 21
12.9888733303
  0
LINE
  5
5E2
100
AcDbEntity
  8
03___PRT_ALL_CURVES
100
AcDbLine
 62
4
  6
CONTINUOUS
 10
4.3214097427
 20
12.950572021
 11
4.3237909825
 21
12.9463215276
  0
LINE
  5
5E3
100
AcDbEntity
  8
03___PRT_ALL_CURVES
100
AcDbLine
 62
4
  6
CONTINUOUS
 10
4.2894178551
 20
13.0152263927
 11
4.3118015118
 21
12.9752717504
  0
LINE
  5
5E4
100
AcDbEntity
  8
03___PRT_ALL_CURVES
100
AcDbLine
 62
4
  6
CONTINUOUS
 10
4.3505601382
 20
12.9106173787
 11
4.3281764815
 21
12.950572021
  0
LINE
  5
5E5
100
AcDbEntity
  8
03___PRT_ALL_CURVES
100
AcDbLine
 62
4
  6
CONTINUOUS
 10
4.2968741394
 20
13.0109758993
 11
4.3040178601
 21
12.9982244169
  0
LINE
  5
5E6
100
AcDbEntity
  8
03___PRT_ALL_CURVES
100
AcDbLine
 62
4
  6
CONTINUOUS
 10
4.3168765562
 20
12.9752717504
 11
4.3068753478
 21
12.9931238249
  0
LINE
  5
5E7
100
AcDbEntity
  8
03___PRT_ALL_CURVES
100
AcDbLine
 62
4
  6
CONTINUOUS
 10
4.3361090137
 20
12.9454714289
 11
4.3423002385
 21
12.9344201439
  0
LINE
  5
5E8
100
AcDbEntity
  8
03___PRT_ALL_CURVES
100
AcDbLine
 62
4
  6
CONTINUOUS
 10
4.3451577262
 20
12.9293195518
 11
4.3527776946
 21
12.9157179713
  0
LINE
  5
5E9
100
AcDbEntity
  8
03___PRT_ALL_CURVES
100
AcDbLine
 62
4
  6
CONTINUOUS
 10
4.3223063779
 20
13.0033250089
 11
4.3208776327
 21
13.0058753073
  0
LINE
  5
5EA
100
AcDbEntity
  8
03___PRT_ALL_CURVES
100
AcDbLine
 62
4
  6
CONTINUOUS
 10
4.3642920913
 20
12.9344201439
 11
4.367149579
 21
12.9293195518
  0
LINE
  5
5EB
100
AcDbEntity
  8
03___PRT_ALL_CURVES
100
AcDbLine
 62
4
  6
CONTINUOUS
 10
4.3278576703
 20
13.0024749102
 11
4.3259526771
 21
13.0058753073
  0
LINE
  5
5EC
100
AcDbEntity
  8
03___PRT_ALL_CURVES
100
AcDbLine
 62
4
  6
CONTINUOUS
 10
4.3586267481
 20
12.950572021
 11
4.3614842359
 21
12.9454714289
  0
LINE
  5
5ED
100
AcDbEntity
  8
03___PRT_ALL_CURVES
100
AcDbLine
 62
4
  6
CONTINUOUS
 10
4.3781529167
 20
12.9157179713
 11
4.3810104048
 21
12.9106173787
  0
LINE
  5
5EE
100
AcDbEntity
  8
03___PRT_ALL_CURVES
100
AcDbLine
 62
4
  6
CONTINUOUS
 10
4.4083750629
 20
12.9463215276
 11
4.4059938231
 21
12.950572021
  0
LINE
  5
5EF
100
AcDbEntity
  8
03___PRT_ALL_CURVES
100
AcDbLine
 62
4
  6
CONTINUOUS
 10
4.4165220668
 20
12.984622837
 11
4.4044521828
 21
13.0152263927
  0
LINE
  5
5F0
100
AcDbEntity
  8
03___PRT_ALL_CURVES
100
AcDbLine
 62
4
  6
CONTINUOUS
 10
4.4095272272
 20
13.0152263927
 11
4.4251441644
 21
12.9752717504
  0
LINE
  5
5F1
100
AcDbEntity
  8
03___PRT_ALL_CURVES
100
AcDbLine
 62
4
  6
CONTINUOUS
 10
4.1767783856
 20
12.9369704399
 11
4.1752429844
 21
12.9412209356
  0
LINE
  5
5F2
100
AcDbEntity
  8
03___PRT_ALL_CURVES
100
AcDbLine
 62
4
  6
CONTINUOUS
 10
4.2177557343
 20
12.9242189586
 11
4.2192911318
 21
12.9199684653
  0
LINE
  5
5F3
100
AcDbEntity
  8
03___PRT_ALL_CURVES
100
AcDbLine
 62
4
  6
CONTINUOUS
 10
4.297414805
 20
12.9888733303
 11
4.298950217
 21
12.984622837
  0
LINE
  5
5F4
100
AcDbEntity
  8
03___PRT_ALL_CURVES
100
AcDbLine
 62
4
  6
CONTINUOUS
 10
4.4763560541
 20
13.0016248116
 11
4.4748206408
 21
13.0058753073
  0
LINE
  5
5F5
100
AcDbEntity
  8
03___PRT_ALL_CURVES
100
AcDbLine
 62
4
  6
CONTINUOUS
 10
4.3935132811
 20
13.0075755046
 11
4.4048439867
 21
12.9752717504
  0
LINE
  5
5F6
100
AcDbEntity
  8
03___PRT_ALL_CURVES
100
AcDbLine
 62
4
  6
CONTINUOUS
 10
4.3962218891
 20
12.984622837
 11
4.3858436994
 21
13.0152263927
  0
LINE
  5
5F7
100
AcDbEntity
  8
03___PRT_ALL_CURVES
100
AcDbLine
 62
4
  6
CONTINUOUS
 10
4.1024374181
 20
13.009275702
 11
4.1034965691
 21
13.0058753073
  0
LINE
  5
5F8
100
AcDbEntity
  8
03___PRT_ALL_CURVES
100
AcDbLine
 62
4
  6
CONTINUOUS
 10
4.1818534276
 20
12.9369704399
 11
4.1807942781
 21
12.9403708345
  0
LINE
  5
5F9
100
AcDbEntity
  8
03___PRT_ALL_CURVES
100
AcDbLine
 62
4
  6
CONTINUOUS
 10
4.2126806899
 20
12.9242189586
 11
4.2137398394
 21
12.920818564
  0
LINE
  5
5FA
100
AcDbEntity
  8
03___PRT_ALL_CURVES
100
AcDbLine
 62
4
  6
CONTINUOUS
 10
4.2923397606
 20
12.9888733303
 11
4.2933989246
 21
12.9854729357
  0
LINE
  5
5FB
100
AcDbEntity
  8
03___PRT_ALL_CURVES
100
AcDbLine
 62
4
  6
CONTINUOUS
 10
4.4803719345
 20
13.0050252063
 11
4.4814310985
 21
13.0016248116
  0
LINE
  5
5FC
100
AcDbEntity
  8
03___PRT_ALL_CURVES
100
AcDbLine
 62
4
  6
CONTINUOUS
 10
4.5188688027
 20
12.984622837
 11
4.519927967
 21
12.9812224417
  0
LINE
  5
5FD
100
AcDbEntity
  8
03___PRT_ALL_CURVES
100
AcDbLine
 62
4
  6
CONTINUOUS
 10
4.2432302136
 20
12.9361203412
 11
4.2426473072
 21
12.9386706372
  0
LINE
  5
5FE
100
AcDbEntity
  8
03___PRT_ALL_CURVES
100
AcDbLine
 62
4
  6
CONTINUOUS
 10
4.248781506
 20
12.9352702425
 11
4.2481985996
 21
12.9378205385
  0
LINE
  5
5FF
100
AcDbEntity
  8
03___PRT_ALL_CURVES
100
AcDbLine
 62
4
  6
CONTINUOUS
 10
4.3228892939
 20
13.0007747129
 11
4.3223063779
 21
13.0033250089
  0
LINE
  5
600
100
AcDbEntity
  8
03___PRT_ALL_CURVES
100
AcDbLine
 62
4
  6
CONTINUOUS
 10
4.3284405863
 20
12.9999246142
 11
4.3278576703
 21
13.0024749102
  0
LINE
  5
601
100
AcDbEntity
  8
03___PRT_ALL_CURVES
100
AcDbLine
 62
4
  6
CONTINUOUS
 10
4.352394466
 20
12.9888733303
 11
4.3471483358
 21
13.011825998
  0
LINE
  5
602
100
AcDbEntity
  8
03___PRT_ALL_CURVES
100
AcDbLine
 62
4
  6
CONTINUOUS
 10
4.3534536106
 20
12.9854729357
 11
4.3557852173
 21
12.9752717504
  0
LINE
  5
603
100
AcDbEntity
  8
03___PRT_ALL_CURVES
100
AcDbLine
 62
4
  6
CONTINUOUS
 10
4.5139004264
 20
12.9829226397
 11
4.5133175103
 21
12.9854729357
  0
LINE
  5
604
100
AcDbEntity
  8
03___PRT_ALL_CURVES
100
AcDbLine
 62
4
  6
CONTINUOUS
 10
4.3507101729
 20
12.9752717504
 11
4.3418599745
 21
13.0152263927
  0
LINE
  5
605
100
AcDbEntity
  8
0
100
AcDbLine
 62
7
  6
CONTINUOUS
 10
5.559886333
 20
5.5609879789
 11
5.559886333
 21
4.0609879789
  0
LINE
  5
606
100
AcDbEntity
  8
0
100
AcDbLine
 62
7
  6
CONTINUOUS
 10
5.559886333
 20
15.1047218124
 11
5.559886333
 21
16.6034619699
  0
LINE
  5
607
100
AcDbEntity
  8
0
100
AcDbLine
 62
7
  6
CONTINUOUS
 10
3.901886333
 20
14.1197911285
 11
-0.090113667
 21
14.1197911285
  0
LINE
  5
608
100
AcDbEntity
  8
0
100
AcDbLine
 62
7
  6
CONTINUOUS
 10
-0.090113667
 20
14.1591612072
 11
3.309886333
 21
14.1591612072
  0
LINE
  5
609
100
AcDbEntity
  8
0
100
AcDbLine
 62
7
  6
CONTINUOUS
 10
-3.3901132651
 20
14.4790194749
 11
6.6098859311
 21
14.4790194749
  0
LINE
  5
60A
100
AcDbEntity
  8
0
100
AcDbLine
 62
7
  6
CONTINUOUS
 10
6.5705162543
 20
14.5325241442
 11
-3.3507435883
 21
14.5325241442
  0
LINE
  5
60B
100
AcDbEntity
  8
03___PRT_ALL_CURVES
100
AcDbLine
 62
4
  6
CONTINUOUS
 10
4.4956118703
 20
12.9778220468
 11
4.4903235283
 21
12.9812224417
  0
LINE
  5
60C
100
AcDbEntity
  8
03___PRT_ALL_CURVES
100
AcDbLine
 62
4
  6
CONTINUOUS
 10
4.4989234015
 20
13.0126760967
 11
4.5042117821
 21
13.009275702
  0
LINE
  5
60D
100
AcDbEntity
  8
03___PRT_ALL_CURVES
100
AcDbLine
 62
4
  6
CONTINUOUS
 10
4.3236781054
 20
13.0084256033
 11
4.3192355914
 21
13.011825998
  0
LINE
  5
60E
100
AcDbEntity
  8
03___PRT_ALL_CURVES
100
AcDbLine
 62
4
  6
CONTINUOUS
 10
4.3907264581
 20
12.9310197492
 11
4.3653934676
 21
12.950572021
  0
LINE
  5
60F
100
AcDbEntity
  8
03___PRT_ALL_CURVES
100
AcDbLine
 62
4
  6
CONTINUOUS
 10
4.4165357159
 20
12.9106173787
 11
4.3956452201
 21
12.9267692558
  0
LINE
  5
610
100
AcDbEntity
  8
03___PRT_ALL_CURVES
100
AcDbLine
 62
4
  6
CONTINUOUS
 10
4.370468512
 20
12.950572021
 11
4.3913589885
 21
12.9344201439
  0
LINE
  5
611
100
AcDbEntity
  8
03___PRT_ALL_CURVES
100
AcDbLine
 62
4
  6
CONTINUOUS
 10
4.3958015025
 20
12.9310197492
 11
4.4216107603
 21
12.9106173787
  0
LINE
  5
612
100
AcDbEntity
  8
03___PRT_ALL_CURVES
100
AcDbLine
 62
4
  6
CONTINUOUS
 10
4.2793247813
 20
13.0075755046
 11
4.2824452209
 21
13.0050252063
  0
LINE
  5
613
100
AcDbEntity
  8
03___PRT_ALL_CURVES
100
AcDbLine
 62
4
  6
CONTINUOUS
 10
4.4913256382
 20
12.9854729357
 11
4.4944460764
 21
12.9829226397
  0
LINE
  5
614
100
AcDbEntity
  8
03___PRT_ALL_CURVES
100
AcDbLine
 62
4
  6
CONTINUOUS
 10
4.4357482966
 20
13.0152263927
 11
4.4759442228
 21
12.9812224417
  0
LINE
  5
615
100
AcDbEntity
  8
03___PRT_ALL_CURVES
100
AcDbLine
 62
4
  6
CONTINUOUS
 10
4.4767404366
 20
12.9752717504
 11
4.4360682621
 21
13.0101258007
  0
LINE
  5
616
100
AcDbEntity
  8
03___PRT_ALL_CURVES
100
AcDbLine
 62
4
  6
CONTINUOUS
 10
4.2834473298
 20
13.009275702
 11
4.287044016
 21
13.0058753073
  0
LINE
  5
617
100
AcDbEntity
  8
03___PRT_ALL_CURVES
100
AcDbLine
 62
4
  6
CONTINUOUS
 10
4.4903235283
 20
12.9812224417
 11
4.4867268417
 21
12.984622837
  0
LINE
  5
618
100
AcDbEntity
  8
03___PRT_ALL_CURVES
100
AcDbLine
 62
4
  6
CONTINUOUS
 10
4.3439434534
 20
12.9752717504
 11
4.3253771824
 21
12.9948240222
  0
LINE
  5
619
100
AcDbEntity
  8
03___PRT_ALL_CURVES
100
AcDbLine
 62
4
  6
CONTINUOUS
 10
4.3212546339
 20
12.9931238249
 11
4.3380225618
 21
12.9752717504
  0
LINE
  5
61A
100
AcDbEntity
  8
03___PRT_ALL_CURVES
100
AcDbLine
 62
4
  6
CONTINUOUS
 10
4.348626694
 20
13.0152263927
 11
4.3845438089
 21
12.9752717504
  0
LINE
  5
61B
100
AcDbEntity
  8
03___PRT_ALL_CURVES
100
AcDbLine
 62
4
  6
CONTINUOUS
 10
4.3208776327
 20
13.0058753073
 11
4.318603061
 21
13.0084256033
  0
LINE
  5
61C
100
AcDbEntity
  8
03___PRT_ALL_CURVES
100
AcDbLine
 62
4
  6
CONTINUOUS
 10
4.3259526771
 20
13.0058753073
 11
4.3236781054
 21
13.0084256033
  0
LINE
  5
61D
100
AcDbEntity
  8
03___PRT_ALL_CURVES
100
AcDbLine
 62
4
  6
CONTINUOUS
 10
4.3794687645
 20
12.9752717504
 11
4.3703704189
 21
12.9854729357
  0
LINE
  5
61E
100
AcDbEntity
  8
03___PRT_ALL_CURVES
100
AcDbLine
 62
4
  6
CONTINUOUS
 10
4.3471483358
 20
13.011825998
 11
4.3676195993
 21
12.9888733303
  0
LINE
  5
61F
100
AcDbEntity
  8
03___PRT_ALL_CURVES
100
AcDbLine
 62
4
  6
CONTINUOUS
 10
4.5023638066
 20
13.0050252063
 11
4.5000892336
 21
13.0075755046
  0
LINE
  5
620
100
AcDbEntity
  8
03___PRT_ALL_CURVES
100
AcDbLine
 62
4
  6
CONTINUOUS
 10
4.2824452209
 20
13.0050252063
 11
4.2851960405
 21
13.0016248116
  0
LINE
  5
621
100
AcDbEntity
  8
03___PRT_ALL_CURVES
100
AcDbLine
 62
4
  6
CONTINUOUS
 10
4.4885748185
 20
12.9888733303
 11
4.4913256382
 21
12.9854729357
  0
LINE
  5
622
100
AcDbEntity
  8
03___PRT_ALL_CURVES
100
AcDbLine
 62
4
  6
CONTINUOUS
 10
4.3926104189
 20
13.0152263927
 11
4.4165220668
 21
12.984622837
  0
LINE
  5
623
100
AcDbEntity
  8
03___PRT_ALL_CURVES
100
AcDbLine
 62
4
  6
CONTINUOUS
 10
4.418377445
 20
12.9752717504
 11
4.3935132811
 21
13.0075755046
  0
LINE
  5
624
100
AcDbEntity
  8
03___PRT_ALL_CURVES
100
AcDbLine
 62
4
  6
CONTINUOUS
 10
4.287044016
 20
13.0058753073
 11
4.290271085
 21
13.0016248116
  0
LINE
  5
625
100
AcDbEntity
  8
03___PRT_ALL_CURVES
100
AcDbLine
 62
4
  6
CONTINUOUS
 10
4.4867268417
 20
12.984622837
 11
4.4834997741
 21
12.9888733303
  0
LINE
  5
626
100
AcDbEntity
  8
03___PRT_ALL_CURVES
100
AcDbLine
 62
4
  6
CONTINUOUS
 10
4.5042117821
 20
13.009275702
 11
4.5074388511
 21
13.0050252063
  0
LINE
  5
627
100
AcDbEntity
  8
03___PRT_ALL_CURVES
100
AcDbLine
 62
4
  6
CONTINUOUS
 10
4.3980772672
 20
12.9752717504
 11
4.3689268717
 21
13.0152263927
  0
LINE
  5
628
100
AcDbEntity
  8
03___PRT_ALL_CURVES
100
AcDbLine
 62
4
  6
CONTINUOUS
 10
4.3740019162
 20
13.0152263927
 11
4.3962218891
 21
12.984622837
  0
LINE
  5
629
100
AcDbEntity
  8
03___PRT_ALL_CURVES
100
AcDbLine
 62
4
  6
CONTINUOUS
 10
4.441910938
 20
12.9106173787
 11
4.4219085212
 21
12.9463215276
  0
LINE
  5
62A
100
AcDbEntity
  8
03___PRT_ALL_CURVES
100
AcDbLine
 62
4
  6
CONTINUOUS
 10
4.4269835656
 20
12.9463215276
 11
4.4469859825
 21
12.9106173787
  0
LINE
  5
62B
100
AcDbEntity
  8
03___PRT_ALL_CURVES
100
AcDbLine
 62
4
  6
CONTINUOUS
 10
4.4381357647
 20
12.950572021
 11
4.4405170045
 21
12.9463215276
  0
LINE
  5
62C
100
AcDbEntity
  8
03___PRT_ALL_CURVES
100
AcDbLine
 62
4
  6
CONTINUOUS
 10
4.4386776227
 20
12.9752717504
 11
4.416293966
 21
13.0152263927
  0
LINE
  5
62D
100
AcDbEntity
  8
03___PRT_ALL_CURVES
100
AcDbLine
 62
4
  6
CONTINUOUS
 10
4.4213689911
 20
13.0152263927
 11
4.4437526478
 21
12.9752717504
  0
LINE
  5
62E
100
AcDbEntity
  8
03___PRT_ALL_CURVES
100
AcDbLine
 62
4
  6
CONTINUOUS
 10
4.4505193866
 20
12.9752717504
 11
4.4281357299
 21
13.0152263927
  0
LINE
  5
62F
100
AcDbEntity
  8
03___PRT_ALL_CURVES
100
AcDbLine
 62
4
  6
CONTINUOUS
 10
4.4360682621
 20
13.0101258007
 11
4.455594431
 21
12.9752717504
  0
LINE
  5
630
100
AcDbEntity
  8
03___PRT_ALL_CURVES
100
AcDbLine
 62
4
  6
CONTINUOUS
 10
4.4759442228
 20
12.9812224417
 11
4.4568943022
 21
13.0152263927
  0
LINE
  5
631
100
AcDbEntity
  8
03___PRT_ALL_CURVES
100
AcDbLine
 62
4
  6
CONTINUOUS
 10
4.4619693466
 20
13.0152263927
 11
4.4843530033
 21
12.9752717504
  0
LINE
  5
632
100
AcDbEntity
  8
03___PRT_ALL_CURVES
100
AcDbLine
 62
4
  6
CONTINUOUS
 10
4.4834997741
 20
12.9888733303
 11
4.4763560541
 21
13.0016248116
  0
LINE
  5
633
100
AcDbEntity
  8
03___PRT_ALL_CURVES
100
AcDbLine
 62
4
  6
CONTINUOUS
 10
4.4814310985
 20
13.0016248116
 11
4.4885748185
 21
12.9888733303
  0
LINE
  5
634
100
AcDbEntity
  8
03___PRT_ALL_CURVES
100
AcDbLine
 62
4
  6
CONTINUOUS
 10
4.5018949593
 20
12.9922737262
 11
4.4990374716
 21
12.9973743182
  0
LINE
  5
635
100
AcDbEntity
  8
03___PRT_ALL_CURVES
100
AcDbLine
 62
4
  6
CONTINUOUS
 10
4.5133175103
 20
12.9854729357
 11
4.509507526
 21
12.9922737262
  0
LINE
  5
636
100
AcDbEntity
  8
03___PRT_ALL_CURVES
100
AcDbLine
 62
4
  6
CONTINUOUS
 10
4.5117250827
 20
12.9973743182
 11
4.5188688027
 21
12.984622837
  0
LINE
  5
637
100
AcDbEntity
  8
0
100
AcDbLine
 62
7
  6
CONTINUOUS
 10
4.7083817215
 20
12.7078760776
 11
4.4444235062
 21
13.1790393114
  0
LINE
  5
638
100
AcDbEntity
  8
0
100
AcDbLine
 62
7
  6
CONTINUOUS
 10
6.5205162543
 20
5.9006730182
 11
6.5205162543
 21
5.8683895537
  0
LINE
  5
639
100
AcDbEntity
  8
0
100
AcDbLine
 62
7
  6
CONTINUOUS
 10
5.559886333
 20
15.1047218124
 11
-2.340113667
 21
15.1047218124
  0
LINE
  5
63A
100
AcDbEntity
  8
0
100
AcDbLine
 62
7
  6
CONTINUOUS
 10
6.559886333
 20
7.1009879789
 11
6.559886333
 21
5.9006730182
  0
LINE
  5
63B
100
AcDbEntity
  8
0
100
AcDbLine
 62
7
  6
CONTINUOUS
 10
6.5705162543
 20
14.5325241442
 11
6.5705162543
 21
14.4790194749
  0
LINE
  5
63C
100
AcDbEntity
  8
0
100
AcDbLine
 62
7
  6
CONTINUOUS
 10
6.609886333
 20
13.3488163006
 11
6.609886333
 21
14.4790194749
  0
LINE
  5
63D
100
AcDbEntity
  8
0
100
AcDbLine
 62
3
  6
CONTINUOUS
 10
6.5841623987
 20
11.9158562356
 11
5.9115885522
 21
13.1163949952
  0
LINE
  5
63E
100
AcDbEntity
  8
0
100
AcDbLine
 62
7
  6
CONTINUOUS
 10
6.5205162543
 20
5.8683895537
 11
5.559886333
 21
5.5609879789
  0
LINE
  5
63F
100
AcDbEntity
  8
0
100
AcDbLine
 62
7
  6
CONTINUOUS
 10
6.5705162543
 20
14.5325241442
 11
5.559886333
 21
15.1047218124
  0
LINE
  5
640
100
AcDbEntity
  8
0
100
AcDbLine
 62
7
  6
CONTINUOUS
 10
7.9804572438
 20
11.7762635694
 11
6.609886333
 21
13.3488163006
  0
LINE
  5
641
100
AcDbEntity
  8
0
100
AcDbLine
 62
7
  6
CONTINUOUS
 10
8.154886333
 20
9.5872871915
 11
8.154886333
 21
7.9620260814
  0
LINE
  5
642
100
AcDbEntity
  8
0
100
AcDbLine
 62
7
  6
CONTINUOUS
 10
8.154886333
 20
11.0636651442
 11
8.154886333
 21
11.3106491109
  0
LINE
  5
643
100
AcDbEntity
  8
0
100
AcDbLine
 62
7
  6
CONTINUOUS
 10
8.2336264905
 20
11.0636651442
 11
8.2336264905
 21
9.5872871915
  0
LINE
  5
644
100
AcDbEntity
  8
0
100
AcDbLine
 62
7
  6
CONTINUOUS
 10
5.559886143
 20
16.6034619699
 11
-2.340113477
 21
16.6034619699
  0
LINE
  5
645
100
AcDbEntity
  8
0
100
AcDbLine
 62
7
  6
CONTINUOUS
 10
15.8264907061
 20
14.1197911285
 11
15.8264907061
 21
14.0557911285
  0
LINE
  5
646
100
AcDbEntity
  8
0
100
AcDbLine
 62
7
  6
CONTINUOUS
 10
15.9177505486
 20
11.0636651442
 11
15.9177505486
 21
9.5872871915
  0
LINE
  5
647
100
AcDbEntity
  8
0
100
AcDbLine
 62
7
  6
CONTINUOUS
 10
15.9177505486
 20
11.0636651442
 11
15.9177505486
 21
11.0872871915
  0
LINE
  5
648
100
AcDbEntity
  8
0
100
AcDbLine
 62
7
  6
CONTINUOUS
 10
15.9964907061
 20
14.0557911285
 11
15.9964907061
 21
11.5361060891
  0
LINE
  5
649
100
AcDbEntity
  8
0
100
AcDbLine
 62
7
  6
CONTINUOUS
 10
15.9964907061
 20
9.5872871915
 11
15.9964907061
 21
7.9620260814
  0
LINE
  5
64A
100
AcDbEntity
  8
0
100
AcDbLine
 62
7
  6
CONTINUOUS
 10
15.9964907061
 20
11.0636651442
 11
15.9964907061
 21
11.3106491109
  0
LINE
  5
64B
100
AcDbEntity
  8
0
100
AcDbLine
 62
7
  6
CONTINUOUS
 10
15.9964907061
 20
14.1197911285
 11
15.9964907061
 21
14.1591612072
  0
LINE
  5
64C
100
AcDbEntity
  8
0
100
AcDbLine
 62
7
  6
CONTINUOUS
 10
16.1418280412
 20
11.0892556954
 11
16.1418280412
 21
10.0853186875
  0
LINE
  5
64D
100
AcDbEntity
  8
0
100
AcDbLine
 62
7
  6
CONTINUOUS
 10
16.1583265039
 20
11.0302005773
 11
16.1583265039
 21
10.294454621
  0
LINE
  5
64E
100
AcDbEntity
  8
0
100
AcDbLine
 62
7
  6
CONTINUOUS
 10
16.1583265039
 20
10.2747695816
 11
16.1583265039
 21
10.1443738056
  0
LINE
  5
64F
100
AcDbEntity
  8
0
100
AcDbLine
 62
7
  6
CONTINUOUS
 10
16.4612971033
 20
10.1443738056
 11
16.4612971033
 21
10.2747695816
  0
LINE
  5
650
100
AcDbEntity
  8
0
100
AcDbLine
 62
7
  6
CONTINUOUS
 10
16.4612971033
 20
10.294454621
 11
16.4612971033
 21
11.0302005773
  0
LINE
  5
651
100
AcDbEntity
  8
0
100
AcDbLine
 62
7
  6
CONTINUOUS
 10
16.4649966806
 20
10.1443738056
 11
16.4649966806
 21
10.2747695816
  0
LINE
  5
652
100
AcDbEntity
  8
0
100
AcDbLine
 62
7
  6
CONTINUOUS
 10
16.4649966806
 20
10.294454621
 11
16.4649966806
 21
11.0302005773
  0
LINE
  5
653
100
AcDbEntity
  8
0
100
AcDbLine
 62
7
  6
CONTINUOUS
 10
17.5808607848
 20
14.5325241442
 11
18.5914907061
 21
15.1047218124
  0
LINE
  5
654
100
AcDbEntity
  8
0
100
AcDbLine
 62
7
  6
CONTINUOUS
 10
18.5914907061
 20
4.0609879789
 11
26.4914907061
 21
4.0609879789
  0
LINE
  5
655
100
AcDbEntity
  8
0
100
AcDbLine
 62
7
  6
CONTINUOUS
 10
16.4851947205
 20
10.0853186875
 11
16.4851947205
 21
11.0892556954
  0
LINE
  5
656
100
AcDbEntity
  8
0
100
AcDbLine
 62
7
  6
CONTINUOUS
 10
16.4888942978
 20
10.0853186875
 11
16.4888942978
 21
11.0892556954
  0
LINE
  5
657
100
AcDbEntity
  8
0
100
AcDbLine
 62
7
  6
CONTINUOUS
 10
16.6705907061
 20
14.1591612072
 11
16.6705907061
 21
14.1994112072
  0
LINE
  5
658
100
AcDbEntity
  8
0
100
AcDbLine
 62
7
  6
CONTINUOUS
 10
16.8165907061
 20
14.2547729823
 11
16.8165907061
 21
14.2651414357
  0
LINE
  5
659
100
AcDbEntity
  8
0
100
AcDbLine
 62
7
  6
CONTINUOUS
 10
16.8465907061
 20
14.2651414357
 11
16.8465907061
 21
14.2547729823
  0
LINE
  5
65A
100
AcDbEntity
  8
0
100
AcDbLine
 62
7
  6
CONTINUOUS
 10
16.9925907061
 20
14.1591612072
 11
16.9925907061
 21
14.1994112072
  0
LINE
  5
65B
100
AcDbEntity
  8
03___PRT_ALL_CURVES
100
AcDbLine
 62
4
  6
CONTINUOUS
 10
17.6960886421
 20
12.9837727383
 11
17.6970816082
 21
12.9863230343
  0
LINE
  5
65C
100
AcDbEntity
  8
03___PRT_ALL_CURVES
100
AcDbLine
 62
4
  6
CONTINUOUS
 10
17.7095692811
 20
13.0007747129
 11
17.7105622473
 21
13.0033250089
  0
LINE
  5
65D
100
AcDbEntity
  8
03___PRT_ALL_CURVES
100
AcDbLine
 62
4
  6
CONTINUOUS
 10
17.7300085751
 20
13.0058753073
 11
17.7310015418
 21
13.0084256033
  0
LINE
  5
65E
100
AcDbEntity
  8
03___PRT_ALL_CURVES
100
AcDbLine
 62
4
  6
CONTINUOUS
 10
17.6928231403
 20
12.9863230343
 11
17.6912626041
 21
12.9829226397
  0
LINE
  5
65F
100
AcDbEntity
  8
03___PRT_ALL_CURVES
100
AcDbLine
 62
4
  6
CONTINUOUS
 10
17.7057362091
 20
13.0024749102
 11
17.704175673
 21
12.9990745156
  0
LINE
  5
660
100
AcDbEntity
  8
03___PRT_ALL_CURVES
100
AcDbLine
 62
4
  6
CONTINUOUS
 10
17.6852859164
 20
12.920818564
 11
17.6868464512
 21
12.9242189586
  0
LINE
  5
661
100
AcDbEntity
  8
03___PRT_ALL_CURVES
100
AcDbLine
 62
4
  6
CONTINUOUS
 10
17.7167933917
 20
12.9403708345
 11
17.7152328568
 21
12.9369704399
  0
LINE
  5
662
100
AcDbEntity
  8
03___PRT_ALL_CURVES
100
AcDbLine
 62
4
  6
CONTINUOUS
 10
17.6804598782
 20
12.9199684653
 11
17.6825879853
 21
12.9242189586
  0
LINE
  5
663
100
AcDbEntity
  8
03___PRT_ALL_CURVES
100
AcDbLine
 62
4
  6
CONTINUOUS
 10
17.7216194314
 20
12.9412209356
 11
17.7194913247
 21
12.9369704399
  0
LINE
  5
664
100
AcDbEntity
  8
0
100
AcDbLine
 62
7
  6
CONTINUOUS
 10
17.7893511988
 20
13.1790393114
 11
17.4747780473
 21
12.7078760776
  0
LINE
  5
665
100
AcDbEntity
  8
0
100
AcDbLine
 62
3
  6
CONTINUOUS
 10
16.9510650936
 20
11.9158562356
 11
17.4776655031
 21
12.7045909089
  0
LINE
  5
666
100
AcDbEntity
  8
03___PRT_ALL_CURVES
100
AcDbLine
 62
4
  6
CONTINUOUS
 10
17.6422780957
 20
12.9106173787
 11
17.668953899
 21
12.950572021
  0
LINE
  5
667
100
AcDbEntity
  8
03___PRT_ALL_CURVES
100
AcDbLine
 62
4
  6
CONTINUOUS
 10
17.7080064916
 20
13.0058753073
 11
17.7057362091
 21
13.0024749102
  0
LINE
  5
668
100
AcDbEntity
  8
03___PRT_ALL_CURVES
100
AcDbLine
 62
4
  6
CONTINUOUS
 10
17.6698069456
 20
12.9454714289
 11
17.6624285312
 21
12.9344201439
  0
LINE
  5
669
100
AcDbEntity
  8
03___PRT_ALL_CURVES
100
AcDbLine
 62
4
  6
CONTINUOUS
 10
17.6590231099
 20
12.9293195518
 11
17.6465365636
 21
12.9106173787
  0
LINE
  5
66A
100
AcDbEntity
  8
03___PRT_ALL_CURVES
100
AcDbLine
 62
4
  6
CONTINUOUS
 10
17.7105622473
 20
13.0033250089
 11
17.7116973877
 21
13.0050252063
  0
LINE
  5
66B
100
AcDbEntity
  8
03___PRT_ALL_CURVES
100
AcDbLine
 62
4
  6
CONTINUOUS
 10
17.7159603643
 20
12.9880232317
 11
17.7142576537
 21
12.9854729357
  0
LINE
  5
66C
100
AcDbEntity
  8
03___PRT_ALL_CURVES
100
AcDbLine
 62
4
  6
CONTINUOUS
 10
17.6808818929
 20
12.9344201439
 11
17.6774764716
 21
12.9293195518
  0
LINE
  5
66D
100
AcDbEntity
  8
03___PRT_ALL_CURVES
100
AcDbLine
 62
4
  6
CONTINUOUS
 10
17.6945047065
 20
12.950572021
 11
17.6910992852
 21
12.9454714289
  0
LINE
  5
66E
100
AcDbEntity
  8
03___PRT_ALL_CURVES
100
AcDbLine
 62
4
  6
CONTINUOUS
 10
17.7179485514
 20
12.984622837
 11
17.7207864024
 21
12.9888733303
  0
LINE
  5
66F
100
AcDbEntity
  8
03___PRT_ALL_CURVES
100
AcDbLine
 62
4
  6
CONTINUOUS
 10
17.6825879853
 20
12.9242189586
 11
17.6911015393
 21
12.9369704399
  0
LINE
  5
670
100
AcDbEntity
  8
03___PRT_ALL_CURVES
100
AcDbLine
 62
4
  6
CONTINUOUS
 10
17.7173832361
 20
12.9752717504
 11
17.7440590393
 21
13.0152263927
  0
LINE
  5
671
100
AcDbEntity
  8
03___PRT_ALL_CURVES
100
AcDbLine
 62
4
  6
CONTINUOUS
 10
17.6868464512
 20
12.9242189586
 11
17.6953600052
 21
12.9369704399
  0
LINE
  5
672
100
AcDbEntity
  8
03___PRT_ALL_CURVES
100
AcDbLine
 62
4
  6
CONTINUOUS
 10
17.744912086
 20
13.0101258007
 11
17.7375336716
 21
12.9990745156
  0
LINE
  5
673
100
AcDbEntity
  8
03___PRT_ALL_CURVES
100
AcDbLine
 62
4
  6
CONTINUOUS
 10
17.7341282503
 20
12.9939739236
 11
17.7250471257
 21
12.9803723431
  0
LINE
  5
674
100
AcDbEntity
  8
03___PRT_ALL_CURVES
100
AcDbLine
 62
4
  6
CONTINUOUS
 10
17.7559870312
 20
12.9990745156
 11
17.7525816099
 21
12.9939739236
  0
LINE
  5
675
100
AcDbEntity
  8
03___PRT_ALL_CURVES
100
AcDbLine
 62
4
  6
CONTINUOUS
 10
17.7152328568
 20
12.9369704399
 11
17.7067193028
 21
12.9242189586
  0
LINE
  5
676
100
AcDbEntity
  8
03___PRT_ALL_CURVES
100
AcDbLine
 62
4
  6
CONTINUOUS
 10
17.7696098468
 20
13.0152263927
 11
17.7662044255
 21
13.0101258007
  0
LINE
  5
677
100
AcDbEntity
  8
03___PRT_ALL_CURVES
100
AcDbLine
 62
4
  6
CONTINUOUS
 10
17.7463394653
 20
12.9803723431
 11
17.7429340436
 21
12.9752717504
  0
LINE
  5
678
100
AcDbEntity
  8
03___PRT_ALL_CURVES
100
AcDbLine
 62
4
  6
CONTINUOUS
 10
17.7194913247
 20
12.9369704399
 11
17.7109777707
 21
12.9242189586
  0
LINE
  5
679
100
AcDbEntity
  8
03___PRT_ALL_CURVES
100
AcDbLine
 62
4
  6
CONTINUOUS
 10
17.7486119995
 20
12.9752717504
 11
17.7752878027
 21
13.0152263927
  0
LINE
  5
67A
100
AcDbEntity
  8
03___PRT_ALL_CURVES
100
AcDbLine
 62
4
  6
CONTINUOUS
 10
17.7342504056
 20
12.950572021
 11
17.7075746024
 21
12.9106173787
  0
LINE
  5
67B
100
AcDbEntity
  8
03___PRT_ALL_CURVES
100
AcDbLine
 62
4
  6
CONTINUOUS
 10
17.7761408493
 20
13.0101258007
 11
17.768762435
 21
12.9990745156
  0
LINE
  5
67C
100
AcDbEntity
  8
03___PRT_ALL_CURVES
100
AcDbLine
 62
4
  6
CONTINUOUS
 10
17.7653570137
 20
12.9939739236
 11
17.7562758891
 21
12.9803723431
  0
LINE
  5
67D
100
AcDbEntity
  8
0
100
AcDbLine
 62
7
  6
CONTINUOUS
 10
17.6308607848
 20
5.8683895537
 11
18.5914907061
 21
5.5609879789
  0
LINE
  5
67E
100
AcDbEntity
  8
0
100
AcDbLine
 62
7
  6
CONTINUOUS
 10
17.5414907061
 20
14.1591612072
 11
17.5414907061
 21
14.4790194749
  0
LINE
  5
67F
100
AcDbEntity
  8
0
100
AcDbLine
 62
7
  6
CONTINUOUS
 10
17.5464907061
 20
13.1017136163
 11
17.5464907061
 21
14.1591612072
  0
LINE
  5
680
100
AcDbEntity
  8
0
100
AcDbLine
 62
7
  6
CONTINUOUS
 10
17.5808607848
 20
14.5325241442
 11
17.5808607848
 21
14.4790194749
  0
LINE
  5
681
100
AcDbEntity
  8
0
100
AcDbLine
 62
7
  6
CONTINUOUS
 10
17.5914907061
 20
7.1009879789
 11
17.5914907061
 21
5.9006730182
  0
LINE
  5
682
100
AcDbEntity
  8
0
100
AcDbLine
 62
7
  6
CONTINUOUS
 10
17.6308607848
 20
5.9006730182
 11
17.6308607848
 21
5.8683895537
  0
LINE
  5
683
100
AcDbEntity
  8
03___PRT_ALL_CURVES
100
AcDbLine
 62
4
  6
CONTINUOUS
 10
17.7310015418
 20
13.0084256033
 11
17.7311425887
 21
13.011825998
  0
LINE
  5
684
100
AcDbEntity
  8
03___PRT_ALL_CURVES
100
AcDbLine
 62
4
  6
CONTINUOUS
 10
17.7552606555
 20
12.9437712316
 11
17.7554017024
 21
12.9471716263
  0
LINE
  5
685
100
AcDbEntity
  8
03___PRT_ALL_CURVES
100
AcDbLine
 62
4
  6
CONTINUOUS
 10
17.8681134281
 20
12.9310197492
 11
17.8665574113
 21
12.9106173787
  0
LINE
  5
686
100
AcDbEntity
  8
03___PRT_ALL_CURVES
100
AcDbLine
 62
4
  6
CONTINUOUS
 10
17.6850026937
 20
12.9182682679
 11
17.6852859164
 21
12.920818564
  0
LINE
  5
687
100
AcDbEntity
  8
03___PRT_ALL_CURVES
100
AcDbLine
 62
4
  6
CONTINUOUS
 10
17.7162435878
 20
12.9905735289
 11
17.7159603643
 21
12.9880232317
  0
LINE
  5
688
100
AcDbEntity
  8
03___PRT_ALL_CURVES
100
AcDbLine
 62
4
  6
CONTINUOUS
 10
17.717076616
 20
12.9429211329
 11
17.7167933917
 21
12.9403708345
  0
LINE
  5
689
100
AcDbEntity
  8
03___PRT_ALL_CURVES
100
AcDbLine
 62
4
  6
CONTINUOUS
 10
17.857478259
 20
13.0075755046
 11
17.8571950469
 21
13.0050252063
  0
LINE
  5
68A
100
AcDbEntity
  8
03___PRT_ALL_CURVES
100
AcDbLine
 62
4
  6
CONTINUOUS
 10
17.9974378802
 20
13.0152263927
 11
17.9924786744
 21
12.9812224417
  0
LINE
  5
68B
100
AcDbEntity
  8
03___PRT_ALL_CURVES
100
AcDbLine
 62
4
  6
CONTINUOUS
 10
17.9863764485
 20
12.9752717504
 11
17.991903225
 21
13.0101258007
  0
LINE
  5
68C
100
AcDbEntity
  8
03___PRT_ALL_CURVES
100
AcDbLine
 62
4
  6
CONTINUOUS
 10
17.6912626041
 20
12.9829226397
 11
17.6905539865
 21
12.9786721454
  0
LINE
  5
68D
100
AcDbEntity
  8
03___PRT_ALL_CURVES
100
AcDbLine
 62
4
  6
CONTINUOUS
 10
17.679609087
 20
12.91656807
 11
17.6804598782
 21
12.9199684653
  0
LINE
  5
68E
100
AcDbEntity
  8
03___PRT_ALL_CURVES
100
AcDbLine
 62
4
  6
CONTINUOUS
 10
17.7207864024
 20
12.9888733303
 11
17.7216371961
 21
12.9922737262
  0
LINE
  5
68F
100
AcDbEntity
  8
03___PRT_ALL_CURVES
100
AcDbLine
 62
4
  6
CONTINUOUS
 10
17.7261755037
 20
13.0075755046
 11
17.7257501072
 21
13.0058753073
  0
LINE
  5
690
100
AcDbEntity
  8
03___PRT_ALL_CURVES
100
AcDbLine
 62
4
  6
CONTINUOUS
 10
17.7224702243
 20
12.9446213303
 11
17.7216194314
 21
12.9412209356
  0
LINE
  5
691
100
AcDbEntity
  8
03___PRT_ALL_CURVES
100
AcDbLine
 62
4
  6
CONTINUOUS
 10
17.8628718673
 20
13.009275702
 11
17.8620210866
 21
13.0058753073
  0
LINE
  5
692
100
AcDbEntity
  8
03___PRT_ALL_CURVES
100
AcDbLine
 62
4
  6
CONTINUOUS
 10
18.0045443443
 20
12.9812224417
 11
18.0053951254
 21
12.984622837
  0
LINE
  5
693
100
AcDbEntity
  8
03___PRT_ALL_CURVES
100
AcDbLine
 62
4
  6
CONTINUOUS
 10
17.7345448978
 20
12.9106173787
 11
17.7412113125
 21
12.9301696505
  0
LINE
  5
694
100
AcDbEntity
  8
03___PRT_ALL_CURVES
100
AcDbLine
 62
4
  6
CONTINUOUS
 10
17.8749465489
 20
12.9752717504
 11
17.8816129636
 21
12.9948240222
  0
LINE
  5
695
100
AcDbEntity
  8
03___PRT_ALL_CURVES
100
AcDbLine
 62
4
  6
CONTINUOUS
 10
17.7358177041
 20
12.9284694532
 11
17.729576688
 21
12.9106173787
  0
LINE
  5
696
100
AcDbEntity
  8
03___PRT_ALL_CURVES
100
AcDbLine
 62
4
  6
CONTINUOUS
 10
17.8762193552
 20
12.9931238249
 11
17.8699783309
 21
12.9752717504
  0
LINE
  5
697
100
AcDbEntity
  8
03___PRT_ALL_CURVES
100
AcDbLine
 62
4
  6
CONTINUOUS
 10
17.9243341756
 20
13.0152263927
 11
17.9090142922
 21
12.9752717504
  0
LINE
  5
698
100
AcDbEntity
  8
03___PRT_ALL_CURVES
100
AcDbLine
 62
4
  6
CONTINUOUS
 10
17.7500092188
 20
12.9412209356
 11
17.7510021875
 21
12.9437712316
  0
LINE
  5
699
100
AcDbEntity
  8
03___PRT_ALL_CURVES
100
AcDbLine
 62
4
  6
CONTINUOUS
 10
17.7542676868
 20
12.9412209356
 11
17.7552606555
 21
12.9437712316
  0
LINE
  5
69A
100
AcDbEntity
  8
03___PRT_ALL_CURVES
100
AcDbLine
 62
4
  6
CONTINUOUS
 10
17.8904108618
 20
13.0058753073
 11
17.8914038387
 21
13.0084256033
  0
LINE
  5
69B
100
AcDbEntity
  8
03___PRT_ALL_CURVES
100
AcDbLine
 62
4
  6
CONTINUOUS
 10
17.8946693298
 20
13.0058753073
 11
17.8956623066
 21
13.0084256033
  0
LINE
  5
69C
100
AcDbEntity
  8
03___PRT_ALL_CURVES
100
AcDbLine
 62
4
  6
CONTINUOUS
 10
17.9047558243
 20
12.9752717504
 11
17.9087276837
 21
12.9854729357
  0
LINE
  5
69D
100
AcDbEntity
  8
03___PRT_ALL_CURVES
100
AcDbLine
 62
4
  6
CONTINUOUS
 10
17.919224927
 20
13.011825998
 11
17.9102882307
 21
12.9888733303
  0
LINE
  5
69E
100
AcDbEntity
  8
03___PRT_ALL_CURVES
100
AcDbLine
 62
4
  6
CONTINUOUS
 10
18.0417286511
 20
13.0050252063
 11
18.0427216295
 21
13.0075755046
  0
LINE
  5
69F
100
AcDbEntity
  8
03___PRT_ALL_CURVES
100
AcDbLine
 62
4
  6
CONTINUOUS
 10
17.8571950469
 20
13.0050252063
 11
17.8556344998
 21
13.0016248116
  0
LINE
  5
6A0
100
AcDbEntity
  8
03___PRT_ALL_CURVES
100
AcDbLine
 62
4
  6
CONTINUOUS
 10
18.0117817106
 20
12.9888733303
 11
18.0102211635
 21
12.9854729357
  0
LINE
  5
6A1
100
AcDbEntity
  8
03___PRT_ALL_CURVES
100
AcDbLine
 62
4
  6
CONTINUOUS
 10
17.961240903
 20
13.0152263927
 11
17.9464863247
 21
12.984622837
  0
LINE
  5
6A2
100
AcDbEntity
  8
03___PRT_ALL_CURVES
100
AcDbLine
 62
4
  6
CONTINUOUS
 10
17.9374040838
 20
12.9752717504
 11
17.953293787
 21
13.0075755046
  0
LINE
  5
6A3
100
AcDbEntity
  8
03___PRT_ALL_CURVES
100
AcDbLine
 62
4
  6
CONTINUOUS
 10
17.8620210866
 20
13.0058753073
 11
17.8598929677
 21
13.0016248116
  0
LINE
  5
6A4
100
AcDbEntity
  8
03___PRT_ALL_CURVES
100
AcDbLine
 62
4
  6
CONTINUOUS
 10
18.0053951254
 20
12.984622837
 11
18.0075232427
 21
12.9888733303
  0
LINE
  5
6A5
100
AcDbEntity
  8
03___PRT_ALL_CURVES
100
AcDbLine
 62
4
  6
CONTINUOUS
 10
18.0481152378
 20
13.009275702
 11
18.045987119
 21
13.0050252063
  0
LINE
  5
6A6
100
AcDbEntity
  8
03___PRT_ALL_CURVES
100
AcDbLine
 62
4
  6
CONTINUOUS
 10
17.9203702121
 20
12.9752717504
 11
17.9413680473
 21
13.0152263927
  0
LINE
  5
6A7
100
AcDbEntity
  8
03___PRT_ALL_CURVES
100
AcDbLine
 62
4
  6
CONTINUOUS
 10
17.9456265152
 20
13.0152263927
 11
17.929452453
 21
12.984622837
  0
LINE
  5
6A8
100
AcDbEntity
  8
03___PRT_ALL_CURVES
100
AcDbLine
 62
4
  6
CONTINUOUS
 10
17.7356710265
 20
12.9463215276
 11
17.7271574717
 21
12.9335700452
  0
LINE
  5
6A9
100
AcDbEntity
  8
03___PRT_ALL_CURVES
100
AcDbLine
 62
4
  6
CONTINUOUS
 10
17.7118330744
 20
12.9106173787
 11
17.7237520504
 21
12.9284694532
  0
LINE
  5
6AA
100
AcDbEntity
  8
03___PRT_ALL_CURVES
100
AcDbLine
 62
4
  6
CONTINUOUS
 10
17.7872157946
 20
12.9990745156
 11
17.7838103733
 21
12.9939739236
  0
LINE
  5
6AB
100
AcDbEntity
  8
03___PRT_ALL_CURVES
100
AcDbLine
 62
4
  6
CONTINUOUS
 10
17.7483065066
 20
12.9386706372
 11
17.7500092188
 21
12.9412209356
  0
LINE
  5
6AC
100
AcDbEntity
  8
03___PRT_ALL_CURVES
100
AcDbLine
 62
4
  6
CONTINUOUS
 10
17.8008386142
 20
13.0152263927
 11
17.797433193
 21
13.0101258007
  0
LINE
  5
6AD
100
AcDbEntity
  8
03___PRT_ALL_CURVES
100
AcDbLine
 62
4
  6
CONTINUOUS
 10
17.7775682327
 20
12.9803723431
 11
17.774162811
 21
12.9752717504
  0
LINE
  5
6AE
100
AcDbEntity
  8
03___PRT_ALL_CURVES
100
AcDbLine
 62
4
  6
CONTINUOUS
 10
17.7519974043
 20
12.9378205385
 11
17.7542676868
 21
12.9412209356
  0
LINE
  5
6AF
100
AcDbEntity
  8
03___PRT_ALL_CURVES
100
AcDbLine
 62
4
  6
CONTINUOUS
 10
17.8139085061
 20
12.9752717504
 11
17.8405843094
 21
13.0152263927
  0
LINE
  5
6B0
100
AcDbEntity
  8
03___PRT_ALL_CURVES
100
AcDbLine
 62
4
  6
CONTINUOUS
 10
17.7981285532
 20
12.9463215276
 11
17.8009664043
 21
12.950572021
  0
LINE
  5
6B1
100
AcDbEntity
  8
03___PRT_ALL_CURVES
100
AcDbLine
 62
4
  6
CONTINUOUS
 10
17.8215723957
 20
12.9803723431
 11
17.841437356
 21
13.0101258007
  0
LINE
  5
6B2
100
AcDbEntity
  8
03___PRT_ALL_CURVES
100
AcDbLine
 62
4
  6
CONTINUOUS
 10
17.7856465209
 20
12.9106173787
 11
17.8094844731
 21
12.9463215276
  0
LINE
  5
6B3
100
AcDbEntity
  8
03___PRT_ALL_CURVES
100
AcDbLine
 62
4
  6
CONTINUOUS
 10
17.813742941
 20
12.9463215276
 11
17.7899049888
 21
12.9106173787
  0
LINE
  5
6B4
100
AcDbEntity
  8
03___PRT_ALL_CURVES
100
AcDbLine
 62
4
  6
CONTINUOUS
 10
17.8556344998
 20
13.0016248116
 11
17.8471209458
 21
12.9888733303
  0
LINE
  5
6B5
100
AcDbEntity
  8
03___PRT_ALL_CURVES
100
AcDbLine
 62
4
  6
CONTINUOUS
 10
17.8598929677
 20
13.0016248116
 11
17.8513794137
 21
12.9888733303
  0
LINE
  5
6B6
100
AcDbEntity
  8
03___PRT_ALL_CURVES
100
AcDbLine
 62
4
  6
CONTINUOUS
 10
17.8279366957
 20
12.950572021
 11
17.8250988446
 21
12.9463215276
  0
LINE
  5
6B7
100
AcDbEntity
  8
03___PRT_ALL_CURVES
100
AcDbLine
 62
4
  6
CONTINUOUS
 10
17.8746520608
 20
13.0152263927
 11
17.8479762576
 21
12.9752717504
  0
LINE
  5
6B8
100
AcDbEntity
  8
03___PRT_ALL_CURVES
100
AcDbLine
 62
4
  6
CONTINUOUS
 10
17.8069388605
 20
12.9106173787
 11
17.8336146637
 21
12.950572021
  0
LINE
  5
6B9
100
AcDbEntity
  8
03___PRT_ALL_CURVES
100
AcDbLine
 62
4
  6
CONTINUOUS
 10
17.8760726776
 20
13.0109758993
 11
17.8675591228
 21
12.9982244169
  0
LINE
  5
6BA
100
AcDbEntity
  8
03___PRT_ALL_CURVES
100
AcDbLine
 62
4
  6
CONTINUOUS
 10
17.8522347255
 20
12.9752717504
 11
17.8641537016
 21
12.9931238249
  0
LINE
  5
6BB
100
AcDbEntity
  8
03___PRT_ALL_CURVES
100
AcDbLine
 62
4
  6
CONTINUOUS
 10
17.8344677104
 20
12.9454714289
 11
17.827089296
 21
12.9344201439
  0
LINE
  5
6BC
100
AcDbEntity
  8
03___PRT_ALL_CURVES
100
AcDbLine
 62
4
  6
CONTINUOUS
 10
17.8236838747
 20
12.9293195518
 11
17.8146027501
 21
12.9157179713
  0
LINE
  5
6BD
100
AcDbEntity
  8
03___PRT_ALL_CURVES
100
AcDbLine
 62
4
  6
CONTINUOUS
 10
17.8887081496
 20
13.0033250089
 11
17.8904108618
 21
13.0058753073
  0
LINE
  5
6BE
100
AcDbEntity
  8
03___PRT_ALL_CURVES
100
AcDbLine
 62
4
  6
CONTINUOUS
 10
17.8455426515
 20
12.9344201439
 11
17.8421372302
 21
12.9293195518
  0
LINE
  5
6BF
100
AcDbEntity
  8
03___PRT_ALL_CURVES
100
AcDbLine
 62
4
  6
CONTINUOUS
 10
17.8923990473
 20
13.0024749102
 11
17.8946693298
 21
13.0058753073
  0
LINE
  5
6C0
100
AcDbEntity
  8
03___PRT_ALL_CURVES
100
AcDbLine
 62
4
  6
CONTINUOUS
 10
17.8591654712
 20
12.950572021
 11
17.8557600499
 21
12.9454714289
  0
LINE
  5
6C1
100
AcDbEntity
  8
03___PRT_ALL_CURVES
100
AcDbLine
 62
4
  6
CONTINUOUS
 10
17.8358950896
 20
12.9157179713
 11
17.832489668
 21
12.9106173787
  0
LINE
  5
6C2
100
AcDbEntity
  8
03___PRT_ALL_CURVES
100
AcDbLine
 62
4
  6
CONTINUOUS
 10
17.8960733153
 20
12.9463215276
 11
17.8989111663
 21
12.950572021
  0
LINE
  5
6C3
100
AcDbEntity
  8
03___PRT_ALL_CURVES
100
AcDbLine
 62
4
  6
CONTINUOUS
 10
17.8835912829
 20
12.9106173787
 11
17.9074292351
 21
12.9463215276
  0
LINE
  5
6C4
100
AcDbEntity
  8
03___PRT_ALL_CURVES
100
AcDbLine
 62
4
  6
CONTINUOUS
 10
17.911687703
 20
12.9463215276
 11
17.8878497509
 21
12.9106173787
  0
LINE
  5
6C5
100
AcDbEntity
  8
03___PRT_ALL_CURVES
100
AcDbLine
 62
4
  6
CONTINUOUS
 10
17.9258814577
 20
12.950572021
 11
17.9230436066
 21
12.9463215276
  0
LINE
  5
6C6
100
AcDbEntity
  8
03___PRT_ALL_CURVES
100
AcDbLine
 62
4
  6
CONTINUOUS
 10
17.9544379554
 20
12.9752717504
 11
17.9811137587
 21
13.0152263927
  0
LINE
  5
6C7
100
AcDbEntity
  8
03___PRT_ALL_CURVES
100
AcDbLine
 62
4
  6
CONTINUOUS
 10
17.9853722103
 20
13.0152263927
 11
17.9586964071
 21
12.9752717504
  0
LINE
  5
6C8
100
AcDbEntity
  8
03___PRT_ALL_CURVES
100
AcDbLine
 62
4
  6
CONTINUOUS
 10
17.9643743751
 20
12.9752717504
 11
17.9910501784
 21
13.0152263927
  0
LINE
  5
6C9
100
AcDbEntity
  8
03___PRT_ALL_CURVES
100
AcDbLine
 62
4
  6
CONTINUOUS
 10
17.991903225
 20
13.0101258007
 11
17.968632843
 21
12.9752717504
  0
LINE
  5
6CA
100
AcDbEntity
  8
03___PRT_ALL_CURVES
100
AcDbLine
 62
4
  6
CONTINUOUS
 10
17.9924786744
 20
12.9812224417
 11
18.0151814857
 21
13.0152263927
  0
LINE
  5
6CB
100
AcDbEntity
  8
03___PRT_ALL_CURVES
100
AcDbLine
 62
4
  6
CONTINUOUS
 10
18.0194399536
 20
13.0152263927
 11
17.9927641504
 21
12.9752717504
  0
LINE
  5
6CC
100
AcDbEntity
  8
03___PRT_ALL_CURVES
100
AcDbLine
 62
4
  6
CONTINUOUS
 10
18.0075232427
 20
12.9888733303
 11
18.0160367967
 21
13.0016248116
  0
LINE
  5
6CD
100
AcDbEntity
  8
03___PRT_ALL_CURVES
100
AcDbLine
 62
4
  6
CONTINUOUS
 10
18.0202952646
 20
13.0016248116
 11
18.0117817106
 21
12.9888733303
  0
LINE
  5
6CE
100
AcDbEntity
  8
03___PRT_ALL_CURVES
100
AcDbLine
 62
4
  6
CONTINUOUS
 10
18.026827396
 20
12.9922737262
 11
18.0302328173
 21
12.9973743182
  0
LINE
  5
6CF
100
AcDbEntity
  8
03___PRT_ALL_CURVES
100
AcDbLine
 62
4
  6
CONTINUOUS
 10
18.0286745353
 20
12.9854729357
 11
18.0332150978
 21
12.9922737262
  0
LINE
  5
6D0
100
AcDbEntity
  8
03___PRT_ALL_CURVES
100
AcDbLine
 62
4
  6
CONTINUOUS
 10
18.040878987
 20
12.9973743182
 11
18.032365433
 21
12.984622837
  0
LINE
  5
6D1
100
AcDbEntity
  8
0
100
AcDbLine
 62
7
  6
CONTINUOUS
 10
17.8765203034
 20
12.7078760776
 11
18.1910934549
 21
13.1790393114
  0
LINE
  5
6D2
100
AcDbEntity
  8
0
100
AcDbLine
 62
7
  6
CONTINUOUS
 10
17.8794077592
 20
12.7045909089
 11
18.1939809107
 21
13.1757541427
  0
LINE
  5
6D3
100
AcDbEntity
  8
03___PRT_ALL_CURVES
100
AcDbLine
 62
4
  6
CONTINUOUS
 10
17.9464863247
 20
12.984622837
 11
17.9711773227
 21
13.0152263927
  0
LINE
  5
6D4
100
AcDbEntity
  8
03___PRT_ALL_CURVES
100
AcDbLine
 62
4
  6
CONTINUOUS
 10
17.9754357906
 20
13.0152263927
 11
17.9430820356
 21
12.9752717504
  0
LINE
  5
6D5
100
AcDbEntity
  8
03___PRT_ALL_CURVES
100
AcDbLine
 62
4
  6
CONTINUOUS
 10
17.6911015393
 20
12.9369704399
 11
17.694649136
 21
12.9412209356
  0
LINE
  5
6D6
100
AcDbEntity
  8
03___PRT_ALL_CURVES
100
AcDbLine
 62
4
  6
CONTINUOUS
 10
17.7109777707
 20
12.9242189586
 11
17.7074301737
 21
12.9199684653
  0
LINE
  5
6D7
100
AcDbEntity
  8
03___PRT_ALL_CURVES
100
AcDbLine
 62
4
  6
CONTINUOUS
 10
17.8513794137
 20
12.9888733303
 11
17.8478318288
 21
12.984622837
  0
LINE
  5
6D8
100
AcDbEntity
  8
03___PRT_ALL_CURVES
100
AcDbLine
 62
4
  6
CONTINUOUS
 10
18.0160367967
 20
13.0016248116
 11
18.0195843832
 21
13.0058753073
  0
LINE
  5
6D9
100
AcDbEntity
  8
03___PRT_ALL_CURVES
100
AcDbLine
 62
4
  6
CONTINUOUS
 10
17.953293787
 20
13.0075755046
 11
17.9260481639
 21
12.9752717504
  0
LINE
  5
6DA
100
AcDbEntity
  8
03___PRT_ALL_CURVES
100
AcDbLine
 62
4
  6
CONTINUOUS
 10
17.929452453
 20
12.984622837
 11
17.9555629512
 21
13.0152263927
  0
LINE
  5
6DB
100
AcDbEntity
  8
03___PRT_ALL_CURVES
100
AcDbLine
 62
4
  6
CONTINUOUS
 10
17.7109865172
 20
13.009275702
 11
17.7080064916
 21
13.0058753073
  0
LINE
  5
6DC
100
AcDbEntity
  8
03___PRT_ALL_CURVES
100
AcDbLine
 62
4
  6
CONTINUOUS
 10
17.6953600052
 20
12.9369704399
 11
17.6983400321
 21
12.9403708345
  0
LINE
  5
6DD
100
AcDbEntity
  8
03___PRT_ALL_CURVES
100
AcDbLine
 62
4
  6
CONTINUOUS
 10
17.7067193028
 20
12.9242189586
 11
17.703739276
 21
12.920818564
  0
LINE
  5
6DE
100
AcDbEntity
  8
03___PRT_ALL_CURVES
100
AcDbLine
 62
4
  6
CONTINUOUS
 10
17.8471209458
 20
12.9888733303
 11
17.8441409311
 21
12.9854729357
  0
LINE
  5
6DF
100
AcDbEntity
  8
03___PRT_ALL_CURVES
100
AcDbLine
 62
4
  6
CONTINUOUS
 10
18.0232752793
 20
13.0050252063
 11
18.0202952646
 21
13.0016248116
  0
LINE
  5
6E0
100
AcDbEntity
  8
03___PRT_ALL_CURVES
100
AcDbLine
 62
4
  6
CONTINUOUS
 10
18.032365433
 20
12.984622837
 11
18.029385418
 21
12.9812224417
  0
LINE
  5
6E1
100
AcDbEntity
  8
03___PRT_ALL_CURVES
100
AcDbLine
 62
4
  6
CONTINUOUS
 10
17.7116973877
 20
13.0050252063
 11
17.7141098444
 21
13.0075755046
  0
LINE
  5
6E2
100
AcDbEntity
  8
03___PRT_ALL_CURVES
100
AcDbLine
 62
4
  6
CONTINUOUS
 10
17.745894054
 20
12.9361203412
 11
17.7483065066
 21
12.9386706372
  0
LINE
  5
6E3
100
AcDbEntity
  8
03___PRT_ALL_CURVES
100
AcDbLine
 62
4
  6
CONTINUOUS
 10
17.7495849517
 20
12.9352702425
 11
17.7519974043
 21
12.9378205385
  0
LINE
  5
6E4
100
AcDbEntity
  8
03___PRT_ALL_CURVES
100
AcDbLine
 62
4
  6
CONTINUOUS
 10
17.8862957051
 20
13.0007747129
 11
17.8887081496
 21
13.0033250089
  0
LINE
  5
6E5
100
AcDbEntity
  8
03___PRT_ALL_CURVES
100
AcDbLine
 62
4
  6
CONTINUOUS
 10
17.8899866028
 20
12.9999246142
 11
17.8923990473
 21
13.0024749102
  0
LINE
  5
6E6
100
AcDbEntity
  8
03___PRT_ALL_CURVES
100
AcDbLine
 62
4
  6
CONTINUOUS
 10
17.897512827
 20
12.9888733303
 11
17.919224927
 21
13.011825998
  0
LINE
  5
6E7
100
AcDbEntity
  8
03___PRT_ALL_CURVES
100
AcDbLine
 62
4
  6
CONTINUOUS
 10
17.894532796
 20
12.9854729357
 11
17.8848829686
 21
12.9752717504
  0
LINE
  5
6E8
100
AcDbEntity
  8
03___PRT_ALL_CURVES
100
AcDbLine
 62
4
  6
CONTINUOUS
 10
18.0262620909
 20
12.9829226397
 11
18.0286745353
 21
12.9854729357
  0
LINE
  5
6E9
100
AcDbEntity
  8
03___PRT_ALL_CURVES
100
AcDbLine
 62
4
  6
CONTINUOUS
 10
17.8806245007
 20
12.9752717504
 11
17.9186562238
 21
13.0152263927
  0
LINE
  5
6EA
100
AcDbEntity
  8
03___PRT_ALL_CURVES
100
AcDbLine
 62
4
  6
CONTINUOUS
 10
17.7142587822
 20
12.9812224417
 11
17.7179485514
 21
12.984622837
  0
LINE
  5
6EB
100
AcDbEntity
  8
03___PRT_ALL_CURVES
100
AcDbLine
 62
4
  6
CONTINUOUS
 10
17.694649136
 20
12.9412209356
 11
17.6983389068
 21
12.9446213303
  0
LINE
  5
6EC
100
AcDbEntity
  8
03___PRT_ALL_CURVES
100
AcDbLine
 62
4
  6
CONTINUOUS
 10
17.7074301737
 20
12.9199684653
 11
17.7037404045
 21
12.91656807
  0
LINE
  5
6ED
100
AcDbEntity
  8
03___PRT_ALL_CURVES
100
AcDbLine
 62
4
  6
CONTINUOUS
 10
17.8478318288
 20
12.984622837
 11
17.8441420474
 21
12.9812224417
  0
LINE
  5
6EE
100
AcDbEntity
  8
03___PRT_ALL_CURVES
100
AcDbLine
 62
4
  6
CONTINUOUS
 10
18.0195843832
 20
13.0058753073
 11
18.0232741641
 21
13.009275702
  0
LINE
  5
6EF
100
AcDbEntity
  8
03___PRT_ALL_CURVES
100
AcDbLine
 62
4
  6
CONTINUOUS
 10
17.7142576537
 20
12.9854729357
 11
17.7111354551
 21
12.9829226397
  0
LINE
  5
6F0
100
AcDbEntity
  8
03___PRT_ALL_CURVES
100
AcDbLine
 62
4
  6
CONTINUOUS
 10
17.6983400321
 20
12.9403708345
 11
17.7014622323
 21
12.9429211329
  0
LINE
  5
6F1
100
AcDbEntity
  8
03___PRT_ALL_CURVES
100
AcDbLine
 62
4
  6
CONTINUOUS
 10
17.703739276
 20
12.920818564
 11
17.7006170774
 21
12.9182682679
  0
LINE
  5
6F2
100
AcDbEntity
  8
03___PRT_ALL_CURVES
100
AcDbLine
 62
4
  6
CONTINUOUS
 10
17.8441409311
 20
12.9854729357
 11
17.8410187204
 21
12.9829226397
  0
LINE
  5
6F3
100
AcDbEntity
  8
03___PRT_ALL_CURVES
100
AcDbLine
 62
4
  6
CONTINUOUS
 10
18.0263974916
 20
13.0075755046
 11
18.0232752793
 21
13.0050252063
  0
LINE
  5
6F4
100
AcDbEntity
  8
03___PRT_ALL_CURVES
100
AcDbLine
 62
4
  6
CONTINUOUS
 10
17.8381676198
 20
12.9106173787
 11
17.8638549602
 21
12.9310197492
  0
LINE
  5
6F5
100
AcDbEntity
  8
03___PRT_ALL_CURVES
100
AcDbLine
 62
4
  6
CONTINUOUS
 10
17.868254475
 20
12.9344201439
 11
17.8889747466
 21
12.950572021
  0
LINE
  5
6F6
100
AcDbEntity
  8
03___PRT_ALL_CURVES
100
AcDbLine
 62
4
  6
CONTINUOUS
 10
17.8631463431
 20
12.9267692558
 11
17.8424260877
 21
12.9106173787
  0
LINE
  5
6F7
100
AcDbEntity
  8
03___PRT_ALL_CURVES
100
AcDbLine
 62
4
  6
CONTINUOUS
 10
17.8932332145
 20
12.950572021
 11
17.8681134281
 21
12.9310197492
  0
LINE
  5
6F8
100
AcDbEntity
  8
03___PRT_ALL_CURVES
100
AcDbLine
 62
4
  6
CONTINUOUS
 10
17.7451854369
 20
12.9318698478
 11
17.7495849517
 21
12.9352702425
  0
LINE
  5
6F9
100
AcDbEntity
  8
03___PRT_ALL_CURVES
100
AcDbLine
 62
4
  6
CONTINUOUS
 10
17.885587088
 20
12.9965242196
 11
17.8899866028
 21
12.9999246142
  0
LINE
  5
6FA
100
AcDbEntity
  8
03___PRT_ALL_CURVES
100
AcDbLine
 62
4
  6
CONTINUOUS
 10
17.7160957767
 20
13.0126760967
 11
17.7109865172
 21
13.009275702
  0
LINE
  5
6FB
100
AcDbEntity
  8
03___PRT_ALL_CURVES
100
AcDbLine
 62
4
  6
CONTINUOUS
 10
17.7091495211
 20
12.9778220468
 11
17.7142587822
 21
12.9812224417
  0
LINE
  5
6FC
100
AcDbEntity
  8
03___PRT_ALL_CURVES
100
AcDbLine
 62
4
  6
CONTINUOUS
 10
17.6983389068
 20
12.9446213303
 11
17.7034481656
 21
12.9480217249
  0
LINE
  5
6FD
100
AcDbEntity
  8
03___PRT_ALL_CURVES
100
AcDbLine
 62
4
  6
CONTINUOUS
 10
17.7037404045
 20
12.91656807
 11
17.6986311434
 21
12.913167675
  0
LINE
  5
6FE
100
AcDbEntity
  8
03___PRT_ALL_CURVES
100
AcDbLine
 62
4
  6
CONTINUOUS
 10
17.8956623066
 20
13.0084256033
 11
17.8958033535
 21
13.011825998
  0
LINE
  5
6FF
100
AcDbEntity
  8
03___PRT_ALL_CURVES
100
AcDbLine
 62
4
  6
CONTINUOUS
 10
17.8638549602
 20
12.9310197492
 11
17.864843423
 21
12.950572021
  0
LINE
  5
700
100
AcDbEntity
  8
03___PRT_ALL_CURVES
100
AcDbLine
 62
4
  6
CONTINUOUS
 10
17.8622989434
 20
12.9106173787
 11
17.8631463431
 21
12.9267692558
  0
LINE
  5
701
100
AcDbEntity
  8
03___PRT_ALL_CURVES
100
AcDbLine
 62
4
  6
CONTINUOUS
 10
17.8691018909
 20
12.950572021
 11
17.868254475
 21
12.9344201439
  0
LINE
  5
702
100
AcDbEntity
  8
03___PRT_ALL_CURVES
100
AcDbLine
 62
4
  6
CONTINUOUS
 10
18.0102211635
 20
12.9854729357
 11
18.009937953
 21
12.9829226397
  0
LINE
  5
703
100
AcDbEntity
  8
03___PRT_ALL_CURVES
100
AcDbLine
 62
4
  6
CONTINUOUS
 10
17.7433394216
 20
12.9344201439
 11
17.745894054
 21
12.9361203412
  0
LINE
  5
704
100
AcDbEntity
  8
03___PRT_ALL_CURVES
100
AcDbLine
 62
4
  6
CONTINUOUS
 10
17.8441420474
 20
12.9812224417
 11
17.8390327986
 21
12.9778220468
  0
LINE
  5
705
100
AcDbEntity
  8
03___PRT_ALL_CURVES
100
AcDbLine
 62
4
  6
CONTINUOUS
 10
17.8837410646
 20
12.9990745156
 11
17.8862957051
 21
13.0007747129
  0
LINE
  5
706
100
AcDbEntity
  8
03___PRT_ALL_CURVES
100
AcDbLine
 62
4
  6
CONTINUOUS
 10
18.0232741641
 20
13.009275702
 11
18.0283834128
 21
13.0126760967
  0
LINE
  5
707
100
AcDbEntity
  8
03___PRT_ALL_CURVES
100
AcDbLine
 62
4
  6
CONTINUOUS
 10
18.029385418
 20
12.9812224417
 11
18.0242761366
 21
12.9778220468
  0
LINE
  5
708
100
AcDbEntity
  8
03___PRT_ALL_CURVES
100
AcDbLine
 62
4
  6
CONTINUOUS
 10
17.7141098444
 20
13.0075755046
 11
17.7173742193
 21
13.009275702
  0
LINE
  5
709
100
AcDbEntity
  8
03___PRT_ALL_CURVES
100
AcDbLine
 62
4
  6
CONTINUOUS
 10
17.7111354551
 20
12.9829226397
 11
17.7078710803
 21
12.9812224417
  0
LINE
  5
70A
100
AcDbEntity
  8
03___PRT_ALL_CURVES
100
AcDbLine
 62
4
  6
CONTINUOUS
 10
17.7014622323
 20
12.9429211329
 11
17.7047266066
 21
12.9446213303
  0
LINE
  5
70B
100
AcDbEntity
  8
03___PRT_ALL_CURVES
100
AcDbLine
 62
4
  6
CONTINUOUS
 10
17.7006170774
 20
12.9182682679
 11
17.6973527026
 21
12.91656807
  0
LINE
  5
70C
100
AcDbEntity
  8
03___PRT_ALL_CURVES
100
AcDbLine
 62
4
  6
CONTINUOUS
 10
17.8410187204
 20
12.9829226397
 11
17.8377543456
 21
12.9812224417
  0
LINE
  5
70D
100
AcDbEntity
  8
03___PRT_ALL_CURVES
100
AcDbLine
 62
4
  6
CONTINUOUS
 10
18.029661866
 20
13.009275702
 11
18.0263974916
 21
13.0075755046
  0
LINE
  5
70E
100
AcDbEntity
  8
03___PRT_ALL_CURVES
100
AcDbLine
 62
4
  6
CONTINUOUS
 10
18.0229977161
 20
12.9812224417
 11
18.0262620909
 21
12.9829226397
  0
LINE
  5
70F
100
AcDbEntity
  8
03___PRT_ALL_CURVES
100
AcDbLine
 62
4
  6
CONTINUOUS
 10
17.7200698956
 20
13.014376294
 11
17.7160957767
 21
13.0126760967
  0
LINE
  5
710
100
AcDbEntity
  8
03___PRT_ALL_CURVES
100
AcDbLine
 62
4
  6
CONTINUOUS
 10
17.7051754026
 20
12.9761218492
 11
17.7091495211
 21
12.9778220468
  0
LINE
  5
711
100
AcDbEntity
  8
03___PRT_ALL_CURVES
100
AcDbLine
 62
4
  6
CONTINUOUS
 10
17.7034481656
 20
12.9480217249
 11
17.707422286
 21
12.9497219223
  0
LINE
  5
712
100
AcDbEntity
  8
03___PRT_ALL_CURVES
100
AcDbLine
 62
4
  6
CONTINUOUS
 10
17.8390327986
 20
12.9778220468
 11
17.835058674
 21
12.9761218492
  0
LINE
  5
713
100
AcDbEntity
  8
03___PRT_ALL_CURVES
100
AcDbLine
 62
4
  6
CONTINUOUS
 10
17.8816129636
 20
12.9948240222
 11
17.885587088
 21
12.9965242196
  0
LINE
  5
714
100
AcDbEntity
  8
03___PRT_ALL_CURVES
100
AcDbLine
 62
4
  6
CONTINUOUS
 10
17.6986311434
 20
12.913167675
 11
17.694657027
 21
12.9114674775
  0
LINE
  5
715
100
AcDbEntity
  8
03___PRT_ALL_CURVES
100
AcDbLine
 62
4
  6
CONTINUOUS
 10
17.7412113125
 20
12.9301696505
 11
17.7451854369
 21
12.9318698478
  0
LINE
  5
716
100
AcDbEntity
  8
03___PRT_ALL_CURVES
100
AcDbLine
 62
4
  6
CONTINUOUS
 10
18.0283834128
 20
13.0126760967
 11
18.0323575535
 21
13.014376294
  0
LINE
  5
717
100
AcDbEntity
  8
03___PRT_ALL_CURVES
100
AcDbLine
 62
4
  6
CONTINUOUS
 10
18.0242761366
 20
12.9778220468
 11
18.0203020283
 21
12.9761218492
  0
LINE
  5
718
100
AcDbEntity
  8
0
100
AcDbLine
 62
7
  6
CONTINUOUS
 10
18.5914907061
 20
5.5609879789
 11
26.4914907061
 21
5.5609879789
  0
LINE
  5
719
100
AcDbEntity
  8
0
100
AcDbLine
 62
7
  6
CONTINUOUS
 10
27.4521206274
 20
5.8683895537
 11
17.6308607848
 21
5.8683895537
  0
LINE
  5
71A
100
AcDbEntity
  8
0
100
AcDbLine
 62
7
  6
CONTINUOUS
 10
27.4914903082
 20
5.9006730182
 11
17.591491104
 21
5.9006730182
  0
LINE
  5
71B
100
AcDbEntity
  8
03___PRT_ALL_CURVES
100
AcDbLine
 62
4
  6
CONTINUOUS
 10
17.6801777838
 20
12.913167675
 11
17.679609087
 21
12.91656807
  0
LINE
  5
71C
100
AcDbEntity
  8
03___PRT_ALL_CURVES
100
AcDbLine
 62
4
  6
CONTINUOUS
 10
17.696515165
 20
12.9812224417
 11
17.6960886421
 21
12.9837727383
  0
LINE
  5
71D
100
AcDbEntity
  8
03___PRT_ALL_CURVES
100
AcDbLine
 62
4
  6
CONTINUOUS
 10
17.704175673
 20
12.9990745156
 11
17.7047443709
 21
12.9956741209
  0
LINE
  5
71E
100
AcDbEntity
  8
03___PRT_ALL_CURVES
100
AcDbLine
 62
4
  6
CONTINUOUS
 10
17.7219015252
 20
12.9480217249
 11
17.7224702243
 21
12.9446213303
  0
LINE
  5
71F
100
AcDbEntity
  8
03___PRT_ALL_CURVES
100
AcDbLine
 62
4
  6
CONTINUOUS
 10
17.7216371961
 20
12.9922737262
 11
17.721068497
 21
12.9956741209
  0
LINE
  5
720
100
AcDbEntity
  8
03___PRT_ALL_CURVES
100
AcDbLine
 62
4
  6
CONTINUOUS
 10
17.7258911541
 20
13.009275702
 11
17.7261755037
 21
13.0075755046
  0
LINE
  5
721
100
AcDbEntity
  8
03___PRT_ALL_CURVES
100
AcDbLine
 62
4
  6
CONTINUOUS
 10
17.7510021875
 20
12.9437712316
 11
17.750717836
 21
12.9454714289
  0
LINE
  5
722
100
AcDbEntity
  8
0
100
AcDbLine
 62
7
  6
CONTINUOUS
 10
18.5914907061
 20
5.5609879789
 11
18.5914907061
 21
4.0609879789
  0
LINE
  5
723
100
AcDbEntity
  8
0
100
AcDbLine
 62
7
  6
CONTINUOUS
 10
18.5914907061
 20
15.1047218124
 11
18.5914907061
 21
16.6034619699
  0
LINE
  5
724
100
AcDbEntity
  8
0
100
AcDbLine
 62
3
  6
CONTINUOUS
 10
18.5580341179
 20
11.9158562356
 11
19.3595764157
 21
13.1163949952
  0
LINE
  5
725
100
AcDbEntity
  8
0
100
AcDbLine
 62
7
  6
CONTINUOUS
 10
18.5625812924
 20
11.9106827417
 11
19.3641235902
 21
13.1112215012
  0
LINE
  5
726
100
AcDbEntity
  8
03___PRT_ALL_CURVES
100
AcDbLine
 62
4
  6
CONTINUOUS
 10
17.7173742193
 20
13.009275702
 11
17.7200710235
 21
13.0101258007
  0
LINE
  5
727
100
AcDbEntity
  8
03___PRT_ALL_CURVES
100
AcDbLine
 62
4
  6
CONTINUOUS
 10
17.8810442604
 20
12.9982244169
 11
17.8837410646
 21
12.9990745156
  0
LINE
  5
728
100
AcDbEntity
  8
03___PRT_ALL_CURVES
100
AcDbLine
 62
4
  6
CONTINUOUS
 10
17.7406426174
 20
12.9335700452
 11
17.7433394216
 21
12.9344201439
  0
LINE
  5
729
100
AcDbEntity
  8
0
100
AcDbLine
 62
7
  6
CONTINUOUS
 10
28.4889432684
 20
7.2609879789
 11
27.4914907061
 21
7.1009879789
  0
LINE
  5
72A
100
AcDbEntity
  8
0
100
AcDbLine
 62
7
  6
CONTINUOUS
 10
16.5940381438
 20
7.2609879789
 11
17.5914907061
 21
7.1009879789
  0
LINE
  5
72B
100
AcDbEntity
  8
03___PRT_ALL_CURVES
100
AcDbLine
 62
4
  6
CONTINUOUS
 10
17.8623031804
 20
13.0126760967
 11
17.8628718673
 21
13.009275702
  0
LINE
  5
72C
100
AcDbEntity
  8
03___PRT_ALL_CURVES
100
AcDbLine
 62
4
  6
CONTINUOUS
 10
17.8914038387
 20
13.0084256033
 11
17.891119479
 21
13.0101258007
  0
LINE
  5
72D
100
AcDbEntity
  8
03___PRT_ALL_CURVES
100
AcDbLine
 62
4
  6
CONTINUOUS
 10
18.005113031
 20
12.9778220468
 11
18.0045443443
 21
12.9812224417
  0
LINE
  5
72E
100
AcDbEntity
  8
03___PRT_ALL_CURVES
100
AcDbLine
 62
4
  6
CONTINUOUS
 10
18.0475465184
 20
13.0126760967
 11
18.0481152378
 21
13.009275702
  0
LINE
  5
72F
100
AcDbEntity
  8
0
100
AcDbLine
 62
7
  6
CONTINUOUS
 10
17.5914907061
 20
7.1009879789
 11
27.4914907061
 21
7.1009879789
  0
LINE
  5
730
100
AcDbEntity
  8
03___PRT_ALL_CURVES
100
AcDbLine
 62
4
  6
CONTINUOUS
 10
17.7554017024
 20
12.9471716263
 11
17.754265429
 21
12.9497219223
  0
LINE
  5
731
100
AcDbEntity
  8
03___PRT_ALL_CURVES
100
AcDbLine
 62
4
  6
CONTINUOUS
 10
17.7311425887
 20
13.011825998
 11
17.7300063214
 21
13.014376294
  0
LINE
  5
732
100
AcDbEntity
  8
03___PRT_ALL_CURVES
100
AcDbLine
 62
4
  6
CONTINUOUS
 10
17.8958033535
 20
13.011825998
 11
17.8946670801
 21
13.014376294
  0
LINE
  5
733
100
AcDbEntity
  8
03___PRT_ALL_CURVES
100
AcDbLine
 62
4
  6
CONTINUOUS
 10
17.6859967868
 20
12.91656807
 11
17.6850026937
 21
12.9182682679
  0
LINE
  5
734
100
AcDbEntity
  8
03___PRT_ALL_CURVES
100
AcDbLine
 62
4
  6
CONTINUOUS
 10
17.7160825224
 20
12.9446213303
 11
17.717076616
 21
12.9429211329
  0
LINE
  5
735
100
AcDbEntity
  8
03___PRT_ALL_CURVES
100
AcDbLine
 62
4
  6
CONTINUOUS
 10
17.7105633752
 20
12.9990745156
 11
17.7095692811
 21
13.0007747129
  0
LINE
  5
736
100
AcDbEntity
  8
03___PRT_ALL_CURVES
100
AcDbLine
 62
4
  6
CONTINUOUS
 10
17.7152494943
 20
12.9922737262
 11
17.7162435878
 21
12.9905735289
  0
LINE
  5
737
100
AcDbEntity
  8
03___PRT_ALL_CURVES
100
AcDbLine
 62
4
  6
CONTINUOUS
 10
17.8564841654
 20
13.009275702
 11
17.857478259
 21
13.0075755046
  0
LINE
  5
738
100
AcDbEntity
  8
03___PRT_ALL_CURVES
100
AcDbLine
 62
4
  6
CONTINUOUS
 10
18.009937953
 20
12.9829226397
 11
18.0109320462
 21
12.9812224417
  0
LINE
  5
739
100
AcDbEntity
  8
03___PRT_ALL_CURVES
100
AcDbLine
 62
4
  6
CONTINUOUS
 10
18.0427216295
 20
13.0075755046
 11
18.0417275359
 21
13.009275702
  0
LINE
  5
73A
100
AcDbEntity
  8
0
100
AcDbLine
 62
7
  6
CONTINUOUS
 10
17.4776655031
 20
12.7045909089
 11
17.4747780473
 21
12.7078760776
  0
LINE
  5
73B
100
AcDbEntity
  8
0
100
AcDbLine
 62
7
  6
CONTINUOUS
 10
17.8794077592
 20
12.7045909089
 11
17.8765203034
 21
12.7078760776
  0
LINE
  5
73C
100
AcDbEntity
  8
03___PRT_ALL_CURVES
100
AcDbLine
 62
4
  6
CONTINUOUS
 10
17.6905539865
 20
12.9786721454
 11
17.6923999989
 21
12.9761218492
  0
LINE
  5
73D
100
AcDbEntity
  8
03___PRT_ALL_CURVES
100
AcDbLine
 62
4
  6
CONTINUOUS
 10
17.6818816232
 20
12.9114674775
 11
17.6801777838
 21
12.913167675
  0
LINE
  5
73E
100
AcDbEntity
  8
03___PRT_ALL_CURVES
100
AcDbLine
 62
4
  6
CONTINUOUS
 10
17.7201976897
 20
12.9497219223
 11
17.7219015252
 21
12.9480217249
  0
LINE
  5
73F
100
AcDbEntity
  8
03___PRT_ALL_CURVES
100
AcDbLine
 62
4
  6
CONTINUOUS
 10
17.7047443709
 20
12.9956741209
 11
17.7064482089
 21
12.9939739236
  0
LINE
  5
740
100
AcDbEntity
  8
03___PRT_ALL_CURVES
100
AcDbLine
 62
4
  6
CONTINUOUS
 10
17.721068497
 20
12.9956741209
 11
17.7193646595
 21
12.9973743182
  0
LINE
  5
741
100
AcDbEntity
  8
03___PRT_ALL_CURVES
100
AcDbLine
 62
4
  6
CONTINUOUS
 10
17.8605993368
 20
13.014376294
 11
17.8623031804
 21
13.0126760967
  0
LINE
  5
742
100
AcDbEntity
  8
03___PRT_ALL_CURVES
100
AcDbLine
 62
4
  6
CONTINUOUS
 10
18.0068168907
 20
12.9761218492
 11
18.005113031
 21
12.9778220468
  0
LINE
  5
743
100
AcDbEntity
  8
03___PRT_ALL_CURVES
100
AcDbLine
 62
4
  6
CONTINUOUS
 10
18.045842691
 20
13.014376294
 11
18.0475465184
 21
13.0126760967
  0
LINE
  5
744
100
AcDbEntity
  8
0
100
AcDbLine
 62
7
  6
CONTINUOUS
 10
18.1939809107
 20
13.1757541427
 11
18.1910934549
 21
13.1790393114
  0
LINE
  5
745
100
AcDbEntity
  8
0
100
AcDbLine
 62
7
  6
CONTINUOUS
 10
29.1652308636
 20
9.5872871915
 11
15.9177505486
 21
9.5872871915
  0
LINE
  5
746
100
AcDbEntity
  8
0
100
AcDbLine
 62
7
  6
CONTINUOUS
 10
16.1418280412
 20
10.0853186875
 11
16.4888942978
 21
10.0853186875
  0
LINE
  5
747
100
AcDbEntity
  8
0
100
AcDbLine
 62
7
  6
CONTINUOUS
 10
16.1583265039
 20
10.1443738056
 11
16.4649966806
 21
10.1443738056
  0
LINE
  5
748
100
AcDbEntity
  8
0
100
AcDbLine
 62
7
  6
CONTINUOUS
 10
16.4649966806
 20
10.2747695816
 11
16.1583265039
 21
10.2747695816
  0
LINE
  5
749
100
AcDbEntity
  8
0
100
AcDbLine
 62
7
  6
CONTINUOUS
 10
16.1583265039
 20
10.294454621
 11
16.4649966806
 21
10.294454621
  0
LINE
  5
74A
100
AcDbEntity
  8
03___PRT_ALL_CURVES
100
AcDbLine
 62
4
  6
CONTINUOUS
 10
17.750717836
 20
12.9454714289
 11
17.7491561722
 21
12.9463215276
  0
LINE
  5
74B
100
AcDbEntity
  8
03___PRT_ALL_CURVES
100
AcDbLine
 62
4
  6
CONTINUOUS
 10
17.7121250389
 20
12.9982244169
 11
17.7105633752
 21
12.9990745156
  0
LINE
  5
74C
100
AcDbEntity
  8
03___PRT_ALL_CURVES
100
AcDbLine
 62
4
  6
CONTINUOUS
 10
17.7243294914
 20
13.0101258007
 11
17.7258911541
 21
13.009275702
  0
LINE
  5
74D
100
AcDbEntity
  8
03___PRT_ALL_CURVES
100
AcDbLine
 62
4
  6
CONTINUOUS
 10
17.891119479
 20
13.0101258007
 11
17.8895578152
 21
13.0109758993
  0
LINE
  5
74E
100
AcDbEntity
  8
0
100
AcDbLine
 62
7
  6
CONTINUOUS
 10
16.4649966806
 20
11.0302005773
 11
16.1583265039
 21
11.0302005773
  0
LINE
  5
74F
100
AcDbEntity
  8
0
100
AcDbLine
 62
7
  6
CONTINUOUS
 10
29.1652308636
 20
11.0636651442
 11
16.4888942978
 21
11.0636651442
  0
LINE
  5
750
100
AcDbEntity
  8
0
100
AcDbLine
 62
7
  6
CONTINUOUS
 10
16.1418280412
 20
11.0636651442
 11
15.9177505486
 21
11.0636651442
  0
LINE
  5
751
100
AcDbEntity
  8
0
100
AcDbLine
 62
7
  6
CONTINUOUS
 10
16.4888942978
 20
11.0892556954
 11
16.1418280412
 21
11.0892556954
  0
LINE
  5
752
100
AcDbEntity
  8
0
100
AcDbLine
 62
7
  6
CONTINUOUS
 10
16.1358023595
 20
11.5361060891
 11
15.9964911227
 21
11.5361060891
  0
LINE
  5
753
100
AcDbEntity
  8
03___PRT_ALL_CURVES
100
AcDbLine
 62
4
  6
CONTINUOUS
 10
17.6848627749
 20
12.9106173787
 11
17.6818816232
 21
12.9114674775
  0
LINE
  5
754
100
AcDbEntity
  8
03___PRT_ALL_CURVES
100
AcDbLine
 62
4
  6
CONTINUOUS
 10
17.717216534
 20
12.950572021
 11
17.7201976897
 21
12.9497219223
  0
LINE
  5
755
100
AcDbEntity
  8
03___PRT_ALL_CURVES
100
AcDbLine
 62
4
  6
CONTINUOUS
 10
17.754265429
 20
12.9497219223
 11
17.7512842813
 21
12.950572021
  0
LINE
  5
756
100
AcDbEntity
  8
03___PRT_ALL_CURVES
100
AcDbLine
 62
4
  6
CONTINUOUS
 10
17.6923999989
 20
12.9761218492
 11
17.6953811515
 21
12.9752717504
  0
LINE
  5
757
100
AcDbEntity
  8
03___PRT_ALL_CURVES
100
AcDbLine
 62
4
  6
CONTINUOUS
 10
17.7193646595
 20
12.9973743182
 11
17.7163835068
 21
12.9982244169
  0
LINE
  5
758
100
AcDbEntity
  8
03___PRT_ALL_CURVES
100
AcDbLine
 62
4
  6
CONTINUOUS
 10
17.7300063214
 20
13.014376294
 11
17.7270251677
 21
13.0152263927
  0
LINE
  5
759
100
AcDbEntity
  8
03___PRT_ALL_CURVES
100
AcDbLine
 62
4
  6
CONTINUOUS
 10
17.6882681965
 20
12.9157179713
 11
17.6859967868
 21
12.91656807
  0
LINE
  5
75A
100
AcDbEntity
  8
03___PRT_ALL_CURVES
100
AcDbLine
 62
4
  6
CONTINUOUS
 10
17.7138111127
 20
12.9454714289
 11
17.7160825224
 21
12.9446213303
  0
LINE
  5
75B
100
AcDbEntity
  8
03___PRT_ALL_CURVES
100
AcDbLine
 62
4
  6
CONTINUOUS
 10
17.6987865732
 20
12.9803723431
 11
17.696515165
 21
12.9812224417
  0
LINE
  5
75C
100
AcDbEntity
  8
03___PRT_ALL_CURVES
100
AcDbLine
 62
4
  6
CONTINUOUS
 10
17.7064482089
 20
12.9939739236
 11
17.7087196176
 21
12.9931238249
  0
LINE
  5
75D
100
AcDbEntity
  8
03___PRT_ALL_CURVES
100
AcDbLine
 62
4
  6
CONTINUOUS
 10
17.7129780855
 20
12.9931238249
 11
17.7152494943
 21
12.9922737262
  0
LINE
  5
75E
100
AcDbEntity
  8
03___PRT_ALL_CURVES
100
AcDbLine
 62
4
  6
CONTINUOUS
 10
17.8542127679
 20
13.0101258007
 11
17.8564841654
 21
13.009275702
  0
LINE
  5
75F
100
AcDbEntity
  8
03___PRT_ALL_CURVES
100
AcDbLine
 62
4
  6
CONTINUOUS
 10
18.0109320462
 20
12.9812224417
 11
18.0132034437
 21
12.9803723431
  0
LINE
  5
760
100
AcDbEntity
  8
03___PRT_ALL_CURVES
100
AcDbLine
 62
4
  6
CONTINUOUS
 10
18.0417275359
 20
13.009275702
 11
18.0394561059
 21
13.0101258007
  0
LINE
  5
761
100
AcDbEntity
  8
0
100
AcDbLine
 62
7
  6
CONTINUOUS
 10
16.9665942026
 20
11.8513235941
 11
18.4723368316
 21
11.8513235941
  0
LINE
  5
762
100
AcDbEntity
  8
0
100
AcDbLine
 62
3
  6
CONTINUOUS
 10
16.9620470281
 20
11.8564970881
 11
18.4677896571
 21
11.8564970881
  0
LINE
  5
763
100
AcDbEntity
  8
0
100
AcDbLine
 62
7
  6
CONTINUOUS
 10
16.0464907061
 20
12.0046942103
 11
15.9964907061
 21
12.0046942103
  0
LINE
  5
764
100
AcDbEntity
  8
03___PRT_ALL_CURVES
100
AcDbLine
 62
4
  6
CONTINUOUS
 10
17.8576181891
 20
13.0152263927
 11
17.8605993368
 21
13.014376294
  0
LINE
  5
765
100
AcDbEntity
  8
03___PRT_ALL_CURVES
100
AcDbLine
 62
4
  6
CONTINUOUS
 10
18.009798022
 20
12.9752717504
 11
18.0068168907
 21
12.9761218492
  0
LINE
  5
766
100
AcDbEntity
  8
03___PRT_ALL_CURVES
100
AcDbLine
 62
4
  6
CONTINUOUS
 10
17.8946670801
 20
13.014376294
 11
17.8916859325
 21
13.0152263927
  0
LINE
  5
767
100
AcDbEntity
  8
03___PRT_ALL_CURVES
100
AcDbLine
 62
4
  6
CONTINUOUS
 10
18.0428615272
 20
13.0152263927
 11
18.045842691
 21
13.014376294
  0
LINE
  5
768
100
AcDbEntity
  8
0
100
AcDbLine
 62
7
  6
CONTINUOUS
 10
17.4776655031
 20
12.7045909089
 11
17.8794077592
 21
12.7045909089
  0
LINE
  5
769
100
AcDbEntity
  8
0
100
AcDbLine
 62
7
  6
CONTINUOUS
 10
17.4747780473
 20
12.7078760776
 11
17.8765203034
 21
12.7078760776
  0
LINE
  5
76A
100
AcDbEntity
  8
03___PRT_ALL_CURVES
100
AcDbLine
 62
4
  6
CONTINUOUS
 10
17.8878497509
 20
12.9106173787
 11
17.8835912829
 21
12.9106173787
  0
LINE
  5
76B
100
AcDbEntity
  8
03___PRT_ALL_CURVES
100
AcDbLine
 62
4
  6
CONTINUOUS
 10
17.8665574113
 20
12.9106173787
 11
17.8622989434
 21
12.9106173787
  0
LINE
  5
76C
100
AcDbEntity
  8
03___PRT_ALL_CURVES
100
AcDbLine
 62
4
  6
CONTINUOUS
 10
17.8424260877
 20
12.9106173787
 11
17.8381676198
 21
12.9106173787
  0
LINE
  5
76D
100
AcDbEntity
  8
03___PRT_ALL_CURVES
100
AcDbLine
 62
4
  6
CONTINUOUS
 10
17.832489668
 20
12.9106173787
 11
17.8069388605
 21
12.9106173787
  0
LINE
  5
76E
100
AcDbEntity
  8
03___PRT_ALL_CURVES
100
AcDbLine
 62
4
  6
CONTINUOUS
 10
17.7899049888
 20
12.9106173787
 11
17.7856465209
 21
12.9106173787
  0
LINE
  5
76F
100
AcDbEntity
  8
03___PRT_ALL_CURVES
100
AcDbLine
 62
4
  6
CONTINUOUS
 10
17.6905407307
 20
12.9106173787
 11
17.6848627749
 21
12.9106173787
  0
LINE
  5
770
100
AcDbEntity
  8
03___PRT_ALL_CURVES
100
AcDbLine
 62
4
  6
CONTINUOUS
 10
17.6465365636
 20
12.9106173787
 11
17.6422780957
 21
12.9106173787
  0
LINE
  5
771
100
AcDbEntity
  8
03___PRT_ALL_CURVES
100
AcDbLine
 62
4
  6
CONTINUOUS
 10
17.7075746024
 20
12.9106173787
 11
17.7118330744
 21
12.9106173787
  0
LINE
  5
772
100
AcDbEntity
  8
03___PRT_ALL_CURVES
100
AcDbLine
 62
4
  6
CONTINUOUS
 10
17.729576688
 20
12.9106173787
 11
17.7345448978
 21
12.9106173787
  0
LINE
  5
773
100
AcDbEntity
  8
03___PRT_ALL_CURVES
100
AcDbLine
 62
4
  6
CONTINUOUS
 10
17.6939461524
 20
12.9157179713
 11
17.6882681965
 21
12.9157179713
  0
LINE
  5
774
100
AcDbEntity
  8
03___PRT_ALL_CURVES
100
AcDbLine
 62
4
  6
CONTINUOUS
 10
17.8146027501
 20
12.9157179713
 11
17.8358950896
 21
12.9157179713
  0
LINE
  5
775
100
AcDbEntity
  8
03___PRT_ALL_CURVES
100
AcDbLine
 62
4
  6
CONTINUOUS
 10
17.7237520504
 20
12.9284694532
 11
17.7358177041
 21
12.9284694532
  0
LINE
  5
776
100
AcDbEntity
  8
03___PRT_ALL_CURVES
100
AcDbLine
 62
4
  6
CONTINUOUS
 10
17.8421372302
 20
12.9293195518
 11
17.8236838747
 21
12.9293195518
  0
LINE
  5
777
100
AcDbEntity
  8
03___PRT_ALL_CURVES
100
AcDbLine
 62
4
  6
CONTINUOUS
 10
17.6774764716
 20
12.9293195518
 11
17.6590231099
 21
12.9293195518
  0
LINE
  5
778
100
AcDbEntity
  8
03___PRT_ALL_CURVES
100
AcDbLine
 62
4
  6
CONTINUOUS
 10
17.7271574717
 20
12.9335700452
 11
17.7406426174
 21
12.9335700452
  0
LINE
  5
779
100
AcDbEntity
  8
03___PRT_ALL_CURVES
100
AcDbLine
 62
4
  6
CONTINUOUS
 10
17.6624285312
 20
12.9344201439
 11
17.6808818929
 21
12.9344201439
  0
LINE
  5
77A
100
AcDbEntity
  8
03___PRT_ALL_CURVES
100
AcDbLine
 62
4
  6
CONTINUOUS
 10
17.827089296
 20
12.9344201439
 11
17.8455426515
 21
12.9344201439
  0
LINE
  5
77B
100
AcDbEntity
  8
03___PRT_ALL_CURVES
100
AcDbLine
 62
4
  6
CONTINUOUS
 10
17.8557600499
 20
12.9454714289
 11
17.8344677104
 21
12.9454714289
  0
LINE
  5
77C
100
AcDbEntity
  8
03___PRT_ALL_CURVES
100
AcDbLine
 62
4
  6
CONTINUOUS
 10
17.6910992852
 20
12.9454714289
 11
17.6698069456
 21
12.9454714289
  0
LINE
  5
77D
100
AcDbEntity
  8
03___PRT_ALL_CURVES
100
AcDbLine
 62
4
  6
CONTINUOUS
 10
17.7081331568
 20
12.9454714289
 11
17.7138111127
 21
12.9454714289
  0
LINE
  5
77E
100
AcDbEntity
  8
03___PRT_ALL_CURVES
100
AcDbLine
 62
4
  6
CONTINUOUS
 10
17.9230436066
 20
12.9463215276
 11
17.911687703
 21
12.9463215276
  0
LINE
  5
77F
100
AcDbEntity
  8
03___PRT_ALL_CURVES
100
AcDbLine
 62
4
  6
CONTINUOUS
 10
17.9074292351
 20
12.9463215276
 11
17.8960733153
 21
12.9463215276
  0
LINE
  5
780
100
AcDbEntity
  8
03___PRT_ALL_CURVES
100
AcDbLine
 62
4
  6
CONTINUOUS
 10
17.8250988446
 20
12.9463215276
 11
17.813742941
 21
12.9463215276
  0
LINE
  5
781
100
AcDbEntity
  8
03___PRT_ALL_CURVES
100
AcDbLine
 62
4
  6
CONTINUOUS
 10
17.8094844731
 20
12.9463215276
 11
17.7981285532
 21
12.9463215276
  0
LINE
  5
782
100
AcDbEntity
  8
03___PRT_ALL_CURVES
100
AcDbLine
 62
4
  6
CONTINUOUS
 10
17.7491561722
 20
12.9463215276
 11
17.7356710265
 21
12.9463215276
  0
LINE
  5
783
100
AcDbEntity
  8
03___PRT_ALL_CURVES
100
AcDbLine
 62
4
  6
CONTINUOUS
 10
17.7512842813
 20
12.950572021
 11
17.7342504056
 21
12.950572021
  0
LINE
  5
784
100
AcDbEntity
  8
03___PRT_ALL_CURVES
100
AcDbLine
 62
4
  6
CONTINUOUS
 10
17.668953899
 20
12.950572021
 11
17.6945047065
 21
12.950572021
  0
LINE
  5
785
100
AcDbEntity
  8
03___PRT_ALL_CURVES
100
AcDbLine
 62
4
  6
CONTINUOUS
 10
17.7115385781
 20
12.950572021
 11
17.717216534
 21
12.950572021
  0
LINE
  5
786
100
AcDbEntity
  8
03___PRT_ALL_CURVES
100
AcDbLine
 62
4
  6
CONTINUOUS
 10
17.8009664043
 20
12.950572021
 11
17.8279366957
 21
12.950572021
  0
LINE
  5
787
100
AcDbEntity
  8
03___PRT_ALL_CURVES
100
AcDbLine
 62
4
  6
CONTINUOUS
 10
17.8336146637
 20
12.950572021
 11
17.8591654712
 21
12.950572021
  0
LINE
  5
788
100
AcDbEntity
  8
03___PRT_ALL_CURVES
100
AcDbLine
 62
4
  6
CONTINUOUS
 10
17.864843423
 20
12.950572021
 11
17.8691018909
 21
12.950572021
  0
LINE
  5
789
100
AcDbEntity
  8
03___PRT_ALL_CURVES
100
AcDbLine
 62
4
  6
CONTINUOUS
 10
17.8889747466
 20
12.950572021
 11
17.8932332145
 21
12.950572021
  0
LINE
  5
78A
100
AcDbEntity
  8
03___PRT_ALL_CURVES
100
AcDbLine
 62
4
  6
CONTINUOUS
 10
17.8989111663
 20
12.950572021
 11
17.9258814577
 21
12.950572021
  0
LINE
  5
78B
100
AcDbEntity
  8
03___PRT_ALL_CURVES
100
AcDbLine
 62
4
  6
CONTINUOUS
 10
18.0161857239
 20
12.9752717504
 11
18.009798022
 21
12.9752717504
  0
LINE
  5
78C
100
AcDbEntity
  8
03___PRT_ALL_CURVES
100
AcDbLine
 62
4
  6
CONTINUOUS
 10
17.9927641504
 20
12.9752717504
 11
17.9863764485
 21
12.9752717504
  0
LINE
  5
78D
100
AcDbEntity
  8
03___PRT_ALL_CURVES
100
AcDbLine
 62
4
  6
CONTINUOUS
 10
17.9586964071
 20
12.9752717504
 11
17.9544379554
 21
12.9752717504
  0
LINE
  5
78E
100
AcDbEntity
  8
03___PRT_ALL_CURVES
100
AcDbLine
 62
4
  6
CONTINUOUS
 10
17.968632843
 20
12.9752717504
 11
17.9643743751
 21
12.9752717504
  0
LINE
  5
78F
100
AcDbEntity
  8
03___PRT_ALL_CURVES
100
AcDbLine
 62
4
  6
CONTINUOUS
 10
17.9430820356
 20
12.9752717504
 11
17.9374040838
 21
12.9752717504
  0
LINE
  5
790
100
AcDbEntity
  8
03___PRT_ALL_CURVES
100
AcDbLine
 62
4
  6
CONTINUOUS
 10
17.9260481639
 20
12.9752717504
 11
17.9203702121
 21
12.9752717504
  0
LINE
  5
791
100
AcDbEntity
  8
03___PRT_ALL_CURVES
100
AcDbLine
 62
4
  6
CONTINUOUS
 10
17.9090142922
 20
12.9752717504
 11
17.9047558243
 21
12.9752717504
  0
LINE
  5
792
100
AcDbEntity
  8
03___PRT_ALL_CURVES
100
AcDbLine
 62
4
  6
CONTINUOUS
 10
17.8848829686
 20
12.9752717504
 11
17.8806245007
 21
12.9752717504
  0
LINE
  5
793
100
AcDbEntity
  8
03___PRT_ALL_CURVES
100
AcDbLine
 62
4
  6
CONTINUOUS
 10
17.8309423859
 20
12.9752717504
 11
17.8139085061
 21
12.9752717504
  0
LINE
  5
794
100
AcDbEntity
  8
03___PRT_ALL_CURVES
100
AcDbLine
 62
4
  6
CONTINUOUS
 10
17.774162811
 20
12.9752717504
 11
17.7486119995
 21
12.9752717504
  0
LINE
  5
795
100
AcDbEntity
  8
03___PRT_ALL_CURVES
100
AcDbLine
 62
4
  6
CONTINUOUS
 10
17.7429340436
 20
12.9752717504
 11
17.7173832361
 21
12.9752717504
  0
LINE
  5
796
100
AcDbEntity
  8
03___PRT_ALL_CURVES
100
AcDbLine
 62
4
  6
CONTINUOUS
 10
17.6953811515
 20
12.9752717504
 11
17.7010591094
 21
12.9752717504
  0
LINE
  5
797
100
AcDbEntity
  8
03___PRT_ALL_CURVES
100
AcDbLine
 62
4
  6
CONTINUOUS
 10
17.8479762576
 20
12.9752717504
 11
17.8522347255
 21
12.9752717504
  0
LINE
  5
798
100
AcDbEntity
  8
03___PRT_ALL_CURVES
100
AcDbLine
 62
4
  6
CONTINUOUS
 10
17.8699783309
 20
12.9752717504
 11
17.8749465489
 21
12.9752717504
  0
LINE
  5
799
100
AcDbEntity
  8
03___PRT_ALL_CURVES
100
AcDbLine
 62
4
  6
CONTINUOUS
 10
17.8343478076
 20
12.9803723431
 11
17.8215723957
 21
12.9803723431
  0
LINE
  5
79A
100
AcDbEntity
  8
03___PRT_ALL_CURVES
100
AcDbLine
 62
4
  6
CONTINUOUS
 10
17.7044645311
 20
12.9803723431
 11
17.6987865732
 21
12.9803723431
  0
LINE
  5
79B
100
AcDbEntity
  8
03___PRT_ALL_CURVES
100
AcDbLine
 62
4
  6
CONTINUOUS
 10
17.7250471257
 20
12.9803723431
 11
17.7463394653
 21
12.9803723431
  0
LINE
  5
79C
100
AcDbEntity
  8
03___PRT_ALL_CURVES
100
AcDbLine
 62
4
  6
CONTINUOUS
 10
17.7562758891
 20
12.9803723431
 11
17.7775682327
 21
12.9803723431
  0
LINE
  5
79D
100
AcDbEntity
  8
03___PRT_ALL_CURVES
100
AcDbLine
 62
4
  6
CONTINUOUS
 10
18.0132034437
 20
12.9803723431
 11
18.0195911456
 21
12.9803723431
  0
LINE
  5
79E
100
AcDbEntity
  8
03___PRT_ALL_CURVES
100
AcDbLine
 62
4
  6
CONTINUOUS
 10
17.9087276837
 20
12.9854729357
 11
17.894532796
 21
12.9854729357
  0
LINE
  5
79F
100
AcDbEntity
  8
03___PRT_ALL_CURVES
100
AcDbLine
 62
4
  6
CONTINUOUS
 10
17.6970816082
 20
12.9863230343
 11
17.6928231403
 21
12.9863230343
  0
LINE
  5
7A0
100
AcDbEntity
  8
03___PRT_ALL_CURVES
100
AcDbLine
 62
4
  6
CONTINUOUS
 10
17.9102882307
 20
12.9888733303
 11
17.897512827
 21
12.9888733303
  0
LINE
  5
7A1
100
AcDbEntity
  8
03___PRT_ALL_CURVES
100
AcDbLine
 62
4
  6
CONTINUOUS
 10
18.0332150978
 20
12.9922737262
 11
18.026827396
 21
12.9922737262
  0
LINE
  5
7A2
100
AcDbEntity
  8
03___PRT_ALL_CURVES
100
AcDbLine
 62
4
  6
CONTINUOUS
 10
17.7087196176
 20
12.9931238249
 11
17.7129780855
 21
12.9931238249
  0
LINE
  5
7A3
100
AcDbEntity
  8
03___PRT_ALL_CURVES
100
AcDbLine
 62
4
  6
CONTINUOUS
 10
17.8641537016
 20
12.9931238249
 11
17.8762193552
 21
12.9931238249
  0
LINE
  5
7A4
100
AcDbEntity
  8
03___PRT_ALL_CURVES
100
AcDbLine
 62
4
  6
CONTINUOUS
 10
17.7838103733
 20
12.9939739236
 11
17.7653570137
 21
12.9939739236
  0
LINE
  5
7A5
100
AcDbEntity
  8
03___PRT_ALL_CURVES
100
AcDbLine
 62
4
  6
CONTINUOUS
 10
17.7525816099
 20
12.9939739236
 11
17.7341282503
 21
12.9939739236
  0
LINE
  5
7A6
100
AcDbEntity
  8
03___PRT_ALL_CURVES
100
AcDbLine
 62
4
  6
CONTINUOUS
 10
18.0302328173
 20
12.9973743182
 11
18.040878987
 21
12.9973743182
  0
LINE
  5
7A7
100
AcDbEntity
  8
03___PRT_ALL_CURVES
100
AcDbLine
 62
4
  6
CONTINUOUS
 10
17.7163835068
 20
12.9982244169
 11
17.7121250389
 21
12.9982244169
  0
LINE
  5
7A8
100
AcDbEntity
  8
03___PRT_ALL_CURVES
100
AcDbLine
 62
4
  6
CONTINUOUS
 10
17.8675591228
 20
12.9982244169
 11
17.8810442604
 21
12.9982244169
  0
LINE
  5
7A9
100
AcDbEntity
  8
03___PRT_ALL_CURVES
100
AcDbLine
 62
4
  6
CONTINUOUS
 10
17.7375336716
 20
12.9990745156
 11
17.7559870312
 21
12.9990745156
  0
LINE
  5
7AA
100
AcDbEntity
  8
03___PRT_ALL_CURVES
100
AcDbLine
 62
4
  6
CONTINUOUS
 10
17.768762435
 20
12.9990745156
 11
17.7872157946
 21
12.9990745156
  0
LINE
  5
7AB
100
AcDbEntity
  8
03___PRT_ALL_CURVES
100
AcDbLine
 62
4
  6
CONTINUOUS
 10
18.045987119
 20
13.0050252063
 11
18.0417286511
 21
13.0050252063
  0
LINE
  5
7AC
100
AcDbEntity
  8
03___PRT_ALL_CURVES
100
AcDbLine
 62
4
  6
CONTINUOUS
 10
17.7257501072
 20
13.0058753073
 11
17.7300085751
 21
13.0058753073
  0
LINE
  5
7AD
100
AcDbEntity
  8
03___PRT_ALL_CURVES
100
AcDbLine
 62
4
  6
CONTINUOUS
 10
18.0394561059
 20
13.0101258007
 11
18.033068404
 21
13.0101258007
  0
LINE
  5
7AE
100
AcDbEntity
  8
03___PRT_ALL_CURVES
100
AcDbLine
 62
4
  6
CONTINUOUS
 10
17.797433193
 20
13.0101258007
 11
17.7761408493
 21
13.0101258007
  0
LINE
  5
7AF
100
AcDbEntity
  8
03___PRT_ALL_CURVES
100
AcDbLine
 62
4
  6
CONTINUOUS
 10
17.7662044255
 20
13.0101258007
 11
17.744912086
 21
13.0101258007
  0
LINE
  5
7B0
100
AcDbEntity
  8
03___PRT_ALL_CURVES
100
AcDbLine
 62
4
  6
CONTINUOUS
 10
17.7200710235
 20
13.0101258007
 11
17.7243294914
 21
13.0101258007
  0
LINE
  5
7B1
100
AcDbEntity
  8
03___PRT_ALL_CURVES
100
AcDbLine
 62
4
  6
CONTINUOUS
 10
17.841437356
 20
13.0101258007
 11
17.8542127679
 21
13.0101258007
  0
LINE
  5
7B2
100
AcDbEntity
  8
03___PRT_ALL_CURVES
100
AcDbLine
 62
4
  6
CONTINUOUS
 10
17.8895578152
 20
13.0109758993
 11
17.8760726776
 21
13.0109758993
  0
LINE
  5
7B3
100
AcDbEntity
  8
03___PRT_ALL_CURVES
100
AcDbLine
 62
4
  6
CONTINUOUS
 10
17.8916859325
 20
13.0152263927
 11
17.8746520608
 21
13.0152263927
  0
LINE
  5
7B4
100
AcDbEntity
  8
03___PRT_ALL_CURVES
100
AcDbLine
 62
4
  6
CONTINUOUS
 10
17.7270251677
 20
13.0152263927
 11
17.7234764448
 21
13.0152263927
  0
LINE
  5
7B5
100
AcDbEntity
  8
03___PRT_ALL_CURVES
100
AcDbLine
 62
4
  6
CONTINUOUS
 10
17.7440590393
 20
13.0152263927
 11
17.7696098468
 21
13.0152263927
  0
LINE
  5
7B6
100
AcDbEntity
  8
03___PRT_ALL_CURVES
100
AcDbLine
 62
4
  6
CONTINUOUS
 10
17.7752878027
 20
13.0152263927
 11
17.8008386142
 21
13.0152263927
  0
LINE
  5
7B7
100
AcDbEntity
  8
03___PRT_ALL_CURVES
100
AcDbLine
 62
4
  6
CONTINUOUS
 10
17.8405843094
 20
13.0152263927
 11
17.8576181891
 21
13.0152263927
  0
LINE
  5
7B8
100
AcDbEntity
  8
03___PRT_ALL_CURVES
100
AcDbLine
 62
4
  6
CONTINUOUS
 10
17.9186562238
 20
13.0152263927
 11
17.9243341756
 21
13.0152263927
  0
LINE
  5
7B9
100
AcDbEntity
  8
03___PRT_ALL_CURVES
100
AcDbLine
 62
4
  6
CONTINUOUS
 10
17.9413680473
 20
13.0152263927
 11
17.9456265152
 21
13.0152263927
  0
LINE
  5
7BA
100
AcDbEntity
  8
03___PRT_ALL_CURVES
100
AcDbLine
 62
4
  6
CONTINUOUS
 10
17.9555629512
 20
13.0152263927
 11
17.961240903
 21
13.0152263927
  0
LINE
  5
7BB
100
AcDbEntity
  8
03___PRT_ALL_CURVES
100
AcDbLine
 62
4
  6
CONTINUOUS
 10
17.9711773227
 20
13.0152263927
 11
17.9754357906
 21
13.0152263927
  0
LINE
  5
7BC
100
AcDbEntity
  8
03___PRT_ALL_CURVES
100
AcDbLine
 62
4
  6
CONTINUOUS
 10
17.9811137587
 20
13.0152263927
 11
17.9853722103
 21
13.0152263927
  0
LINE
  5
7BD
100
AcDbEntity
  8
03___PRT_ALL_CURVES
100
AcDbLine
 62
4
  6
CONTINUOUS
 10
17.9910501784
 20
13.0152263927
 11
17.9974378802
 21
13.0152263927
  0
LINE
  5
7BE
100
AcDbEntity
  8
03___PRT_ALL_CURVES
100
AcDbLine
 62
4
  6
CONTINUOUS
 10
18.0151814857
 20
13.0152263927
 11
18.0194399536
 21
13.0152263927
  0
LINE
  5
7BF
100
AcDbEntity
  8
03___PRT_ALL_CURVES
100
AcDbLine
 62
4
  6
CONTINUOUS
 10
18.0364738253
 20
13.0152263927
 11
18.0428615272
 21
13.0152263927
  0
LINE
  5
7C0
100
AcDbEntity
  8
0
100
AcDbLine
 62
3
  6
CONTINUOUS
 10
18.1939809107
 20
13.1757541427
 11
19.3485944812
 21
13.1757541427
  0
LINE
  5
7C1
100
AcDbEntity
  8
0
100
AcDbLine
 62
7
  6
CONTINUOUS
 10
18.1910934549
 20
13.1790393114
 11
17.7893511988
 21
13.1790393114
  0
LINE
  5
7C2
100
AcDbEntity
  8
0
100
AcDbLine
 62
7
  6
CONTINUOUS
 10
16.0464907061
 20
13.2045955136
 11
15.9964907061
 21
13.2045955136
  0
LINE
  5
7C3
100
AcDbEntity
  8
0
100
AcDbLine
 62
7
  6
CONTINUOUS
 10
27.5414907061
 20
13.3488163006
 11
17.5464907061
 21
13.3488163006
  0
LINE
  5
7C4
100
AcDbEntity
  8
03___PRT_ALL_CURVES
100
AcDbLine
 62
4
  6
CONTINUOUS
 10
18.0195911456
 20
12.9803723431
 11
18.0229977161
 21
12.9812224417
  0
LINE
  5
7C5
100
AcDbEntity
  8
03___PRT_ALL_CURVES
100
AcDbLine
 62
4
  6
CONTINUOUS
 10
17.6973527026
 20
12.91656807
 11
17.6939461524
 21
12.9157179713
  0
LINE
  5
7C6
100
AcDbEntity
  8
03___PRT_ALL_CURVES
100
AcDbLine
 62
4
  6
CONTINUOUS
 10
18.033068404
 20
13.0101258007
 11
18.029661866
 21
13.009275702
  0
LINE
  5
7C7
100
AcDbEntity
  8
03___PRT_ALL_CURVES
100
AcDbLine
 62
4
  6
CONTINUOUS
 10
17.7047266066
 20
12.9446213303
 11
17.7081331568
 21
12.9454714289
  0
LINE
  5
7C8
100
AcDbEntity
  8
03___PRT_ALL_CURVES
100
AcDbLine
 62
4
  6
CONTINUOUS
 10
17.8377543456
 20
12.9812224417
 11
17.8343478076
 21
12.9803723431
  0
LINE
  5
7C9
100
AcDbEntity
  8
03___PRT_ALL_CURVES
100
AcDbLine
 62
4
  6
CONTINUOUS
 10
17.7078710803
 20
12.9812224417
 11
17.7044645311
 21
12.9803723431
  0
LINE
  5
7CA
100
AcDbEntity
  8
03___PRT_ALL_CURVES
100
AcDbLine
 62
4
  6
CONTINUOUS
 10
18.0203020283
 20
12.9761218492
 11
18.0161857239
 21
12.9752717504
  0
LINE
  5
7CB
100
AcDbEntity
  8
03___PRT_ALL_CURVES
100
AcDbLine
 62
4
  6
CONTINUOUS
 10
17.694657027
 20
12.9114674775
 11
17.6905407307
 21
12.9106173787
  0
LINE
  5
7CC
100
AcDbEntity
  8
03___PRT_ALL_CURVES
100
AcDbLine
 62
4
  6
CONTINUOUS
 10
18.0323575535
 20
13.014376294
 11
18.0364738253
 21
13.0152263927
  0
LINE
  5
7CD
100
AcDbEntity
  8
03___PRT_ALL_CURVES
100
AcDbLine
 62
4
  6
CONTINUOUS
 10
17.707422286
 20
12.9497219223
 11
17.7115385781
 21
12.950572021
  0
LINE
  5
7CE
100
AcDbEntity
  8
03___PRT_ALL_CURVES
100
AcDbLine
 62
4
  6
CONTINUOUS
 10
17.835058674
 20
12.9761218492
 11
17.8309423859
 21
12.9752717504
  0
LINE
  5
7CF
100
AcDbEntity
  8
03___PRT_ALL_CURVES
100
AcDbLine
 62
4
  6
CONTINUOUS
 10
17.7010591094
 20
12.9752717504
 11
17.7051754026
 21
12.9761218492
  0
LINE
  5
7D0
100
AcDbEntity
  8
0
100
AcDbLine
 62
7
  6
CONTINUOUS
 10
17.5464907061
 20
14.0557911285
 11
15.8264907061
 21
14.0557911285
  0
LINE
  5
7D1
100
AcDbEntity
  8
0
100
AcDbLine
 62
7
  6
CONTINUOUS
 10
26.4914907061
 20
5.5609879789
 11
26.4914907061
 21
4.0609879789
  0
LINE
  5
7D2
100
AcDbEntity
  8
0
100
AcDbLine
 62
7
  6
CONTINUOUS
 10
26.4914907061
 20
15.1047218124
 11
26.4914907061
 21
16.6034619699
  0
LINE
  5
7D3
100
AcDbEntity
  8
03___PRT_ALL_CURVES
100
AcDbLine
 62
4
  6
CONTINUOUS
 10
17.7234764448
 20
13.0152263927
 11
17.7200698956
 21
13.014376294
  0
LINE
  5
7D4
100
AcDbEntity
  8
0
100
AcDbLine
 62
7
  6
CONTINUOUS
 10
17.5464907061
 20
14.1197911285
 11
15.8264907061
 21
14.1197911285
  0
LINE
  5
7D5
100
AcDbEntity
  8
0
100
AcDbLine
 62
7
  6
CONTINUOUS
 10
15.9964939983
 20
14.1591612072
 11
17.5464907061
 21
14.1591612072
  0
LINE
  5
7D6
100
AcDbEntity
  8
0
100
AcDbLine
 62
7
  6
CONTINUOUS
 10
17.5414907061
 20
14.4790194749
 11
27.5414907061
 21
14.4790194749
  0
LINE
  5
7D7
100
AcDbEntity
  8
0
100
AcDbLine
 62
7
  6
CONTINUOUS
 10
27.5021206274
 20
14.5325241442
 11
17.5808607848
 21
14.5325241442
  0
LINE
  5
7D8
100
AcDbEntity
  8
0
100
AcDbLine
 62
7
  6
CONTINUOUS
 10
27.4521206274
 20
5.9006730182
 11
27.4521206274
 21
5.8683895537
  0
LINE
  5
7D9
100
AcDbEntity
  8
0
100
AcDbLine
 62
7
  6
CONTINUOUS
 10
26.4914907061
 20
15.1047218124
 11
18.5914907061
 21
15.1047218124
  0
LINE
  5
7DA
100
AcDbEntity
  8
0
100
AcDbLine
 62
7
  6
CONTINUOUS
 10
27.4914907061
 20
7.1009879789
 11
27.4914907061
 21
5.9006730182
  0
LINE
  5
7DB
100
AcDbEntity
  8
0
100
AcDbLine
 62
7
  6
CONTINUOUS
 10
27.5021206274
 20
14.5325241442
 11
27.5021206274
 21
14.4790194749
  0
LINE
  5
7DC
100
AcDbEntity
  8
0
100
AcDbLine
 62
7
  6
CONTINUOUS
 10
27.5414907061
 20
13.3488163006
 11
27.5414907061
 21
14.4790194749
  0
LINE
  5
7DD
100
AcDbEntity
  8
0
100
AcDbLine
 62
7
  6
CONTINUOUS
 10
27.4521206274
 20
5.8683895537
 11
26.4914907061
 21
5.5609879789
  0
LINE
  5
7DE
100
AcDbEntity
  8
0
100
AcDbLine
 62
7
  6
CONTINUOUS
 10
27.5021206274
 20
14.5325241442
 11
26.4914907061
 21
15.1047218124
  0
LINE
  5
7DF
100
AcDbEntity
  8
0
100
AcDbLine
 62
7
  6
CONTINUOUS
 10
28.9120616169
 20
11.7762635694
 11
27.5414907061
 21
13.3488163006
  0
LINE
  5
7E0
100
AcDbEntity
  8
0
100
AcDbLine
 62
7
  6
CONTINUOUS
 10
29.0864907061
 20
9.5872871915
 11
29.0864907061
 21
7.9620260814
  0
LINE
  5
7E1
100
AcDbEntity
  8
0
100
AcDbLine
 62
7
  6
CONTINUOUS
 10
29.0864907061
 20
11.0636651442
 11
29.0864907061
 21
11.3106491109
  0
LINE
  5
7E2
100
AcDbEntity
  8
0
100
AcDbLine
 62
7
  6
CONTINUOUS
 10
29.1652308636
 20
11.0636651442
 11
29.1652308636
 21
9.5872871915
  0
LINE
  5
7E3
100
AcDbEntity
  8
0
100
AcDbLine
 62
7
  6
CONTINUOUS
 10
26.4914907061
 20
16.6034619699
 11
18.5914907061
 21
16.6034619699
  0
LINE
  5
7E4
100
AcDbEntity
  8
0
100
AcDbLine
 62
7
  6
CONTINUOUS
 10
3.403642792
 20
-2.2568680136
 11
3.404989328
 21
-2.2531684363
  0
LINE
  5
7E5
100
AcDbEntity
  8
0
100
AcDbLine
 62
7
  6
CONTINUOUS
 10
3.4604829867
 20
-2.2733664763
 11
3.4618295227
 21
-2.269666899
  0
LINE
  5
7E6
100
AcDbEntity
  8
0
100
AcDbLine
 62
7
  6
CONTINUOUS
 10
4.2928878673
 20
-2.5763370757
 11
4.2942344033
 21
-2.5726374984
  0
LINE
  5
7E7
100
AcDbEntity
  8
0
100
AcDbLine
 62
7
  6
CONTINUOUS
 10
4.34703499
 20
-2.6002346929
 11
4.348381526
 21
-2.5965351156
  0
LINE
  5
7E8
100
AcDbEntity
  8
0
100
AcDbLine
 62
7
  6
CONTINUOUS
 10
0.609886333
 20
-2.0290909437
 11
2.609886333
 21
-2.0290909437
  0
LINE
  5
7E9
100
AcDbEntity
  8
0
100
AcDbLine
 62
7
  6
CONTINUOUS
 10
3.403642792
 20
-2.2568680136
 11
4.34703499
 21
-2.6002346929
  0
LINE
  5
7EA
100
AcDbEntity
  8
0
100
AcDbLine
 62
7
  6
CONTINUOUS
 10
3.404989328
 20
-2.2531684363
 11
4.348381526
 21
-2.5965351156
  0
LINE
  5
7EB
100
AcDbEntity
  8
0
100
AcDbLine
 62
7
  6
CONTINUOUS
 10
3.4618295227
 20
-2.269666899
 11
4.2942344033
 21
-2.5726374984
  0
ARC
  5
7EC
100
AcDbEntity
  8
0
100
AcDbCircle
 62
7
  6
CONTINUOUS
 10
-30.8793104418
 20
-149.8164867638
 40
164.3678061143
100
AcDbArc
 50
79.0085645189
 51
79.155706976
  0
ARC
  5
7ED
100
AcDbEntity
  8
0
100
AcDbCircle
 62
7
  6
CONTINUOUS
 10
-4.225113667
 20
7.9620260814
 40
0.71
100
AcDbArc
 50
180.0
 51
260.8868961119
  0
ARC
  5
7EE
100
AcDbEntity
  8
0
100
AcDbCircle
 62
7
  6
CONTINUOUS
 10
-4.2264522497
 20
11.3106491109
 40
0.7086614173
100
AcDbArc
 50
138.9259609297
 51
180.0
  0
ARC
  5
7EF
100
AcDbEntity
  8
0
100
AcDbCircle
 62
7
  6
CONTINUOUS
 10
0.113823333
 20
13.9952488094
 40
0.2595241734
100
AcDbArc
 50
86.6961981258
 51
93.3038018742
  0
ARC
  5
7F0
100
AcDbEntity
  8
0
100
AcDbCircle
 62
7
  6
CONTINUOUS
 10
0.1138036486
 20
14.0494420446
 40
0.224083156
100
AcDbArc
 50
113.6066806291
 51
113.8806200137
  0
ARC
  5
7F1
100
AcDbEntity
  8
0
100
AcDbCircle
 62
7
  6
CONTINUOUS
 10
0.1138430174
 20
14.0494420446
 40
0.224083156
100
AcDbArc
 50
66.1193799863
 51
66.3933193709
  0
ARC
  5
7F2
100
AcDbEntity
  8
0
100
AcDbCircle
 62
7
  6
CONTINUOUS
 10
0.113823333
 20
14.0509096382
 40
0.223251569
100
AcDbArc
 50
45.4866727925
 51
65.9450928221
  0
ARC
  5
7F3
100
AcDbEntity
  8
0
100
AcDbCircle
 62
7
  6
CONTINUOUS
 10
0.113823333
 20
14.0509096382
 40
0.223251569
100
AcDbArc
 50
114.0549071779
 51
134.5133272075
  0
ARC
  5
7F4
100
AcDbEntity
  8
0
100
AcDbCircle
 62
7
  6
CONTINUOUS
 10
0.113823333
 20
14.0509096382
 40
0.2227470832
100
AcDbArc
 50
66.2374760019
 51
74.1063163774
  0
ARC
  5
7F5
100
AcDbEntity
  8
0
100
AcDbCircle
 62
7
  6
CONTINUOUS
 10
0.113823333
 20
14.0509096382
 40
0.2227470832
100
AcDbArc
 50
105.8936836226
 51
113.7625239981
  0
ARC
  5
7F6
100
AcDbEntity
  8
0
100
AcDbCircle
 62
7
  6
CONTINUOUS
 10
0.1354404562
 20
14.1041790381
 40
0.1657103028
100
AcDbArc
 50
76.2514681116
 51
86.4640863455
  0
ARC
  5
7F7
100
AcDbEntity
  8
0
100
AcDbCircle
 62
7
  6
CONTINUOUS
 10
0.0922062084
 20
14.104179047
 40
0.1657102937
100
AcDbArc
 50
93.535913376
 51
103.748532167
  0
ARC
  5
7F8
100
AcDbEntity
  8
1_ALL_PLANES
100
AcDbCircle
 62
7
  6
CONTINUOUS
 10
1.064886333
 20
12.0422871915
 40
0.08
100
AcDbArc
 50
180.0
 51
270.0
  0
ARC
  5
7F9
100
AcDbEntity
  8
1_ALL_PLANES
100
AcDbCircle
 62
7
  6
CONTINUOUS
 10
1.0644991424
 20
13.132674382
 40
0.0796128094
100
AcDbArc
 50
90.0
 51
180.0
  0
ARC
  5
7FA
100
AcDbEntity
  8
0
100
AcDbCircle
 62
7
  6
CONTINUOUS
 10
0.6886264905
 20
10.1660273489
 40
0.0787401575
100
AcDbArc
 50
180.0000108829
 51
269.9999020512
  0
ARC
  5
7FB
100
AcDbEntity
  8
0
100
AcDbCircle
 62
7
  6
CONTINUOUS
 10
0.6886264905
 20
11.008547034
 40
0.0787401575
100
AcDbArc
 50
90.0000979486
 51
179.999989117
  0
ARC
  5
7FC
100
AcDbEntity
  8
0
100
AcDbCircle
 62
7
  6
CONTINUOUS
 10
0.259823333
 20
14.1994112072
 40
0.015
100
AcDbArc
 50
0.0
 51
45.4866727925
  0
ARC
  5
7FD
100
AcDbEntity
  8
0
100
AcDbCircle
 62
7
  6
CONTINUOUS
 10
-0.032176667
 20
14.1994112072
 40
0.015
100
AcDbArc
 50
134.5133272075
 51
180.0
  0
ARC
  5
7FE
100
AcDbEntity
  8
0
100
AcDbCircle
 62
7
  6
CONTINUOUS
 10
34.0990831087
 20
-149.8164867684
 40
164.3678061189
100
AcDbArc
 50
100.844293024
 51
100.9914354811
  0
ARC
  5
7FF
100
AcDbEntity
  8
0
100
AcDbCircle
 62
7
  6
CONTINUOUS
 10
7.444886333
 20
7.9620260814
 40
0.71
100
AcDbArc
 50
279.1131038881
 51
360.0
  0
ARC
  5
800
100
AcDbEntity
  8
0
100
AcDbCircle
 62
7
  6
CONTINUOUS
 10
7.4462249157
 20
11.3106491109
 40
0.7086614173
100
AcDbArc
 50
0.0
 51
41.0740390703
  0
ARC
  5
801
100
AcDbEntity
  8
0
100
AcDbCircle
 62
7
  6
CONTINUOUS
 10
2.4466613466
 20
13.4259199557
 40
0.3554875762
100
AcDbArc
 50
180.0080728341
 51
218.5270788522
  0
ARC
  5
802
100
AcDbEntity
  8
0
100
AcDbCircle
 62
7
  6
CONTINUOUS
 10
3.105949333
 20
13.9952488094
 40
0.2595241734
100
AcDbArc
 50
86.6961981258
 51
93.3038018742
  0
ARC
  5
803
100
AcDbEntity
  8
0
100
AcDbCircle
 62
7
  6
CONTINUOUS
 10
3.1059296486
 20
14.0494420446
 40
0.224083156
100
AcDbArc
 50
113.6066806291
 51
113.8806200137
  0
ARC
  5
804
100
AcDbEntity
  8
0
100
AcDbCircle
 62
7
  6
CONTINUOUS
 10
3.1059690174
 20
14.0494420446
 40
0.224083156
100
AcDbArc
 50
66.1193799863
 51
66.393319371
  0
ARC
  5
805
100
AcDbEntity
  8
0
100
AcDbCircle
 62
7
  6
CONTINUOUS
 10
3.105949333
 20
14.0509096382
 40
0.223251569
100
AcDbArc
 50
45.4866727925
 51
65.9450928221
  0
ARC
  5
806
100
AcDbEntity
  8
0
100
AcDbCircle
 62
7
  6
CONTINUOUS
 10
3.105949333
 20
14.0509096382
 40
0.223251569
100
AcDbArc
 50
114.0549071779
 51
134.5133272075
  0
ARC
  5
807
100
AcDbEntity
  8
0
100
AcDbCircle
 62
7
  6
CONTINUOUS
 10
3.105949333
 20
14.0509096382
 40
0.2227470832
100
AcDbArc
 50
66.2374760019
 51
74.1063163774
  0
ARC
  5
808
100
AcDbEntity
  8
0
100
AcDbCircle
 62
7
  6
CONTINUOUS
 10
3.105949333
 20
14.0509096382
 40
0.2227470832
100
AcDbArc
 50
105.8936836226
 51
113.7625239981
  0
ARC
  5
809
100
AcDbEntity
  8
0
100
AcDbCircle
 62
7
  6
CONTINUOUS
 10
3.1275664562
 20
14.1041790381
 40
0.1657103028
100
AcDbArc
 50
76.2514681116
 51
86.4640863455
  0
ARC
  5
80A
100
AcDbEntity
  8
0
100
AcDbCircle
 62
7
  6
CONTINUOUS
 10
3.0843322084
 20
14.104179047
 40
0.1657102937
100
AcDbArc
 50
93.535913376
 51
103.748532167
  0
ARC
  5
80B
100
AcDbEntity
  8
1_ALL_PLANES
100
AcDbCircle
 62
7
  6
CONTINUOUS
 10
2.154886333
 20
12.0422871915
 40
0.08
100
AcDbArc
 50
270.0
 51
360.0
  0
ARC
  5
80C
100
AcDbEntity
  8
1_ALL_PLANES
100
AcDbCircle
 62
7
  6
CONTINUOUS
 10
2.154886333
 20
13.1322871915
 40
0.08
100
AcDbArc
 50
0.0
 51
90.0
  0
ARC
  5
80D
100
AcDbEntity
  8
0
100
AcDbCircle
 62
7
  6
CONTINUOUS
 10
2.5311461755
 20
11.008547034
 40
0.0787401575
100
AcDbArc
 50
0.0000108223
 51
89.9999020513
  0
ARC
  5
80E
100
AcDbEntity
  8
0
100
AcDbCircle
 62
7
  6
CONTINUOUS
 10
2.5311461755
 20
10.1660273489
 40
0.0787401575
100
AcDbArc
 50
270.0000979489
 51
359.9999891776
  0
ARC
  5
80F
100
AcDbEntity
  8
0
100
AcDbCircle
 62
3
  6
CONTINUOUS
 10
6.5656984377
 20
11.8850167582
 40
0.0267498008
100
AcDbArc
 50
309.7477006057
 51
323.546343837
  0
ARC
  5
810
100
AcDbEntity
  8
0
100
AcDbCircle
 62
7
  6
CONTINUOUS
 10
3.251949333
 20
14.1994112072
 40
0.015
100
AcDbArc
 50
0.0
 51
45.4866727925
  0
ARC
  5
811
100
AcDbEntity
  8
0
100
AcDbCircle
 62
7
  6
CONTINUOUS
 10
2.959949333
 20
14.1994112072
 40
0.015
100
AcDbArc
 50
134.5133272075
 51
180.0
  0
ARC
  5
812
100
AcDbEntity
  8
0
100
AcDbCircle
 62
7
  6
CONTINUOUS
 10
14.9395920466
 20
13.1885224169
 40
2.031874885
100
AcDbArc
 50
315.9686332344
 51
317.88244833
  0
ARC
  5
813
100
AcDbEntity
  8
0
100
AcDbCircle
 62
7
  6
CONTINUOUS
 10
16.7064907061
 20
7.9620260814
 40
0.71
100
AcDbArc
 50
180.0
 51
260.8868961119
  0
ARC
  5
814
100
AcDbEntity
  8
0
100
AcDbCircle
 62
7
  6
CONTINUOUS
 10
28.3764907061
 20
7.9620260814
 40
0.71
100
AcDbArc
 50
279.1131038881
 51
360.0
  0
ARC
  5
815
100
AcDbEntity
  8
0
100
AcDbCircle
 62
7
  6
CONTINUOUS
 10
16.7051521234
 20
11.3106491109
 40
0.7086614173
100
AcDbArc
 50
161.4492298618
 51
180.0
  0
ARC
  5
816
100
AcDbEntity
  8
0
100
AcDbCircle
 62
7
  6
CONTINUOUS
 10
28.3778292888
 20
11.3106491109
 40
0.7086614173
100
AcDbArc
 50
0.0
 51
41.0740390703
  0
ARC
  5
817
100
AcDbEntity
  8
0
100
AcDbCircle
 62
7
  6
CONTINUOUS
 10
16.8315910867
 20
13.9952617197
 40
0.2595112626
100
AcDbArc
 50
86.6961177416
 51
93.3038132697
  0
ARC
  5
818
100
AcDbEntity
  8
0
100
AcDbCircle
 62
7
  6
CONTINUOUS
 10
16.8315710354
 20
14.049442009
 40
0.2240831941
100
AcDbArc
 50
113.6067141186
 51
113.8806195386
  0
ARC
  5
819
100
AcDbEntity
  8
0
100
AcDbCircle
 62
7
  6
CONTINUOUS
 10
16.8315907061
 20
14.0509096382
 40
0.223251569
100
AcDbArc
 50
114.08523226
 51
134.5133272075
  0
ARC
  5
81A
100
AcDbEntity
  8
0
100
AcDbCircle
 62
7
  6
CONTINUOUS
 10
16.8315907061
 20
14.0509096382
 40
0.223251569
100
AcDbArc
 50
45.4866727925
 51
65.91476774
  0
ARC
  5
81B
100
AcDbEntity
  8
0
100
AcDbCircle
 62
7
  6
CONTINUOUS
 10
16.8315907061
 20
14.0509096382
 40
0.2227470832
100
AcDbArc
 50
66.2374701994
 51
74.1063163774
  0
ARC
  5
81C
100
AcDbEntity
  8
0
100
AcDbCircle
 62
7
  6
CONTINUOUS
 10
16.8315907061
 20
14.0509096382
 40
0.2227470832
100
AcDbArc
 50
105.8936836226
 51
113.7625264256
  0
ARC
  5
81D
100
AcDbEntity
  8
0
100
AcDbCircle
 62
7
  6
CONTINUOUS
 10
16.8099735839
 20
14.1041790314
 40
0.1657103095
100
AcDbArc
 50
93.5359138625
 51
103.7485316804
  0
ARC
  5
81E
100
AcDbEntity
  8
0
100
AcDbCircle
 62
7
  6
CONTINUOUS
 10
16.8532078295
 20
14.1041790397
 40
0.1657103011
100
AcDbArc
 50
76.2514680607
 51
86.4640863964
  0
ARC
  5
81F
100
AcDbEntity
  8
0
100
AcDbCircle
 62
7
  6
CONTINUOUS
 10
16.6855907061
 20
14.1994112072
 40
0.015
100
AcDbArc
 50
134.5133272075
 51
180.0
  0
ARC
  5
820
100
AcDbEntity
  8
0
100
AcDbCircle
 62
7
  6
CONTINUOUS
 10
16.9775907061
 20
14.1994112072
 40
0.015
100
AcDbArc
 50
0.0
 51
45.4866727925
  0
ARC
  5
821
100
AcDbEntity
  8
0
100
AcDbCircle
 62
7
  6
CONTINUOUS
 10
1.905886333
 20
-8.6618311012
 40
6.724
100
AcDbArc
 50
74.6918670775
 51
105.3081329225
  0
CIRCLE
  5
822
100
AcDbEntity
  8
0
100
AcDbCircle
 62
7
  6
CONTINUOUS
 10
1.609886333
 20
-8.6528311012
 40
6.6237401575
  0
CIRCLE
  5
823
100
AcDbEntity
  8
0
100
AcDbCircle
 62
7
  6
CONTINUOUS
 10
1.609886333
 20
-8.6528311012
 40
6.545
  0
CIRCLE
  5
824
100
AcDbEntity
  8
0
100
AcDbCircle
 62
7
  6
CONTINUOUS
 10
1.609886333
 20
-8.6528311012
 40
4.95
  0
CIRCLE
  5
825
100
AcDbEntity
  8
0
100
AcDbCircle
 62
7
  6
CONTINUOUS
 10
1.609886333
 20
-8.6528311012
 40
4.9106299213
  0
CIRCLE
  5
826
100
AcDbEntity
  8
0
100
AcDbCircle
 62
7
  6
CONTINUOUS
 10
1.609886333
 20
-8.6528311012
 40
3.95
  0
CIRCLE
  5
827
100
AcDbEntity
  8
0
100
AcDbCircle
 62
7
  6
CONTINUOUS
 10
1.609886333
 20
-8.6528311012
 40
1.0
  0
CIRCLE
  5
828
100
AcDbEntity
  8
0
100
AcDbCircle
 62
7
  6
CONTINUOUS
 10
1.6125596931
 20
-8.6501577412
 40
0.6692913386
  0
CIRCLE
  5
829
100
AcDbEntity
  8
0
100
AcDbCircle
 62
7
  6
CONTINUOUS
 10
1.6125596931
 20
-8.6501577412
 40
0.437007874
  0
CIRCLE
  5
82A
100
AcDbEntity
  8
0
100
AcDbCircle
 62
7
  6
CONTINUOUS
 10
1.6125596931
 20
-8.6501577412
 40
0.4133858268
  0
ARC
  5
82B
100
AcDbEntity
  8
0
100
AcDbCircle
 62
7
  6
CONTINUOUS
 10
3.601886333
 20
-2.4657549235
 40
0.3
100
AcDbArc
 50
7.2341898413
 51
74.6918670775
  0
ARC
  5
82C
100
AcDbEntity
  8
0
100
AcDbCircle
 62
7
  6
CONTINUOUS
 10
0.209886333
 20
-2.4657549235
 40
0.3
100
AcDbArc
 50
105.3081329225
 51
123.614258543
  0
SPLINE
  5
82D
100
AcDbEntity
  8
0
100
AcDbSpline
 62
7
  6
CONTINUOUS
 70
0
 71
3
 72
11
 73
7
 74
0
 42
0.0000001
 43
0.0000001
 44
0.0000000001
 40
0.0
 40
0.0
 40
0.0
 40
0.0
 40
0.2558181721
 40
0.507113322
 40
0.754835959
 40
1.0
 40
1.0
 40
1.0
 40
1.0
 10
0.098823333
 20
14.2651414357
 30
0.0
 10
0.097451387
 20
14.2657219933
 30
0.0
 10
0.0946914856
 20
14.2667805848
 30
0.0
 10
0.0904816188
 20
14.2680582201
 30
0.0
 10
0.0862492849
 20
14.2690077816
 30
0.0
 10
0.0834058061
 20
14.269422571
 30
0.0
 10
0.0819861644
 20
14.2695738841
 30
0.0
  0
LINE
  5
82E
100
AcDbEntity
  8
0
100
AcDbLine
 62
7
  6
CONTINUOUS
 10
0.0988668843
 20
14.2543416522
 11
0.0988233425
 21
14.2547728856
  0
LINE
  5
82F
100
AcDbEntity
  8
0
100
AcDbLine
 62
7
  6
CONTINUOUS
 10
0.128823333
 20
14.2547729823
 11
0.1287797817
 21
14.2543416522
  0
SPLINE
  5
830
100
AcDbEntity
  8
0
100
AcDbSpline
 62
7
  6
CONTINUOUS
 70
0
 71
3
 72
11
 73
7
 74
0
 42
0.0000001
 43
0.0000001
 44
0.0000000001
 40
0.0
 40
0.0
 40
0.0
 40
0.0
 40
0.2451651054
 40
0.4928886142
 40
0.7441831458
 40
1.0
 40
1.0
 40
1.0
 40
1.0
 10
0.1456605016
 20
14.2695738841
 30
0.0
 10
0.1442408538
 20
14.2694225704
 30
0.0
 10
0.1413973638
 20
14.2690077785
 30
0.0
 10
0.1371650228
 20
14.2680582136
 30
0.0
 10
0.1329551624
 20
14.2667805787
 30
0.0
 10
0.1301952719
 20
14.2657219903
 30
0.0
 10
0.128823333
 20
14.2651414357
 30
0.0
  0
SPLINE
  5
831
100
AcDbEntity
  8
0
100
AcDbSpline
 62
7
  6
CONTINUOUS
 70
0
 71
3
 72
8
 73
4
 74
0
 42
0.0000001
 43
0.0000001
 44
0.0000000001
 40
0.0
 40
0.0
 40
0.0
 40
0.0
 40
1.0
 40
1.0
 40
1.0
 40
1.0
 10
0.204823333
 20
14.2547729823
 30
0.0
 10
0.2048134597
 20
14.2547568459
 30
0.0
 10
0.2048035864
 20
14.2547407094
 30
0.0
 10
0.2047937131
 20
14.254724573
 30
0.0
  0
LINE
  5
832
100
AcDbEntity
  8
0
100
AcDbLine
 62
7
  6
CONTINUOUS
 10
0.2047937131
 20
14.254724573
 11
0.2047054316
 21
14.2545803715
  0
LINE
  5
833
100
AcDbEntity
  8
0
100
AcDbLine
 62
7
  6
CONTINUOUS
 10
0.2047054316
 20
14.2545803715
 11
0.2045591218
 21
14.2543416522
  0
LINE
  5
834
100
AcDbEntity
  8
0
100
AcDbLine
 62
7
  6
CONTINUOUS
 10
0.0230875442
 20
14.2543416522
 11
0.0229412665
 21
14.2545803191
  0
LINE
  5
835
100
AcDbEntity
  8
0
100
AcDbLine
 62
7
  6
CONTINUOUS
 10
0.0229412665
 20
14.2545803191
 11
0.0228529671
 21
14.2547245499
  0
SPLINE
  5
836
100
AcDbEntity
  8
0
100
AcDbSpline
 62
7
  6
CONTINUOUS
 70
0
 71
3
 72
8
 73
4
 74
0
 42
0.0000001
 43
0.0000001
 44
0.0000000001
 40
0.0
 40
0.0
 40
0.0
 40
0.0
 40
1.0
 40
1.0
 40
1.0
 40
1.0
 10
0.0228529671
 20
14.2547245499
 30
0.0
 10
0.0228430891
 20
14.254740694
 30
0.0
 10
0.022833211
 20
14.2547568381
 30
0.0
 10
0.022823333
 20
14.2547729823
 30
0.0
  0
SPLINE
  5
837
100
AcDbEntity
  8
0
100
AcDbSpline
 62
7
  6
CONTINUOUS
 70
0
 71
3
 72
11
 73
7
 74
0
 42
0.0000001
 43
0.0000001
 44
0.0000000001
 40
0.0
 40
0.0
 40
0.0
 40
0.0
 40
0.2558181721
 40
0.507113322
 40
0.754835959
 40
1.0
 40
1.0
 40
1.0
 40
1.0
 10
3.090949333
 20
14.2651414357
 30
0.0
 10
3.089577387
 20
14.2657219933
 30
0.0
 10
3.0868174856
 20
14.2667805848
 30
0.0
 10
3.0826076188
 20
14.2680582201
 30
0.0
 10
3.0783752849
 20
14.2690077816
 30
0.0
 10
3.0755318061
 20
14.269422571
 30
0.0
 10
3.0741121644
 20
14.2695738841
 30
0.0
  0
LINE
  5
838
100
AcDbEntity
  8
0
100
AcDbLine
 62
7
  6
CONTINUOUS
 10
3.0909928843
 20
14.2543416522
 11
3.0909493425
 21
14.2547728856
  0
LINE
  5
839
100
AcDbEntity
  8
0
100
AcDbLine
 62
7
  6
CONTINUOUS
 10
3.120949333
 20
14.2547729823
 11
3.1209057817
 21
14.2543416522
  0
SPLINE
  5
83A
100
AcDbEntity
  8
0
100
AcDbSpline
 62
7
  6
CONTINUOUS
 70
0
 71
3
 72
11
 73
7
 74
0
 42
0.0000001
 43
0.0000001
 44
0.0000000001
 40
0.0
 40
0.0
 40
0.0
 40
0.0
 40
0.2451651054
 40
0.4928886142
 40
0.7441831458
 40
1.0
 40
1.0
 40
1.0
 40
1.0
 10
3.1377865016
 20
14.2695738841
 30
0.0
 10
3.1363668538
 20
14.2694225704
 30
0.0
 10
3.1335233638
 20
14.2690077785
 30
0.0
 10
3.1292910228
 20
14.2680582136
 30
0.0
 10
3.1250811624
 20
14.2667805787
 30
0.0
 10
3.1223212719
 20
14.2657219903
 30
0.0
 10
3.120949333
 20
14.2651414357
 30
0.0
  0
SPLINE
  5
83B
100
AcDbEntity
  8
0
100
AcDbSpline
 62
7
  6
CONTINUOUS
 70
0
 71
3
 72
8
 73
4
 74
0
 42
0.0000001
 43
0.0000001
 44
0.0000000001
 40
0.0
 40
0.0
 40
0.0
 40
0.0
 40
1.0
 40
1.0
 40
1.0
 40
1.0
 10
3.196949333
 20
14.2547729823
 30
0.0
 10
3.1969394597
 20
14.2547568459
 30
0.0
 10
3.1969295864
 20
14.2547407094
 30
0.0
 10
3.1969197131
 20
14.254724573
 30
0.0
  0
LINE
  5
83C
100
AcDbEntity
  8
0
100
AcDbLine
 62
7
  6
CONTINUOUS
 10
3.1969197131
 20
14.254724573
 11
3.1968314316
 21
14.2545803715
  0
LINE
  5
83D
100
AcDbEntity
  8
0
100
AcDbLine
 62
7
  6
CONTINUOUS
 10
3.1968314316
 20
14.2545803715
 11
3.1966851218
 21
14.2543416522
  0
LINE
  5
83E
100
AcDbEntity
  8
0
100
AcDbLine
 62
7
  6
CONTINUOUS
 10
3.0152135442
 20
14.2543416522
 11
3.0150672665
 21
14.2545803191
  0
LINE
  5
83F
100
AcDbEntity
  8
0
100
AcDbLine
 62
7
  6
CONTINUOUS
 10
3.0150672665
 20
14.2545803191
 11
3.0149789671
 21
14.2547245499
  0
SPLINE
  5
840
100
AcDbEntity
  8
0
100
AcDbSpline
 62
7
  6
CONTINUOUS
 70
0
 71
3
 72
8
 73
4
 74
0
 42
0.0000001
 43
0.0000001
 44
0.0000000001
 40
0.0
 40
0.0
 40
0.0
 40
0.0
 40
1.0
 40
1.0
 40
1.0
 40
1.0
 10
3.0149789671
 20
14.2547245499
 30
0.0
 10
3.0149690891
 20
14.254740694
 30
0.0
 10
3.014959211
 20
14.2547568381
 30
0.0
 10
3.014949333
 20
14.2547729823
 30
0.0
  0
SPLINE
  5
841
100
AcDbEntity
  8
0
100
AcDbSpline
 62
7
  6
CONTINUOUS
 70
0
 71
3
 72
11
 73
7
 74
0
 42
0.0000001
 43
0.0000001
 44
0.0000000001
 40
0.0
 40
0.0
 40
0.0
 40
0.0
 40
0.4681789178
 40
0.5955215509
 40
0.7267474199
 40
1.0
 40
1.0
 40
1.0
 40
1.0
 10
3.9841557014
 20
13.1378120754
 30
0.0
 10
3.9843798016
 20
13.1334295384
 30
0.0
 10
3.9855355294
 20
13.1278803738
 30
0.0
 10
3.9877980305
 20
13.12145833
 30
0.0
 10
3.9897007576
 20
13.1168479102
 30
0.0
 10
3.9914101109
 20
13.1134559557
 30
0.0
 10
3.992661912
 20
13.1112215012
 30
0.0
  0
SPLINE
  5
842
100
AcDbEntity
  8
0
100
AcDbSpline
 62
7
  6
CONTINUOUS
 70
0
 71
3
 72
19
 73
15
 74
0
 42
0.0000001
 43
0.0000001
 44
0.0000000001
 40
0.0
 40
0.0
 40
0.0
 40
0.0
 40
0.0590772051
 40
0.1204707997
 40
0.2485187659
 40
0.3811156163
 40
0.4481609734
 40
0.5151091402
 40
0.5815274511
 40
0.6469983351
 40
0.7734468165
 40
0.891805597
 40
0.9473064289
 40
1.0
 40
1.0
 40
1.0
 40
1.0
 10
4.6652357584
 20
11.9106827417
 30
0.0
 10
4.6663448014
 20
11.9087031092
 30
0.0
 10
4.6687644494
 20
11.9047530831
 30
0.0
 10
4.6743067102
 20
11.8969740447
 30
0.0
 10
4.6824676569
 20
11.8876325974
 30
0.0
 10
4.691826363
 20
11.8791734576
 30
0.0
 10
4.699978407
 20
11.8729697951
 30
0.0
 10
4.7063605203
 20
11.8686582731
 30
0.0
 10
4.7129277988
 20
11.8647510678
 30
0.0
 10
4.7217400036
 20
11.8601800497
 30
0.0
 10
4.7327949731
 20
11.8556439729
 30
0.0
 10
4.743997521
 20
11.852711438
 30
0.0
 10
4.7526272808
 20
11.8515308759
 30
0.0
 10
4.7567848653
 20
11.8513235941
 30
0.0
 10
4.7588087968
 20
11.8513235941
 30
0.0
  0
SPLINE
  5
843
100
AcDbEntity
  8
0
100
AcDbSpline
 62
7
  6
CONTINUOUS
 70
0
 71
3
 72
15
 73
11
 74
0
 42
0.0000001
 43
0.0000001
 44
0.0000000001
 40
0.0
 40
0.0
 40
0.0
 40
0.0
 40
0.1442156679
 40
0.2820202546
 40
0.4134950943
 40
0.5389622964
 40
0.6591931584
 40
0.7752416088
 40
0.8883667522
 40
1.0
 40
1.0
 40
1.0
 40
1.0
 10
6.5532829844
 20
11.8513235941
 30
0.0
 10
6.5549114212
 20
11.8513235941
 30
0.0
 10
6.5580978813
 20
11.8514517004
 30
0.0
 10
6.5627343361
 20
11.8520549795
 30
0.0
 10
6.5670848294
 20
11.8530612269
 30
0.0
 10
6.5711138361
 20
11.8544698735
 30
0.0
 10
6.574791842
 20
11.8562703449
 30
0.0
 10
6.5780943377
 20
11.8584504049
 30
0.0
 10
6.5809945979
 20
11.8609980781
 30
0.0
 10
6.582650595
 20
11.8629348018
 30
0.0
 10
6.5833987791
 20
11.8639492711
 30
0.0
  0
SPLINE
  5
844
100
AcDbEntity
  8
0
100
AcDbSpline
 62
7
  6
CONTINUOUS
 70
0
 71
3
 72
26
 73
22
 74
0
 42
0.0000001
 43
0.0000001
 44
0.0000000001
 40
0.0
 40
0.0
 40
0.0
 40
0.0
 40
0.0621430782
 40
0.1242333509
 40
0.1862940374
 40
0.2483515333
 40
0.3104341913
 40
0.372570472
 40
0.4347871903
 40
0.4971075356
 40
0.5595492857
 40
0.6221234259
 40
0.6534702051
 40
0.6848505042
 40
0.716263412
 40
0.7477074298
 40
0.8106630061
 40
0.8737136205
 40
0.9052738983
 40
0.936847469
 40
1.0
 40
1.0
 40
1.0
 40
1.0
 10
2.4424249317
 20
13.0718081587
 30
0.0
 10
2.4535423073
 20
13.0722484154
 30
0.0
 10
2.4757400328
 20
13.0742115233
 30
0.0
 10
2.5085698469
 20
13.0803810788
 30
0.0
 10
2.5406305815
 20
13.0897171744
 30
0.0
 10
2.5716265882
 20
13.102132851
 30
0.0
 10
2.6012789083
 20
13.1175129796
 30
0.0
 10
2.6293210731
 20
13.1357154866
 30
0.0
 10
2.6555028517
 20
13.1565727944
 30
0.0
 10
2.6795919851
 20
13.1798942443
 30
0.0
 10
2.7013743749
 20
13.2054650793
 30
0.0
 10
2.7174390839
 20
13.2284485499
 30
0.0
 10
2.728954279
 20
13.2477096272
 30
0.0
 10
2.7369118858
 20
13.2625750635
 30
0.0
 10
2.7441659742
 20
13.2778153978
 30
0.0
 10
2.7528811199
 20
13.2985941507
 30
0.0
 10
2.7619398079
 20
13.3253355691
 30
0.0
 10
2.7684626595
 20
13.3528264126
 30
0.0
 10
2.7721302463
 20
13.3751263647
 30
0.0
 10
2.7747571699
 20
13.3975894022
 30
0.0
 10
2.7755476286
 20
13.4145630468
 30
0.0
 10
2.7755476286
 20
13.4258698686
 30
0.0
  0
SPLINE
  5
845
100
AcDbEntity
  8
0
100
AcDbSpline
 62
7
  6
CONTINUOUS
 70
0
 71
3
 72
31
 73
27
 74
0
 42
0.0000001
 43
0.0000001
 44
0.0000000001
 40
0.0
 40
0.0
 40
0.0
 40
0.0
 40
0.0309543546
 40
0.06192999
 40
0.0929283133
 40
0.1239503564
 40
0.186049225
 40
0.2482479139
 40
0.2793936189
 40
0.3105632188
 40
0.3417559312
 40
0.372970829
 40
0.4354441887
 40
0.4979926253
 40
0.5606059606
 40
0.6232739129
 40
0.6546345981
 40
0.6860052735
 40
0.7173848164
 40
0.7487721467
 40
0.8115472773
 40
0.8743421052
 40
0.9057534564
 40
0.9371673641
 40
0.9685856145
 40
1.0
 40
1.0
 40
1.0
 40
1.0
 10
2.4424333864
 20
13.7802005773
 30
0.0
 10
2.4367195972
 20
13.7802005773
 30
0.0
 10
2.4252860335
 20
13.7799153669
 30
0.0
 10
2.4081738551
 20
13.7786343697
 30
0.0
 10
2.3911332843
 20
13.776502816
 30
0.0
 10
2.3685609228
 20
13.7725335575
 30
0.0
 10
2.3407224862
 20
13.765472322
 30
0.0
 10
2.3136955414
 20
13.755691167
 30
0.0
 10
2.2927121145
 20
13.7462941456
 30
0.0
 10
2.2773183694
 20
13.7384709639
 30
0.0
 10
2.2623161637
 20
13.7298951255
 30
0.0
 10
2.2428817601
 20
13.7174844557
 30
0.0
 10
2.2197408095
 20
13.7001898754
 30
0.0
 10
2.1941149817
 20
13.6768090188
 30
0.0
 10
2.170867074
 20
13.6510141499
 30
0.0
 10
2.1536664641
 20
13.6277103721
 30
0.0
 10
2.141315745
 20
13.6081246509
 30
0.0
 10
2.1327741993
 20
13.5929896933
 30
0.0
 10
2.1249800459
 20
13.577451156
 30
0.0
 10
2.1156107579
 20
13.5562477292
 30
0.0
 10
2.1058571705
 20
13.5289142115
 30
0.0
 10
2.0988209041
 20
13.5007537921
 30
0.0
 10
2.0948637492
 20
13.4778982205
 30
0.0
 10
2.092737591
 20
13.4606250437
 30
0.0
 10
2.0914601278
 20
13.443268717
 30
0.0
 10
2.0911757669
 20
13.4316685738
 30
0.0
 10
2.0911757669
 20
13.4258698686
 30
0.0
  0
SPLINE
  5
846
100
AcDbEntity
  8
0
100
AcDbSpline
 62
7
  6
CONTINUOUS
 70
0
 71
3
 72
15
 73
11
 74
0
 42
0.0000001
 43
0.0000001
 44
0.0000000001
 40
0.0
 40
0.0
 40
0.0
 40
0.0
 40
0.1255303354
 40
0.2509194435
 40
0.3761580599
 40
0.5012396282
 40
0.6261610619
 40
0.7509234608
 40
0.8755327242
 40
1.0
 40
1.0
 40
1.0
 40
1.0
 10
2.2369440761
 20
13.1388973341
 30
0.0
 10
2.2443737642
 20
13.1334753561
 30
0.0
 10
2.2596547262
 20
13.1232128453
 30
0.0
 10
2.2836897757
 20
13.1096692372
 30
0.0
 10
2.3086834258
 20
13.0980624919
 30
0.0
 10
2.3344786982
 20
13.0884657213
 30
0.0
 10
2.3609157404
 20
13.0809382166
 30
0.0
 10
2.3878309645
 20
13.0755270733
 30
0.0
 10
2.4150552116
 20
13.0722662105
 30
0.0
 10
2.4333135546
 20
13.07153916
 30
0.0
 10
2.4424333864
 20
13.07153916
 30
0.0
  0
SPLINE
  5
847
100
AcDbEntity
  8
0
100
AcDbSpline
 62
7
  6
CONTINUOUS
 70
0
 71
3
 72
26
 73
22
 74
0
 42
0.0000001
 43
0.0000001
 44
0.0000000001
 40
0.0
 40
0.0
 40
0.0
 40
0.0
 40
0.0631525283
 40
0.0947260984
 40
0.1262863764
 40
0.1893369905
 40
0.2522925666
 40
0.2837365844
 40
0.3151494916
 40
0.3465297907
 40
0.37787657
 40
0.4404507094
 40
0.5028924596
 40
0.5652128044
 40
0.6274295226
 40
0.689565803
 40
0.7516484606
 40
0.8137059562
 40
0.8757666425
 40
0.9378569171
 40
1.0
 40
1.0
 40
1.0
 40
1.0
 10
2.7755476286
 20
13.4258698686
 30
0.0
 10
2.7755476286
 20
13.43717669
 30
0.0
 10
2.77475717
 20
13.4541503341
 30
0.0
 10
2.7721302465
 20
13.4766133712
 30
0.0
 10
2.7684626598
 20
13.4989133233
 30
0.0
 10
2.7619398083
 20
13.5264041669
 30
0.0
 10
2.7528811203
 20
13.5531455853
 30
0.0
 10
2.7441659747
 20
13.5739243382
 30
0.0
 10
2.7369118865
 20
13.5891646726
 30
0.0
 10
2.7289542796
 20
13.6040301088
 30
0.0
 10
2.7174390847
 20
13.6232911863
 30
0.0
 10
2.7013743757
 20
13.6462746569
 30
0.0
 10
2.6795919861
 20
13.671845492
 30
0.0
 10
2.6555028527
 20
13.6951669419
 30
0.0
 10
2.6293210743
 20
13.7160242499
 30
0.0
 10
2.6012789094
 20
13.734226757
 30
0.0
 10
2.5716265894
 20
13.7496068857
 30
0.0
 10
2.5406305828
 20
13.7620225624
 30
0.0
 10
2.5085698478
 20
13.7713586582
 30
0.0
 10
2.4757400325
 20
13.777528214
 30
0.0
 10
2.4535423057
 20
13.779491322
 30
0.0
 10
2.4424249292
 20
13.7799315786
 30
0.0
  0
SPLINE
  5
848
100
AcDbEntity
  8
0
100
AcDbSpline
 62
7
  6
CONTINUOUS
 70
0
 71
3
 72
9
 73
5
 74
0
 42
0.0000001
 43
0.0000001
 44
0.0000000001
 40
0.0
 40
0.0
 40
0.0
 40
0.0
 40
0.5024395418
 40
1.0
 40
1.0
 40
1.0
 40
1.0
 10
3.309886333
 20
11.8258376411
 30
0.0
 10
3.309886333
 20
11.817471674
 30
0.0
 10
3.3090316478
 20
11.8008077862
 30
0.0
 10
3.3063028102
 20
11.7843365259
 30
0.0
 10
3.3044416082
 20
11.7762635694
 30
0.0
  0
SPLINE
  5
849
100
AcDbEntity
  8
0
100
AcDbSpline
 62
7
  6
CONTINUOUS
 70
0
 71
3
 72
9
 73
5
 74
0
 42
0.0000001
 43
0.0000001
 44
0.0000000001
 40
0.0
 40
0.0
 40
0.0
 40
0.0
 40
0.497560357
 40
1.0
 40
1.0
 40
1.0
 40
1.0
 10
-0.0846689422
 20
11.7762635694
 30
0.0
 10
-0.0865301438
 20
11.7843365243
 30
0.0
 10
-0.0892589808
 20
11.8008077846
 30
0.0
 10
-0.090113667
 20
11.8174716723
 30
0.0
 10
-0.090113667
 20
11.8258376411
 30
0.0
  0
SPLINE
  5
84A
100
AcDbEntity
  8
0
100
AcDbSpline
 62
7
  6
CONTINUOUS
 70
0
 71
3
 72
26
 73
22
 74
0
 42
0.0000001
 43
0.0000001
 44
0.0000000001
 40
0.0
 40
0.0
 40
0.0
 40
0.0
 40
0.0631563348
 40
0.094731665
 40
0.1262933825
 40
0.1893437371
 40
0.2522956629
 40
0.283736907
 40
0.3151461214
 40
0.3465218822
 40
0.3778633538
 40
0.4404241424
 40
0.5028513973
 40
0.5651577967
 40
0.6273630695
 40
0.6894923092
 40
0.7515739981
 40
0.8136379185
 40
0.8757131457
 40
0.9378262729
 40
1.0
 40
1.0
 40
1.0
 40
1.0
 10
2.7891857419
 20
13.4258698686
 30
0.0
 10
2.7891857419
 20
13.4374638159
 30
0.0
 10
2.7883543663
 20
13.454869202
 30
0.0
 10
2.7855919248
 20
13.4778947172
 30
0.0
 10
2.7817356499
 20
13.5007445711
 30
0.0
 10
2.7748785903
 20
13.5288931166
 30
0.0
 10
2.7653598918
 20
13.5562340081
 30
0.0
 10
2.7562067204
 20
13.5774450921
 30
0.0
 10
2.7485908926
 20
13.5929836739
 30
0.0
 10
2.7402396302
 20
13.6081188672
 30
0.0
 10
2.7281604077
 20
13.6276979285
 30
0.0
 10
2.7113199643
 20
13.6509971127
 30
0.0
 10
2.6885117303
 20
13.6767978114
 30
0.0
 10
2.6633215455
 20
13.7001858604
 30
0.0
 10
2.6359851364
 20
13.7209345858
 30
0.0
 10
2.6067578962
 20
13.7388443158
 30
0.0
 10
2.5759146389
 20
13.7537414664
 30
0.0
 10
2.5437475048
 20
13.7654812568
 30
0.0
 10
2.5105616259
 20
13.7739491283
 30
0.0
 10
2.4766794351
 20
13.7790622698
 30
0.0
 10
2.4538469511
 20
13.7802005773
 30
0.0
 10
2.4424333864
 20
13.7802005773
 30
0.0
  0
SPLINE
  5
84B
100
AcDbEntity
  8
0
100
AcDbSpline
 62
7
  6
CONTINUOUS
 70
0
 71
3
 72
25
 73
21
 74
0
 42
0.0000001
 43
0.0000001
 44
0.0000000001
 40
0.0
 40
0.0
 40
0.0
 40
0.0
 40
0.1116294103
 40
0.1689215247
 40
0.2271730917
 40
0.2863697645
 40
0.346492618
 40
0.4075220508
 40
0.4694439287
 40
0.5007383696
 40
0.5322538
 40
0.5959398051
 40
0.6605250172
 40
0.7260519848
 40
0.7925999735
 40
0.8602987785
 40
0.8946549713
 40
0.929373357
 40
0.964484661
 40
1.0
 40
1.0
 40
1.0
 40
1.0
 10
-0.0846689422
 20
11.7762635694
 30
0.0
 10
-0.0828630617
 20
11.7684305697
 30
0.0
 10
-0.0795270012
 20
11.7567075058
 30
0.0
 10
-0.0739856411
 20
11.7413123667
 30
0.0
 10
-0.0691938107
 20
11.729672294
 30
0.0
 10
-0.0638020139
 20
11.718073167
 30
0.0
 10
-0.0578015112
 20
11.706550377
 30
0.0
 10
-0.0511748001
 20
11.6951482145
 30
0.0
 10
-0.0451319349
 20
11.6858224472
 30
0.0
 10
-0.0399558248
 20
11.6784806933
 30
0.0
 10
-0.0345058323
 20
11.6711807686
 30
0.0
 10
-0.0272244371
 20
11.6622616403
 30
0.0
 10
-0.0177112679
 20
11.6520362652
 30
0.0
 10
-0.0073055629
 20
11.6424072838
 30
0.0
 10
0.0040907869
 20
11.6335935849
 30
0.0
 10
0.014454498
 20
11.6272097032
 30
0.0
 10
0.023300127
 20
11.6228636895
 30
0.0
 10
0.0302542907
 20
11.6200300155
 30
0.0
 10
0.0374820643
 20
11.6177029012
 30
0.0
 10
0.0424394193
 20
11.6165364893
 30
0.0
 10
0.0449512681
 20
11.6160555705
 30
0.0
  0
SPLINE
  5
84C
100
AcDbEntity
  8
0
100
AcDbSpline
 62
7
  6
CONTINUOUS
 70
0
 71
3
 72
25
 73
21
 74
0
 42
0.0000001
 43
0.0000001
 44
0.0000000001
 40
0.0
 40
0.0
 40
0.0
 40
0.0
 40
0.0355153656
 40
0.070626707
 40
0.1053450911
 40
0.1397012918
 40
0.2074001552
 40
0.2739481498
 40
0.3394750771
 40
0.4040602355
 40
0.4677461954
 40
0.4992616066
 40
0.5305560326
 40
0.5924778952
 40
0.6535073225
 40
0.7136301742
 40
0.7728268439
 40
0.8310784009
 40
0.8883705321
 40
1.0
 40
1.0
 40
1.0
 40
1.0
 10
3.1748213979
 20
11.6160555705
 30
0.0
 10
3.1773332486
 20
11.6165364896
 30
0.0
 10
3.1822906074
 20
11.6177029051
 30
0.0
 10
3.1895183863
 20
11.6200300176
 30
0.0
 10
3.1964725518
 20
11.6228636957
 30
0.0
 10
3.2053181845
 20
11.6272097123
 30
0.0
 10
3.2156818987
 20
11.6335935992
 30
0.0
 10
3.227078247
 20
11.6424073026
 30
0.0
 10
3.2374839482
 20
11.6520362785
 30
0.0
 10
3.2469971098
 20
11.6622616472
 30
0.0
 10
3.2542784968
 20
11.671180771
 30
0.0
 10
3.2597284881
 20
11.6784806894
 30
0.0
 10
3.2649045964
 20
11.6858224403
 30
0.0
 10
3.2709474604
 20
11.6951482053
 30
0.0
 10
3.27757417
 20
11.7065503666
 30
0.0
 10
3.283574676
 20
11.7180731542
 30
0.0
 10
3.2889664685
 20
11.7296722819
 30
0.0
 10
3.2937583042
 20
11.7413123527
 30
0.0
 10
3.299299662
 20
11.7567074976
 30
0.0
 10
3.3026357268
 20
11.7684305657
 30
0.0
 10
3.3044416082
 20
11.7762635694
 30
0.0
  0
SPLINE
  5
84D
100
AcDbEntity
  8
0
100
AcDbSpline
 62
7
  6
CONTINUOUS
 70
0
 71
3
 72
26
 73
22
 74
0
 42
0.0000001
 43
0.0000001
 44
0.0000000001
 40
0.0
 40
0.0
 40
0.0
 40
0.0
 40
0.0621737271
 40
0.1242868543
 40
0.1863620815
 40
0.2484260019
 40
0.3105076908
 40
0.3726369305
 40
0.4348422033
 40
0.4971486027
 40
0.5595758576
 40
0.6221366462
 40
0.6534781178
 40
0.6848538786
 40
0.716263093
 40
0.7477043371
 40
0.8106562629
 40
0.8737066175
 40
0.905268335
 40
0.9368436652
 40
1.0
 40
1.0
 40
1.0
 40
1.0
 10
2.4424333864
 20
13.07153916
 30
0.0
 10
2.4538469511
 20
13.07153916
 30
0.0
 10
2.4766794351
 20
13.0726774675
 30
0.0
 10
2.5105616259
 20
13.077790609
 30
0.0
 10
2.5437475048
 20
13.0862584805
 30
0.0
 10
2.5759146389
 20
13.0979982708
 30
0.0
 10
2.6067578962
 20
13.1128954215
 30
0.0
 10
2.6359851364
 20
13.1308051515
 30
0.0
 10
2.6633215455
 20
13.1515538768
 30
0.0
 10
2.6885117303
 20
13.1749419259
 30
0.0
 10
2.7113199643
 20
13.2007426245
 30
0.0
 10
2.7281604077
 20
13.2240418087
 30
0.0
 10
2.7402396302
 20
13.24362087
 30
0.0
 10
2.7485908926
 20
13.2587560633
 30
0.0
 10
2.7562067204
 20
13.2742946451
 30
0.0
 10
2.7653598918
 20
13.2955057291
 30
0.0
 10
2.7748785903
 20
13.3228466206
 30
0.0
 10
2.7817356499
 20
13.3509951662
 30
0.0
 10
2.7855919248
 20
13.37384502
 30
0.0
 10
2.7883543663
 20
13.3968705352
 30
0.0
 10
2.7891857419
 20
13.4142759213
 30
0.0
 10
2.7891857419
 20
13.4258698686
 30
0.0
  0
SPLINE
  5
84E
100
AcDbEntity
  8
0
100
AcDbSpline
 62
3
  6
CONTINUOUS
 70
0
 71
3
 72
19
 73
15
 74
0
 42
0.0000001
 43
0.0000001
 44
0.0000000001
 40
0.0
 40
0.0
 40
0.0
 40
0.0
 40
0.0590772051
 40
0.1204707997
 40
0.2485187659
 40
0.3811156163
 40
0.4481609734
 40
0.5151091402
 40
0.5815274511
 40
0.6469983351
 40
0.7734468165
 40
0.891805597
 40
0.9473064289
 40
1.0
 40
1.0
 40
1.0
 40
1.0
 10
5.9115885522
 20
13.1163949952
 30
0.0
 10
5.9104795093
 20
13.1183746277
 30
0.0
 10
5.9080598612
 20
13.1223246538
 30
0.0
 10
5.9025176004
 20
13.1301036921
 30
0.0
 10
5.8943566537
 20
13.1394451395
 30
0.0
 10
5.8849979476
 20
13.1479042792
 30
0.0
 10
5.8768459036
 20
13.1541079418
 30
0.0
 10
5.8704637904
 20
13.1584194638
 30
0.0
 10
5.8638965118
 20
13.162326669
 30
0.0
 10
5.855084307
 20
13.1668976871
 30
0.0
 10
5.8440293375
 20
13.1714337639
 30
0.0
 10
5.8328267897
 20
13.1743662989
 30
0.0
 10
5.8241970299
 20
13.1755468609
 30
0.0
 10
5.8200394453
 20
13.1757541427
 30
0.0
 10
5.8180155138
 20
13.1757541427
 30
0.0
  0
SPLINE
  5
84F
100
AcDbEntity
  8
0
100
AcDbSpline
 62
3
  6
CONTINUOUS
 70
0
 71
3
 72
15
 73
11
 74
0
 42
0.0000001
 43
0.0000001
 44
0.0000000001
 40
0.0
 40
0.0
 40
0.0
 40
0.0
 40
0.1045570719
 40
0.2117260226
 40
0.3237839723
 40
0.4425020397
 40
0.5691088474
 40
0.7043035661
 40
0.8481591937
 40
1.0
 40
1.0
 40
1.0
 40
1.0
 10
6.5872143115
 20
11.8691227651
 30
0.0
 10
6.5882364176
 20
11.8705086477
 30
0.0
 10
6.5900333928
 20
11.8735279713
 30
0.0
 10
6.5918342556
 20
11.8785787754
 30
0.0
 10
6.5927486671
 20
11.8840964332
 30
0.0
 10
6.5927679715
 20
11.8900047035
 30
0.0
 10
6.5919021552
 20
11.896230075
 30
0.0
 10
6.5901654108
 20
11.9026971855
 30
0.0
 10
6.5875839662
 20
11.9093204475
 30
0.0
 10
6.5853846623
 20
11.9136745051
 30
0.0
 10
6.5841623987
 20
11.9158562356
 30
0.0
  0
SPLINE
  5
850
100
AcDbEntity
  8
0
100
AcDbSpline
 62
3
  6
CONTINUOUS
 70
0
 71
3
 72
13
 73
9
 74
0
 42
0.0000001
 43
0.0000001
 44
0.0000000001
 40
0.0
 40
0.0
 40
0.0
 40
0.0
 40
0.2769812006
 40
0.4081965363
 40
0.5346132922
 40
0.7740184257
 40
0.8883749616
 40
1.0
 40
1.0
 40
1.0
 40
1.0
 10
6.5570985169
 20
11.8564970881
 30
0.0
 10
6.5596312168
 20
11.8564970881
 30
0.0
 10
6.5633723725
 20
11.8567299538
 30
0.0
 10
6.568190367
 20
11.8575825907
 30
0.0
 10
6.5725912393
 20
11.8587309863
 30
0.0
 10
6.5766905451
 20
11.8603875205
 30
0.0
 10
6.5803566596
 20
11.8625598672
 30
0.0
 10
6.5820185064
 20
11.863796099
 30
0.0
 10
6.5828024782
 20
11.8644497059
 30
0.0
  0
SPLINE
  5
851
100
AcDbEntity
  8
0
100
AcDbSpline
 62
3
  6
CONTINUOUS
 70
0
 71
3
 72
19
 73
15
 74
0
 42
0.0000001
 43
0.0000001
 44
0.0000000001
 40
0.0
 40
0.0
 40
0.0
 40
0.0
 40
0.0590772051
 40
0.1204707997
 40
0.2485187659
 40
0.3811156163
 40
0.4481609734
 40
0.5151091402
 40
0.5815274511
 40
0.6469983351
 40
0.7734468165
 40
0.891805597
 40
0.9473064289
 40
1.0
 40
1.0
 40
1.0
 40
1.0
 10
4.6690512909
 20
11.9158562356
 30
0.0
 10
4.6701603338
 20
11.9138766032
 30
0.0
 10
4.6725799819
 20
11.909926577
 30
0.0
 10
4.6781222427
 20
11.9021475387
 30
0.0
 10
4.6862831894
 20
11.8928060914
 30
0.0
 10
4.6956418955
 20
11.8843469516
 30
0.0
 10
4.7037939395
 20
11.8781432891
 30
0.0
 10
4.7101760527
 20
11.8738317671
 30
0.0
 10
4.7167433313
 20
11.8699245618
 30
0.0
 10
4.7255555361
 20
11.8653535437
 30
0.0
 10
4.7366105056
 20
11.8608174669
 30
0.0
 10
4.7478130534
 20
11.857884932
 30
0.0
 10
4.7564428132
 20
11.8567043699
 30
0.0
 10
4.7606003978
 20
11.8564970881
 30
0.0
 10
4.7626243293
 20
11.8564970881
 30
0.0
  0
LINE
  5
852
100
AcDbEntity
  8
0
100
AcDbLine
 62
7
  6
CONTINUOUS
 10
16.8465907061
 20
14.2547729823
 11
16.8465471548
 21
14.2543416522
  0
SPLINE
  5
853
100
AcDbEntity
  8
0
100
AcDbSpline
 62
7
  6
CONTINUOUS
 70
0
 71
3
 72
11
 73
7
 74
0
 42
0.0000001
 43
0.0000001
 44
0.0000000001
 40
0.0
 40
0.0
 40
0.0
 40
0.0
 40
0.2451626362
 40
0.4928839302
 40
0.7441801875
 40
1.0
 40
1.0
 40
1.0
 40
1.0
 10
16.8634278747
 20
14.2695738841
 30
0.0
 10
16.8620082412
 20
14.2694225719
 30
0.0
 10
16.8591647781
 20
14.2690077854
 30
0.0
 10
16.8549324529
 20
14.268058229
 30
0.0
 10
16.8507225779
 20
14.2667805924
 30
0.0
 10
16.8479626608
 20
14.265721997
 30
0.0
 10
16.8465907061
 20
14.2651414357
 30
0.0
  0
LINE
  5
854
100
AcDbEntity
  8
0
100
AcDbLine
 62
7
  6
CONTINUOUS
 10
16.9223264949
 20
14.2543416522
 11
16.921835991
 21
14.2545581137
  0
LINE
  5
855
100
AcDbEntity
  8
0
100
AcDbLine
 62
7
  6
CONTINUOUS
 10
16.921835991
 20
14.2545581137
 11
16.9213461499
 21
14.2547728856
  0
LINE
  5
856
100
AcDbEntity
  8
0
100
AcDbLine
 62
7
  6
CONTINUOUS
 10
16.7408549173
 20
14.2543416522
 11
16.7405907016
 21
14.2547729828
  0
SPLINE
  5
857
100
AcDbEntity
  8
0
100
AcDbSpline
 62
7
  6
CONTINUOUS
 70
0
 71
3
 72
11
 73
7
 74
0
 42
0.0000001
 43
0.0000001
 44
0.0000000001
 40
0.0
 40
0.0
 40
0.0
 40
0.0
 40
0.2558181388
 40
0.5071132153
 40
0.7548357367
 40
1.0
 40
1.0
 40
1.0
 40
1.0
 10
16.8165907061
 20
14.2651414357
 30
0.0
 10
16.8152187603
 20
14.2657219932
 30
0.0
 10
16.8124588595
 20
14.2667805845
 30
0.0
 10
16.8082489939
 20
14.2680582195
 30
0.0
 10
16.8040166599
 20
14.2690077812
 30
0.0
 10
16.8011731804
 20
14.2694225709
 30
0.0
 10
16.7997535375
 20
14.2695738841
 30
0.0
  0
LINE
  5
858
100
AcDbEntity
  8
0
100
AcDbLine
 62
7
  6
CONTINUOUS
 10
16.8166342574
 20
14.2543416522
 11
16.8165907009
 21
14.2547730354
  0
LINE
  5
859
100
AcDbEntity
  8
0
100
AcDbLine
 62
7
  6
CONTINUOUS
 10
16.9225907106
 20
14.2547729828
 11
16.9223264949
 21
14.2543416522
  0
SPLINE
  5
85A
100
AcDbEntity
  8
0
100
AcDbSpline
 62
7
  6
CONTINUOUS
 70
0
 71
3
 72
18
 73
14
 74
0
 42
0.0000001
 43
0.0000001
 44
0.0000000001
 40
0.0
 40
0.0
 40
0.0
 40
0.0
 40
0.1645619426
 40
0.3187759023
 40
0.4608619982
 40
0.5901672849
 40
0.7068390613
 40
0.7608224598
 40
0.8121848211
 40
0.8612826206
 40
0.9085809196
 40
0.9546190538
 40
1.0
 40
1.0
 40
1.0
 40
1.0
 10
19.3641235902
 20
13.1112215012
 30
0.0
 10
19.3658335431
 20
13.1137826445
 30
0.0
 10
19.3689576129
 20
13.1188737968
 30
0.0
 10
19.3728177575
 20
13.1265995264
 30
0.0
 10
19.3756381841
 20
13.1340657582
 30
0.0
 10
19.377372821
 20
13.1411379989
 30
0.0
 10
19.3778934426
 20
13.1467562371
 30
0.0
 10
19.3776948264
 20
13.1509122003
 30
0.0
 10
19.3772627122
 20
13.1537755986
 30
0.0
 10
19.3765430707
 20
13.1564519178
 30
0.0
 10
19.3755401678
 20
13.1589292124
 30
0.0
 10
19.3742585429
 20
13.1611950647
 30
0.0
 10
19.3732177699
 20
13.162560889
 30
0.0
 10
19.3726573806
 20
13.1631989781
 30
0.0
  0
SPLINE
  5
85B
100
AcDbEntity
  8
0
100
AcDbSpline
 62
7
  6
CONTINUOUS
 70
0
 71
3
 72
11
 73
7
 74
0
 42
0.0000001
 43
0.0000001
 44
0.0000000001
 40
0.0
 40
0.0
 40
0.0
 40
0.0
 40
0.242973054
 40
0.4888257255
 40
0.7403201904
 40
1.0
 40
1.0
 40
1.0
 40
1.0
 10
16.9470784777
 20
11.8587052647
 30
0.0
 10
16.9475872502
 20
11.8581259492
 30
0.0
 10
16.9486854415
 20
11.8570237332
 30
0.0
 10
16.950541042
 20
11.8555739645
 30
0.0
 10
16.9526014206
 20
11.8543285489
 30
0.0
 10
16.9540791483
 20
11.8536504615
 30
0.0
 10
16.9548449457
 20
11.853346208
 30
0.0
  0
SPLINE
  5
85C
100
AcDbEntity
  8
0
100
AcDbSpline
 62
7
  6
CONTINUOUS
 70
0
 71
3
 72
10
 73
6
 74
0
 42
0.0000001
 43
0.0000001
 44
0.0000000001
 40
0.0
 40
0.0
 40
0.0
 40
0.0
 40
0.2322515289
 40
0.6018281003
 40
1.0
 40
1.0
 40
1.0
 40
1.0
 10
16.9548449457
 20
11.853346208
 30
0.0
 10
16.9557071839
 20
11.8530036382
 30
0.0
 10
16.9579947492
 20
11.8522464455
 30
0.0
 10
16.9619324394
 20
11.8514942988
 30
0.0
 10
16.9650035864
 20
11.8513235941
 30
0.0
 10
16.9665942026
 20
11.8513235941
 30
0.0
  0
SPLINE
  5
85D
100
AcDbEntity
  8
0
100
AcDbSpline
 62
7
  6
CONTINUOUS
 70
0
 71
3
 72
21
 73
17
 74
0
 42
0.0000001
 43
0.0000001
 44
0.0000000001
 40
0.0
 40
0.0
 40
0.0
 40
0.0
 40
0.0462315914
 40
0.0960458473
 40
0.1493137126
 40
0.2058389944
 40
0.2653712115
 40
0.3276121813
 40
0.3921829607
 40
0.4586473597
 40
0.5265476247
 40
0.59538819
 40
0.7338187661
 40
0.8700368676
 40
0.936083116
 40
1.0
 40
1.0
 40
1.0
 40
1.0
 10
18.4723368316
 20
11.8513235941
 30
0.0
 10
18.4740547419
 20
11.8513235941
 30
0.0
 10
18.4776254123
 20
11.8515376612
 30
0.0
 10
18.4831118219
 20
11.8524098104
 30
0.0
 10
18.4888746658
 20
11.8538389325
 30
0.0
 10
18.494854319
 20
11.8558133332
 30
0.0
 10
18.5009961485
 20
11.8583100067
 30
0.0
 10
18.507242121
 20
11.8613082274
 30
0.0
 10
18.5135342516
 20
11.8647780643
 30
0.0
 10
18.5198128821
 20
11.8686859627
 30
0.0
 10
18.5260156968
 20
11.8729974642
 30
0.0
 10
18.5341216127
 20
11.8792355219
 30
0.0
 10
18.5436711447
 20
11.8877343306
 30
0.0
 10
18.5523033271
 20
11.8970249728
 30
0.0
 10
18.5584613683
 20
11.9047697916
 30
0.0
 10
18.5612624907
 20
11.9087074591
 30
0.0
 10
18.5625812924
 20
11.9106827417
 30
0.0
  0
SPLINE
  5
85E
100
AcDbEntity
  8
0
100
AcDbSpline
 62
7
  6
CONTINUOUS
 70
0
 71
3
 72
38
 73
34
 74
0
 42
0.0000001
 43
0.0000001
 44
0.0000000001
 40
0.0
 40
0.0
 40
0.0
 40
0.0
 40
0.00407528
 40
0.0082690939
 40
0.01265183
 40
0.0172849568
 40
0.0222198215
 40
0.0274981246
 40
0.0331533844
 40
0.0392119902
 40
0.0456941705
 40
0.0526156438
 40
0.0599884952
 40
0.0678213354
 40
0.0848876191
 40
0.1038447671
 40
0.1246960244
 40
0.1474275121
 40
0.1720126183
 40
0.1984137472
 40
0.2265853531
 40
0.2564741951
 40
0.2880208902
 40
0.3211606742
 40
0.3558233923
 40
0.3919348842
 40
0.4681835896
 40
0.5492379454
 40
0.6343756233
 40
0.722831789
 40
0.8138079414
 40
0.9064771769
 40
1.0
 40
1.0
 40
1.0
 40
1.0
 10
16.068937083
 20
13.07153916
 30
0.0
 10
16.069441753
 20
13.07153916
 30
0.0
 10
16.070467109
 20
13.0716131109
 30
0.0
 10
16.0720038486
 20
13.0719399928
 30
0.0
 10
16.0735515557
 20
13.0724821554
 30
0.0
 10
16.0751087306
 20
13.0732381016
 30
0.0
 10
16.0766748879
 20
13.0742063598
 30
0.0
 10
16.0782495475
 20
13.0753857368
 30
0.0
 10
16.0798321461
 20
13.0767753471
 30
0.0
 10
16.0814219768
 20
13.078374322
 30
0.0
 10
16.0830182745
 20
13.0801816758
 30
0.0
 10
16.0846200589
 20
13.0821964355
 30
0.0
 10
16.0862262798
 20
13.0844175119
 30
0.0
 10
16.0884359053
 20
13.0877486463
 30
0.0
 10
16.0911864184
 20
13.0924366336
 30
0.0
 10
16.094397732
 20
13.0987083895
 30
0.0
 10
16.0975973016
 20
13.1057640647
 30
0.0
 10
16.1007741236
 20
13.1135872315
 30
0.0
 10
16.1039167594
 20
13.1221598924
 30
0.0
 10
16.1070137378
 20
13.1314618372
 30
0.0
 10
16.110053317
 20
13.141471045
 30
0.0
 10
16.1130238523
 20
13.1521637112
 30
0.0
 10
16.1159137377
 20
13.163514358
 30
0.0
 10
16.1187113794
 20
13.1754959169
 30
0.0
 10
16.1214056208
 20
13.1880798152
 30
0.0
 10
16.1249087585
 20
13.2059472545
 30
0.0
 10
16.1289328652
 20
13.2295629949
 30
0.0
 10
16.1331017245
 20
13.2592991605
 30
0.0
 10
16.1366204002
 20
13.2906409099
 30
0.0
 10
16.1394261366
 20
13.3232876326
 30
0.0
 10
16.1414679137
 20
13.3569254277
 30
0.0
 10
16.1427083549
 20
13.3912298699
 30
0.0
 10
16.1429852868
 20
13.4142882925
 30
0.0
 10
16.1429852868
 20
13.4258698686
 30
0.0
  0
SPLINE
  5
85F
100
AcDbEntity
  8
0
100
AcDbSpline
 62
7
  6
CONTINUOUS
 70
0
 71
3
 72
18
 73
14
 74
0
 42
0.0000001
 43
0.0000001
 44
0.0000000001
 40
0.0
 40
0.0
 40
0.0
 40
0.0
 40
0.0472002816
 40
0.0972048092
 40
0.1498786364
 40
0.2050761734
 40
0.2626420392
 40
0.3224111783
 40
0.447858378
 40
0.5799474251
 40
0.7171076646
 40
0.8576898246
 40
1.0
 40
1.0
 40
1.0
 40
1.0
 10
16.1129012607
 20
13.6996580975
 30
0.0
 10
16.1122470498
 20
13.6953908489
 30
0.0
 10
16.1109924963
 20
13.6865884536
 30
0.0
 10
16.1092982024
 20
13.6729845553
 30
0.0
 10
16.1077342462
 20
13.6586290925
 30
0.0
 10
16.1062990321
 20
13.6435654306
 30
0.0
 10
16.1049905371
 20
13.6278389892
 30
0.0
 10
16.1033862102
 20
13.6056909484
 30
0.0
 10
16.1017112448
 20
13.5767157807
 30
0.0
 10
16.1001952566
 20
13.5406461042
 30
0.0
 10
16.0991263255
 20
13.503175677
 30
0.0
 10
16.0984907483
 20
13.4647606351
 30
0.0
 10
16.098350486
 20
13.4388860638
 30
0.0
 10
16.098350486
 20
13.4258698686
 30
0.0
  0
SPLINE
  5
860
100
AcDbEntity
  8
0
100
AcDbSpline
 62
7
  6
CONTINUOUS
 70
0
 71
3
 72
38
 73
34
 74
0
 42
0.0000001
 43
0.0000001
 44
0.0000000001
 40
0.0
 40
0.0
 40
0.0
 40
0.0
 40
0.0935228231
 40
0.1861920586
 40
0.277168211
 40
0.3656243767
 40
0.4507620546
 40
0.5318164104
 40
0.6080651158
 40
0.6441766077
 40
0.6788393258
 40
0.7119791098
 40
0.7435258048
 40
0.7734146469
 40
0.8015862528
 40
0.8279873817
 40
0.8525724878
 40
0.8753039756
 40
0.8961552329
 40
0.9151123809
 40
0.9321786646
 40
0.9400115048
 40
0.9473843562
 40
0.9543058295
 40
0.9607880098
 40
0.9668466156
 40
0.9725018754
 40
0.9777801785
 40
0.9827150432
 40
0.98734817
 40
0.9917309061
 40
0.99592472
 40
1.0
 40
1.0
 40
1.0
 40
1.0
 10
16.1429852868
 20
13.4258698686
 30
0.0
 10
16.1429852868
 20
13.4374514447
 30
0.0
 10
16.1427083549
 20
13.4605098674
 30
0.0
 10
16.1414679137
 20
13.4948143095
 30
0.0
 10
16.1394261366
 20
13.5284521046
 30
0.0
 10
16.1366204002
 20
13.5610988273
 30
0.0
 10
16.1331017245
 20
13.5924405768
 30
0.0
 10
16.1289328652
 20
13.6221767424
 30
0.0
 10
16.1249087585
 20
13.6457924827
 30
0.0
 10
16.1214056208
 20
13.663659922
 30
0.0
 10
16.1187113794
 20
13.6762438204
 30
0.0
 10
16.1159137377
 20
13.6882253792
 30
0.0
 10
16.1130238523
 20
13.699576026
 30
0.0
 10
16.110053317
 20
13.7102686922
 30
0.0
 10
16.1070137378
 20
13.7202779
 30
0.0
 10
16.1039167594
 20
13.7295798449
 30
0.0
 10
16.1007741236
 20
13.7381525057
 30
0.0
 10
16.0975973016
 20
13.7459756726
 30
0.0
 10
16.094397732
 20
13.7530313477
 30
0.0
 10
16.0911864184
 20
13.7593031036
 30
0.0
 10
16.0884359053
 20
13.763991091
 30
0.0
 10
16.0862262798
 20
13.7673222253
 30
0.0
 10
16.0846200589
 20
13.7695433018
 30
0.0
 10
16.0830182745
 20
13.7715580614
 30
0.0
 10
16.0814219768
 20
13.7733654152
 30
0.0
 10
16.0798321461
 20
13.7749643901
 30
0.0
 10
16.0782495475
 20
13.7763540005
 30
0.0
 10
16.0766748879
 20
13.7775333774
 30
0.0
 10
16.0751087306
 20
13.7785016357
 30
0.0
 10
16.0735515557
 20
13.7792575818
 30
0.0
 10
16.0720038486
 20
13.7797997445
 30
0.0
 10
16.070467109
 20
13.7801266264
 30
0.0
 10
16.069441753
 20
13.7802005773
 30
0.0
 10
16.068937083
 20
13.7802005773
 30
0.0
  0
SPLINE
  5
861
100
AcDbEntity
  8
0
100
AcDbSpline
 62
7
  6
CONTINUOUS
 70
0
 71
3
 72
18
 73
14
 74
0
 42
0.0000001
 43
0.0000001
 44
0.0000000001
 40
0.0
 40
0.0
 40
0.0
 40
0.0
 40
0.1423101715
 40
0.2828923337
 40
0.4200525734
 40
0.5521416221
 40
0.6775888224
 40
0.7373579617
 40
0.794923827
 40
0.8501213644
 40
0.9027951916
 40
0.9527997185
 40
1.0
 40
1.0
 40
1.0
 40
1.0
 10
16.098350486
 20
13.4258698686
 30
0.0
 10
16.098350486
 20
13.4128536736
 30
0.0
 10
16.0984907483
 20
13.3869791021
 30
0.0
 10
16.0991263255
 20
13.3485640599
 30
0.0
 10
16.1001952567
 20
13.3110936318
 30
0.0
 10
16.1017112448
 20
13.2750239546
 30
0.0
 10
16.1033862103
 20
13.2460487863
 30
0.0
 10
16.1049905373
 20
13.2239007451
 30
0.0
 10
16.1062990323
 20
13.2081743035
 30
0.0
 10
16.1077342465
 20
13.1931106415
 30
0.0
 10
16.1092982028
 20
13.1787551785
 30
0.0
 10
16.1109924968
 20
13.1651512801
 30
0.0
 10
16.1122470504
 20
13.1563488847
 30
0.0
 10
16.1129012613
 20
13.1520816361
 30
0.0
  0
SPLINE
  5
862
100
AcDbEntity
  8
0
100
AcDbSpline
 62
7
  6
CONTINUOUS
 70
0
 71
3
 72
33
 73
29
 74
0
 42
0.0000001
 43
0.0000001
 44
0.0000000001
 40
0.0
 40
0.0
 40
0.0
 40
0.0
 40
0.0062638769
 40
0.0131360488
 40
0.0206134525
 40
0.0286847004
 40
0.0373328427
 40
0.0465365103
 40
0.0562727807
 40
0.0665166378
 40
0.0884259331
 40
0.1120713196
 40
0.1372723542
 40
0.1638660108
 40
0.1917066831
 40
0.220665511
 40
0.250627726
 40
0.2814944525
 40
0.3455960828
 40
0.4123830921
 40
0.4813861334
 40
0.5522229142
 40
0.6245736262
 40
0.6981611911
 40
0.7727352145
 40
0.8480569977
 40
0.9238971314
 40
1.0
 40
1.0
 40
1.0
 40
1.0
 10
17.5464907061
 20
13.1017136163
 30
0.0
 10
17.5464907061
 20
13.1009762616
 30
0.0
 10
17.5464129172
 20
13.0994295801
 30
0.0
 10
17.5461067524
 20
13.0970207733
 30
0.0
 10
17.5456127004
 20
13.0944266971
 30
0.0
 10
17.5449380731
 20
13.0916583874
 30
0.0
 10
17.5440904775
 20
13.0887261198
 30
0.0
 10
17.5430773126
 20
13.0856400491
 30
0.0
 10
17.5419060054
 20
13.0824100154
 30
0.0
 10
17.5401020976
 20
13.0778202851
 30
0.0
 10
17.537483812
 20
13.0717940505
 30
0.0
 10
17.5338905448
 20
13.0642785043
 30
0.0
 10
17.5298251883
 20
13.0563819974
 30
0.0
 10
17.5253306339
 20
13.0481545254
 30
0.0
 10
17.5204448268
 20
13.0396393713
 30
0.0
 10
17.5152015664
 20
13.0308742454
 30
0.0
 10
17.5096309533
 20
13.0218915276
 30
0.0
 10
17.5017015067
 20
13.0095056578
 30
0.0
 10
17.4911215833
 20
12.9936719823
 30
0.0
 10
17.4776250286
 20
12.9743952908
 30
0.0
 10
17.46329557
 20
12.9547395474
 30
0.0
 10
17.4482348272
 20
12.9348112931
 30
0.0
 10
17.4325267089
 20
12.9147000338
 30
0.0
 10
17.4162425963
 20
12.8944842525
 30
0.0
 10
17.3994453402
 20
12.8742362965
 30
0.0
 10
17.3821920242
 20
12.8540255838
 30
0.0
 10
17.3645380536
 20
12.8339238002
 30
0.0
 10
17.3525454982
 20
12.8206529712
 30
0.0
 10
17.3464907061
 20
12.8140504082
 30
0.0
  0
SPLINE
  5
863
100
AcDbEntity
  8
0
100
AcDbSpline
 62
7
  6
CONTINUOUS
 70
0
 71
3
 72
15
 73
11
 74
0
 42
0.0000001
 43
0.0000001
 44
0.0000000001
 40
0.0
 40
0.0
 40
0.0
 40
0.0
 40
0.1347563355
 40
0.2685580494
 40
0.4004605435
 40
0.5295343517
 40
0.6548758372
 40
0.7756135734
 40
0.8909162899
 40
1.0
 40
1.0
 40
1.0
 40
1.0
 10
16.0205798978
 20
13.4258698686
 30
0.0
 10
16.0205798978
 20
13.4159154811
 30
0.0
 10
16.0206633447
 20
13.3960771193
 30
0.0
 10
16.0210403179
 20
13.3664973332
 30
0.0
 10
16.0216719086
 20
13.3373416904
 30
0.0
 10
16.022562865
 20
13.308818012
 30
0.0
 10
16.0237193858
 20
13.2811292123
 30
0.0
 10
16.025148708
 20
13.2544716586
 30
0.0
 10
16.0268586228
 20
13.229034083
 30
0.0
 10
16.0282316994
 20
13.2125147267
 30
0.0
 10
16.0289770746
 20
13.2044913123
 30
0.0
  0
SPLINE
  5
864
100
AcDbEntity
  8
0
100
AcDbSpline
 62
7
  6
CONTINUOUS
 70
0
 71
3
 72
31
 73
27
 74
0
 42
0.0000001
 43
0.0000001
 44
0.0000000001
 40
0.0
 40
0.0
 40
0.0
 40
0.0
 40
0.1054495494
 40
0.2058867636
 40
0.301027897
 40
0.3906112288
 40
0.4744006611
 40
0.5521896006
 40
0.6238041197
 40
0.6891103492
 40
0.7193719578
 40
0.7480298538
 40
0.7750842829
 40
0.8005409119
 40
0.82441122
 40
0.8467157933
 40
0.8674850574
 40
0.8867613578
 40
0.9046040099
 40
0.9210924431
 40
0.9363314999
 40
0.9504590447
 40
0.9636511851
 40
0.9761266142
 40
0.988145717
 40
1.0
 40
1.0
 40
1.0
 40
1.0
 10
16.0289770746
 20
13.2044913123
 30
0.0
 10
16.0294459845
 20
13.1994438427
 30
0.0
 10
16.0304219094
 20
13.1895942795
 30
0.0
 10
16.0320530897
 20
13.1752148634
 30
0.0
 10
16.0338187799
 20
13.1616199764
 30
0.0
 10
16.0357200104
 20
13.1488517991
 30
0.0
 10
16.0377572727
 20
13.1369498846
 30
0.0
 10
16.039930272
 20
13.1259508834
 30
0.0
 10
16.0422382048
 20
13.1158888259
 30
0.0
 10
16.0443219126
 20
13.1081241444
 30
0.0
 10
16.0460701265
 20
13.1024133841
 30
0.0
 10
16.0473807269
 20
13.0984931862
 30
0.0
 10
16.0487237337
 20
13.0948289741
 30
0.0
 10
16.0500986737
 20
13.0914235052
 30
0.0
 10
16.0515051736
 20
13.0882793798
 30
0.0
 10
16.0529426385
 20
13.0853988783
 30
0.0
 10
16.0544104902
 20
13.0827840203
 30
0.0
 10
16.0559084038
 20
13.0804367066
 30
0.0
 10
16.0574358908
 20
13.0783584796
 30
0.0
 10
16.0589926824
 20
13.0765507143
 30
0.0
 10
16.0605789306
 20
13.0750149677
 30
0.0
 10
16.0621947302
 20
13.0737527841
 30
0.0
 10
16.0638402146
 20
13.0727662886
 30
0.0
 10
16.0655152595
 20
13.072058649
 30
0.0
 10
16.0672173275
 20
13.07163305
 30
0.0
 10
16.0683672202
 20
13.07153916
 30
0.0
 10
16.068937083
 20
13.07153916
 30
0.0
  0
SPLINE
  5
865
100
AcDbEntity
  8
0
100
AcDbSpline
 62
7
  6
CONTINUOUS
 70
0
 71
3
 72
11
 73
7
 74
0
 42
0.0000001
 43
0.0000001
 44
0.0000000001
 40
0.0
 40
0.0
 40
0.0
 40
0.0
 40
0.2311989079
 40
0.4747471656
 40
0.730937369
 40
1.0
 40
1.0
 40
1.0
 40
1.0
 10
16.1358023595
 20
11.5361060891
 30
0.0
 10
16.1446228138
 20
11.5430727275
 30
0.0
 10
16.1630911033
 20
11.5569313221
 30
0.0
 10
16.1924233785
 20
11.5770068236
 30
0.0
 10
16.2240835288
 20
11.5968871105
 30
0.0
 10
16.246187787
 20
11.6096839054
 30
0.0
 10
16.2576116506
 20
11.6160555705
 30
0.0
  0
SPLINE
  5
866
100
AcDbEntity
  8
0
100
AcDbSpline
 62
7
  6
CONTINUOUS
 70
0
 71
3
 72
27
 73
23
 74
0
 42
0.0000001
 43
0.0000001
 44
0.0000000001
 40
0.0
 40
0.0
 40
0.0
 40
0.0
 40
0.0072426718
 40
0.0151077448
 40
0.023579986
 40
0.0326384456
 40
0.0524093517
 40
0.0741969193
 40
0.0977621122
 40
0.1228836513
 40
0.1493580124
 40
0.177014931
 40
0.2352938034
 40
0.2967824854
 40
0.3608116663
 40
0.4268997262
 40
0.4946911107
 40
0.5639168776
 40
0.6343720558
 40
0.7058875704
 40
0.851559432
 40
1.0
 40
1.0
 40
1.0
 40
1.0
 10
16.2576116506
 20
11.6160555705
 30
0.0
 10
16.2580648042
 20
11.6163083172
 30
0.0
 10
16.2589912688
 20
11.6168695131
 30
0.0
 10
16.2603860279
 20
11.6178237026
 30
0.0
 10
16.2618398093
 20
11.6189185281
 30
0.0
 10
16.2639125563
 20
11.6206060413
 30
0.0
 10
16.2666134729
 20
11.6230286377
 30
0.0
 10
16.2699480559
 20
11.6262930158
 30
0.0
 10
16.2734422339
 20
11.6299383283
 30
0.0
 10
16.2770763247
 20
11.6339121467
 30
0.0
 10
16.2808352399
 20
11.6381677166
 30
0.0
 10
16.2860884242
 20
11.6442718469
 30
0.0
 10
16.2928654408
 20
11.652372993
 30
0.0
 10
16.3012262047
 20
11.6625454118
 30
0.0
 10
16.3099137731
 20
11.6731733432
 30
0.0
 10
16.3189034829
 20
11.6841374794
 30
0.0
 10
16.3281792673
 20
11.695348382
 30
0.0
 10
16.3377306945
 20
11.7067369378
 30
0.0
 10
16.3475492439
 20
11.7182491035
 30
0.0
 10
16.3610714689
 20
11.7337993609
 30
0.0
 10
16.3785756358
 20
11.7532890569
 30
0.0
 10
16.3930321522
 20
11.7686216563
 30
0.0
 10
16.4004275939
 20
11.7762635694
 30
0.0
  0
SPLINE
  5
867
100
AcDbEntity
  8
0
100
AcDbSpline
 62
7
  6
CONTINUOUS
 70
0
 71
3
 72
40
 73
36
 74
0
 42
0.0000001
 43
0.0000001
 44
0.0000000001
 40
0.0
 40
0.0
 40
0.0
 40
0.0
 40
0.0040963816
 40
0.0082314202
 40
0.0124836697
 40
0.0169252949
 40
0.0216193541
 40
0.0266187719
 40
0.031966884
 40
0.0376984134
 40
0.0438405755
 40
0.0504147201
 40
0.0574374707
 40
0.0649212261
 40
0.0728752427
 40
0.08130641
 40
0.0996147571
 40
0.119865364
 40
0.1420540201
 40
0.1661612663
 40
0.1921548476
 40
0.2199930987
 40
0.2496254932
 40
0.2809943267
 40
0.3140356179
 40
0.3486791333
 40
0.3848498771
 40
0.4224675657
 40
0.4614476853
 40
0.5431360826
 40
0.6291628521
 40
0.7187234868
 40
0.8109724557
 40
0.9050300277
 40
1.0
 40
1.0
 40
1.0
 40
1.0
 10
16.068937083
 20
13.7802005773
 30
0.0
 10
16.06843756
 20
13.7802005773
 30
0.0
 10
16.0674322891
 20
13.7801287858
 30
0.0
 10
16.0659402603
 20
13.7798033339
 30
0.0
 10
16.0644676816
 20
13.7792615458
 30
0.0
 10
16.0630164474
 20
13.7785050426
 30
0.0
 10
16.0615870964
 20
13.7775356654
 30
0.0
 10
16.0601797812
 20
13.7763549873
 30
0.0
 10
16.0587945811
 20
13.7749641113
 30
0.0
 10
16.0574316141
 20
13.7733640151
 30
0.0
 10
16.0560909276
 20
13.7715557532
 30
0.0
 10
16.0547727834
 20
13.7695402896
 30
0.0
 10
16.0534775887
 20
13.7673186533
 30
0.0
 10
16.0522056222
 20
13.7648921223
 30
0.0
 10
16.0509571746
 20
13.7622620721
 30
0.0
 10
16.0492782362
 20
13.7583780815
 30
0.0
 10
16.0472574861
 20
13.753012496
 30
0.0
 10
16.044993155
 20
13.7459569532
 30
0.0
 10
16.0428294748
 20
13.7381339026
 30
0.0
 10
16.040768244
 20
13.7295616898
 30
0.0
 10
16.0388105852
 20
13.7202602879
 30
0.0
 10
16.0369574346
 20
13.7102517069
 30
0.0
 10
16.0352090527
 20
13.6995597169
 30
0.0
 10
16.0335653936
 20
13.6882097769
 30
0.0
 10
16.0320260766
 20
13.6762289552
 30
0.0
 10
16.0305902821
 20
13.663645824
 30
0.0
 10
16.0292570934
 20
13.6504904304
 30
0.0
 10
16.0280251825
 20
13.6367941734
 30
0.0
 10
16.0264920533
 20
13.6175530654
 30
0.0
 10
16.0248417543
 20
13.5924008626
 30
0.0
 10
16.0232673135
 20
13.5610665578
 30
0.0
 10
16.0220577476
 20
13.5284274854
 30
0.0
 10
16.0212022884
 20
13.4947977469
 30
0.0
 10
16.0206925712
 20
13.4605014018
 30
0.0
 10
16.0205798978
 20
13.437450745
 30
0.0
 10
16.0205798978
 20
13.4258698686
 30
0.0
  0
SPLINE
  5
868
100
AcDbEntity
  8
0
100
AcDbSpline
 62
7
  6
CONTINUOUS
 70
0
 71
3
 72
11
 73
7
 74
0
 42
0.0000001
 43
0.0000001
 44
0.0000000001
 40
0.0
 40
0.0
 40
0.0
 40
0.0
 40
0.2499999967
 40
0.5000000019
 40
0.750000007
 40
1.0
 40
1.0
 40
1.0
 40
1.0
 10
16.4467767566
 20
11.8258376411
 30
0.0
 10
16.5214990165
 20
11.908419413
 30
0.0
 10
16.671052446
 20
12.0734844639
 30
0.0
 10
16.8957465449
 20
12.3207518134
 30
0.0
 10
17.1208474396
 20
12.567648924
 30
0.0
 10
17.2712190944
 20
12.7319690505
 30
0.0
 10
17.3464907061
 20
12.8140504082
 30
0.0
  0
SPLINE
  5
869
100
AcDbEntity
  8
0
100
AcDbSpline
 62
3
  6
CONTINUOUS
 70
0
 71
3
 72
18
 73
14
 74
0
 42
0.0000001
 43
0.0000001
 44
0.0000000001
 40
0.0
 40
0.0
 40
0.0
 40
0.0
 40
0.1645619426
 40
0.3187759023
 40
0.4608619982
 40
0.5901672849
 40
0.7068390613
 40
0.7608224598
 40
0.8121848211
 40
0.8612826206
 40
0.9085809196
 40
0.9546190538
 40
1.0
 40
1.0
 40
1.0
 40
1.0
 10
16.9510650936
 20
11.9158562356
 30
0.0
 10
16.9493551407
 20
11.9132950923
 30
0.0
 10
16.9462310709
 20
11.9082039401
 30
0.0
 10
16.9423709263
 20
11.9004782104
 30
0.0
 10
16.9395504997
 20
11.8930119787
 30
0.0
 10
16.9378158628
 20
11.885939738
 30
0.0
 10
16.9372952412
 20
11.8803214998
 30
0.0
 10
16.9374938574
 20
11.8761655365
 30
0.0
 10
16.9379259716
 20
11.8733021382
 30
0.0
 10
16.9386456131
 20
11.870625819
 30
0.0
 10
16.939648516
 20
11.8681485244
 30
0.0
 10
16.9409301409
 20
11.8658826722
 30
0.0
 10
16.9419709139
 20
11.8645168479
 30
0.0
 10
16.9425313032
 20
11.8638787587
 30
0.0
  0
SPLINE
  5
86A
100
AcDbEntity
  8
0
100
AcDbSpline
 62
3
  6
CONTINUOUS
 70
0
 71
3
 72
14
 73
10
 74
0
 42
0.0000001
 43
0.0000001
 44
0.0000000001
 40
0.0
 40
0.0
 40
0.0
 40
0.0
 40
0.1119272022
 40
0.2252892238
 40
0.3414572575
 40
0.4616868213
 40
0.5870397502
 40
0.7182567288
 40
1.0
 40
1.0
 40
1.0
 40
1.0
 10
19.3681102061
 20
13.1683724721
 30
0.0
 10
19.36758082
 20
13.1689752593
 30
0.0
 10
19.3664343439
 20
13.1701200441
 30
0.0
 10
19.3644896028
 20
13.1716161514
 30
0.0
 10
19.3623235472
 20
13.1728905146
 30
0.0
 10
19.3599452571
 20
13.1739370345
 30
0.0
 10
19.3573648691
 20
13.1747511931
 30
0.0
 10
19.3535843336
 20
13.1755452524
 30
0.0
 10
19.350613901
 20
13.1757541427
 30
0.0
 10
19.3485944812
 20
13.1757541427
 30
0.0
  0
SPLINE
  5
86B
100
AcDbEntity
  8
0
100
AcDbSpline
 62
3
  6
CONTINUOUS
 70
0
 71
3
 72
21
 73
17
 74
0
 42
0.0000001
 43
0.0000001
 44
0.0000000001
 40
0.0
 40
0.0
 40
0.0
 40
0.0
 40
0.0462315914
 40
0.0960458473
 40
0.1493137126
 40
0.2058389944
 40
0.2653712115
 40
0.3276121813
 40
0.3921829607
 40
0.4586473597
 40
0.5265476247
 40
0.59538819
 40
0.7338187661
 40
0.8700368676
 40
0.936083116
 40
1.0
 40
1.0
 40
1.0
 40
1.0
 10
18.4677896571
 20
11.8564970881
 30
0.0
 10
18.4695075674
 20
11.8564970881
 30
0.0
 10
18.4730782378
 20
11.8567111552
 30
0.0
 10
18.4785646474
 20
11.8575833043
 30
0.0
 10
18.4843274913
 20
11.8590124265
 30
0.0
 10
18.4903071445
 20
11.8609868272
 30
0.0
 10
18.496448974
 20
11.8634835007
 30
0.0
 10
18.5026949465
 20
11.8664817214
 30
0.0
 10
18.5089870771
 20
11.8699515582
 30
0.0
 10
18.5152657076
 20
11.8738594567
 30
0.0
 10
18.5214685223
 20
11.8781709582
 30
0.0
 10
18.5295744382
 20
11.8844090158
 30
0.0
 10
18.5391239702
 20
11.8929078246
 30
0.0
 10
18.5477561526
 20
11.9021984667
 30
0.0
 10
18.5539141937
 20
11.9099432855
 30
0.0
 10
18.5567153162
 20
11.9138809531
 30
0.0
 10
18.5580341179
 20
11.9158562356
 30
0.0
  0
SPLINE
  5
86C
100
AcDbEntity
  8
0
100
AcDbSpline
 62
3
  6
CONTINUOUS
 70
0
 71
3
 72
11
 73
7
 74
0
 42
0.0000001
 43
0.0000001
 44
0.0000000001
 40
0.0
 40
0.0
 40
0.0
 40
0.0
 40
0.242973054
 40
0.4888257255
 40
0.7403201904
 40
1.0
 40
1.0
 40
1.0
 40
1.0
 10
16.9425313032
 20
11.8638787587
 30
0.0
 10
16.9430400757
 20
11.8632994432
 30
0.0
 10
16.944138267
 20
11.8621972271
 30
0.0
 10
16.9459938674
 20
11.8607474585
 30
0.0
 10
16.9480542461
 20
11.8595020429
 30
0.0
 10
16.9495319738
 20
11.8588239555
 30
0.0
 10
16.9502977711
 20
11.858519702
 30
0.0
  0
SPLINE
  5
86D
100
AcDbEntity
  8
0
100
AcDbSpline
 62
3
  6
CONTINUOUS
 70
0
 71
3
 72
10
 73
6
 74
0
 42
0.0000001
 43
0.0000001
 44
0.0000000001
 40
0.0
 40
0.0
 40
0.0
 40
0.0
 40
0.2322515289
 40
0.6018281003
 40
1.0
 40
1.0
 40
1.0
 40
1.0
 10
16.9502977711
 20
11.858519702
 30
0.0
 10
16.9511600094
 20
11.8581771322
 30
0.0
 10
16.9534475747
 20
11.8574199395
 30
0.0
 10
16.9573852649
 20
11.8566677928
 30
0.0
 10
16.9604564119
 20
11.8564970881
 30
0.0
 10
16.9620470281
 20
11.8564970881
 30
0.0
  0
SPLINE
  5
86E
100
AcDbEntity
  8
0
100
AcDbSpline
 62
3
  6
CONTINUOUS
 70
0
 71
3
 72
15
 73
11
 74
0
 42
0.0000001
 43
0.0000001
 44
0.0000000001
 40
0.0
 40
0.0
 40
0.0
 40
0.0
 40
0.1523772277
 40
0.2981395577
 40
0.4362362555
 40
0.5659462915
 40
0.6870125473
 40
0.7994163154
 40
0.903499317
 40
1.0
 40
1.0
 40
1.0
 40
1.0
 10
19.3595764157
 20
13.1163949952
 30
0.0
 10
19.3608450315
 20
13.1182951101
 30
0.0
 10
19.3632218145
 20
13.122084811
 30
0.0
 10
19.3663471429
 20
13.1278356834
 30
0.0
 10
19.3689269827
 20
13.1334806512
 30
0.0
 10
19.3709305997
 20
13.1389633259
 30
0.0
 10
19.3723430749
 20
13.1442307139
 30
0.0
 10
19.3731477944
 20
13.1492381983
 30
0.0
 10
19.3733370614
 20
13.1539390354
 30
0.0
 10
19.3730389097
 20
13.1569454962
 30
0.0
 10
19.3727756882
 20
13.1583682509
 30
0.0
  0
SPLINE
  5
86F
100
AcDbEntity
  8
0
100
AcDbSpline
 62
3
  6
CONTINUOUS
 70
0
 71
3
 72
11
 73
7
 74
0
 42
0.0000001
 43
0.0000001
 44
0.0000000001
 40
0.0
 40
0.0
 40
0.0
 40
0.0
 40
0.2625655237
 40
0.5146013705
 40
0.7592357759
 40
1.0
 40
1.0
 40
1.0
 40
1.0
 10
19.3727756882
 20
13.1583682509
 30
0.0
 10
19.3725978984
 20
13.1593292342
 30
0.0
 10
19.3721414711
 20
13.1611951408
 30
0.0
 10
19.3711242034
 20
13.163840225
 30
0.0
 10
19.3697955462
 20
13.1662518777
 30
0.0
 10
19.3687015526
 20
13.1676991334
 30
0.0
 10
19.3681102061
 20
13.1683724721
 30
0.0
  0
ENDSEC
  0
SECTION
  2
OBJECTS
  0
DICTIONARY
  5
C
100
AcDbDictionary
280
0
281
1
  3
ACAD_GROUP
350
D
  3
ACAD_MLINESTYLE
350
17
  3
ACAD_LAYOUT
350
1A
  3
ACAD_PLOTSETTINGS
350
19
  3
ACAD_PLOTSTYLENAME
350
E
  0
DICTIONARY
  5
D
102
{ACAD_REACTORS
330
C
102
}
100
AcDbDictionary
280
0
281
1
  0
ACDBDICTIONARYWDFLT
  5
E
102
{ACAD_REACTORS
330
C
102
}
100
AcDbDictionary
281
1
  3
Normal
350
F
100
AcDbDictionaryWithDefault
340
F
  0
DICTIONARY
  5
17
102
{ACAD_REACTORS
330
C
102
}
100
AcDbDictionary
280
0
281
1
  3
Standard
350
18
  0
DICTIONARY
  5
19
102
{ACAD_REACTORS
330
C
102
}
100
AcDbDictionary
281
1
  0
DICTIONARY
  5
1A
102
{ACAD_REACTORS
330
C
102
}
100
AcDbDictionary
281
1
  3
Model
350
870
  3
Layout1
350
871
  0
ACDBPLACEHOLDER
  5
F
102
{ACAD_REACTORS
330
E
102
}
  0
MLINESTYLE
  5
18
102
{ACAD_REACTORS
330
17
102
}
100
AcDbMlineStyle
  2
STANDARD
 70
0
  3

 62
256
 51
90.0
 52
90.0
 71
2
 49
0.5
 62
256
  6
BYLAYER
 49
-0.5
 62
256
  6
BYLAYER
  0
LAYOUT
  5
870
102
{ACAD_REACTORS
330
1A
102
}
100
AcDbPlotSettings
  1

  2
none_device
  4

  6

 40
0.0
 41
0.0
 42
0.0
 43
0.0
 44
431.8
 45
279.4
 46
0.0
 47
0.0
 48
0.0
 49
0.0
140
0.0
141
0.0
142
1.0
143
1.0
 70
1024
 72
0
 73
0
 74
0
  7

 75
0
147
1.0
148
0.0
149
0.0
100
AcDbLayout
  1
Model
 70
0
 71
0
 10
0.0
 20
0.0
 11
17.0
 21
11.0
 12
0.0
 22
0.0
 32
0.0
 14
0.0
 24
0.0
 34
0.0
 15
0.0
 25
0.0
 35
0.0
146
0.0
 13
0.0
 23
0.0
 33
0.0
 16
1.0
 26
0.0
 36
0.0
 17
0.0
 27
1.0
 37
0.0
 76
0
330
214
345
0
346
0
  0
LAYOUT
  5
871
102
{ACAD_REACTORS
330
1A
102
}
100
AcDbPlotSettings
  1

  2
none_device
  4

  6

 40
0.0
 41
0.0
 42
0.0
 43
0.0
 44
431.8
 45
279.4
 46
0.0
 47
0.0
 48
0.0
 49
0.0
140
0.0
141
0.0
142
1.0
143
1.0
 70
0
 72
0
 73
0
 74
0
  7

 75
0
147
1.0
148
0.0
149
0.0
100
AcDbLayout
  1
Layout1
 70
0
 71
1
 10
0.0
 20
0.0
 11
17.0
 21
11.0
 12
0.0
 22
0.0
 32
0.0
 14
0.0
 24
0.0
 34
0.0
 15
0.0
 25
0.0
 35
0.0
146
0.0
 13
0.0
 23
0.0
 33
0.0
 16
1.0
 26
0.0
 36
0.0
 17
0.0
 27
1.0
 37
0.0
 76
0
330
215
345
0
346
0
  0
ENDSEC
  0
EOF
