999
DXF file: N:\Master\master\M3_ProE_files\Lenexa\MADAM DXF\411335.dxf
999
Pro/ENGINEER 2010280 by Parametric Technology Corporation
  0
SECTION
  2
HEADER
  9
$ACADVER
  1
AC1021
  9
$DWGCODEPAGE
  3
ANSI_1252
  9
$EXTMAX
 10
17.0
 20
11.0
 30
0.0
  9
$EXTMIN
 10
0.0
 20
-0.0
 30
0.0
  9
$LIMMIN
 10
0.0
 20
-0.0
  9
$LIMMAX
 10
17.0
 20
11.0
  9
$VIEWCTR
 10
8.5
 20
5.5
  9
$VIEWSIZE
 40
11.0
  9
$CLAYER
  8
0
  9
$LTSCALE
 40
0.935
  9
$CELTYPE
  6
BYLAYER
  9
$DIMSCALE
 40
1.0
  9
$DIMASZ
 40
0.125
  9
$DIMEXO
 40
0.10625
  9
$DIMDLI
 40
0.646
  9
$DIMEXE
 40
0.306
  9
$DIMCEN
 40
0.153
  9
$DIMLFAC
 40
1.0
  9
$DIMBLK
  1
_FILLED
  9
$DIMTXT
 40
0.125
  9
$DIMTOL
 70
1
  9
$DIMLIM
 70
0
  9
$DIMTFAC
 40
1.0
  9
$DIMTP
 40
0.01
  9
$DIMTM
 40
0.01
  9
$PDMODE
 70
3
  9
$PDSIZE
 40
0.3125
  9
$HANDSEED
  5
894
  9
$TILEMODE
 70
1
  9
$MEASUREMENT
 70
0
  9
$INSUNITS
 70
1
  0
ENDSEC
  0
SECTION
  2
CLASSES
  0
CLASS
  1
ACDBDICTIONARYWDFLT
  2
AcDbDictionaryWithDefault
  3
AutoCAD 2000
 90
0
 91
1
280
0
281
0
  0
CLASS
  1
ACDBPLACEHOLDER
  2
AcDbPlaceHolder
  3
AutoCAD 2000
 90
0
 91
1
280
0
281
0
  0
CLASS
  1
LAYOUT
  2
AcDbLayout
  3
AutoCAD 2000
 90
0
 91
0
280
0
281
0
  0
ENDSEC
  0
SECTION
  2
TABLES
  0
TABLE
  2
VPORT
  5
8
100
AcDbSymbolTable
 70
2
  0
VPORT
  5
1F4
100
AcDbSymbolTableRecord
100
AcDbViewportTableRecord
  2
*ACTIVE
 70
0
 10
0.0
 20
0.0
 11
1.0
 21
1.0
 12
8.5
 22
5.5
 13
0.0
 23
0.0
 14
1.0
 24
1.0
 15
0.0
 25
0.0
 16
0.0
 26
0.0
 36
1.0
 17
0.0
 27
0.0
 37
0.0
 40
11.0
 41
1.5454545455
 42
50.0
 43
0.0
 44
0.0
 50
0.0
 51
0.0
 71
0
 72
100
 73
1
 74
1
 75
0
 76
0
 77
0
 78
0
  0
ENDTAB
  0
TABLE
  2
LTYPE
  5
5
100
AcDbSymbolTable
 70
6
  0
LTYPE
  5
14
100
AcDbSymbolTableRecord
100
AcDbLinetypeTableRecord
  2
BYBLOCK
 70
0
  3

 72
65
 73
0
 40
0.0
  0
LTYPE
  5
15
100
AcDbSymbolTableRecord
100
AcDbLinetypeTableRecord
  2
BYLAYER
 70
0
  3

 72
65
 73
0
 40
0.0
  0
LTYPE
  5
16
100
AcDbSymbolTableRecord
100
AcDbLinetypeTableRecord
  2
CONTINUOUS
 70
64
  3
Solid line
 72
65
 73
0
 40
0.0
  0
LTYPE
  5
1F5
100
AcDbSymbolTableRecord
100
AcDbLinetypeTableRecord
  2
CENTER
 70
64
  3
____ _ ____ _ ____ _ ____ _ ____ _ ____ _ ____
 72
65
 73
4
 40
0.6
 49
0.375
 74
0
 49
-0.075
 74
0
 49
0.075
 74
0
 49
-0.075
 74
0
  0
LTYPE
  5
1F6
100
AcDbSymbolTableRecord
100
AcDbLinetypeTableRecord
  2
HIDDEN
 70
64
  3
- - - - - - - - - - - - - - - - - - - -
 72
65
 73
2
 40
0.2
 49
0.1
 74
0
 49
-0.1
 74
0
  0
LTYPE
  5
1F7
100
AcDbSymbolTableRecord
100
AcDbLinetypeTableRecord
  2
PHANTOM
 70
64
  3
_____ _ _ _____ _ _ _____ _ _ _____
 72
65
 73
6
 40
0.8
 49
0.45
 74
0
 49
-0.05
 74
0
 49
0.1
 74
0
 49
-0.05
 74
0
 49
0.1
 74
0
 49
-0.05
 74
0
  0
LTYPE
  5
1F8
100
AcDbSymbolTableRecord
100
AcDbLinetypeTableRecord
  2
DOT
 70
64
  3
. . . . . . . . . . . . . . . . . . . .
 72
65
 73
2
 40
0.2
 49
0.1
 74
0
 49
-0.1
 74
0
  0
LTYPE
  5
1F9
100
AcDbSymbolTableRecord
100
AcDbLinetypeTableRecord
  2
DASHED
 70
64
  3
- - - - - - - - - - - - - - - - - - - -
 72
65
 73
2
 40
0.2
 49
0.1
 74
0
 49
-0.1
 74
0
  0
ENDTAB
  0
TABLE
  2
LAYER
  5
2
100
AcDbSymbolTable
 70
36
  0
LAYER
  5
10
100
AcDbSymbolTableRecord
100
AcDbLayerTableRecord
  2
0
 70
0
 62
7
  6
CONTINUOUS
370
-3
390
F
  0
LAYER
  5
1FA
100
AcDbSymbolTableRecord
100
AcDbLayerTableRecord
  2
DEFAULT_1
 70
0
 62
7
  6
CENTER
370
-3
390
F
  0
LAYER
  5
1FB
100
AcDbSymbolTableRecord
100
AcDbLayerTableRecord
  2
DEFAULT_2
 70
0
 62
8
  6
HIDDEN
370
-3
390
F
  0
LAYER
  5
1FC
100
AcDbSymbolTableRecord
100
AcDbLayerTableRecord
  2
DEFAULT_3
 70
0
 62
7
  6
PHANTOM
370
-3
390
F
  0
LAYER
  5
1FD
100
AcDbSymbolTableRecord
100
AcDbLayerTableRecord
  2
01___PRT_ALL_DTM_PLN
 70
0
 62
7
  6
CONTINUOUS
370
-3
390
F
  0
LAYER
  5
1FE
100
AcDbSymbolTableRecord
100
AcDbLayerTableRecord
  2
01___PRT_DEF_DTM_PLN
 70
0
 62
7
  6
CONTINUOUS
370
-3
390
F
  0
LAYER
  5
1FF
100
AcDbSymbolTableRecord
100
AcDbLayerTableRecord
  2
02___PRT_ALL_AXES
 70
0
 62
7
  6
CONTINUOUS
370
-3
390
F
  0
LAYER
  5
200
100
AcDbSymbolTableRecord
100
AcDbLayerTableRecord
  2
03___PRT_ALL_CURVES
 70
0
 62
7
  6
CONTINUOUS
370
-3
390
F
  0
LAYER
  5
201
100
AcDbSymbolTableRecord
100
AcDbLayerTableRecord
  2
04___PRT_ALL_DTM_PNT
 70
0
 62
7
  6
CONTINUOUS
370
-3
390
F
  0
LAYER
  5
202
100
AcDbSymbolTableRecord
100
AcDbLayerTableRecord
  2
05___PRT_ALL_DTM_CSYS
 70
0
 62
7
  6
CONTINUOUS
370
-3
390
F
  0
LAYER
  5
203
100
AcDbSymbolTableRecord
100
AcDbLayerTableRecord
  2
05___PRT_DEF_DTM_CSYS
 70
0
 62
7
  6
CONTINUOUS
370
-3
390
F
  0
LAYER
  5
204
100
AcDbSymbolTableRecord
100
AcDbLayerTableRecord
  2
06___PRT_ALL_SURFS
 70
0
 62
7
  6
CONTINUOUS
370
-3
390
F
  0
LAYER
  5
205
100
AcDbSymbolTableRecord
100
AcDbLayerTableRecord
  2
1_ALL_PLANES
 70
0
 62
7
  6
CONTINUOUS
370
-3
390
F
  0
LAYER
  5
206
100
AcDbSymbolTableRecord
100
AcDbLayerTableRecord
  2
1__DEF_ASM_PLN
 70
0
 62
7
  6
CONTINUOUS
370
-3
390
F
  0
LAYER
  5
207
100
AcDbSymbolTableRecord
100
AcDbLayerTableRecord
  2
1__DEF_PLANES
 70
0
 62
7
  6
CONTINUOUS
370
-3
390
F
  0
LAYER
  5
208
100
AcDbSymbolTableRecord
100
AcDbLayerTableRecord
  2
2_ALL_CSYS
 70
0
 62
7
  6
CONTINUOUS
370
-3
390
F
  0
LAYER
  5
209
100
AcDbSymbolTableRecord
100
AcDbLayerTableRecord
  2
2__DEF_ASM_CSYS
 70
0
 62
7
  6
CONTINUOUS
370
-3
390
F
  0
LAYER
  5
20A
100
AcDbSymbolTableRecord
100
AcDbLayerTableRecord
  2
2__DEF_CSYS
 70
0
 62
7
  6
CONTINUOUS
370
-3
390
F
  0
LAYER
  5
20B
100
AcDbSymbolTableRecord
100
AcDbLayerTableRecord
  2
3_ALL_AXES
 70
0
 62
7
  6
CONTINUOUS
370
-3
390
F
  0
LAYER
  5
20C
100
AcDbSymbolTableRecord
100
AcDbLayerTableRecord
  2
4_ALL_POINTS
 70
0
 62
7
  6
CONTINUOUS
370
-3
390
F
  0
LAYER
  5
20D
100
AcDbSymbolTableRecord
100
AcDbLayerTableRecord
  2
5_ALL_CURVES
 70
0
 62
7
  6
CONTINUOUS
370
-3
390
F
  0
LAYER
  5
20E
100
AcDbSymbolTableRecord
100
AcDbLayerTableRecord
  2
6_ALL_SURFS
 70
0
 62
7
  6
CONTINUOUS
370
-3
390
F
  0
LAYER
  5
20F
100
AcDbSymbolTableRecord
100
AcDbLayerTableRecord
  2
COSMETIC
 70
0
 62
7
  6
CONTINUOUS
370
-3
390
F
  0
LAYER
  5
210
100
AcDbSymbolTableRecord
100
AcDbLayerTableRecord
  2
LAY0001
 70
0
 62
7
  6
CONTINUOUS
370
-3
390
F
  0
LAYER
  5
211
100
AcDbSymbolTableRecord
100
AcDbLayerTableRecord
  2
XSEC_DATUMS
 70
0
 62
7
  6
CONTINUOUS
370
-3
390
F
  0
ENDTAB
  0
TABLE
  2
STYLE
  5
3
100
AcDbSymbolTable
 70
1
  0
STYLE
  5
11
100
AcDbSymbolTableRecord
100
AcDbTextStyleTableRecord
  2
STANDARD
 70
0
 40
0.0
 41
0.8
 50
0.0
 71
0
 42
0.2
  3
txt
  4

  0
STYLE
  5
212
100
AcDbSymbolTableRecord
100
AcDbTextStyleTableRecord
  2
TEXTSTYLE_1
 70
0
 40
0.0
 41
0.8
 50
0.0
 71
0
 42
0.2
  3
gdt
  4

  0
ENDTAB
  0
TABLE
  2
VIEW
  5
6
100
AcDbSymbolTable
 70
0
  0
ENDTAB
  0
TABLE
  2
UCS
  5
7
100
AcDbSymbolTable
 70
0
  0
ENDTAB
  0
TABLE
  2
APPID
  5
9
100
AcDbSymbolTable
 70
1
  0
APPID
  5
213
100
AcDbSymbolTableRecord
100
AcDbRegAppTableRecord
  2
ACAD
 70
0
  0
ENDTAB
  0
TABLE
  2
BLOCK_RECORD
  5
1
100
AcDbSymbolTable
 70
0
  0
BLOCK_RECORD
  5
214
100
AcDbSymbolTableRecord
100
AcDbBlockTableRecord
  2
*Model_Space
  0
BLOCK_RECORD
  5
215
100
AcDbSymbolTableRecord
100
AcDbBlockTableRecord
  2
*Paper_Space
  0
ENDTAB
  0
TABLE
  2
DIMSTYLE
  5
A
100
AcDbSymbolTable
 70
1
100
AcDbDimStyleTable
 71
0
  0
DIMSTYLE
105
216
100
AcDbSymbolTableRecord
100
AcDbDimStyleTableRecord
  2
STANDARD
 70
0
  3

  4

 40
1.0
 41
0.125
 42
0.0625
 43
0.38
 44
0.18
 45
0.0
 46
0.0
 47
0.01
 48
0.01
140
0.125
141
0.09
142
0.0
143
25.4
144
1.0
145
0.0
146
1.0
147
0.09
 71
1.0
 72
0.0
 73
1
 74
1
 75
0
 76
0
 77
0
 78
4
170
0
171
2
172
0
173
0
174
0
175
0
176
0
177
0
178
0
270
2
271
2
272
2
273
2
274
2
275
0
280
0
281
0
282
0
283
1
284
4
285
0
286
0
287
3
288
0
340
11
  0
ENDTAB
  0
ENDSEC
  0
SECTION
  2
BLOCKS
  0
BLOCK
  5
20
100
AcDbEntity
  8
0
100
AcDbBlockBegin
  2
*Model_Space
 70
0
 10
0.0
 20
0.0
 30
0.0
  3
*Model_Space
  1

  0
ENDBLK
  5
21
100
AcDbEntity
  8
0
100
AcDbBlockEnd
  0
BLOCK
  5
1C
100
AcDbEntity
  8
0
100
AcDbBlockBegin
  2
*Paper_Space
 70
0
 10
0.0
 20
0.0
 30
0.0
  3
*Paper_Space
  1

  0
ENDBLK
  5
1D
100
AcDbEntity
  8
0
100
AcDbBlockEnd
  0
ENDSEC
  0
SECTION
  2
ENTITIES
  0
MTEXT
  5
217
100
AcDbEntity
  8
0
100
AcDbMText
 62
2
  6
CONTINUOUS
  7
STANDARD
 71
1
 72
1
 10
8.5256575411
 20
-4.9834746939
 30
0.0
 11
1.0
 21
0.0
 31
0.0
 44
0.9
  1
411335
 40
2.0
 41
9.6
  0
LINE
  5
218
100
AcDbEntity
  8
0
100
AcDbLine
 62
7
  6
CONTINUOUS
 10
-9.3323968819
 20
11.0643323095
 11
-9.3323968819
 21
9.7651197111
  0
LINE
  5
219
100
AcDbEntity
  8
0
100
AcDbLine
 62
7
  6
CONTINUOUS
 10
-9.2536567245
 20
9.7651197111
 11
-9.2536567245
 21
7.9802542159
  0
LINE
  5
21A
100
AcDbEntity
  8
0
100
AcDbLine
 62
7
  6
CONTINUOUS
 10
-9.2536567245
 20
11.0643323095
 11
-9.2536567245
 21
11.5159770101
  0
LINE
  5
21B
100
AcDbEntity
  8
0
100
AcDbLine
 62
7
  6
CONTINUOUS
 10
-0.5480268032
 20
5.2243716796
 11
-6.3692866457
 21
5.2243716796
  0
LINE
  5
21C
100
AcDbEntity
  8
0
100
AcDbLine
 62
7
  6
CONTINUOUS
 10
-6.5836567245
 20
6.3818519946
 11
-6.5781442245
 21
6.3768913647
  0
LINE
  5
21D
100
AcDbEntity
  8
0
100
AcDbLine
 62
7
  6
CONTINUOUS
 10
-6.5686567245
 20
6.3683536819
 11
-6.4086567245
 21
6.2243716796
  0
LINE
  5
21E
100
AcDbEntity
  8
0
100
AcDbLine
 62
7
  6
CONTINUOUS
 10
-6.5686567245
 20
14.5238339968
 11
-6.4086567245
 21
14.8301197111
  0
LINE
  5
21F
100
AcDbEntity
  8
0
100
AcDbLine
 62
7
  6
CONTINUOUS
 10
-0.5086567245
 20
6.2243716796
 11
-6.4086567245
 21
6.2243716796
  0
LINE
  5
220
100
AcDbEntity
  8
0
100
AcDbLine
 62
7
  6
CONTINUOUS
 10
-8.8312567135
 20
12.1651197111
 11
-6.5836567245
 21
13.1609095908
  0
LINE
  5
221
100
AcDbEntity
  8
0
100
AcDbLine
 62
7
  6
CONTINUOUS
 10
-6.5686567245
 20
6.3683536819
 11
-0.3486567245
 21
6.3683536819
  0
LINE
  5
222
100
AcDbEntity
  8
0
100
AcDbLine
 62
7
  6
CONTINUOUS
 10
-0.3391695778
 20
6.3768913647
 11
-6.5781438711
 21
6.3768913647
  0
LINE
  5
223
100
AcDbEntity
  8
0
100
AcDbLine
 62
7
  6
CONTINUOUS
 10
-0.3336567245
 20
6.3818519946
 11
-6.5836567245
 21
6.3818519946
  0
LINE
  5
224
100
AcDbEntity
  8
0
100
AcDbLine
 62
7
  6
CONTINUOUS
 10
-6.5836567245
 20
7.2715927986
 11
-6.5836567245
 21
6.3818519946
  0
LINE
  5
225
100
AcDbEntity
  8
0
100
AcDbLine
 62
7
  6
CONTINUOUS
 10
-6.5836567245
 20
13.1609095908
 11
-6.5836567245
 21
14.4951197111
  0
LINE
  5
226
100
AcDbEntity
  8
0
100
AcDbLine
 62
7
  6
CONTINUOUS
 10
-6.5686567245
 20
14.5238339968
 11
-6.5686567245
 21
14.4951197111
  0
LINE
  5
227
100
AcDbEntity
  8
0
100
AcDbLine
 62
7
  6
CONTINUOUS
 10
-6.5686567245
 20
6.3683536819
 11
-6.5686567245
 21
6.3768913647
  0
LINE
  5
228
100
AcDbEntity
  8
0
100
AcDbLine
 62
7
  6
CONTINUOUS
 10
1.6276818582
 20
7.2715927986
 11
-8.5449953071
 21
7.2715927986
  0
LINE
  5
229
100
AcDbEntity
  8
0
100
AcDbLine
 62
7
  6
CONTINUOUS
 10
-6.4086567245
 20
6.2243716796
 11
-6.4086567245
 21
5.2637417584
  0
LINE
  5
22A
100
AcDbEntity
  8
0
100
AcDbLine
 62
7
  6
CONTINUOUS
 10
-6.4086567245
 20
14.8301197111
 11
-6.4086567245
 21
15.7051197111
  0
LINE
  5
22B
100
AcDbEntity
  8
LAY0001
100
AcDbLine
 62
7
  6
CONTINUOUS
 10
-4.2513935395
 20
12.9731530573
 11
-4.2472719868
 21
12.9749194324
  0
LINE
  5
22C
100
AcDbEntity
  8
LAY0001
100
AcDbLine
 62
7
  6
CONTINUOUS
 10
-4.2472719868
 20
12.9855176829
 11
-4.2527673851
 21
12.9837513078
  0
LINE
  5
22D
100
AcDbEntity
  8
LAY0001
100
AcDbLine
 62
7
  6
CONTINUOUS
 10
-4.2335334673
 20
12.914862671
 11
-4.2390288814
 21
12.9130962959
  0
LINE
  5
22E
100
AcDbEntity
  8
LAY0001
100
AcDbLine
 62
7
  6
CONTINUOUS
 10
-4.2582627835
 20
12.9802185577
 11
-4.2637581897
 21
12.9731530573
  0
LINE
  5
22F
100
AcDbEntity
  8
LAY0001
100
AcDbLine
 62
7
  6
CONTINUOUS
 10
-4.2266642233
 20
12.9077971701
 11
-4.2211688092
 21
12.914862671
  0
LINE
  5
230
100
AcDbEntity
  8
LAY0001
100
AcDbLine
 62
7
  6
CONTINUOUS
 10
-4.2555150922
 20
12.9696203072
 11
-4.2513935395
 21
12.9731530573
  0
LINE
  5
231
100
AcDbEntity
  8
LAY0001
100
AcDbLine
 62
7
  6
CONTINUOUS
 10
-4.2294119146
 20
12.9183954224
 11
-4.2335334673
 21
12.914862671
  0
LINE
  5
232
100
AcDbEntity
  8
LAY0001
100
AcDbLine
 62
7
  6
CONTINUOUS
 10
-4.0411943365
 20
12.9183954224
 11
-4.0453158892
 21
12.914862671
  0
LINE
  5
233
100
AcDbEntity
  8
LAY0001
100
AcDbLine
 62
7
  6
CONTINUOUS
 10
-3.9683802494
 20
12.9731530573
 11
-3.9725018021
 21
12.9696203072
  0
LINE
  5
234
100
AcDbEntity
  8
LAY0001
100
AcDbLine
 62
7
  6
CONTINUOUS
 10
-3.9450247947
 20
12.914862671
 11
-3.940903242
 21
12.9183954224
  0
LINE
  5
235
100
AcDbEntity
  8
LAY0001
100
AcDbLine
 62
7
  6
CONTINUOUS
 10
-4.2527673851
 20
12.9837513078
 11
-4.2582627835
 21
12.9802185577
  0
LINE
  5
236
100
AcDbEntity
  8
LAY0001
100
AcDbLine
 62
7
  6
CONTINUOUS
 10
-4.2321596217
 20
12.9042644194
 11
-4.2266642233
 21
12.9077971701
  0
LINE
  5
237
100
AcDbEntity
  8
LAY0001
100
AcDbLine
 62
7
  6
CONTINUOUS
 10
-3.9752494934
 20
12.9802185577
 11
-3.9697541108
 21
12.9837513078
  0
LINE
  5
238
100
AcDbEntity
  8
LAY0001
100
AcDbLine
 62
7
  6
CONTINUOUS
 10
-4.0384466452
 20
12.9077971701
 11
-4.0439420592
 21
12.9042644194
  0
LINE
  5
239
100
AcDbEntity
  8
LAY0001
100
AcDbLine
 62
7
  6
CONTINUOUS
 10
-3.9381555192
 20
12.9077971701
 11
-3.9436509333
 21
12.9042644194
  0
LINE
  5
23A
100
AcDbEntity
  8
LAY0001
100
AcDbLine
 62
7
  6
CONTINUOUS
 10
-3.8200043525
 20
12.943124676
 11
-3.8145089699
 21
12.9466574262
  0
LINE
  5
23B
100
AcDbEntity
  8
LAY0001
100
AcDbLine
 62
7
  6
CONTINUOUS
 10
-3.5287479414
 20
12.9077971701
 11
-3.5342433869
 21
12.9042644194
  0
LINE
  5
23C
100
AcDbEntity
  8
LAY0001
100
AcDbLine
 62
7
  6
CONTINUOUS
 10
-3.9586567245
 20
12.8424819158
 11
-4.5196803465
 21
12.5668913647
  0
LINE
  5
23D
100
AcDbEntity
  8
LAY0001
100
AcDbLine
 62
7
  6
CONTINUOUS
 10
-3.8254997352
 20
12.9501901763
 11
-3.8213781825
 21
12.9519565514
  0
LINE
  5
23E
100
AcDbEntity
  8
LAY0001
100
AcDbLine
 62
7
  6
CONTINUOUS
 10
-3.9628848354
 20
12.9749194324
 11
-3.9683802494
 21
12.9731530573
  0
LINE
  5
23F
100
AcDbEntity
  8
LAY0001
100
AcDbLine
 62
7
  6
CONTINUOUS
 10
-4.0453158892
 20
12.914862671
 11
-4.0508113032
 21
12.9130962959
  0
LINE
  5
240
100
AcDbEntity
  8
LAY0001
100
AcDbLine
 62
7
  6
CONTINUOUS
 10
-3.9505201773
 20
12.9130962959
 11
-3.9450247947
 21
12.914862671
  0
LINE
  5
241
100
AcDbEntity
  8
LAY0001
100
AcDbLine
 62
7
  6
CONTINUOUS
 10
-3.5356172168
 20
12.914862671
 11
-3.5411125995
 21
12.9130962959
  0
LINE
  5
242
100
AcDbEntity
  8
0
100
AcDbLine
 62
7
  6
CONTINUOUS
 10
-5.2420562068
 20
13.6934136058
 11
-5.2420562068
 21
13.6335008258
  0
LINE
  5
243
100
AcDbEntity
  8
0
100
AcDbLine
 62
7
  6
CONTINUOUS
 10
-5.2420562068
 20
11.9394924254
 11
-5.2420562068
 21
13.6330601294
  0
LINE
  5
244
100
AcDbEntity
  8
0
100
AcDbLine
 62
7
  6
CONTINUOUS
 10
-5.0986567245
 20
13.7037529276
 11
-5.0986567245
 21
13.6438401476
  0
LINE
  5
245
100
AcDbEntity
  8
0
100
AcDbLine
 62
7
  6
CONTINUOUS
 10
-5.0986567245
 20
11.5159770101
 11
-5.0986567245
 21
13.5840173489
  0
LINE
  5
246
100
AcDbEntity
  8
0
100
AcDbLine
 62
7
  6
CONTINUOUS
 10
-5.0602067245
 20
13.7450942575
 11
-5.0602067245
 21
13.7538977301
  0
LINE
  5
247
100
AcDbEntity
  8
0
100
AcDbLine
 62
7
  6
CONTINUOUS
 10
-5.0302067245
 20
13.7538977301
 11
-5.0302067245
 21
13.7450942575
  0
LINE
  5
248
100
AcDbEntity
  8
LAY0001
100
AcDbLine
 62
7
  6
CONTINUOUS
 10
-4.2211688092
 20
12.914862671
 11
-4.2184211179
 21
12.9219281726
  0
LINE
  5
249
100
AcDbEntity
  8
LAY0001
100
AcDbLine
 62
7
  6
CONTINUOUS
 10
-4.3476896056
 20
12.2819417106
 11
-4.3460887315
 21
12.2854058278
  0
LINE
  5
24A
100
AcDbEntity
  8
LAY0001
100
AcDbLine
 62
7
  6
CONTINUOUS
 10
-4.3268782249
 20
12.2553835027
 11
-4.3284790989
 21
12.2519193888
  0
LINE
  5
24B
100
AcDbEntity
  8
LAY0001
100
AcDbLine
 62
7
  6
CONTINUOUS
 10
-4.2266642233
 20
12.9236945476
 11
-4.2294119146
 21
12.9183954224
  0
LINE
  5
24C
100
AcDbEntity
  8
LAY0001
100
AcDbLine
 62
7
  6
CONTINUOUS
 10
-4.0384466452
 20
12.9236945476
 11
-4.0411943365
 21
12.9183954224
  0
LINE
  5
24D
100
AcDbEntity
  8
LAY0001
100
AcDbLine
 62
7
  6
CONTINUOUS
 10
-3.9725018021
 20
12.9696203072
 11
-3.9752494934
 21
12.964321177
  0
LINE
  5
24E
100
AcDbEntity
  8
LAY0001
100
AcDbLine
 62
7
  6
CONTINUOUS
 10
-3.8145089699
 20
12.9466574262
 11
-3.8103874172
 21
12.9537229265
  0
LINE
  5
24F
100
AcDbEntity
  8
LAY0001
100
AcDbLine
 62
7
  6
CONTINUOUS
 10
-4.3508913582
 20
12.287715237
 11
-4.3476896056
 21
12.2923340555
  0
LINE
  5
250
100
AcDbEntity
  8
LAY0001
100
AcDbLine
 62
7
  6
CONTINUOUS
 10
-4.3236764722
 20
12.2496099787
 11
-4.3268782249
 21
12.2449911598
  0
LINE
  5
251
100
AcDbEntity
  8
LAY0001
100
AcDbLine
 62
7
  6
CONTINUOUS
 10
-4.0329512311
 20
12.914862671
 11
-4.0384466452
 21
12.9077971701
  0
LINE
  5
252
100
AcDbEntity
  8
LAY0001
100
AcDbLine
 62
7
  6
CONTINUOUS
 10
-3.9807449075
 20
12.9731530573
 11
-3.9752494934
 21
12.9802185577
  0
LINE
  5
253
100
AcDbEntity
  8
LAY0001
100
AcDbLine
 62
7
  6
CONTINUOUS
 10
-3.9326601366
 20
12.914862671
 11
-3.9381555192
 21
12.9077971701
  0
LINE
  5
254
100
AcDbEntity
  8
LAY0001
100
AcDbLine
 62
7
  6
CONTINUOUS
 10
-3.8213781825
 20
12.9519565514
 11
-3.8186305226
 21
12.9554893016
  0
LINE
  5
255
100
AcDbEntity
  8
LAY0001
100
AcDbLine
 62
7
  6
CONTINUOUS
 10
-3.5232525588
 20
12.914862671
 11
-3.5287479414
 21
12.9077971701
  0
LINE
  5
256
100
AcDbEntity
  8
LAY0001
100
AcDbLine
 62
7
  6
CONTINUOUS
 10
-4.3460887315
 20
12.2854058278
 11
-4.3436874182
 21
12.287715237
  0
LINE
  5
257
100
AcDbEntity
  8
LAY0001
100
AcDbLine
 62
7
  6
CONTINUOUS
 10
-4.3284790989
 20
12.2519193888
 11
-4.3308804122
 21
12.2496099787
  0
LINE
  5
258
100
AcDbEntity
  8
LAY0001
100
AcDbLine
 62
7
  6
CONTINUOUS
 10
-3.8666264906
 20
12.287715237
 11
-3.8690278039
 21
12.2854058278
  0
LINE
  5
259
100
AcDbEntity
  8
LAY0001
100
AcDbLine
 62
7
  6
CONTINUOUS
 10
-3.8530190728
 20
12.2496099787
 11
-3.8506177595
 21
12.2519193888
  0
LINE
  5
25A
100
AcDbEntity
  8
LAY0001
100
AcDbLine
 62
7
  6
CONTINUOUS
 10
-3.7425586229
 20
12.2854058278
 11
-3.7401573095
 21
12.287715237
  0
LINE
  5
25B
100
AcDbEntity
  8
LAY0001
100
AcDbLine
 62
7
  6
CONTINUOUS
 10
-3.5314956642
 20
12.9183954224
 11
-3.5356172168
 21
12.914862671
  0
LINE
  5
25C
100
AcDbEntity
  8
LAY0001
100
AcDbLine
 62
7
  6
CONTINUOUS
 10
-4.3476896056
 20
12.2923340555
 11
-4.3444878575
 21
12.2946434648
  0
LINE
  5
25D
100
AcDbEntity
  8
LAY0001
100
AcDbLine
 62
7
  6
CONTINUOUS
 10
-4.3268782249
 20
12.2449911598
 11
-4.3300799775
 21
12.2426817503
  0
LINE
  5
25E
100
AcDbEntity
  8
LAY0001
100
AcDbLine
 62
7
  6
CONTINUOUS
 10
-3.8706286917
 20
12.2923340555
 11
-3.8674269528
 21
12.2946434648
  0
LINE
  5
25F
100
AcDbEntity
  8
LAY0001
100
AcDbLine
 62
7
  6
CONTINUOUS
 10
-3.8490168717
 20
12.2449911598
 11
-3.8522186106
 21
12.2426817503
  0
LINE
  5
260
100
AcDbEntity
  8
LAY0001
100
AcDbLine
 62
7
  6
CONTINUOUS
 10
-3.7409577717
 20
12.2946434648
 11
-3.7441595473
 21
12.2923340555
  0
LINE
  5
261
100
AcDbEntity
  8
LAY0001
100
AcDbLine
 62
7
  6
CONTINUOUS
 10
-3.7289512051
 20
12.2426817503
 11
-3.7257494295
 21
12.2449911598
  0
LINE
  5
262
100
AcDbEntity
  8
LAY0001
100
AcDbLine
 62
7
  6
CONTINUOUS
 10
-3.6096860007
 20
12.2426817503
 11
-3.6064842251
 21
12.2449911598
  0
LINE
  5
263
100
AcDbEntity
  8
LAY0001
100
AcDbLine
 62
7
  6
CONTINUOUS
 10
-3.7401573095
 20
12.287715237
 11
-3.7377559962
 21
12.2888699416
  0
LINE
  5
264
100
AcDbEntity
  8
LAY0001
100
AcDbLine
 62
7
  6
CONTINUOUS
 10
-4.3436874182
 20
12.287715237
 11
-4.3404856656
 21
12.2888699416
  0
LINE
  5
265
100
AcDbEntity
  8
LAY0001
100
AcDbLine
 62
7
  6
CONTINUOUS
 10
-4.3308804122
 20
12.2496099787
 11
-4.3340821649
 21
12.2484552741
  0
LINE
  5
266
100
AcDbEntity
  8
LAY0001
100
AcDbLine
 62
7
  6
CONTINUOUS
 10
-3.8634247517
 20
12.2888699416
 11
-3.8666264906
 21
12.287715237
  0
LINE
  5
267
100
AcDbEntity
  8
LAY0001
100
AcDbLine
 62
7
  6
CONTINUOUS
 10
-3.7377559962
 20
12.2957981694
 11
-3.7409577717
 21
12.2946434648
  0
LINE
  5
268
100
AcDbEntity
  8
LAY0001
100
AcDbLine
 62
7
  6
CONTINUOUS
 10
-3.8562208117
 20
12.2484552741
 11
-3.8530190728
 21
12.2496099787
  0
LINE
  5
269
100
AcDbEntity
  8
LAY0001
100
AcDbLine
 62
7
  6
CONTINUOUS
 10
-3.7297516673
 20
12.2496099787
 11
-3.7329533695
 21
12.2484552741
  0
LINE
  5
26A
100
AcDbEntity
  8
LAY0001
100
AcDbLine
 62
7
  6
CONTINUOUS
 10
-3.6104863896
 20
12.2496099787
 11
-3.6136881651
 21
12.2484552741
  0
LINE
  5
26B
100
AcDbEntity
  8
LAY0001
100
AcDbLine
 62
7
  6
CONTINUOUS
 10
-4.3444878575
 20
12.2946434648
 11
-4.3404856656
 21
12.2957981694
  0
LINE
  5
26C
100
AcDbEntity
  8
LAY0001
100
AcDbLine
 62
7
  6
CONTINUOUS
 10
-4.3300799775
 20
12.2426817503
 11
-4.3340821649
 21
12.2415270456
  0
LINE
  5
26D
100
AcDbEntity
  8
LAY0001
100
AcDbLine
 62
7
  6
CONTINUOUS
 10
-3.8674269528
 20
12.2946434648
 11
-3.8634247517
 21
12.2957981694
  0
LINE
  5
26E
100
AcDbEntity
  8
LAY0001
100
AcDbLine
 62
7
  6
CONTINUOUS
 10
-3.8522186106
 20
12.2426817503
 11
-3.8562208117
 21
12.2415270456
  0
LINE
  5
26F
100
AcDbEntity
  8
LAY0001
100
AcDbLine
 62
7
  6
CONTINUOUS
 10
-3.7329533695
 20
12.2415270456
 11
-3.7289512051
 21
12.2426817503
  0
LINE
  5
270
100
AcDbEntity
  8
LAY0001
100
AcDbLine
 62
7
  6
CONTINUOUS
 10
-3.6136881651
 20
12.2415270456
 11
-3.6096860007
 21
12.2426817503
  0
LINE
  5
271
100
AcDbEntity
  8
0
100
AcDbLine
 62
7
  6
CONTINUOUS
 10
-4.7420562068
 20
13.6043700484
 11
-4.7420562068
 21
13.5839273676
  0
LINE
  5
272
100
AcDbEntity
  8
0
100
AcDbLine
 62
7
  6
CONTINUOUS
 10
-4.5950939079
 20
11.9842983835
 11
-4.5950939079
 21
13.1841996868
  0
LINE
  5
273
100
AcDbEntity
  8
1_ALL_PLANES
100
AcDbLine
 62
7
  6
CONTINUOUS
 10
-4.5836567245
 20
12.0218913647
 11
-4.5836567245
 21
13.1122785553
  0
LINE
  5
274
100
AcDbEntity
  8
LAY0001
100
AcDbLine
 62
7
  6
CONTINUOUS
 10
-4.4809121714
 20
12.3128211503
 11
-4.4809121714
 21
12.5379414427
  0
LINE
  5
275
100
AcDbEntity
  8
0
100
AcDbLine
 62
7
  6
CONTINUOUS
 10
-4.4586567245
 20
9.8438598536
 11
-4.4586567245
 21
10.6863795686
  0
LINE
  5
276
100
AcDbEntity
  8
LAY0001
100
AcDbLine
 62
7
  6
CONTINUOUS
 10
-4.3532926715
 20
12.2773228922
 11
-4.3524922322
 21
12.2830964185
  0
LINE
  5
277
100
AcDbEntity
  8
LAY0001
100
AcDbLine
 62
7
  6
CONTINUOUS
 10
-4.3212751589
 20
12.2600023212
 11
-4.3220755982
 21
12.254228798
  0
LINE
  5
278
100
AcDbEntity
  8
LAY0001
100
AcDbLine
 62
7
  6
CONTINUOUS
 10
-4.3484900449
 20
12.2773228922
 11
-4.3476896056
 21
12.2819417106
  0
LINE
  5
279
100
AcDbEntity
  8
LAY0001
100
AcDbLine
 62
7
  6
CONTINUOUS
 10
-4.3260777856
 20
12.2600023212
 11
-4.3268782249
 21
12.2553835027
  0
LINE
  5
27A
100
AcDbEntity
  8
LAY0001
100
AcDbLine
 62
7
  6
CONTINUOUS
 10
-4.2637581897
 20
12.9731530573
 11
-4.2651320432
 21
12.966087557
  0
LINE
  5
27B
100
AcDbEntity
  8
LAY0001
100
AcDbLine
 62
7
  6
CONTINUOUS
 10
-4.0370727838
 20
12.930760048
 11
-4.0384466452
 21
12.9236945476
  0
LINE
  5
27C
100
AcDbEntity
  8
LAY0001
100
AcDbLine
 62
7
  6
CONTINUOUS
 10
-3.9752494934
 20
12.964321177
 11
-3.9766233548
 21
12.9572556767
  0
LINE
  5
27D
100
AcDbEntity
  8
LAY0001
100
AcDbLine
 62
7
  6
CONTINUOUS
 10
-4.1643893621
 20
12.2957981694
 11
-4.1771963544
 21
12.2415270456
  0
LINE
  5
27E
100
AcDbEntity
  8
LAY0001
100
AcDbLine
 62
7
  6
CONTINUOUS
 10
-4.1803981116
 20
12.2484552741
 11
-4.1691919888
 21
12.2957981694
  0
LINE
  5
27F
100
AcDbEntity
  8
LAY0001
100
AcDbLine
 62
7
  6
CONTINUOUS
 10
-4.2956611515
 20
12.2473005695
 11
-4.2836545849
 21
12.2957981694
  0
LINE
  5
280
100
AcDbEntity
  8
LAY0001
100
AcDbLine
 62
7
  6
CONTINUOUS
 10
-4.2568889378
 20
12.964321177
 11
-4.2555150922
 21
12.9696203072
  0
LINE
  5
281
100
AcDbEntity
  8
LAY0001
100
AcDbLine
 62
7
  6
CONTINUOUS
 10
-3.940903242
 20
12.9183954224
 11
-3.9395293806
 21
12.9236945476
  0
LINE
  5
282
100
AcDbEntity
  8
LAY0001
100
AcDbLine
 62
7
  6
CONTINUOUS
 10
-4.2812532715
 20
12.2842511231
 11
-4.2924594035
 21
12.2415270456
  0
LINE
  5
283
100
AcDbEntity
  8
LAY0001
100
AcDbLine
 62
7
  6
CONTINUOUS
 10
-4.3524922322
 20
12.2830964185
 11
-4.3508913582
 21
12.287715237
  0
LINE
  5
284
100
AcDbEntity
  8
LAY0001
100
AcDbLine
 62
7
  6
CONTINUOUS
 10
-4.3220755982
 20
12.254228798
 11
-4.3236764722
 21
12.2496099787
  0
LINE
  5
285
100
AcDbEntity
  8
LAY0001
100
AcDbLine
 62
7
  6
CONTINUOUS
 10
-3.8754313184
 20
12.2830964185
 11
-3.8738304306
 21
12.287715237
  0
LINE
  5
286
100
AcDbEntity
  8
LAY0001
100
AcDbLine
 62
7
  6
CONTINUOUS
 10
-4.0302035398
 20
12.9219281726
 11
-4.0329512311
 21
12.914862671
  0
LINE
  5
287
100
AcDbEntity
  8
LAY0001
100
AcDbLine
 62
7
  6
CONTINUOUS
 10
-3.9834925988
 20
12.966087557
 11
-3.9807449075
 21
12.9731530573
  0
LINE
  5
288
100
AcDbEntity
  8
LAY0001
100
AcDbLine
 62
7
  6
CONTINUOUS
 10
-4.0178388817
 20
12.9236945476
 11
-3.9999788096
 21
12.9678539321
  0
LINE
  5
289
100
AcDbEntity
  8
LAY0001
100
AcDbLine
 62
7
  6
CONTINUOUS
 10
-3.9958572569
 20
12.964321177
 11
-4.013717329
 21
12.9201617975
  0
LINE
  5
28A
100
AcDbEntity
  8
LAY0001
100
AcDbLine
 62
7
  6
CONTINUOUS
 10
-3.8690278039
 20
12.2854058278
 11
-3.8706286917
 21
12.2819417106
  0
LINE
  5
28B
100
AcDbEntity
  8
LAY0001
100
AcDbLine
 62
7
  6
CONTINUOUS
 10
-3.7257494295
 20
12.2553835027
 11
-3.727350354
 21
12.2519193888
  0
LINE
  5
28C
100
AcDbEntity
  8
LAY0001
100
AcDbLine
 62
7
  6
CONTINUOUS
 10
-3.5287479414
 20
12.9236945476
 11
-3.5314956642
 21
12.9183954224
  0
LINE
  5
28D
100
AcDbEntity
  8
LAY0001
100
AcDbLine
 62
7
  6
CONTINUOUS
 10
-3.6497452808
 20
12.5379414427
 11
-3.8008665404
 21
12.3128211503
  0
LINE
  5
28E
100
AcDbEntity
  8
LAY0001
100
AcDbLine
 62
7
  6
CONTINUOUS
 10
-3.8386468553
 20
12.3415599193
 11
-3.7064157625
 21
12.5379414427
  0
LINE
  5
28F
100
AcDbEntity
  8
LAY0001
100
AcDbLine
 62
7
  6
CONTINUOUS
 10
-3.8738304306
 20
12.287715237
 11
-3.8706286917
 21
12.2923340555
  0
LINE
  5
290
100
AcDbEntity
  8
LAY0001
100
AcDbLine
 62
7
  6
CONTINUOUS
 10
-3.8458151328
 20
12.2496099787
 11
-3.8490168717
 21
12.2449911598
  0
LINE
  5
291
100
AcDbEntity
  8
LAY0001
100
AcDbLine
 62
7
  6
CONTINUOUS
 10
-3.7441595473
 20
12.2923340555
 11
-3.7473612495
 21
12.287715237
  0
LINE
  5
292
100
AcDbEntity
  8
LAY0001
100
AcDbLine
 62
7
  6
CONTINUOUS
 10
-3.7257494295
 20
12.2449911598
 11
-3.7225477273
 21
12.2496099787
  0
LINE
  5
293
100
AcDbEntity
  8
LAY0001
100
AcDbLine
 62
7
  6
CONTINUOUS
 10
-3.6064842251
 20
12.2449911598
 11
-3.6032824496
 21
12.2496099787
  0
LINE
  5
294
100
AcDbEntity
  8
LAY0001
100
AcDbLine
 62
7
  6
CONTINUOUS
 10
-3.727350354
 20
12.2519193888
 11
-3.7297516673
 21
12.2496099787
  0
LINE
  5
295
100
AcDbEntity
  8
LAY0001
100
AcDbLine
 62
7
  6
CONTINUOUS
 10
-3.6080850763
 20
12.2519193888
 11
-3.6104863896
 21
12.2496099787
  0
LINE
  5
296
100
AcDbEntity
  8
03___PRT_ALL_CURVES
100
AcDbLine
 62
4
  6
CONTINUOUS
 10
-1.0279334396
 20
12.8684019234
 11
-1.0268780156
 21
12.8688587049
  0
LINE
  5
297
100
AcDbEntity
  8
03___PRT_ALL_CURVES
100
AcDbLine
 62
4
  6
CONTINUOUS
 10
-0.8643232395
 20
12.862463763
 11
-0.8632678155
 21
12.8629205445
  0
LINE
  5
298
100
AcDbEntity
  8
03___PRT_ALL_CURVES
100
AcDbLine
 62
4
  6
CONTINUOUS
 10
-0.8868564097
 20
12.8277231854
 11
-0.8858009857
 21
12.8281799668
  0
LINE
  5
299
100
AcDbEntity
  8
LAY0001
100
AcDbLine
 62
7
  6
CONTINUOUS
 10
-4.4242416897
 20
12.5379414427
 11
-4.4242416897
 21
12.446935365
  0
LINE
  5
29A
100
AcDbEntity
  8
LAY0001
100
AcDbLine
 62
7
  6
CONTINUOUS
 10
-4.4242416897
 20
12.4181966054
 11
-4.4242416897
 21
12.3128211503
  0
LINE
  5
29B
100
AcDbEntity
  8
LAY0001
100
AcDbLine
 62
7
  6
CONTINUOUS
 10
-4.3929001766
 20
12.9766858075
 11
-4.3929001766
 21
12.9855176829
  0
LINE
  5
29C
100
AcDbEntity
  8
LAY0001
100
AcDbLine
 62
7
  6
CONTINUOUS
 10
-4.3917136848
 20
12.2415270456
 11
-4.3917136848
 21
12.2957981694
  0
LINE
  5
29D
100
AcDbEntity
  8
LAY0001
100
AcDbLine
 62
7
  6
CONTINUOUS
 10
-4.3869110582
 20
12.2957981694
 11
-4.3869110582
 21
12.2738587783
  0
LINE
  5
29E
100
AcDbEntity
  8
LAY0001
100
AcDbLine
 62
7
  6
CONTINUOUS
 10
-4.3869110582
 20
12.2669305505
 11
-4.3869110582
 21
12.2415270456
  0
LINE
  5
29F
100
AcDbEntity
  8
LAY0001
100
AcDbLine
 62
7
  6
CONTINUOUS
 10
-4.3709185616
 20
12.9024980442
 11
-4.3709185616
 21
12.9766858075
  0
LINE
  5
2A0
100
AcDbEntity
  8
LAY0001
100
AcDbLine
 62
7
  6
CONTINUOUS
 10
-4.3644988012
 20
12.2415270456
 11
-4.3644988012
 21
12.2669305505
  0
LINE
  5
2A1
100
AcDbEntity
  8
LAY0001
100
AcDbLine
 62
7
  6
CONTINUOUS
 10
-4.3644988012
 20
12.2738587783
 11
-4.3644988012
 21
12.2957981694
  0
LINE
  5
2A2
100
AcDbEntity
  8
LAY0001
100
AcDbLine
 62
7
  6
CONTINUOUS
 10
-4.3626754562
 20
12.9766858075
 11
-4.3626754562
 21
12.9024980442
  0
LINE
  5
2A3
100
AcDbEntity
  8
LAY0001
100
AcDbLine
 62
7
  6
CONTINUOUS
 10
-4.3596961745
 20
12.2957981694
 11
-4.3596961745
 21
12.2415270456
  0
LINE
  5
2A4
100
AcDbEntity
  8
LAY0001
100
AcDbLine
 62
7
  6
CONTINUOUS
 10
-4.3532926715
 20
12.2600023212
 11
-4.3532926715
 21
12.2773228922
  0
LINE
  5
2A5
100
AcDbEntity
  8
LAY0001
100
AcDbLine
 62
7
  6
CONTINUOUS
 10
-4.3484900449
 20
12.2600023212
 11
-4.3484900449
 21
12.2773228922
  0
LINE
  5
2A6
100
AcDbEntity
  8
LAY0001
100
AcDbLine
 62
7
  6
CONTINUOUS
 10
-4.3406938412
 20
12.9855176829
 11
-4.3406938412
 21
12.9766858075
  0
LINE
  5
2A7
100
AcDbEntity
  8
LAY0001
100
AcDbLine
 62
7
  6
CONTINUOUS
 10
-4.3297030367
 20
12.9024980442
 11
-4.3297030367
 21
12.9855176829
  0
LINE
  5
2A8
100
AcDbEntity
  8
LAY0001
100
AcDbLine
 62
7
  6
CONTINUOUS
 10
-4.3260777856
 20
12.2773228922
 11
-4.3260777856
 21
12.2600023212
  0
LINE
  5
2A9
100
AcDbEntity
  8
LAY0001
100
AcDbLine
 62
7
  6
CONTINUOUS
 10
-4.3214599274
 20
12.9749194324
 11
-4.3214599274
 21
12.9519565514
  0
LINE
  5
2AA
100
AcDbEntity
  8
LAY0001
100
AcDbLine
 62
7
  6
CONTINUOUS
 10
-4.3214599274
 20
12.9413583009
 11
-4.3214599274
 21
12.9130962959
  0
LINE
  5
2AB
100
AcDbEntity
  8
LAY0001
100
AcDbLine
 62
7
  6
CONTINUOUS
 10
-4.3212751589
 20
12.2773228922
 11
-4.3212751589
 21
12.2600023212
  0
LINE
  5
2AC
100
AcDbEntity
  8
LAY0001
100
AcDbLine
 62
7
  6
CONTINUOUS
 10
-4.3148716582
 20
12.2415270456
 11
-4.3148716582
 21
12.2957981694
  0
LINE
  5
2AD
100
AcDbEntity
  8
LAY0001
100
AcDbLine
 62
7
  6
CONTINUOUS
 10
-4.3100690315
 20
12.2842511231
 11
-4.3100690315
 21
12.2415270456
  0
LINE
  5
2AE
100
AcDbEntity
  8
LAY0001
100
AcDbLine
 62
7
  6
CONTINUOUS
 10
-4.2857398066
 20
12.9519565514
 11
-4.2857398066
 21
12.9413583009
  0
LINE
  5
2AF
100
AcDbEntity
  8
LAY0001
100
AcDbLine
 62
7
  6
CONTINUOUS
 10
-4.2812532715
 20
12.2415270456
 11
-4.2812532715
 21
12.2842511231
  0
LINE
  5
2B0
100
AcDbEntity
  8
LAY0001
100
AcDbLine
 62
7
  6
CONTINUOUS
 10
-4.2802444004
 20
12.9855176829
 11
-4.2802444004
 21
12.9749194324
  0
LINE
  5
2B1
100
AcDbEntity
  8
LAY0001
100
AcDbLine
 62
7
  6
CONTINUOUS
 10
-4.2802444004
 20
12.9130962959
 11
-4.2802444004
 21
12.9024980442
  0
LINE
  5
2B2
100
AcDbEntity
  8
LAY0001
100
AcDbLine
 62
7
  6
CONTINUOUS
 10
-4.2764506449
 20
12.2957981694
 11
-4.2764506449
 21
12.2415270456
  0
LINE
  5
2B3
100
AcDbEntity
  8
LAY0001
100
AcDbLine
 62
7
  6
CONTINUOUS
 10
-4.2700471396
 20
12.2415270456
 11
-4.2700471396
 21
12.2957981694
  0
LINE
  5
2B4
100
AcDbEntity
  8
LAY0001
100
AcDbLine
 62
7
  6
CONTINUOUS
 10
-4.2652445129
 20
12.2888699416
 11
-4.2652445129
 21
12.2738587783
  0
LINE
  5
2B5
100
AcDbEntity
  8
LAY0001
100
AcDbLine
 62
7
  6
CONTINUOUS
 10
-4.2652445129
 20
12.2669305505
 11
-4.2652445129
 21
12.2484552741
  0
LINE
  5
2B6
100
AcDbEntity
  8
LAY0001
100
AcDbLine
 62
7
  6
CONTINUOUS
 10
-4.2651320432
 20
12.966087557
 11
-4.2651320432
 21
12.9590220517
  0
LINE
  5
2B7
100
AcDbEntity
  8
LAY0001
100
AcDbLine
 62
7
  6
CONTINUOUS
 10
-4.2568889378
 20
12.9607884268
 11
-4.2568889378
 21
12.964321177
  0
LINE
  5
2B8
100
AcDbEntity
  8
LAY0001
100
AcDbLine
 62
7
  6
CONTINUOUS
 10
-4.2444331368
 20
12.2738587783
 11
-4.2444331368
 21
12.2669305505
  0
LINE
  5
2B9
100
AcDbEntity
  8
LAY0001
100
AcDbLine
 62
7
  6
CONTINUOUS
 10
-4.2412313796
 20
12.2957981694
 11
-4.2412313796
 21
12.2888699416
  0
LINE
  5
2BA
100
AcDbEntity
  8
LAY0001
100
AcDbLine
 62
7
  6
CONTINUOUS
 10
-4.2412313796
 20
12.2484552741
 11
-4.2412313796
 21
12.2415270456
  0
LINE
  5
2BB
100
AcDbEntity
  8
LAY0001
100
AcDbLine
 62
7
  6
CONTINUOUS
 10
-4.2266642233
 20
12.9289936729
 11
-4.2266642233
 21
12.9236945476
  0
LINE
  5
2BC
100
AcDbEntity
  8
LAY0001
100
AcDbLine
 62
7
  6
CONTINUOUS
 10
-4.2184211179
 20
12.9219281726
 11
-4.2184211179
 21
12.930760048
  0
LINE
  5
2BD
100
AcDbEntity
  8
LAY0001
100
AcDbLine
 62
7
  6
CONTINUOUS
 10
-4.2074303055
 20
12.9766858075
 11
-4.2074303055
 21
12.9855176829
  0
LINE
  5
2BE
100
AcDbEntity
  8
LAY0001
100
AcDbLine
 62
7
  6
CONTINUOUS
 10
-4.1854486964
 20
12.9024980442
 11
-4.1854486964
 21
12.9766858075
  0
LINE
  5
2BF
100
AcDbEntity
  8
LAY0001
100
AcDbLine
 62
7
  6
CONTINUOUS
 10
-4.177205591
 20
12.9766858075
 11
-4.177205591
 21
12.9024980442
  0
LINE
  5
2C0
100
AcDbEntity
  8
LAY0001
100
AcDbLine
 62
7
  6
CONTINUOUS
 10
-4.159779504
 20
12.3128211503
 11
-4.159779504
 21
12.4181966054
  0
LINE
  5
2C1
100
AcDbEntity
  8
LAY0001
100
AcDbLine
 62
7
  6
CONTINUOUS
 10
-4.159779504
 20
12.446935365
 11
-4.159779504
 21
12.5379414427
  0
LINE
  5
2C2
100
AcDbEntity
  8
LAY0001
100
AcDbLine
 62
7
  6
CONTINUOUS
 10
-4.1579858477
 20
12.2415270456
 11
-4.1579858477
 21
12.2957981694
  0
LINE
  5
2C3
100
AcDbEntity
  8
LAY0001
100
AcDbLine
 62
7
  6
CONTINUOUS
 10
-4.1552239662
 20
12.9855176829
 11
-4.1552239662
 21
12.9766858075
  0
LINE
  5
2C4
100
AcDbEntity
  8
LAY0001
100
AcDbLine
 62
7
  6
CONTINUOUS
 10
-4.153183221
 20
12.2888699416
 11
-4.153183221
 21
12.2738587783
  0
LINE
  5
2C5
100
AcDbEntity
  8
LAY0001
100
AcDbLine
 62
7
  6
CONTINUOUS
 10
-4.153183221
 20
12.2669305505
 11
-4.153183221
 21
12.2484552741
  0
LINE
  5
2C6
100
AcDbEntity
  8
LAY0001
100
AcDbLine
 62
7
  6
CONTINUOUS
 10
-4.1442331695
 20
12.9024980442
 11
-4.1442331695
 21
12.9855176829
  0
LINE
  5
2C7
100
AcDbEntity
  8
LAY0001
100
AcDbLine
 62
7
  6
CONTINUOUS
 10
-4.1359900641
 20
12.9749194324
 11
-4.1359900641
 21
12.9519565514
  0
LINE
  5
2C8
100
AcDbEntity
  8
LAY0001
100
AcDbLine
 62
7
  6
CONTINUOUS
 10
-4.1359900641
 20
12.9413583009
 11
-4.1359900641
 21
12.9130962959
  0
LINE
  5
2C9
100
AcDbEntity
  8
LAY0001
100
AcDbLine
 62
7
  6
CONTINUOUS
 10
-4.1323718449
 20
12.2738587783
 11
-4.1323718449
 21
12.2669305505
  0
LINE
  5
2CA
100
AcDbEntity
  8
LAY0001
100
AcDbLine
 62
7
  6
CONTINUOUS
 10
-4.1291700877
 20
12.2957981694
 11
-4.1291700877
 21
12.2888699416
  0
LINE
  5
2CB
100
AcDbEntity
  8
LAY0001
100
AcDbLine
 62
7
  6
CONTINUOUS
 10
-4.1291700877
 20
12.2484552741
 11
-4.1291700877
 21
12.2415270456
  0
LINE
  5
2CC
100
AcDbEntity
  8
LAY0001
100
AcDbLine
 62
7
  6
CONTINUOUS
 10
-4.1227665916
 20
12.2415270456
 11
-4.1227665916
 21
12.2957981694
  0
LINE
  5
2CD
100
AcDbEntity
  8
LAY0001
100
AcDbLine
 62
7
  6
CONTINUOUS
 10
-4.1179639649
 20
12.2888699416
 11
-4.1179639649
 21
12.2415270456
  0
LINE
  5
2CE
100
AcDbEntity
  8
LAY0001
100
AcDbLine
 62
7
  6
CONTINUOUS
 10
-4.103109041
 20
12.5379414427
 11
-4.103109041
 21
12.3128211503
  0
LINE
  5
2CF
100
AcDbEntity
  8
LAY0001
100
AcDbLine
 62
7
  6
CONTINUOUS
 10
-4.1002699355
 20
12.9519565514
 11
-4.1002699355
 21
12.9413583009
  0
LINE
  5
2D0
100
AcDbEntity
  8
LAY0001
100
AcDbLine
 62
7
  6
CONTINUOUS
 10
-4.0955517011
 20
12.2496099787
 11
-4.0955517011
 21
12.2957981694
  0
LINE
  5
2D1
100
AcDbEntity
  8
LAY0001
100
AcDbLine
 62
7
  6
CONTINUOUS
 10
-4.0947745215
 20
12.9855176829
 11
-4.0947745215
 21
12.9749194324
  0
LINE
  5
2D2
100
AcDbEntity
  8
LAY0001
100
AcDbLine
 62
7
  6
CONTINUOUS
 10
-4.0947745215
 20
12.9130962959
 11
-4.0947745215
 21
12.9024980442
  0
LINE
  5
2D3
100
AcDbEntity
  8
LAY0001
100
AcDbLine
 62
7
  6
CONTINUOUS
 10
-4.0907490744
 20
12.2957981694
 11
-4.0907490744
 21
12.2415270456
  0
LINE
  5
2D4
100
AcDbEntity
  8
LAY0001
100
AcDbLine
 62
7
  6
CONTINUOUS
 10
-4.0843455783
 20
12.2900246463
 11
-4.0843455783
 21
12.2957981694
  0
LINE
  5
2D5
100
AcDbEntity
  8
LAY0001
100
AcDbLine
 62
7
  6
CONTINUOUS
 10
-4.0837837248
 20
12.9024980442
 11
-4.0837837248
 21
12.9855176829
  0
LINE
  5
2D6
100
AcDbEntity
  8
LAY0001
100
AcDbLine
 62
7
  6
CONTINUOUS
 10
-4.0755406194
 20
12.9130962959
 11
-4.0755406194
 21
12.9749194324
  0
LINE
  5
2D7
100
AcDbEntity
  8
LAY0001
100
AcDbLine
 62
7
  6
CONTINUOUS
 10
-4.0715385861
 20
12.2415270456
 11
-4.0715385861
 21
12.2900246463
  0
LINE
  5
2D8
100
AcDbEntity
  8
LAY0001
100
AcDbLine
 62
7
  6
CONTINUOUS
 10
-4.0667359594
 20
12.2900246463
 11
-4.0667359594
 21
12.2415270456
  0
LINE
  5
2D9
100
AcDbEntity
  8
LAY0001
100
AcDbLine
 62
7
  6
CONTINUOUS
 10
-4.0539289305
 20
12.2957981694
 11
-4.0539289305
 21
12.2900246463
  0
LINE
  5
2DA
100
AcDbEntity
  8
LAY0001
100
AcDbLine
 62
7
  6
CONTINUOUS
 10
-4.0475254527
 20
12.2415270456
 11
-4.0475254527
 21
12.2957981694
  0
LINE
  5
2DB
100
AcDbEntity
  8
LAY0001
100
AcDbLine
 62
7
  6
CONTINUOUS
 10
-4.0427228261
 20
12.2957981694
 11
-4.0427228261
 21
12.2415270456
  0
LINE
  5
2DC
100
AcDbEntity
  8
LAY0001
100
AcDbLine
 62
7
  6
CONTINUOUS
 10
-4.0370727838
 20
12.9572556767
 11
-4.0370727838
 21
12.930760048
  0
LINE
  5
2DD
100
AcDbEntity
  8
LAY0001
100
AcDbLine
 62
7
  6
CONTINUOUS
 10
-4.0363193116
 20
12.2415270456
 11
-4.0363193116
 21
12.2957981694
  0
LINE
  5
2DE
100
AcDbEntity
  8
LAY0001
100
AcDbLine
 62
7
  6
CONTINUOUS
 10
-4.031516685
 20
12.2957981694
 11
-4.031516685
 21
12.2484552741
  0
LINE
  5
2DF
100
AcDbEntity
  8
LAY0001
100
AcDbLine
 62
7
  6
CONTINUOUS
 10
-4.0288296784
 20
12.9572556767
 11
-4.0288296784
 21
12.930760048
  0
LINE
  5
2E0
100
AcDbEntity
  8
LAY0001
100
AcDbLine
 62
7
  6
CONTINUOUS
 10
-4.0075035516
 20
12.2484552741
 11
-4.0075035516
 21
12.2415270456
  0
LINE
  5
2E1
100
AcDbEntity
  8
LAY0001
100
AcDbLine
 62
7
  6
CONTINUOUS
 10
-3.9848664602
 20
12.930760048
 11
-3.9848664602
 21
12.9572556767
  0
LINE
  5
2E2
100
AcDbEntity
  8
LAY0001
100
AcDbLine
 62
7
  6
CONTINUOUS
 10
-3.9766233548
 20
12.9572556767
 11
-3.9766233548
 21
12.930760048
  0
LINE
  5
2E3
100
AcDbEntity
  8
LAY0001
100
AcDbLine
 62
7
  6
CONTINUOUS
 10
-3.9626790239
 20
12.2900246463
 11
-3.9626790239
 21
12.2957981694
  0
LINE
  5
2E4
100
AcDbEntity
  8
LAY0001
100
AcDbLine
 62
7
  6
CONTINUOUS
 10
-3.9498720317
 20
12.2415270456
 11
-3.9498720317
 21
12.2900246463
  0
LINE
  5
2E5
100
AcDbEntity
  8
LAY0001
100
AcDbLine
 62
7
  6
CONTINUOUS
 10
-3.945069405
 20
12.2900246463
 11
-3.945069405
 21
12.2415270456
  0
LINE
  5
2E6
100
AcDbEntity
  8
LAY0001
100
AcDbLine
 62
7
  6
CONTINUOUS
 10
-3.9322624128
 20
12.2957981694
 11
-3.9322624128
 21
12.2900246463
  0
LINE
  5
2E7
100
AcDbEntity
  8
LAY0001
100
AcDbLine
 62
7
  6
CONTINUOUS
 10
-3.9258588983
 20
12.2415270456
 11
-3.9258588983
 21
12.2957981694
  0
LINE
  5
2E8
100
AcDbEntity
  8
LAY0001
100
AcDbLine
 62
7
  6
CONTINUOUS
 10
-3.9210562717
 20
12.2957981694
 11
-3.9210562717
 21
12.2415270456
  0
LINE
  5
2E9
100
AcDbEntity
  8
LAY0001
100
AcDbLine
 62
7
  6
CONTINUOUS
 10
-3.9202954785
 20
12.9024980442
 11
-3.9202954785
 21
12.9855176829
  0
LINE
  5
2EA
100
AcDbEntity
  8
LAY0001
100
AcDbLine
 62
7
  6
CONTINUOUS
 10
-3.9146527572
 20
12.2415270456
 11
-3.9146527572
 21
12.2957981694
  0
LINE
  5
2EB
100
AcDbEntity
  8
LAY0001
100
AcDbLine
 62
7
  6
CONTINUOUS
 10
-3.8762317439
 20
12.2773228922
 11
-3.8754313184
 21
12.2830964185
  0
LINE
  5
2EC
100
AcDbEntity
  8
LAY0001
100
AcDbLine
 62
7
  6
CONTINUOUS
 10
-4.0288296784
 20
12.930760048
 11
-4.0302035398
 21
12.9219281726
  0
LINE
  5
2ED
100
AcDbEntity
  8
LAY0001
100
AcDbLine
 62
7
  6
CONTINUOUS
 10
-3.9848664602
 20
12.9572556767
 11
-3.9834925988
 21
12.966087557
  0
LINE
  5
2EE
100
AcDbEntity
  8
LAY0001
100
AcDbLine
 62
7
  6
CONTINUOUS
 10
-3.9312862752
 20
12.9236945476
 11
-3.9326601366
 21
12.914862671
  0
LINE
  5
2EF
100
AcDbEntity
  8
LAY0001
100
AcDbLine
 62
7
  6
CONTINUOUS
 10
-3.8706286917
 20
12.2819417106
 11
-3.8714291173
 21
12.2773228922
  0
LINE
  5
2F0
100
AcDbEntity
  8
LAY0001
100
AcDbLine
 62
7
  6
CONTINUOUS
 10
-3.8450146706
 20
12.254228798
 11
-3.8458151328
 21
12.2496099787
  0
LINE
  5
2F1
100
AcDbEntity
  8
LAY0001
100
AcDbLine
 62
7
  6
CONTINUOUS
 10
-3.7473612495
 20
12.287715237
 11
-3.7481617117
 21
12.2830964185
  0
LINE
  5
2F2
100
AcDbEntity
  8
LAY0001
100
AcDbLine
 62
7
  6
CONTINUOUS
 10
-3.5273741115
 20
12.930760048
 11
-3.5287479414
 21
12.9236945476
  0
LINE
  5
2F3
100
AcDbEntity
  8
LAY0001
100
AcDbLine
 62
7
  6
CONTINUOUS
 10
-3.9922952461
 20
12.2600023212
 11
-3.9850913061
 21
12.2911793509
  0
LINE
  5
2F4
100
AcDbEntity
  8
LAY0001
100
AcDbLine
 62
7
  6
CONTINUOUS
 10
-3.9930956717
 20
12.2553835027
 11
-3.9962974105
 21
12.2415270456
  0
LINE
  5
2F5
100
AcDbEntity
  8
LAY0001
100
AcDbLine
 62
7
  6
CONTINUOUS
 10
-3.8506177595
 20
12.2519193888
 11
-3.8498172973
 21
12.2553835027
  0
LINE
  5
2F6
100
AcDbEntity
  8
LAY0001
100
AcDbLine
 62
7
  6
CONTINUOUS
 10
-3.7433590851
 20
12.2819417106
 11
-3.7425586229
 21
12.2854058278
  0
LINE
  5
2F7
100
AcDbEntity
  8
LAY0001
100
AcDbLine
 62
7
  6
CONTINUOUS
 10
-4.0011000372
 20
12.2415270456
 11
-3.988293045
 21
12.2957981694
  0
LINE
  5
2F8
100
AcDbEntity
  8
LAY0001
100
AcDbLine
 62
7
  6
CONTINUOUS
 10
-3.8186305226
 20
12.9554893016
 11
-3.8172566298
 21
12.9607884268
  0
LINE
  5
2F9
100
AcDbEntity
  8
LAY0001
100
AcDbLine
 62
7
  6
CONTINUOUS
 10
-3.8103874172
 20
12.9537229265
 11
-3.8090135244
 21
12.9590220517
  0
LINE
  5
2FA
100
AcDbEntity
  8
LAY0001
100
AcDbLine
 62
7
  6
CONTINUOUS
 10
-3.7225477273
 20
12.2496099787
 11
-3.7209468029
 21
12.254228798
  0
LINE
  5
2FB
100
AcDbEntity
  8
LAY0001
100
AcDbLine
 62
7
  6
CONTINUOUS
 10
-3.6032824496
 20
12.2496099787
 11
-3.6016815985
 21
12.254228798
  0
LINE
  5
2FC
100
AcDbEntity
  8
LAY0001
100
AcDbLine
 62
7
  6
CONTINUOUS
 10
-3.520504836
 20
12.9219281726
 11
-3.5232525588
 21
12.914862671
  0
LINE
  5
2FD
100
AcDbEntity
  8
LAY0001
100
AcDbLine
 62
7
  6
CONTINUOUS
 10
-3.6064842251
 20
12.2553835027
 11
-3.6080850763
 21
12.2519193888
  0
LINE
  5
2FE
100
AcDbEntity
  8
0
100
AcDbLine
 62
7
  6
CONTINUOUS
 10
-1.9214153729
 20
9.7631512072
 11
-0.9766766389
 21
9.7631512072
  0
LINE
  5
2FF
100
AcDbEntity
  8
0
100
AcDbLine
 62
7
  6
CONTINUOUS
 10
2.4150830516
 20
9.7651197111
 11
-0.9766766389
 21
9.7651197111
  0
LINE
  5
300
100
AcDbEntity
  8
0
100
AcDbLine
 62
7
  6
CONTINUOUS
 10
-1.9214153729
 20
9.7651197111
 11
-9.3323965005
 21
9.7651197111
  0
LINE
  5
301
100
AcDbEntity
  8
0
100
AcDbLine
 62
7
  6
CONTINUOUS
 10
-1.8645751782
 20
9.8222063253
 11
-1.0308237616
 21
9.8222063253
  0
LINE
  5
302
100
AcDbEntity
  8
0
100
AcDbLine
 62
7
  6
CONTINUOUS
 10
-1.0308237616
 20
9.9526021013
 11
-1.8645751782
 21
9.9526021013
  0
LINE
  5
303
100
AcDbEntity
  8
0
100
AcDbLine
 62
7
  6
CONTINUOUS
 10
-1.8645751782
 20
9.9722871406
 11
-1.0308237616
 21
9.9722871406
  0
LINE
  5
304
100
AcDbEntity
  8
LAY0001
100
AcDbLine
 62
7
  6
CONTINUOUS
 10
-4.3476896056
 20
12.2553835027
 11
-4.3484900449
 21
12.2600023212
  0
LINE
  5
305
100
AcDbEntity
  8
LAY0001
100
AcDbLine
 62
7
  6
CONTINUOUS
 10
-4.3268782249
 20
12.2819417106
 11
-4.3260777856
 21
12.2773228922
  0
LINE
  5
306
100
AcDbEntity
  8
LAY0001
100
AcDbLine
 62
7
  6
CONTINUOUS
 10
-4.3524922322
 20
12.254228798
 11
-4.3532926715
 21
12.2600023212
  0
LINE
  5
307
100
AcDbEntity
  8
LAY0001
100
AcDbLine
 62
7
  6
CONTINUOUS
 10
-4.3220755982
 20
12.2830964185
 11
-4.3212751589
 21
12.2773228922
  0
LINE
  5
308
100
AcDbEntity
  8
LAY0001
100
AcDbLine
 62
7
  6
CONTINUOUS
 10
-3.9120523731
 20
12.9749194324
 11
-3.9120523731
 21
12.9519565514
  0
LINE
  5
309
100
AcDbEntity
  8
LAY0001
100
AcDbLine
 62
7
  6
CONTINUOUS
 10
-3.9120523731
 20
12.9413583009
 11
-3.9120523731
 21
12.9130962959
  0
LINE
  5
30A
100
AcDbEntity
  8
LAY0001
100
AcDbLine
 62
7
  6
CONTINUOUS
 10
-3.9098501306
 20
12.2888699416
 11
-3.9098501306
 21
12.2415270456
  0
LINE
  5
30B
100
AcDbEntity
  8
LAY0001
100
AcDbLine
 62
7
  6
CONTINUOUS
 10
-3.887437885
 20
12.2496099787
 11
-3.887437885
 21
12.2957981694
  0
LINE
  5
30C
100
AcDbEntity
  8
LAY0001
100
AcDbLine
 62
7
  6
CONTINUOUS
 10
-3.8826352584
 20
12.2957981694
 11
-3.8826352584
 21
12.2415270456
  0
LINE
  5
30D
100
AcDbEntity
  8
LAY0001
100
AcDbLine
 62
7
  6
CONTINUOUS
 10
-3.8763322288
 20
12.9519565514
 11
-3.8763322288
 21
12.9413583009
  0
LINE
  5
30E
100
AcDbEntity
  8
LAY0001
100
AcDbLine
 62
7
  6
CONTINUOUS
 10
-3.8762317439
 20
12.2600023212
 11
-3.8762317439
 21
12.2773228922
  0
LINE
  5
30F
100
AcDbEntity
  8
LAY0001
100
AcDbLine
 62
7
  6
CONTINUOUS
 10
-3.8714291173
 20
12.2773228922
 11
-3.8714291173
 21
12.2600023212
  0
LINE
  5
310
100
AcDbEntity
  8
LAY0001
100
AcDbLine
 62
7
  6
CONTINUOUS
 10
-3.8708368462
 20
12.9855176829
 11
-3.8708368462
 21
12.9749194324
  0
LINE
  5
311
100
AcDbEntity
  8
LAY0001
100
AcDbLine
 62
7
  6
CONTINUOUS
 10
-3.8708368462
 20
12.9130962959
 11
-3.8708368462
 21
12.9024980442
  0
LINE
  5
312
100
AcDbEntity
  8
LAY0001
100
AcDbLine
 62
7
  6
CONTINUOUS
 10
-3.8598460495
 20
12.9855176829
 11
-3.8598460495
 21
12.9024980442
  0
LINE
  5
313
100
AcDbEntity
  8
LAY0001
100
AcDbLine
 62
7
  6
CONTINUOUS
 10
-3.8570212373
 20
12.2646211413
 11
-3.8570212373
 21
12.271549369
  0
LINE
  5
314
100
AcDbEntity
  8
LAY0001
100
AcDbLine
 62
7
  6
CONTINUOUS
 10
-3.8516029441
 20
12.9766858075
 11
-3.8516029441
 21
12.9501901763
  0
LINE
  5
315
100
AcDbEntity
  8
LAY0001
100
AcDbLine
 62
7
  6
CONTINUOUS
 10
-3.8516029441
 20
12.9024980442
 11
-3.8516029441
 21
12.9395919258
  0
LINE
  5
316
100
AcDbEntity
  8
LAY0001
100
AcDbLine
 62
7
  6
CONTINUOUS
 10
-3.8498172973
 20
12.2553835027
 11
-3.8498172973
 21
12.2646211413
  0
LINE
  5
317
100
AcDbEntity
  8
LAY0001
100
AcDbLine
 62
7
  6
CONTINUOUS
 10
-3.8450146706
 20
12.271549369
 11
-3.8450146706
 21
12.254228798
  0
LINE
  5
318
100
AcDbEntity
  8
LAY0001
100
AcDbLine
 62
7
  6
CONTINUOUS
 10
-3.8172566298
 20
12.9607884268
 11
-3.8172566298
 21
12.966087557
  0
LINE
  5
319
100
AcDbEntity
  8
LAY0001
100
AcDbLine
 62
7
  6
CONTINUOUS
 10
-3.8090135244
 20
12.9590220517
 11
-3.8090135244
 21
12.966087557
  0
LINE
  5
31A
100
AcDbEntity
  8
LAY0001
100
AcDbLine
 62
7
  6
CONTINUOUS
 10
-3.8001901795
 20
12.2415270456
 11
-3.8001901795
 21
12.2957981694
  0
LINE
  5
31B
100
AcDbEntity
  8
LAY0001
100
AcDbLine
 62
7
  6
CONTINUOUS
 10
-3.7966488663
 20
12.9766858075
 11
-3.7966488663
 21
12.9855176829
  0
LINE
  5
31C
100
AcDbEntity
  8
LAY0001
100
AcDbLine
 62
7
  6
CONTINUOUS
 10
-3.7953875528
 20
12.2957981694
 11
-3.7953875528
 21
12.2415270456
  0
LINE
  5
31D
100
AcDbEntity
  8
LAY0001
100
AcDbLine
 62
7
  6
CONTINUOUS
 10
-3.7889840384
 20
12.2415270456
 11
-3.7889840384
 21
12.2957981694
  0
LINE
  5
31E
100
AcDbEntity
  8
LAY0001
100
AcDbLine
 62
7
  6
CONTINUOUS
 10
-3.7841814117
 20
12.2888699416
 11
-3.7841814117
 21
12.2415270456
  0
LINE
  5
31F
100
AcDbEntity
  8
LAY0001
100
AcDbLine
 62
7
  6
CONTINUOUS
 10
-3.7746672729
 20
12.9024980442
 11
-3.7746672729
 21
12.9766858075
  0
LINE
  5
320
100
AcDbEntity
  8
LAY0001
100
AcDbLine
 62
7
  6
CONTINUOUS
 10
-3.7664241676
 20
12.9766858075
 11
-3.7664241676
 21
12.9024980442
  0
LINE
  5
321
100
AcDbEntity
  8
LAY0001
100
AcDbLine
 62
7
  6
CONTINUOUS
 10
-3.7617691295
 20
12.2496099787
 11
-3.7617691295
 21
12.2957981694
  0
LINE
  5
322
100
AcDbEntity
  8
LAY0001
100
AcDbLine
 62
7
  6
CONTINUOUS
 10
-3.7569665029
 20
12.2957981694
 11
-3.7569665029
 21
12.2415270456
  0
LINE
  5
323
100
AcDbEntity
  8
LAY0001
100
AcDbLine
 62
7
  6
CONTINUOUS
 10
-3.7481617117
 20
12.2830964185
 11
-3.7481617117
 21
12.2784775968
  0
LINE
  5
324
100
AcDbEntity
  8
LAY0001
100
AcDbLine
 62
7
  6
CONTINUOUS
 10
-3.7444425742
 20
12.9855176829
 11
-3.7444425742
 21
12.9766858075
  0
LINE
  5
325
100
AcDbEntity
  8
LAY0001
100
AcDbLine
 62
7
  6
CONTINUOUS
 10
-3.7433590851
 20
12.2796323014
 11
-3.7433590851
 21
12.2819417106
  0
LINE
  5
326
100
AcDbEntity
  8
LAY0001
100
AcDbLine
 62
7
  6
CONTINUOUS
 10
-3.733451746
 20
12.9024980442
 11
-3.733451746
 21
12.9855176829
  0
LINE
  5
327
100
AcDbEntity
  8
LAY0001
100
AcDbLine
 62
7
  6
CONTINUOUS
 10
-3.7257494295
 20
12.2588476165
 11
-3.7257494295
 21
12.2553835027
  0
LINE
  5
328
100
AcDbEntity
  8
LAY0001
100
AcDbLine
 62
7
  6
CONTINUOUS
 10
-3.7252086406
 20
12.9855176829
 11
-3.7252086406
 21
12.9024980442
  0
LINE
  5
329
100
AcDbEntity
  8
LAY0001
100
AcDbLine
 62
7
  6
CONTINUOUS
 10
-3.7209468029
 20
12.254228798
 11
-3.7209468029
 21
12.2600023212
  0
LINE
  5
32A
100
AcDbEntity
  8
LAY0001
100
AcDbLine
 62
7
  6
CONTINUOUS
 10
-3.7145433251
 20
12.2900246463
 11
-3.7145433251
 21
12.2957981694
  0
LINE
  5
32B
100
AcDbEntity
  8
LAY0001
100
AcDbLine
 62
7
  6
CONTINUOUS
 10
-3.7142178125
 20
12.9024980442
 11
-3.7142178125
 21
12.9855176829
  0
LINE
  5
32C
100
AcDbEntity
  8
LAY0001
100
AcDbLine
 62
7
  6
CONTINUOUS
 10
-3.7059747071
 20
12.9749194324
 11
-3.7059747071
 21
12.9519565514
  0
LINE
  5
32D
100
AcDbEntity
  8
LAY0001
100
AcDbLine
 62
7
  6
CONTINUOUS
 10
-3.7059747071
 20
12.9413583009
 11
-3.7059747071
 21
12.9024980442
  0
LINE
  5
32E
100
AcDbEntity
  8
LAY0001
100
AcDbLine
 62
7
  6
CONTINUOUS
 10
-3.7017362962
 20
12.2415270456
 11
-3.7017362962
 21
12.2900246463
  0
LINE
  5
32F
100
AcDbEntity
  8
LAY0001
100
AcDbLine
 62
7
  6
CONTINUOUS
 10
-3.6969336696
 20
12.2900246463
 11
-3.6969336696
 21
12.2415270456
  0
LINE
  5
330
100
AcDbEntity
  8
LAY0001
100
AcDbLine
 62
7
  6
CONTINUOUS
 10
-3.684126714
 20
12.2957981694
 11
-3.684126714
 21
12.2900246463
  0
LINE
  5
331
100
AcDbEntity
  8
LAY0001
100
AcDbLine
 62
7
  6
CONTINUOUS
 10
-3.6777231629
 20
12.2415270456
 11
-3.6777231629
 21
12.2957981694
  0
LINE
  5
332
100
AcDbEntity
  8
LAY0001
100
AcDbLine
 62
7
  6
CONTINUOUS
 10
-3.6729205362
 20
12.2957981694
 11
-3.6729205362
 21
12.2415270456
  0
LINE
  5
333
100
AcDbEntity
  8
LAY0001
100
AcDbLine
 62
7
  6
CONTINUOUS
 10
-3.6702546257
 20
12.9519565514
 11
-3.6702546257
 21
12.9413583009
  0
LINE
  5
334
100
AcDbEntity
  8
LAY0001
100
AcDbLine
 62
7
  6
CONTINUOUS
 10
-3.6665170584
 20
12.2900246463
 11
-3.6665170584
 21
12.2957981694
  0
LINE
  5
335
100
AcDbEntity
  8
LAY0001
100
AcDbLine
 62
7
  6
CONTINUOUS
 10
-3.6647591802
 20
12.9855176829
 11
-3.6647591802
 21
12.9749194324
  0
LINE
  5
336
100
AcDbEntity
  8
LAY0001
100
AcDbLine
 62
7
  6
CONTINUOUS
 10
-3.653768415
 20
12.9024980442
 11
-3.653768415
 21
12.9855176829
  0
LINE
  5
337
100
AcDbEntity
  8
LAY0001
100
AcDbLine
 62
7
  6
CONTINUOUS
 10
-3.6537100296
 20
12.2415270456
 11
-3.6537100296
 21
12.2900246463
  0
LINE
  5
338
100
AcDbEntity
  8
LAY0001
100
AcDbLine
 62
7
  6
CONTINUOUS
 10
-3.6489074029
 20
12.2900246463
 11
-3.6489074029
 21
12.2415270456
  0
LINE
  5
339
100
AcDbEntity
  8
LAY0001
100
AcDbLine
 62
7
  6
CONTINUOUS
 10
-3.6455253096
 20
12.9855176829
 11
-3.6455253096
 21
12.9024980442
  0
LINE
  5
33A
100
AcDbEntity
  8
LAY0001
100
AcDbLine
 62
7
  6
CONTINUOUS
 10
-3.6361004473
 20
12.2957981694
 11
-3.6361004473
 21
12.2900246463
  0
LINE
  5
33B
100
AcDbEntity
  8
LAY0001
100
AcDbLine
 62
7
  6
CONTINUOUS
 10
-3.6345344814
 20
12.9024980442
 11
-3.6345344814
 21
12.9855176829
  0
LINE
  5
33C
100
AcDbEntity
  8
LAY0001
100
AcDbLine
 62
7
  6
CONTINUOUS
 10
-3.6296968962
 20
12.2957981694
 11
-3.6296968962
 21
12.2600023212
  0
LINE
  5
33D
100
AcDbEntity
  8
LAY0001
100
AcDbLine
 62
7
  6
CONTINUOUS
 10
-3.6262913761
 20
12.9749194324
 11
-3.6262913761
 21
12.9519565514
  0
LINE
  5
33E
100
AcDbEntity
  8
LAY0001
100
AcDbLine
 62
7
  6
CONTINUOUS
 10
-3.6262913761
 20
12.9413583009
 11
-3.6262913761
 21
12.9130962959
  0
LINE
  5
33F
100
AcDbEntity
  8
LAY0001
100
AcDbLine
 62
7
  6
CONTINUOUS
 10
-3.6248942696
 20
12.2600023212
 11
-3.6248942696
 21
12.2957981694
  0
LINE
  5
340
100
AcDbEntity
  8
LAY0001
100
AcDbLine
 62
7
  6
CONTINUOUS
 10
-3.6056837629
 20
12.2957981694
 11
-3.6056837629
 21
12.2600023212
  0
LINE
  5
341
100
AcDbEntity
  8
LAY0001
100
AcDbLine
 62
7
  6
CONTINUOUS
 10
-3.6008811363
 20
12.2600023212
 11
-3.6008811363
 21
12.2957981694
  0
LINE
  5
342
100
AcDbEntity
  8
LAY0001
100
AcDbLine
 62
7
  6
CONTINUOUS
 10
-3.5944776585
 20
12.2900246463
 11
-3.5944776585
 21
12.2957981694
  0
LINE
  5
343
100
AcDbEntity
  8
LAY0001
100
AcDbLine
 62
7
  6
CONTINUOUS
 10
-3.5905712318
 20
12.9519565514
 11
-3.5905712318
 21
12.9413583009
  0
LINE
  5
344
100
AcDbEntity
  8
LAY0001
100
AcDbLine
 62
7
  6
CONTINUOUS
 10
-3.5850758491
 20
12.9855176829
 11
-3.5850758491
 21
12.9749194324
  0
LINE
  5
345
100
AcDbEntity
  8
LAY0001
100
AcDbLine
 62
7
  6
CONTINUOUS
 10
-3.5850758491
 20
12.9130962959
 11
-3.5850758491
 21
12.9024980442
  0
LINE
  5
346
100
AcDbEntity
  8
LAY0001
100
AcDbLine
 62
7
  6
CONTINUOUS
 10
-3.5816706296
 20
12.2415270456
 11
-3.5816706296
 21
12.2900246463
  0
LINE
  5
347
100
AcDbEntity
  8
LAY0001
100
AcDbLine
 62
7
  6
CONTINUOUS
 10
-3.5768680029
 20
12.2900246463
 11
-3.5768680029
 21
12.2415270456
  0
LINE
  5
348
100
AcDbEntity
  8
LAY0001
100
AcDbLine
 62
7
  6
CONTINUOUS
 10
-3.5741846509
 20
12.3128211503
 11
-3.5741846509
 21
12.4660945412
  0
LINE
  5
349
100
AcDbEntity
  8
LAY0001
100
AcDbLine
 62
7
  6
CONTINUOUS
 10
-3.5741846509
 20
12.5139924771
 11
-3.5741846509
 21
12.5379414427
  0
LINE
  5
34A
100
AcDbEntity
  8
LAY0001
100
AcDbLine
 62
7
  6
CONTINUOUS
 10
-3.574085021
 20
12.9024980442
 11
-3.574085021
 21
12.9855176829
  0
LINE
  5
34B
100
AcDbEntity
  8
LAY0001
100
AcDbLine
 62
7
  6
CONTINUOUS
 10
-3.5658419156
 20
12.9130962959
 11
-3.5658419156
 21
12.9749194324
  0
LINE
  5
34C
100
AcDbEntity
  8
LAY0001
100
AcDbLine
 62
7
  6
CONTINUOUS
 10
-3.5640610473
 20
12.2957981694
 11
-3.5640610473
 21
12.2900246463
  0
LINE
  5
34D
100
AcDbEntity
  8
LAY0001
100
AcDbLine
 62
7
  6
CONTINUOUS
 10
-3.5576574963
 20
12.2415270456
 11
-3.5576574963
 21
12.2957981694
  0
LINE
  5
34E
100
AcDbEntity
  8
LAY0001
100
AcDbLine
 62
7
  6
CONTINUOUS
 10
-3.5528548696
 20
12.2888699416
 11
-3.5528548696
 21
12.2738587783
  0
LINE
  5
34F
100
AcDbEntity
  8
LAY0001
100
AcDbLine
 62
7
  6
CONTINUOUS
 10
-3.5528548696
 20
12.2669305505
 11
-3.5528548696
 21
12.2484552741
  0
LINE
  5
350
100
AcDbEntity
  8
LAY0001
100
AcDbLine
 62
7
  6
CONTINUOUS
 10
-3.5320435118
 20
12.2738587783
 11
-3.5320435118
 21
12.2669305505
  0
LINE
  5
351
100
AcDbEntity
  8
LAY0001
100
AcDbLine
 62
7
  6
CONTINUOUS
 10
-3.5288417363
 20
12.2957981694
 11
-3.5288417363
 21
12.2888699416
  0
LINE
  5
352
100
AcDbEntity
  8
LAY0001
100
AcDbLine
 62
7
  6
CONTINUOUS
 10
-3.5288417363
 20
12.2484552741
 11
-3.5288417363
 21
12.2415270456
  0
LINE
  5
353
100
AcDbEntity
  8
LAY0001
100
AcDbLine
 62
7
  6
CONTINUOUS
 10
-3.5273741115
 20
12.9572556767
 11
-3.5273741115
 21
12.930760048
  0
LINE
  5
354
100
AcDbEntity
  8
LAY0001
100
AcDbLine
 62
7
  6
CONTINUOUS
 10
-3.526959262
 20
12.5379414427
 11
-3.526959262
 21
12.5139924771
  0
LINE
  5
355
100
AcDbEntity
  8
LAY0001
100
AcDbLine
 62
7
  6
CONTINUOUS
 10
-3.526959262
 20
12.4660945412
 11
-3.526959262
 21
12.3128211503
  0
LINE
  5
356
100
AcDbEntity
  8
LAY0001
100
AcDbLine
 62
7
  6
CONTINUOUS
 10
-3.5191310061
 20
12.9572556767
 11
-3.5191310061
 21
12.930760048
  0
LINE
  5
357
100
AcDbEntity
  8
LAY0001
100
AcDbLine
 62
7
  6
CONTINUOUS
 10
-3.6016815985
 20
12.254228798
 11
-3.6008811363
 21
12.2600023212
  0
LINE
  5
358
100
AcDbEntity
  8
LAY0001
100
AcDbLine
 62
7
  6
CONTINUOUS
 10
-3.5191310061
 20
12.930760048
 11
-3.520504836
 21
12.9219281726
  0
LINE
  5
359
100
AcDbEntity
  8
LAY0001
100
AcDbLine
 62
7
  6
CONTINUOUS
 10
-3.6056837629
 20
12.2600023212
 11
-3.6064842251
 21
12.2553835027
  0
LINE
  5
35A
100
AcDbEntity
  8
LAY0001
100
AcDbLine
 62
7
  6
CONTINUOUS
 10
-4.3460887315
 20
12.2519193888
 11
-4.3476896056
 21
12.2553835027
  0
LINE
  5
35B
100
AcDbEntity
  8
LAY0001
100
AcDbLine
 62
7
  6
CONTINUOUS
 10
-4.3284790989
 20
12.2854058278
 11
-4.3268782249
 21
12.2819417106
  0
LINE
  5
35C
100
AcDbEntity
  8
LAY0001
100
AcDbLine
 62
7
  6
CONTINUOUS
 10
-4.3508913582
 20
12.2496099787
 11
-4.3524922322
 21
12.254228798
  0
LINE
  5
35D
100
AcDbEntity
  8
LAY0001
100
AcDbLine
 62
7
  6
CONTINUOUS
 10
-4.3236764722
 20
12.287715237
 11
-4.3220755982
 21
12.2830964185
  0
LINE
  5
35E
100
AcDbEntity
  8
LAY0001
100
AcDbLine
 62
7
  6
CONTINUOUS
 10
-4.2988628996
 20
12.2415270456
 11
-4.3100690315
 21
12.2842511231
  0
LINE
  5
35F
100
AcDbEntity
  8
LAY0001
100
AcDbLine
 62
7
  6
CONTINUOUS
 10
-4.2596366448
 20
12.9201617975
 11
-4.2610104905
 21
12.9254609227
  0
LINE
  5
360
100
AcDbEntity
  8
LAY0001
100
AcDbLine
 62
7
  6
CONTINUOUS
 10
-4.2555150922
 20
12.9554893016
 11
-4.2568889378
 21
12.9607884268
  0
LINE
  5
361
100
AcDbEntity
  8
LAY0001
100
AcDbLine
 62
7
  6
CONTINUOUS
 10
-4.2225426706
 20
12.966087557
 11
-4.2239165163
 21
12.9713866823
  0
LINE
  5
362
100
AcDbEntity
  8
LAY0001
100
AcDbLine
 62
7
  6
CONTINUOUS
 10
-4.3076677182
 20
12.2957981694
 11
-4.2956611515
 21
12.2473005695
  0
LINE
  5
363
100
AcDbEntity
  8
LAY0001
100
AcDbLine
 62
7
  6
CONTINUOUS
 10
-4.1916042344
 20
12.2957981694
 11
-4.1803981116
 21
12.2484552741
  0
LINE
  5
364
100
AcDbEntity
  8
LAY0001
100
AcDbLine
 62
7
  6
CONTINUOUS
 10
-4.1835998688
 20
12.2415270456
 11
-4.196406861
 21
12.2957981694
  0
LINE
  5
365
100
AcDbEntity
  8
LAY0001
100
AcDbLine
 62
7
  6
CONTINUOUS
 10
-3.9818895306
 20
12.2957981694
 11
-3.9690825383
 21
12.2415270456
  0
LINE
  5
366
100
AcDbEntity
  8
LAY0001
100
AcDbLine
 62
7
  6
CONTINUOUS
 10
-3.973885165
 20
12.2415270456
 11
-3.9770869039
 21
12.2553835027
  0
LINE
  5
367
100
AcDbEntity
  8
LAY0001
100
AcDbLine
 62
7
  6
CONTINUOUS
 10
-3.9850913061
 20
12.2911793509
 11
-3.9778873661
 21
12.2600023212
  0
LINE
  5
368
100
AcDbEntity
  8
LAY0001
100
AcDbLine
 62
7
  6
CONTINUOUS
 10
-3.8498172973
 20
12.2819417106
 11
-3.8506177595
 21
12.2854058278
  0
LINE
  5
369
100
AcDbEntity
  8
LAY0001
100
AcDbLine
 62
7
  6
CONTINUOUS
 10
-4.2692535959
 20
12.9254609227
 11
-4.2678797424
 21
12.9183954224
  0
LINE
  5
36A
100
AcDbEntity
  8
LAY0001
100
AcDbLine
 62
7
  6
CONTINUOUS
 10
-4.2651320432
 20
12.9590220517
 11
-4.2637581897
 21
12.9519565514
  0
LINE
  5
36B
100
AcDbEntity
  8
LAY0001
100
AcDbLine
 62
7
  6
CONTINUOUS
 10
-4.0384466452
 20
12.964321177
 11
-4.0370727838
 21
12.9572556767
  0
LINE
  5
36C
100
AcDbEntity
  8
LAY0001
100
AcDbLine
 62
7
  6
CONTINUOUS
 10
-3.9766233548
 20
12.930760048
 11
-3.9752494934
 21
12.9236945476
  0
LINE
  5
36D
100
AcDbEntity
  8
LAY0001
100
AcDbLine
 62
7
  6
CONTINUOUS
 10
-3.8714291173
 20
12.2600023212
 11
-3.8706286917
 21
12.2553835027
  0
LINE
  5
36E
100
AcDbEntity
  8
LAY0001
100
AcDbLine
 62
7
  6
CONTINUOUS
 10
-3.7505630251
 20
12.2565382073
 11
-3.7497625629
 21
12.2519193888
  0
LINE
  5
36F
100
AcDbEntity
  8
LAY0001
100
AcDbLine
 62
7
  6
CONTINUOUS
 10
-3.7481617117
 20
12.2784775968
 11
-3.7473612495
 21
12.2738587783
  0
LINE
  5
370
100
AcDbEntity
  8
LAY0001
100
AcDbLine
 62
7
  6
CONTINUOUS
 10
-4.0302035398
 20
12.966087557
 11
-4.0288296784
 21
12.9572556767
  0
LINE
  5
371
100
AcDbEntity
  8
LAY0001
100
AcDbLine
 62
7
  6
CONTINUOUS
 10
-3.9834925988
 20
12.9219281726
 11
-3.9848664602
 21
12.930760048
  0
LINE
  5
372
100
AcDbEntity
  8
LAY0001
100
AcDbLine
 62
7
  6
CONTINUOUS
 10
-3.9326601366
 20
12.9731530573
 11
-3.9312862752
 21
12.964321177
  0
LINE
  5
373
100
AcDbEntity
  8
LAY0001
100
AcDbLine
 62
7
  6
CONTINUOUS
 10
-3.8754313184
 20
12.254228798
 11
-3.8762317439
 21
12.2600023212
  0
LINE
  5
374
100
AcDbEntity
  8
LAY0001
100
AcDbLine
 62
7
  6
CONTINUOUS
 10
-3.8458151328
 20
12.287715237
 11
-3.8450146706
 21
12.2819417106
  0
LINE
  5
375
100
AcDbEntity
  8
1_ALL_PLANES
100
AcDbLine
 62
7
  6
CONTINUOUS
 10
-3.3336567245
 20
13.1118913647
 11
-3.3336567245
 21
12.0218913647
  0
LINE
  5
376
100
AcDbEntity
  8
0
100
AcDbLine
 62
7
  6
CONTINUOUS
 10
-3.3314297335
 20
13.1841996868
 11
-3.3314297335
 21
11.9842983835
  0
LINE
  5
377
100
AcDbEntity
  8
0
100
AcDbLine
 62
7
  6
CONTINUOUS
 10
-2.9270955768
 20
12.6227291656
 11
-2.9270955768
 21
12.6374137572
  0
LINE
  5
378
100
AcDbEntity
  8
0
100
AcDbLine
 62
7
  6
CONTINUOUS
 10
-2.9270955768
 20
12.6526076411
 11
-2.9270955768
 21
13.0564894258
  0
LINE
  5
379
100
AcDbEntity
  8
0
100
AcDbLine
 62
7
  6
CONTINUOUS
 10
-2.9184341595
 20
13.0564894258
 11
-2.9184341595
 21
13.1380879559
  0
LINE
  5
37A
100
AcDbEntity
  8
03___PRT_ALL_CURVES
100
AcDbLine
 62
4
  6
CONTINUOUS
 10
-1.0336340516
 20
12.8711426122
 11
-1.0344782515
 21
12.8702290493
  0
LINE
  5
37B
100
AcDbEntity
  8
03___PRT_ALL_CURVES
100
AcDbLine
 62
4
  6
CONTINUOUS
 10
-0.9861295297
 20
12.8505874436
 11
-0.9852853305
 21
12.8515010067
  0
LINE
  5
37C
100
AcDbEntity
  8
03___PRT_ALL_CURVES
100
AcDbLine
 62
4
  6
CONTINUOUS
 10
-0.9430131099
 20
12.8354884716
 11
-0.9421689087
 21
12.8364020345
  0
LINE
  5
37D
100
AcDbEntity
  8
03___PRT_ALL_CURVES
100
AcDbLine
 62
4
  6
CONTINUOUS
 10
-0.8693870364
 20
12.8515010067
 11
-0.8702312411
 21
12.8505874436
  0
LINE
  5
37E
100
AcDbEntity
  8
03___PRT_ALL_CURVES
100
AcDbLine
 62
4
  6
CONTINUOUS
 10
-0.858411747
 20
12.8606366372
 11
-0.8575675421
 21
12.8615502001
  0
LINE
  5
37F
100
AcDbEntity
  8
03___PRT_ALL_CURVES
100
AcDbLine
 62
4
  6
CONTINUOUS
 10
-0.8919202175
 20
12.816760429
 11
-0.8927644149
 21
12.8158468659
  0
LINE
  5
380
100
AcDbEntity
  8
03___PRT_ALL_CURVES
100
AcDbLine
 62
4
  6
CONTINUOUS
 10
-0.8809449244
 20
12.8258960595
 11
-0.8801007195
 21
12.8268096224
  0
LINE
  5
381
100
AcDbEntity
  8
03___PRT_ALL_CURVES
100
AcDbLine
 62
4
  6
CONTINUOUS
 10
-0.7558157093
 20
12.8702290493
 11
-0.7549714899
 21
12.8711426122
  0
LINE
  5
382
100
AcDbEntity
  8
03___PRT_ALL_CURVES
100
AcDbLine
 62
4
  6
CONTINUOUS
 10
-0.7040894917
 20
12.8515010067
 11
-0.7049336818
 21
12.8505874436
  0
LINE
  5
383
100
AcDbEntity
  8
0
100
AcDbLine
 62
7
  6
CONTINUOUS
 10
-1.0308237616
 20
10.7080330969
 11
-1.8645751782
 21
10.7080330969
  0
LINE
  5
384
100
AcDbEntity
  8
0
100
AcDbLine
 62
7
  6
CONTINUOUS
 10
-4.3799167016
 20
10.7651197111
 11
-2.5373967473
 21
10.7651197111
  0
LINE
  5
385
100
AcDbEntity
  8
0
100
AcDbLine
 62
7
  6
CONTINUOUS
 10
-0.9766766389
 20
10.7670882151
 11
-1.9214153729
 21
10.7670882151
  0
LINE
  5
386
100
AcDbEntity
  8
LAY0001
100
AcDbLine
 62
7
  6
CONTINUOUS
 10
-4.3476896056
 20
12.2449911598
 11
-4.3508913582
 21
12.2496099787
  0
LINE
  5
387
100
AcDbEntity
  8
LAY0001
100
AcDbLine
 62
7
  6
CONTINUOUS
 10
-4.3268782249
 20
12.2923340555
 11
-4.3236764722
 21
12.287715237
  0
LINE
  5
388
100
AcDbEntity
  8
LAY0001
100
AcDbLine
 62
7
  6
CONTINUOUS
 10
-4.2294119146
 20
12.9342928006
 11
-4.2266642233
 21
12.9289936729
  0
LINE
  5
389
100
AcDbEntity
  8
LAY0001
100
AcDbLine
 62
7
  6
CONTINUOUS
 10
-4.2678797424
 20
12.9183954224
 11
-4.2637581897
 21
12.9095635451
  0
LINE
  5
38A
100
AcDbEntity
  8
LAY0001
100
AcDbLine
 62
7
  6
CONTINUOUS
 10
-3.8706286917
 20
12.2553835027
 11
-3.8690278039
 21
12.2519193888
  0
LINE
  5
38B
100
AcDbEntity
  8
LAY0001
100
AcDbLine
 62
7
  6
CONTINUOUS
 10
-3.727350354
 20
12.262311732
 11
-3.7257494295
 21
12.2588476165
  0
LINE
  5
38C
100
AcDbEntity
  8
LAY0001
100
AcDbLine
 62
7
  6
CONTINUOUS
 10
-4.1155626516
 20
12.2957981694
 11
-4.0955517011
 21
12.2496099787
  0
LINE
  5
38D
100
AcDbEntity
  8
LAY0001
100
AcDbLine
 62
7
  6
CONTINUOUS
 10
-3.9074488172
 20
12.2957981694
 11
-3.887437885
 21
12.2496099787
  0
LINE
  5
38E
100
AcDbEntity
  8
LAY0001
100
AcDbLine
 62
7
  6
CONTINUOUS
 10
-3.7817800984
 20
12.2957981694
 11
-3.7617691295
 21
12.2496099787
  0
LINE
  5
38F
100
AcDbEntity
  8
LAY0001
100
AcDbLine
 62
7
  6
CONTINUOUS
 10
-4.0979530144
 20
12.2415270456
 11
-4.1179639649
 21
12.2888699416
  0
LINE
  5
390
100
AcDbEntity
  8
LAY0001
100
AcDbLine
 62
7
  6
CONTINUOUS
 10
-3.8898391984
 20
12.2415270456
 11
-3.9098501306
 21
12.2888699416
  0
LINE
  5
391
100
AcDbEntity
  8
LAY0001
100
AcDbLine
 62
7
  6
CONTINUOUS
 10
-3.7641704429
 20
12.2415270456
 11
-3.7841814117
 21
12.2888699416
  0
LINE
  5
392
100
AcDbEntity
  8
LAY0001
100
AcDbLine
 62
7
  6
CONTINUOUS
 10
-3.7497625629
 20
12.2519193888
 11
-3.7473612495
 21
12.2461458645
  0
LINE
  5
393
100
AcDbEntity
  8
LAY0001
100
AcDbLine
 62
7
  6
CONTINUOUS
 10
-4.2184211179
 20
12.930760048
 11
-4.2211688092
 21
12.9378255508
  0
LINE
  5
394
100
AcDbEntity
  8
LAY0001
100
AcDbLine
 62
7
  6
CONTINUOUS
 10
-4.2321596217
 20
12.9696203072
 11
-4.230785776
 21
12.966087557
  0
LINE
  5
395
100
AcDbEntity
  8
LAY0001
100
AcDbLine
 62
7
  6
CONTINUOUS
 10
-4.0329512311
 20
12.9731530573
 11
-4.0302035398
 21
12.966087557
  0
LINE
  5
396
100
AcDbEntity
  8
LAY0001
100
AcDbLine
 62
7
  6
CONTINUOUS
 10
-3.9807449075
 20
12.914862671
 11
-3.9834925988
 21
12.9219281726
  0
LINE
  5
397
100
AcDbEntity
  8
LAY0001
100
AcDbLine
 62
7
  6
CONTINUOUS
 10
-3.8738304306
 20
12.2496099787
 11
-3.8754313184
 21
12.254228798
  0
LINE
  5
398
100
AcDbEntity
  8
LAY0001
100
AcDbLine
 62
7
  6
CONTINUOUS
 10
-3.7209468029
 20
12.2600023212
 11
-3.7225477273
 21
12.2646211413
  0
LINE
  5
399
100
AcDbEntity
  8
LAY0001
100
AcDbLine
 62
7
  6
CONTINUOUS
 10
-3.7289512051
 20
12.2854058278
 11
-3.7281507429
 21
12.2830964185
  0
LINE
  5
39A
100
AcDbEntity
  8
LAY0001
100
AcDbLine
 62
7
  6
CONTINUOUS
 10
-3.6288965073
 20
12.254228798
 11
-3.6272955829
 21
12.2496099787
  0
LINE
  5
39B
100
AcDbEntity
  8
LAY0001
100
AcDbLine
 62
7
  6
CONTINUOUS
 10
-3.8076396945
 20
12.9024980442
 11
-3.8200043525
 21
12.943124676
  0
LINE
  5
39C
100
AcDbEntity
  8
LAY0001
100
AcDbLine
 62
7
  6
CONTINUOUS
 10
-3.8282474579
 20
12.9395919258
 11
-3.8172566298
 21
12.9024980442
  0
LINE
  5
39D
100
AcDbEntity
  8
LAY0001
100
AcDbLine
 62
7
  6
CONTINUOUS
 10
-3.9395293806
 20
12.964321177
 11
-3.940903242
 21
12.9696203072
  0
LINE
  5
39E
100
AcDbEntity
  8
LAY0001
100
AcDbLine
 62
7
  6
CONTINUOUS
 10
-3.8172566298
 20
12.966087557
 11
-3.8186305226
 21
12.9713866823
  0
LINE
  5
39F
100
AcDbEntity
  8
LAY0001
100
AcDbLine
 62
7
  6
CONTINUOUS
 10
-3.8090135244
 20
12.966087557
 11
-3.8103874172
 21
12.9713866823
  0
LINE
  5
3A0
100
AcDbEntity
  8
LAY0001
100
AcDbLine
 62
7
  6
CONTINUOUS
 10
-3.7449599362
 20
12.2530740934
 11
-3.7457603984
 21
12.2565382073
  0
LINE
  5
3A1
100
AcDbEntity
  8
LAY0001
100
AcDbLine
 62
7
  6
CONTINUOUS
 10
-3.7425586229
 20
12.2761681875
 11
-3.7433590851
 21
12.2796323014
  0
LINE
  5
3A2
100
AcDbEntity
  8
LAY0001
100
AcDbLine
 62
7
  6
CONTINUOUS
 10
-3.7233481162
 20
12.2830964185
 11
-3.7241485784
 21
12.2865605324
  0
LINE
  5
3A3
100
AcDbEntity
  8
LAY0001
100
AcDbLine
 62
7
  6
CONTINUOUS
 10
-3.5287479414
 20
12.964321177
 11
-3.5273741115
 21
12.9572556767
  0
LINE
  5
3A4
100
AcDbEntity
  8
LAY0001
100
AcDbLine
 62
7
  6
CONTINUOUS
 10
-3.6240938807
 20
12.2553835027
 11
-3.6248942696
 21
12.2600023212
  0
LINE
  5
3A5
100
AcDbEntity
  8
LAY0001
100
AcDbLine
 62
7
  6
CONTINUOUS
 10
-3.520504836
 20
12.966087557
 11
-3.5191310061
 21
12.9572556767
  0
LINE
  5
3A6
100
AcDbEntity
  8
LAY0001
100
AcDbLine
 62
7
  6
CONTINUOUS
 10
-3.6296968962
 20
12.2600023212
 11
-3.6288965073
 21
12.254228798
  0
LINE
  5
3A7
100
AcDbEntity
  8
0
100
AcDbLine
 62
7
  6
CONTINUOUS
 10
-2.7420562068
 20
13.5839273676
 11
-2.7420562068
 21
13.6043700484
  0
LINE
  5
3A8
100
AcDbEntity
  8
0
100
AcDbLine
 62
7
  6
CONTINUOUS
 10
-2.6763081753
 20
13.0564894258
 11
-2.6763081753
 21
13.236692883
  0
LINE
  5
3A9
100
AcDbEntity
  8
0
100
AcDbLine
 62
7
  6
CONTINUOUS
 10
-2.6676467579
 20
12.6227291656
 11
-2.6676467579
 21
12.6374137572
  0
LINE
  5
3AA
100
AcDbEntity
  8
0
100
AcDbLine
 62
7
  6
CONTINUOUS
 10
-2.6676467579
 20
12.6526076411
 11
-2.6676467579
 21
13.0564894258
  0
LINE
  5
3AB
100
AcDbEntity
  8
0
100
AcDbLine
 62
7
  6
CONTINUOUS
 10
-2.5298514824
 20
12.6227291656
 11
-2.5298514824
 21
12.6374137572
  0
LINE
  5
3AC
100
AcDbEntity
  8
0
100
AcDbLine
 62
7
  6
CONTINUOUS
 10
-2.5298514824
 20
12.6526076411
 11
-2.5298514824
 21
13.0564894258
  0
LINE
  5
3AD
100
AcDbEntity
  8
0
100
AcDbLine
 62
7
  6
CONTINUOUS
 10
-2.5227648682
 20
13.0564894258
 11
-2.5227648682
 21
13.2176840955
  0
LINE
  5
3AE
100
AcDbEntity
  8
0
100
AcDbLine
 62
7
  6
CONTINUOUS
 10
-2.4586567245
 20
9.8438598537
 11
-2.4586567245
 21
10.6863795685
  0
LINE
  5
3AF
100
AcDbEntity
  8
0
100
AcDbLine
 62
7
  6
CONTINUOUS
 10
2.4150830516
 20
11.0643323095
 11
-9.3323965005
 21
11.0643323095
  0
LINE
  5
3B0
100
AcDbEntity
  8
LAY0001
100
AcDbLine
 62
7
  6
CONTINUOUS
 10
-4.3444878575
 20
12.2426817503
 11
-4.3476896056
 21
12.2449911598
  0
LINE
  5
3B1
100
AcDbEntity
  8
LAY0001
100
AcDbLine
 62
7
  6
CONTINUOUS
 10
-4.3300799775
 20
12.2946434648
 11
-4.3268782249
 21
12.2923340555
  0
LINE
  5
3B2
100
AcDbEntity
  8
LAY0001
100
AcDbLine
 62
7
  6
CONTINUOUS
 10
-4.3436874182
 20
12.2496099787
 11
-4.3460887315
 21
12.2519193888
  0
LINE
  5
3B3
100
AcDbEntity
  8
LAY0001
100
AcDbLine
 62
7
  6
CONTINUOUS
 10
-4.3308804122
 20
12.287715237
 11
-4.3284790989
 21
12.2854058278
  0
LINE
  5
3B4
100
AcDbEntity
  8
LAY0001
100
AcDbLine
 62
7
  6
CONTINUOUS
 10
-3.8690278039
 20
12.2519193888
 11
-3.8666264906
 21
12.2496099787
  0
LINE
  5
3B5
100
AcDbEntity
  8
LAY0001
100
AcDbLine
 62
7
  6
CONTINUOUS
 10
-3.8506177595
 20
12.2854058278
 11
-3.8530190728
 21
12.287715237
  0
LINE
  5
3B6
100
AcDbEntity
  8
LAY0001
100
AcDbLine
 62
7
  6
CONTINUOUS
 10
-3.7401573095
 20
12.2738587783
 11
-3.7425586229
 21
12.2761681875
  0
LINE
  5
3B7
100
AcDbEntity
  8
LAY0001
100
AcDbLine
 62
7
  6
CONTINUOUS
 10
-3.7297516673
 20
12.2646211413
 11
-3.727350354
 21
12.262311732
  0
LINE
  5
3B8
100
AcDbEntity
  8
LAY0001
100
AcDbLine
 62
7
  6
CONTINUOUS
 10
-3.7265498918
 20
12.2911793509
 11
-3.7297516673
 21
12.2946434648
  0
LINE
  5
3B9
100
AcDbEntity
  8
LAY0001
100
AcDbLine
 62
7
  6
CONTINUOUS
 10
-4.2555150922
 20
12.914862671
 11
-4.2596366448
 21
12.9201617975
  0
LINE
  5
3BA
100
AcDbEntity
  8
LAY0001
100
AcDbLine
 62
7
  6
CONTINUOUS
 10
-4.2637581897
 20
12.9519565514
 11
-4.2582627835
 21
12.9448910511
  0
LINE
  5
3BB
100
AcDbEntity
  8
LAY0001
100
AcDbLine
 62
7
  6
CONTINUOUS
 10
-4.2211688092
 20
12.9378255508
 11
-4.2266642233
 21
12.9448910511
  0
LINE
  5
3BC
100
AcDbEntity
  8
LAY0001
100
AcDbLine
 62
7
  6
CONTINUOUS
 10
-4.2349073287
 20
12.9731530573
 11
-4.2321596217
 21
12.9696203072
  0
LINE
  5
3BD
100
AcDbEntity
  8
LAY0001
100
AcDbLine
 62
7
  6
CONTINUOUS
 10
-4.0384466452
 20
12.9802185577
 11
-4.0329512311
 21
12.9731530573
  0
LINE
  5
3BE
100
AcDbEntity
  8
LAY0001
100
AcDbLine
 62
7
  6
CONTINUOUS
 10
-3.9752494934
 20
12.9077971701
 11
-3.9807449075
 21
12.914862671
  0
LINE
  5
3BF
100
AcDbEntity
  8
LAY0001
100
AcDbLine
 62
7
  6
CONTINUOUS
 10
-3.8706286917
 20
12.2449911598
 11
-3.8738304306
 21
12.2496099787
  0
LINE
  5
3C0
100
AcDbEntity
  8
LAY0001
100
AcDbLine
 62
7
  6
CONTINUOUS
 10
-3.8490168717
 20
12.2923340555
 11
-3.8458151328
 21
12.287715237
  0
LINE
  5
3C1
100
AcDbEntity
  8
LAY0001
100
AcDbLine
 62
7
  6
CONTINUOUS
 10
-3.7425586229
 20
12.2496099787
 11
-3.7449599362
 21
12.2530740934
  0
LINE
  5
3C2
100
AcDbEntity
  8
LAY0001
100
AcDbLine
 62
7
  6
CONTINUOUS
 10
-3.7473612495
 20
12.2738587783
 11
-3.7441595473
 21
12.2692399598
  0
LINE
  5
3C3
100
AcDbEntity
  8
LAY0001
100
AcDbLine
 62
7
  6
CONTINUOUS
 10
-3.7225477273
 20
12.2646211413
 11
-3.7257494295
 21
12.2692399598
  0
LINE
  5
3C4
100
AcDbEntity
  8
LAY0001
100
AcDbLine
 62
7
  6
CONTINUOUS
 10
-3.7305520562
 20
12.287715237
 11
-3.7289512051
 21
12.2854058278
  0
LINE
  5
3C5
100
AcDbEntity
  8
LAY0001
100
AcDbLine
 62
7
  6
CONTINUOUS
 10
-3.6272955829
 20
12.2496099787
 11
-3.6240938807
 21
12.2449911598
  0
LINE
  5
3C6
100
AcDbEntity
  8
LAY0001
100
AcDbLine
 62
7
  6
CONTINUOUS
 10
-3.9708779482
 20
12.5379414427
 11
-3.8386468553
 21
12.3415599193
  0
LINE
  5
3C7
100
AcDbEntity
  8
LAY0001
100
AcDbLine
 62
7
  6
CONTINUOUS
 10
-3.8764271703
 20
12.3128211503
 11
-4.0275484159
 21
12.5379414427
  0
LINE
  5
3C8
100
AcDbEntity
  8
LAY0001
100
AcDbLine
 62
7
  6
CONTINUOUS
 10
-4.2239165163
 20
12.9713866823
 11
-4.228038069
 21
12.9784521826
  0
LINE
  5
3C9
100
AcDbEntity
  8
LAY0001
100
AcDbLine
 62
7
  6
CONTINUOUS
 10
-3.8103874172
 20
12.9713866823
 11
-3.8145089699
 21
12.9784521826
  0
LINE
  5
3CA
100
AcDbEntity
  8
LAY0001
100
AcDbLine
 62
7
  6
CONTINUOUS
 10
-3.7241485784
 20
12.2865605324
 11
-3.7265498918
 21
12.2911793509
  0
LINE
  5
3CB
100
AcDbEntity
  8
LAY0001
100
AcDbLine
 62
7
  6
CONTINUOUS
 10
-4.0411943365
 20
12.9696203072
 11
-4.0384466452
 21
12.964321177
  0
LINE
  5
3CC
100
AcDbEntity
  8
LAY0001
100
AcDbLine
 62
7
  6
CONTINUOUS
 10
-3.9752494934
 20
12.9236945476
 11
-3.9725018021
 21
12.9183954224
  0
LINE
  5
3CD
100
AcDbEntity
  8
LAY0001
100
AcDbLine
 62
7
  6
CONTINUOUS
 10
-3.5314956642
 20
12.9696203072
 11
-3.5287479414
 21
12.964321177
  0
LINE
  5
3CE
100
AcDbEntity
  8
LAY0001
100
AcDbLine
 62
7
  6
CONTINUOUS
 10
-3.6224929562
 20
12.2519193888
 11
-3.6240938807
 21
12.2553835027
  0
LINE
  5
3CF
100
AcDbEntity
  8
LAY0001
100
AcDbLine
 62
7
  6
CONTINUOUS
 10
-3.5232525588
 20
12.9731530573
 11
-3.520504836
 21
12.966087557
  0
LINE
  5
3D0
100
AcDbEntity
  8
0
100
AcDbLine
 62
7
  6
CONTINUOUS
 10
-2.2707963642
 20
12.6592288614
 11
-2.2707963642
 21
12.9894307938
  0
LINE
  5
3D1
100
AcDbEntity
  8
0
100
AcDbLine
 62
7
  6
CONTINUOUS
 10
-1.9214153729
 20
10.7670882151
 11
-1.9214153729
 21
9.7631512072
  0
LINE
  5
3D2
100
AcDbEntity
  8
0
100
AcDbLine
 62
7
  6
CONTINUOUS
 10
-1.920068837
 20
10.7670882151
 11
-1.920068837
 21
9.7631512072
  0
LINE
  5
3D3
100
AcDbEntity
  8
0
100
AcDbLine
 62
7
  6
CONTINUOUS
 10
-1.8871067245
 20
13.7450942575
 11
-1.8871067245
 21
13.7538977301
  0
LINE
  5
3D4
100
AcDbEntity
  8
0
100
AcDbLine
 62
7
  6
CONTINUOUS
 10
-1.8645751782
 20
10.7080330969
 11
-1.8645751782
 21
9.9722871406
  0
LINE
  5
3D5
100
AcDbEntity
  8
0
100
AcDbLine
 62
7
  6
CONTINUOUS
 10
-1.8645751782
 20
9.9526021013
 11
-1.8645751782
 21
9.8222063253
  0
LINE
  5
3D6
100
AcDbEntity
  8
0
100
AcDbLine
 62
7
  6
CONTINUOUS
 10
-1.8632286422
 20
10.7080330969
 11
-1.8632286422
 21
9.9722871406
  0
LINE
  5
3D7
100
AcDbEntity
  8
0
100
AcDbLine
 62
7
  6
CONTINUOUS
 10
-1.8632286422
 20
9.9526021013
 11
-1.8632286422
 21
9.8222063253
  0
LINE
  5
3D8
100
AcDbEntity
  8
0
100
AcDbLine
 62
7
  6
CONTINUOUS
 10
-1.8571067245
 20
13.7538977301
 11
-1.8571067245
 21
13.7450942575
  0
LINE
  5
3D9
100
AcDbEntity
  8
0
100
AcDbLine
 62
7
  6
CONTINUOUS
 10
-1.8186567245
 20
13.7037529276
 11
-1.8186567245
 21
13.6438401476
  0
LINE
  5
3DA
100
AcDbEntity
  8
0
100
AcDbLine
 62
7
  6
CONTINUOUS
 10
-1.8186567245
 20
11.5159770297
 11
-1.8186567245
 21
13.5840173489
  0
LINE
  5
3DB
100
AcDbEntity
  8
0
100
AcDbLine
 62
7
  6
CONTINUOUS
 10
-1.2351596814
 20
12.9550491669
 11
-1.2335006102
 21
12.9596205943
  0
LINE
  5
3DC
100
AcDbEntity
  8
03___PRT_ALL_CURVES
100
AcDbLine
 62
4
  6
CONTINUOUS
 10
-0.7123230516
 20
12.8528713512
 11
-0.7106342843
 21
12.8533281327
  0
LINE
  5
3DD
100
AcDbEntity
  8
03___PRT_ALL_CURVES
100
AcDbLine
 62
4
  6
CONTINUOUS
 10
-0.8984650282
 20
12.818587555
 11
-0.9001537774
 21
12.8181307736
  0
LINE
  5
3DE
100
AcDbEntity
  8
03___PRT_ALL_CURVES
100
AcDbLine
 62
4
  6
CONTINUOUS
 10
-0.7475821496
 20
12.8688587049
 11
-0.7492708879
 21
12.8684019234
  0
LINE
  5
3DF
100
AcDbEntity
  8
03___PRT_ALL_CURVES
100
AcDbLine
 62
4
  6
CONTINUOUS
 10
-0.9364682994
 20
12.8336613457
 11
-0.9347795502
 21
12.8341181272
  0
LINE
  5
3E0
100
AcDbEntity
  8
03___PRT_ALL_CURVES
100
AcDbLine
 62
4
  6
CONTINUOUS
 10
-0.8759318581
 20
12.8533281327
 11
-0.8776205964
 21
12.8528713512
  0
LINE
  5
3E1
100
AcDbEntity
  8
LAY0001
100
AcDbLine
 62
7
  6
CONTINUOUS
 10
-4.3404856656
 20
12.2415270456
 11
-4.3444878575
 21
12.2426817503
  0
LINE
  5
3E2
100
AcDbEntity
  8
LAY0001
100
AcDbLine
 62
7
  6
CONTINUOUS
 10
-4.3340821649
 20
12.2957981694
 11
-4.3300799775
 21
12.2946434648
  0
LINE
  5
3E3
100
AcDbEntity
  8
LAY0001
100
AcDbLine
 62
7
  6
CONTINUOUS
 10
-3.8634247517
 20
12.2415270456
 11
-3.8674269528
 21
12.2426817503
  0
LINE
  5
3E4
100
AcDbEntity
  8
LAY0001
100
AcDbLine
 62
7
  6
CONTINUOUS
 10
-3.7433590851
 20
12.2426817503
 11
-3.7393569206
 21
12.2415270456
  0
LINE
  5
3E5
100
AcDbEntity
  8
LAY0001
100
AcDbLine
 62
7
  6
CONTINUOUS
 10
-4.3404856656
 20
12.2484552741
 11
-4.3436874182
 21
12.2496099787
  0
LINE
  5
3E6
100
AcDbEntity
  8
LAY0001
100
AcDbLine
 62
7
  6
CONTINUOUS
 10
-4.3340821649
 20
12.2888699416
 11
-4.3308804122
 21
12.287715237
  0
LINE
  5
3E7
100
AcDbEntity
  8
LAY0001
100
AcDbLine
 62
7
  6
CONTINUOUS
 10
-3.8666264906
 20
12.2496099787
 11
-3.8634247517
 21
12.2484552741
  0
LINE
  5
3E8
100
AcDbEntity
  8
LAY0001
100
AcDbLine
 62
7
  6
CONTINUOUS
 10
-3.8530190728
 20
12.287715237
 11
-3.8562208117
 21
12.2888699416
  0
LINE
  5
3E9
100
AcDbEntity
  8
LAY0001
100
AcDbLine
 62
7
  6
CONTINUOUS
 10
-3.7393569206
 20
12.2484552741
 11
-3.7425586229
 21
12.2496099787
  0
LINE
  5
3EA
100
AcDbEntity
  8
LAY0001
100
AcDbLine
 62
7
  6
CONTINUOUS
 10
-3.7409577717
 20
12.2669305505
 11
-3.7377559962
 21
12.2657758459
  0
LINE
  5
3EB
100
AcDbEntity
  8
LAY0001
100
AcDbLine
 62
7
  6
CONTINUOUS
 10
-3.7329533695
 20
12.2657758459
 11
-3.7297516673
 21
12.2646211413
  0
LINE
  5
3EC
100
AcDbEntity
  8
LAY0001
100
AcDbLine
 62
7
  6
CONTINUOUS
 10
-3.6168899407
 20
12.2484552741
 11
-3.6200916429
 21
12.2496099787
  0
LINE
  5
3ED
100
AcDbEntity
  8
LAY0001
100
AcDbLine
 62
7
  6
CONTINUOUS
 10
-3.7377559962
 20
12.2727040737
 11
-3.7401573095
 21
12.2738587783
  0
LINE
  5
3EE
100
AcDbEntity
  8
LAY0001
100
AcDbLine
 62
7
  6
CONTINUOUS
 10
-3.7329533695
 20
12.2888699416
 11
-3.7305520562
 21
12.287715237
  0
LINE
  5
3EF
100
AcDbEntity
  8
LAY0001
100
AcDbLine
 62
7
  6
CONTINUOUS
 10
-3.7441595473
 20
12.2692399598
 11
-3.7409577717
 21
12.2669305505
  0
LINE
  5
3F0
100
AcDbEntity
  8
LAY0001
100
AcDbLine
 62
7
  6
CONTINUOUS
 10
-3.7257494295
 20
12.2692399598
 11
-3.7289512051
 21
12.271549369
  0
LINE
  5
3F1
100
AcDbEntity
  8
LAY0001
100
AcDbLine
 62
7
  6
CONTINUOUS
 10
-3.6240938807
 20
12.2449911598
 11
-3.6208921051
 21
12.2426817503
  0
LINE
  5
3F2
100
AcDbEntity
  8
LAY0001
100
AcDbLine
 62
7
  6
CONTINUOUS
 10
-3.8674269528
 20
12.2426817503
 11
-3.8706286917
 21
12.2449911598
  0
LINE
  5
3F3
100
AcDbEntity
  8
LAY0001
100
AcDbLine
 62
7
  6
CONTINUOUS
 10
-3.8522186106
 20
12.2946434648
 11
-3.8490168717
 21
12.2923340555
  0
LINE
  5
3F4
100
AcDbEntity
  8
LAY0001
100
AcDbLine
 62
7
  6
CONTINUOUS
 10
-4.2637581897
 20
12.9095635451
 11
-4.2568889378
 21
12.9042644194
  0
LINE
  5
3F5
100
AcDbEntity
  8
LAY0001
100
AcDbLine
 62
7
  6
CONTINUOUS
 10
-4.2513935395
 20
12.9519565514
 11
-4.2555150922
 21
12.9554893016
  0
LINE
  5
3F6
100
AcDbEntity
  8
LAY0001
100
AcDbLine
 62
7
  6
CONTINUOUS
 10
-4.2335334673
 20
12.9378255508
 11
-4.2294119146
 21
12.9342928006
  0
LINE
  5
3F7
100
AcDbEntity
  8
LAY0001
100
AcDbLine
 62
7
  6
CONTINUOUS
 10
-4.013717329
 20
12.9201617975
 11
-4.0178388817
 21
12.9236945476
  0
LINE
  5
3F8
100
AcDbEntity
  8
LAY0001
100
AcDbLine
 62
7
  6
CONTINUOUS
 10
-4.0453158892
 20
12.9731530573
 11
-4.0411943365
 21
12.9696203072
  0
LINE
  5
3F9
100
AcDbEntity
  8
LAY0001
100
AcDbLine
 62
7
  6
CONTINUOUS
 10
-3.9725018021
 20
12.9183954224
 11
-3.9683802494
 21
12.914862671
  0
LINE
  5
3FA
100
AcDbEntity
  8
LAY0001
100
AcDbLine
 62
7
  6
CONTINUOUS
 10
-3.9999788096
 20
12.9678539321
 11
-3.9958572569
 21
12.964321177
  0
LINE
  5
3FB
100
AcDbEntity
  8
LAY0001
100
AcDbLine
 62
7
  6
CONTINUOUS
 10
-3.940903242
 20
12.9696203072
 11
-3.9450247947
 21
12.9731530573
  0
LINE
  5
3FC
100
AcDbEntity
  8
LAY0001
100
AcDbLine
 62
7
  6
CONTINUOUS
 10
-3.7473612495
 20
12.2461458645
 11
-3.7433590851
 21
12.2426817503
  0
LINE
  5
3FD
100
AcDbEntity
  8
LAY0001
100
AcDbLine
 62
7
  6
CONTINUOUS
 10
-3.6200916429
 20
12.2496099787
 11
-3.6224929562
 21
12.2519193888
  0
LINE
  5
3FE
100
AcDbEntity
  8
LAY0001
100
AcDbLine
 62
7
  6
CONTINUOUS
 10
-4.228038069
 20
12.9784521826
 11
-4.2335334673
 21
12.9837513078
  0
LINE
  5
3FF
100
AcDbEntity
  8
LAY0001
100
AcDbLine
 62
7
  6
CONTINUOUS
 10
-3.8145089699
 20
12.9784521826
 11
-3.8200043525
 21
12.9837513078
  0
LINE
  5
400
100
AcDbEntity
  8
LAY0001
100
AcDbLine
 62
7
  6
CONTINUOUS
 10
-3.9381555192
 20
12.9802185577
 11
-3.9326601366
 21
12.9731530573
  0
LINE
  5
401
100
AcDbEntity
  8
LAY0001
100
AcDbLine
 62
7
  6
CONTINUOUS
 10
-3.8186305226
 20
12.9713866823
 11
-3.8213781825
 21
12.9749194324
  0
LINE
  5
402
100
AcDbEntity
  8
LAY0001
100
AcDbLine
 62
7
  6
CONTINUOUS
 10
-3.5287479414
 20
12.9802185577
 11
-3.5232525588
 21
12.9731530573
  0
LINE
  5
403
100
AcDbEntity
  8
0
100
AcDbLine
 62
7
  6
CONTINUOUS
 10
-1.6920562068
 20
13.693725118
 11
-1.6920562068
 21
13.633812338
  0
LINE
  5
404
100
AcDbEntity
  8
0
100
AcDbLine
 62
7
  6
CONTINUOUS
 10
-1.6920562068
 20
11.9392037564
 11
-1.6920562068
 21
13.6330601294
  0
LINE
  5
405
100
AcDbEntity
  8
03___PRT_ALL_CURVES
100
AcDbLine
 62
4
  6
CONTINUOUS
 10
-1.0281443161
 20
12.8674883605
 11
-1.0279334396
 21
12.8684019234
  0
LINE
  5
406
100
AcDbEntity
  8
03___PRT_ALL_CURVES
100
AcDbLine
 62
4
  6
CONTINUOUS
 10
-0.9916192658
 20
12.854241696
 11
-0.9918301413
 21
12.8533281327
  0
LINE
  5
407
100
AcDbEntity
  8
03___PRT_ALL_CURVES
100
AcDbLine
 62
4
  6
CONTINUOUS
 10
-0.9366791755
 20
12.8327477828
 11
-0.9364682994
 21
12.8336613457
  0
LINE
  5
408
100
AcDbEntity
  8
03___PRT_ALL_CURVES
100
AcDbLine
 62
4
  6
CONTINUOUS
 10
-0.8982541528
 20
12.8195011183
 11
-0.8984650282
 21
12.818587555
  0
LINE
  5
409
100
AcDbEntity
  8
03___PRT_ALL_CURVES
100
AcDbLine
 62
4
  6
CONTINUOUS
 10
-0.8757209826
 20
12.854241696
 11
-0.8759318581
 21
12.8533281327
  0
LINE
  5
40A
100
AcDbEntity
  8
03___PRT_ALL_CURVES
100
AcDbLine
 62
4
  6
CONTINUOUS
 10
-0.7492708879
 20
12.8684019234
 11
-0.749481764
 21
12.8674883605
  0
LINE
  5
40B
100
AcDbEntity
  8
03___PRT_ALL_CURVES
100
AcDbLine
 62
4
  6
CONTINUOUS
 10
-0.7106342843
 20
12.8533281327
 11
-0.7104234088
 21
12.854241696
  0
LINE
  5
40C
100
AcDbEntity
  8
0
100
AcDbLine
 62
7
  6
CONTINUOUS
 10
-0.7670729116
 20
12.7018801624
 11
-0.7654138403
 21
12.7064515899
  0
LINE
  5
40D
100
AcDbEntity
  8
0
100
AcDbLine
 62
7
  6
CONTINUOUS
 10
-0.4085876388
 20
12.7018801624
 11
-0.4069285676
 21
12.7064515899
  0
LINE
  5
40E
100
AcDbEntity
  8
03___PRT_ALL_CURVES
100
AcDbLine
 62
4
  6
CONTINUOUS
 10
-0.9918301413
 20
12.8533281327
 11
-0.9935188896
 21
12.8528713512
  0
LINE
  5
40F
100
AcDbEntity
  8
03___PRT_ALL_CURVES
100
AcDbLine
 62
4
  6
CONTINUOUS
 10
-1.0319453033
 20
12.8715993937
 11
-1.0336340516
 21
12.8711426122
  0
LINE
  5
410
100
AcDbEntity
  8
03___PRT_ALL_CURVES
100
AcDbLine
 62
4
  6
CONTINUOUS
 10
-0.7049336818
 20
12.8505874436
 11
-0.7072557634
 21
12.8501306621
  0
LINE
  5
411
100
AcDbEntity
  8
03___PRT_ALL_CURVES
100
AcDbLine
 62
4
  6
CONTINUOUS
 10
-0.8927644149
 20
12.8158468659
 11
-0.8950864892
 21
12.8153900844
  0
LINE
  5
412
100
AcDbEntity
  8
03___PRT_ALL_CURVES
100
AcDbLine
 62
4
  6
CONTINUOUS
 10
-0.7549714899
 20
12.8711426122
 11
-0.7526494373
 21
12.8715993937
  0
LINE
  5
413
100
AcDbEntity
  8
03___PRT_ALL_CURVES
100
AcDbLine
 62
4
  6
CONTINUOUS
 10
-0.9421689087
 20
12.8364020345
 11
-0.9398468379
 21
12.836858816
  0
LINE
  5
414
100
AcDbEntity
  8
03___PRT_ALL_CURVES
100
AcDbLine
 62
4
  6
CONTINUOUS
 10
-0.8702312411
 20
12.8505874436
 11
-0.8725533081
 21
12.8501306621
  0
LINE
  5
415
100
AcDbEntity
  8
03___PRT_ALL_CURVES
100
AcDbLine
 62
4
  6
CONTINUOUS
 10
-0.9884516013
 20
12.8501306621
 11
-0.9861295297
 21
12.8505874436
  0
LINE
  5
416
100
AcDbEntity
  8
0
100
AcDbLine
 62
7
  6
CONTINUOUS
 10
0.1180340625
 20
12.2389768561
 11
1.4616481555
 21
12.2389768561
  0
LINE
  5
417
100
AcDbEntity
  8
LAY0001
100
AcDbLine
 62
7
  6
CONTINUOUS
 10
-3.7393569206
 20
12.2415270456
 11
-3.7329533695
 21
12.2415270456
  0
LINE
  5
418
100
AcDbEntity
  8
LAY0001
100
AcDbLine
 62
7
  6
CONTINUOUS
 10
-3.6168899407
 20
12.2415270456
 11
-3.6136881651
 21
12.2415270456
  0
LINE
  5
419
100
AcDbEntity
  8
LAY0001
100
AcDbLine
 62
7
  6
CONTINUOUS
 10
-3.5288417363
 20
12.2415270456
 11
-3.5576574963
 21
12.2415270456
  0
LINE
  5
41A
100
AcDbEntity
  8
LAY0001
100
AcDbLine
 62
7
  6
CONTINUOUS
 10
-3.5768680029
 20
12.2415270456
 11
-3.5816706296
 21
12.2415270456
  0
LINE
  5
41B
100
AcDbEntity
  8
LAY0001
100
AcDbLine
 62
7
  6
CONTINUOUS
 10
-3.6489074029
 20
12.2415270456
 11
-3.6537100296
 21
12.2415270456
  0
LINE
  5
41C
100
AcDbEntity
  8
LAY0001
100
AcDbLine
 62
7
  6
CONTINUOUS
 10
-3.6729205362
 20
12.2415270456
 11
-3.6777231629
 21
12.2415270456
  0
LINE
  5
41D
100
AcDbEntity
  8
LAY0001
100
AcDbLine
 62
7
  6
CONTINUOUS
 10
-3.6969336696
 20
12.2415270456
 11
-3.7017362962
 21
12.2415270456
  0
LINE
  5
41E
100
AcDbEntity
  8
LAY0001
100
AcDbLine
 62
7
  6
CONTINUOUS
 10
-3.7569665029
 20
12.2415270456
 11
-3.7641704429
 21
12.2415270456
  0
LINE
  5
41F
100
AcDbEntity
  8
LAY0001
100
AcDbLine
 62
7
  6
CONTINUOUS
 10
-3.7841814117
 20
12.2415270456
 11
-3.7889840384
 21
12.2415270456
  0
LINE
  5
420
100
AcDbEntity
  8
LAY0001
100
AcDbLine
 62
7
  6
CONTINUOUS
 10
-3.7953875528
 20
12.2415270456
 11
-3.8001901795
 21
12.2415270456
  0
LINE
  5
421
100
AcDbEntity
  8
LAY0001
100
AcDbLine
 62
7
  6
CONTINUOUS
 10
-3.8562208117
 20
12.2415270456
 11
-3.8634247517
 21
12.2415270456
  0
LINE
  5
422
100
AcDbEntity
  8
LAY0001
100
AcDbLine
 62
7
  6
CONTINUOUS
 10
-3.8826352584
 20
12.2415270456
 11
-3.8898391984
 21
12.2415270456
  0
LINE
  5
423
100
AcDbEntity
  8
LAY0001
100
AcDbLine
 62
7
  6
CONTINUOUS
 10
-3.9210562717
 20
12.2415270456
 11
-3.9258588983
 21
12.2415270456
  0
LINE
  5
424
100
AcDbEntity
  8
LAY0001
100
AcDbLine
 62
7
  6
CONTINUOUS
 10
-3.9098501306
 20
12.2415270456
 11
-3.9146527572
 21
12.2415270456
  0
LINE
  5
425
100
AcDbEntity
  8
LAY0001
100
AcDbLine
 62
7
  6
CONTINUOUS
 10
-3.945069405
 20
12.2415270456
 11
-3.9498720317
 21
12.2415270456
  0
LINE
  5
426
100
AcDbEntity
  8
LAY0001
100
AcDbLine
 62
7
  6
CONTINUOUS
 10
-3.9690825383
 20
12.2415270456
 11
-3.973885165
 21
12.2415270456
  0
LINE
  5
427
100
AcDbEntity
  8
LAY0001
100
AcDbLine
 62
7
  6
CONTINUOUS
 10
-3.9962974105
 20
12.2415270456
 11
-4.0011000372
 21
12.2415270456
  0
LINE
  5
428
100
AcDbEntity
  8
LAY0001
100
AcDbLine
 62
7
  6
CONTINUOUS
 10
-4.0075035516
 20
12.2415270456
 11
-4.0363193116
 21
12.2415270456
  0
LINE
  5
429
100
AcDbEntity
  8
LAY0001
100
AcDbLine
 62
7
  6
CONTINUOUS
 10
-4.0427228261
 20
12.2415270456
 11
-4.0475254527
 21
12.2415270456
  0
LINE
  5
42A
100
AcDbEntity
  8
LAY0001
100
AcDbLine
 62
7
  6
CONTINUOUS
 10
-4.0667359594
 20
12.2415270456
 11
-4.0715385861
 21
12.2415270456
  0
LINE
  5
42B
100
AcDbEntity
  8
LAY0001
100
AcDbLine
 62
7
  6
CONTINUOUS
 10
-4.0907490744
 20
12.2415270456
 11
-4.0979530144
 21
12.2415270456
  0
LINE
  5
42C
100
AcDbEntity
  8
LAY0001
100
AcDbLine
 62
7
  6
CONTINUOUS
 10
-4.1179639649
 20
12.2415270456
 11
-4.1227665916
 21
12.2415270456
  0
LINE
  5
42D
100
AcDbEntity
  8
LAY0001
100
AcDbLine
 62
7
  6
CONTINUOUS
 10
-4.1291700877
 20
12.2415270456
 11
-4.1579858477
 21
12.2415270456
  0
LINE
  5
42E
100
AcDbEntity
  8
LAY0001
100
AcDbLine
 62
7
  6
CONTINUOUS
 10
-4.1771963544
 20
12.2415270456
 11
-4.1835998688
 21
12.2415270456
  0
LINE
  5
42F
100
AcDbEntity
  8
LAY0001
100
AcDbLine
 62
7
  6
CONTINUOUS
 10
-4.2764506449
 20
12.2415270456
 11
-4.2812532715
 21
12.2415270456
  0
LINE
  5
430
100
AcDbEntity
  8
LAY0001
100
AcDbLine
 62
7
  6
CONTINUOUS
 10
-4.2412313796
 20
12.2415270456
 11
-4.2700471396
 21
12.2415270456
  0
LINE
  5
431
100
AcDbEntity
  8
LAY0001
100
AcDbLine
 62
7
  6
CONTINUOUS
 10
-4.2924594035
 20
12.2415270456
 11
-4.2988628996
 21
12.2415270456
  0
LINE
  5
432
100
AcDbEntity
  8
LAY0001
100
AcDbLine
 62
7
  6
CONTINUOUS
 10
-4.3100690315
 20
12.2415270456
 11
-4.3148716582
 21
12.2415270456
  0
LINE
  5
433
100
AcDbEntity
  8
LAY0001
100
AcDbLine
 62
7
  6
CONTINUOUS
 10
-4.3340821649
 20
12.2415270456
 11
-4.3404856656
 21
12.2415270456
  0
LINE
  5
434
100
AcDbEntity
  8
LAY0001
100
AcDbLine
 62
7
  6
CONTINUOUS
 10
-4.3596961745
 20
12.2415270456
 11
-4.3644988012
 21
12.2415270456
  0
LINE
  5
435
100
AcDbEntity
  8
LAY0001
100
AcDbLine
 62
7
  6
CONTINUOUS
 10
-4.3869110582
 20
12.2415270456
 11
-4.3917136848
 21
12.2415270456
  0
LINE
  5
436
100
AcDbEntity
  8
0
100
AcDbLine
 62
3
  6
CONTINUOUS
 10
0.1206467732
 20
12.2461759545
 11
1.4642608662
 21
12.2461759545
  0
LINE
  5
437
100
AcDbEntity
  8
LAY0001
100
AcDbLine
 62
7
  6
CONTINUOUS
 10
-4.2652445129
 20
12.2484552741
 11
-4.2412313796
 21
12.2484552741
  0
LINE
  5
438
100
AcDbEntity
  8
LAY0001
100
AcDbLine
 62
7
  6
CONTINUOUS
 10
-4.153183221
 20
12.2484552741
 11
-4.1291700877
 21
12.2484552741
  0
LINE
  5
439
100
AcDbEntity
  8
LAY0001
100
AcDbLine
 62
7
  6
CONTINUOUS
 10
-4.031516685
 20
12.2484552741
 11
-4.0075035516
 21
12.2484552741
  0
LINE
  5
43A
100
AcDbEntity
  8
LAY0001
100
AcDbLine
 62
7
  6
CONTINUOUS
 10
-3.8634247517
 20
12.2484552741
 11
-3.8562208117
 21
12.2484552741
  0
LINE
  5
43B
100
AcDbEntity
  8
LAY0001
100
AcDbLine
 62
7
  6
CONTINUOUS
 10
-3.5528548696
 20
12.2484552741
 11
-3.5288417363
 21
12.2484552741
  0
LINE
  5
43C
100
AcDbEntity
  8
LAY0001
100
AcDbLine
 62
7
  6
CONTINUOUS
 10
-3.6136881651
 20
12.2484552741
 11
-3.6168899407
 21
12.2484552741
  0
LINE
  5
43D
100
AcDbEntity
  8
LAY0001
100
AcDbLine
 62
7
  6
CONTINUOUS
 10
-3.7329533695
 20
12.2484552741
 11
-3.7393569206
 21
12.2484552741
  0
LINE
  5
43E
100
AcDbEntity
  8
LAY0001
100
AcDbLine
 62
7
  6
CONTINUOUS
 10
-4.3340821649
 20
12.2484552741
 11
-4.3404856656
 21
12.2484552741
  0
LINE
  5
43F
100
AcDbEntity
  8
LAY0001
100
AcDbLine
 62
7
  6
CONTINUOUS
 10
-3.9770869039
 20
12.2553835027
 11
-3.9930956717
 21
12.2553835027
  0
LINE
  5
440
100
AcDbEntity
  8
LAY0001
100
AcDbLine
 62
7
  6
CONTINUOUS
 10
-3.7457603984
 20
12.2565382073
 11
-3.7505630251
 21
12.2565382073
  0
LINE
  5
441
100
AcDbEntity
  8
LAY0001
100
AcDbLine
 62
7
  6
CONTINUOUS
 10
-3.9778873661
 20
12.2600023212
 11
-3.9922952461
 21
12.2600023212
  0
LINE
  5
442
100
AcDbEntity
  8
LAY0001
100
AcDbLine
 62
7
  6
CONTINUOUS
 10
-3.8498172973
 20
12.2646211413
 11
-3.8570212373
 21
12.2646211413
  0
LINE
  5
443
100
AcDbEntity
  8
LAY0001
100
AcDbLine
 62
7
  6
CONTINUOUS
 10
-3.7377559962
 20
12.2657758459
 11
-3.7329533695
 21
12.2657758459
  0
LINE
  5
444
100
AcDbEntity
  8
LAY0001
100
AcDbLine
 62
7
  6
CONTINUOUS
 10
-3.5320435118
 20
12.2669305505
 11
-3.5528548696
 21
12.2669305505
  0
LINE
  5
445
100
AcDbEntity
  8
LAY0001
100
AcDbLine
 62
7
  6
CONTINUOUS
 10
-4.1323718449
 20
12.2669305505
 11
-4.153183221
 21
12.2669305505
  0
LINE
  5
446
100
AcDbEntity
  8
LAY0001
100
AcDbLine
 62
7
  6
CONTINUOUS
 10
-4.2444331368
 20
12.2669305505
 11
-4.2652445129
 21
12.2669305505
  0
LINE
  5
447
100
AcDbEntity
  8
LAY0001
100
AcDbLine
 62
7
  6
CONTINUOUS
 10
-4.3644988012
 20
12.2669305505
 11
-4.3869110582
 21
12.2669305505
  0
LINE
  5
448
100
AcDbEntity
  8
LAY0001
100
AcDbLine
 62
7
  6
CONTINUOUS
 10
-3.8570212373
 20
12.271549369
 11
-3.8450146706
 21
12.271549369
  0
LINE
  5
449
100
AcDbEntity
  8
LAY0001
100
AcDbLine
 62
7
  6
CONTINUOUS
 10
-3.7329533695
 20
12.2727040737
 11
-3.7377559962
 21
12.2727040737
  0
LINE
  5
44A
100
AcDbEntity
  8
LAY0001
100
AcDbLine
 62
7
  6
CONTINUOUS
 10
-4.3869110582
 20
12.2738587783
 11
-4.3644988012
 21
12.2738587783
  0
LINE
  5
44B
100
AcDbEntity
  8
LAY0001
100
AcDbLine
 62
7
  6
CONTINUOUS
 10
-4.2652445129
 20
12.2738587783
 11
-4.2444331368
 21
12.2738587783
  0
LINE
  5
44C
100
AcDbEntity
  8
LAY0001
100
AcDbLine
 62
7
  6
CONTINUOUS
 10
-4.153183221
 20
12.2738587783
 11
-4.1323718449
 21
12.2738587783
  0
LINE
  5
44D
100
AcDbEntity
  8
LAY0001
100
AcDbLine
 62
7
  6
CONTINUOUS
 10
-3.5528548696
 20
12.2738587783
 11
-3.5320435118
 21
12.2738587783
  0
LINE
  5
44E
100
AcDbEntity
  8
LAY0001
100
AcDbLine
 62
7
  6
CONTINUOUS
 10
-3.8450146706
 20
12.2819417106
 11
-3.8498172973
 21
12.2819417106
  0
LINE
  5
44F
100
AcDbEntity
  8
LAY0001
100
AcDbLine
 62
7
  6
CONTINUOUS
 10
-3.7281507429
 20
12.2830964185
 11
-3.7233481162
 21
12.2830964185
  0
LINE
  5
450
100
AcDbEntity
  8
LAY0001
100
AcDbLine
 62
7
  6
CONTINUOUS
 10
-4.3404856656
 20
12.2888699416
 11
-4.3340821649
 21
12.2888699416
  0
LINE
  5
451
100
AcDbEntity
  8
LAY0001
100
AcDbLine
 62
7
  6
CONTINUOUS
 10
-3.7377559962
 20
12.2888699416
 11
-3.7329533695
 21
12.2888699416
  0
LINE
  5
452
100
AcDbEntity
  8
LAY0001
100
AcDbLine
 62
7
  6
CONTINUOUS
 10
-3.5288417363
 20
12.2888699416
 11
-3.5528548696
 21
12.2888699416
  0
LINE
  5
453
100
AcDbEntity
  8
LAY0001
100
AcDbLine
 62
7
  6
CONTINUOUS
 10
-3.8562208117
 20
12.2888699416
 11
-3.8634247517
 21
12.2888699416
  0
LINE
  5
454
100
AcDbEntity
  8
LAY0001
100
AcDbLine
 62
7
  6
CONTINUOUS
 10
-4.1291700877
 20
12.2888699416
 11
-4.153183221
 21
12.2888699416
  0
LINE
  5
455
100
AcDbEntity
  8
LAY0001
100
AcDbLine
 62
7
  6
CONTINUOUS
 10
-4.2412313796
 20
12.2888699416
 11
-4.2652445129
 21
12.2888699416
  0
LINE
  5
456
100
AcDbEntity
  8
LAY0001
100
AcDbLine
 62
7
  6
CONTINUOUS
 10
-3.5640610473
 20
12.2900246463
 11
-3.5768680029
 21
12.2900246463
  0
LINE
  5
457
100
AcDbEntity
  8
LAY0001
100
AcDbLine
 62
7
  6
CONTINUOUS
 10
-3.5816706296
 20
12.2900246463
 11
-3.5944776585
 21
12.2900246463
  0
LINE
  5
458
100
AcDbEntity
  8
LAY0001
100
AcDbLine
 62
7
  6
CONTINUOUS
 10
-3.6361004473
 20
12.2900246463
 11
-3.6489074029
 21
12.2900246463
  0
LINE
  5
459
100
AcDbEntity
  8
LAY0001
100
AcDbLine
 62
7
  6
CONTINUOUS
 10
-3.6537100296
 20
12.2900246463
 11
-3.6665170584
 21
12.2900246463
  0
LINE
  5
45A
100
AcDbEntity
  8
LAY0001
100
AcDbLine
 62
7
  6
CONTINUOUS
 10
-3.684126714
 20
12.2900246463
 11
-3.6969336696
 21
12.2900246463
  0
LINE
  5
45B
100
AcDbEntity
  8
LAY0001
100
AcDbLine
 62
7
  6
CONTINUOUS
 10
-3.7017362962
 20
12.2900246463
 11
-3.7145433251
 21
12.2900246463
  0
LINE
  5
45C
100
AcDbEntity
  8
LAY0001
100
AcDbLine
 62
7
  6
CONTINUOUS
 10
-3.9322624128
 20
12.2900246463
 11
-3.945069405
 21
12.2900246463
  0
LINE
  5
45D
100
AcDbEntity
  8
LAY0001
100
AcDbLine
 62
7
  6
CONTINUOUS
 10
-3.9498720317
 20
12.2900246463
 11
-3.9626790239
 21
12.2900246463
  0
LINE
  5
45E
100
AcDbEntity
  8
LAY0001
100
AcDbLine
 62
7
  6
CONTINUOUS
 10
-4.0539289305
 20
12.2900246463
 11
-4.0667359594
 21
12.2900246463
  0
LINE
  5
45F
100
AcDbEntity
  8
LAY0001
100
AcDbLine
 62
7
  6
CONTINUOUS
 10
-4.0715385861
 20
12.2900246463
 11
-4.0843455783
 21
12.2900246463
  0
LINE
  5
460
100
AcDbEntity
  8
LAY0001
100
AcDbLine
 62
7
  6
CONTINUOUS
 10
-4.3917136848
 20
12.2957981694
 11
-4.3869110582
 21
12.2957981694
  0
LINE
  5
461
100
AcDbEntity
  8
LAY0001
100
AcDbLine
 62
7
  6
CONTINUOUS
 10
-4.3644988012
 20
12.2957981694
 11
-4.3596961745
 21
12.2957981694
  0
LINE
  5
462
100
AcDbEntity
  8
LAY0001
100
AcDbLine
 62
7
  6
CONTINUOUS
 10
-4.3404856656
 20
12.2957981694
 11
-4.3340821649
 21
12.2957981694
  0
LINE
  5
463
100
AcDbEntity
  8
LAY0001
100
AcDbLine
 62
7
  6
CONTINUOUS
 10
-4.3148716582
 20
12.2957981694
 11
-4.3076677182
 21
12.2957981694
  0
LINE
  5
464
100
AcDbEntity
  8
LAY0001
100
AcDbLine
 62
7
  6
CONTINUOUS
 10
-4.2836545849
 20
12.2957981694
 11
-4.2764506449
 21
12.2957981694
  0
LINE
  5
465
100
AcDbEntity
  8
LAY0001
100
AcDbLine
 62
7
  6
CONTINUOUS
 10
-4.2700471396
 20
12.2957981694
 11
-4.2412313796
 21
12.2957981694
  0
LINE
  5
466
100
AcDbEntity
  8
LAY0001
100
AcDbLine
 62
7
  6
CONTINUOUS
 10
-4.196406861
 20
12.2957981694
 11
-4.1916042344
 21
12.2957981694
  0
LINE
  5
467
100
AcDbEntity
  8
LAY0001
100
AcDbLine
 62
7
  6
CONTINUOUS
 10
-4.1691919888
 20
12.2957981694
 11
-4.1643893621
 21
12.2957981694
  0
LINE
  5
468
100
AcDbEntity
  8
LAY0001
100
AcDbLine
 62
7
  6
CONTINUOUS
 10
-4.1579858477
 20
12.2957981694
 11
-4.1291700877
 21
12.2957981694
  0
LINE
  5
469
100
AcDbEntity
  8
LAY0001
100
AcDbLine
 62
7
  6
CONTINUOUS
 10
-4.1227665916
 20
12.2957981694
 11
-4.1155626516
 21
12.2957981694
  0
LINE
  5
46A
100
AcDbEntity
  8
LAY0001
100
AcDbLine
 62
7
  6
CONTINUOUS
 10
-4.0955517011
 20
12.2957981694
 11
-4.0907490744
 21
12.2957981694
  0
LINE
  5
46B
100
AcDbEntity
  8
LAY0001
100
AcDbLine
 62
7
  6
CONTINUOUS
 10
-4.0843455783
 20
12.2957981694
 11
-4.0539289305
 21
12.2957981694
  0
LINE
  5
46C
100
AcDbEntity
  8
LAY0001
100
AcDbLine
 62
7
  6
CONTINUOUS
 10
-4.0475254527
 20
12.2957981694
 11
-4.0427228261
 21
12.2957981694
  0
LINE
  5
46D
100
AcDbEntity
  8
LAY0001
100
AcDbLine
 62
7
  6
CONTINUOUS
 10
-4.0363193116
 20
12.2957981694
 11
-4.031516685
 21
12.2957981694
  0
LINE
  5
46E
100
AcDbEntity
  8
LAY0001
100
AcDbLine
 62
7
  6
CONTINUOUS
 10
-3.988293045
 20
12.2957981694
 11
-3.9818895306
 21
12.2957981694
  0
LINE
  5
46F
100
AcDbEntity
  8
LAY0001
100
AcDbLine
 62
7
  6
CONTINUOUS
 10
-3.9626790239
 20
12.2957981694
 11
-3.9322624128
 21
12.2957981694
  0
LINE
  5
470
100
AcDbEntity
  8
LAY0001
100
AcDbLine
 62
7
  6
CONTINUOUS
 10
-3.9258588983
 20
12.2957981694
 11
-3.9210562717
 21
12.2957981694
  0
LINE
  5
471
100
AcDbEntity
  8
LAY0001
100
AcDbLine
 62
7
  6
CONTINUOUS
 10
-3.9146527572
 20
12.2957981694
 11
-3.9074488172
 21
12.2957981694
  0
LINE
  5
472
100
AcDbEntity
  8
LAY0001
100
AcDbLine
 62
7
  6
CONTINUOUS
 10
-3.887437885
 20
12.2957981694
 11
-3.8826352584
 21
12.2957981694
  0
LINE
  5
473
100
AcDbEntity
  8
LAY0001
100
AcDbLine
 62
7
  6
CONTINUOUS
 10
-3.8634247517
 20
12.2957981694
 11
-3.8562208117
 21
12.2957981694
  0
LINE
  5
474
100
AcDbEntity
  8
LAY0001
100
AcDbLine
 62
7
  6
CONTINUOUS
 10
-3.8001901795
 20
12.2957981694
 11
-3.7953875528
 21
12.2957981694
  0
LINE
  5
475
100
AcDbEntity
  8
LAY0001
100
AcDbLine
 62
7
  6
CONTINUOUS
 10
-3.7889840384
 20
12.2957981694
 11
-3.7817800984
 21
12.2957981694
  0
LINE
  5
476
100
AcDbEntity
  8
LAY0001
100
AcDbLine
 62
7
  6
CONTINUOUS
 10
-3.7617691295
 20
12.2957981694
 11
-3.7569665029
 21
12.2957981694
  0
LINE
  5
477
100
AcDbEntity
  8
LAY0001
100
AcDbLine
 62
7
  6
CONTINUOUS
 10
-3.7145433251
 20
12.2957981694
 11
-3.684126714
 21
12.2957981694
  0
LINE
  5
478
100
AcDbEntity
  8
LAY0001
100
AcDbLine
 62
7
  6
CONTINUOUS
 10
-3.6777231629
 20
12.2957981694
 11
-3.6729205362
 21
12.2957981694
  0
LINE
  5
479
100
AcDbEntity
  8
LAY0001
100
AcDbLine
 62
7
  6
CONTINUOUS
 10
-3.6665170584
 20
12.2957981694
 11
-3.6361004473
 21
12.2957981694
  0
LINE
  5
47A
100
AcDbEntity
  8
LAY0001
100
AcDbLine
 62
7
  6
CONTINUOUS
 10
-3.5944776585
 20
12.2957981694
 11
-3.5640610473
 21
12.2957981694
  0
LINE
  5
47B
100
AcDbEntity
  8
LAY0001
100
AcDbLine
 62
7
  6
CONTINUOUS
 10
-3.5576574963
 20
12.2957981694
 11
-3.5288417363
 21
12.2957981694
  0
LINE
  5
47C
100
AcDbEntity
  8
LAY0001
100
AcDbLine
 62
7
  6
CONTINUOUS
 10
-3.6008811363
 20
12.2957981694
 11
-3.6056837629
 21
12.2957981694
  0
LINE
  5
47D
100
AcDbEntity
  8
LAY0001
100
AcDbLine
 62
7
  6
CONTINUOUS
 10
-3.6248942696
 20
12.2957981694
 11
-3.6296968962
 21
12.2957981694
  0
LINE
  5
47E
100
AcDbEntity
  8
LAY0001
100
AcDbLine
 62
7
  6
CONTINUOUS
 10
-3.7337538317
 20
12.2957981694
 11
-3.7377559962
 21
12.2957981694
  0
LINE
  5
47F
100
AcDbEntity
  8
LAY0001
100
AcDbLine
 62
7
  6
CONTINUOUS
 10
-3.526959262
 20
12.3128211503
 11
-3.5741846509
 21
12.3128211503
  0
LINE
  5
480
100
AcDbEntity
  8
LAY0001
100
AcDbLine
 62
7
  6
CONTINUOUS
 10
-3.8008665404
 20
12.3128211503
 11
-3.8764271703
 21
12.3128211503
  0
LINE
  5
481
100
AcDbEntity
  8
LAY0001
100
AcDbLine
 62
7
  6
CONTINUOUS
 10
-4.103109041
 20
12.3128211503
 11
-4.159779504
 21
12.3128211503
  0
LINE
  5
482
100
AcDbEntity
  8
LAY0001
100
AcDbLine
 62
7
  6
CONTINUOUS
 10
-4.4242416897
 20
12.3128211503
 11
-4.4809121714
 21
12.3128211503
  0
LINE
  5
483
100
AcDbEntity
  8
LAY0001
100
AcDbLine
 62
7
  6
CONTINUOUS
 10
-4.159779504
 20
12.4181966054
 11
-4.4242416897
 21
12.4181966054
  0
LINE
  5
484
100
AcDbEntity
  8
LAY0001
100
AcDbLine
 62
7
  6
CONTINUOUS
 10
-4.4242416897
 20
12.446935365
 11
-4.159779504
 21
12.446935365
  0
LINE
  5
485
100
AcDbEntity
  8
LAY0001
100
AcDbLine
 62
7
  6
CONTINUOUS
 10
-3.5741846509
 20
12.4660945412
 11
-3.526959262
 21
12.4660945412
  0
LINE
  5
486
100
AcDbEntity
  8
LAY0001
100
AcDbLine
 62
7
  6
CONTINUOUS
 10
-3.526959262
 20
12.5139924771
 11
-3.5741846509
 21
12.5139924771
  0
LINE
  5
487
100
AcDbEntity
  8
LAY0001
100
AcDbLine
 62
7
  6
CONTINUOUS
 10
-4.4809121714
 20
12.5379414427
 11
-4.4242416897
 21
12.5379414427
  0
LINE
  5
488
100
AcDbEntity
  8
LAY0001
100
AcDbLine
 62
7
  6
CONTINUOUS
 10
-4.159779504
 20
12.5379414427
 11
-4.103109041
 21
12.5379414427
  0
LINE
  5
489
100
AcDbEntity
  8
LAY0001
100
AcDbLine
 62
7
  6
CONTINUOUS
 10
-4.0275484159
 20
12.5379414427
 11
-3.9708779482
 21
12.5379414427
  0
LINE
  5
48A
100
AcDbEntity
  8
LAY0001
100
AcDbLine
 62
7
  6
CONTINUOUS
 10
-3.7064157625
 20
12.5379414427
 11
-3.6497452808
 21
12.5379414427
  0
LINE
  5
48B
100
AcDbEntity
  8
LAY0001
100
AcDbLine
 62
7
  6
CONTINUOUS
 10
-3.5741846509
 20
12.5379414427
 11
-3.526959262
 21
12.5379414427
  0
LINE
  5
48C
100
AcDbEntity
  8
LAY0001
100
AcDbLine
 62
7
  6
CONTINUOUS
 10
-4.5196803465
 20
12.5668913647
 11
-3.3976331024
 21
12.5668913647
  0
LINE
  5
48D
100
AcDbEntity
  8
0
100
AcDbLine
 62
7
  6
CONTINUOUS
 10
-2.2889091572
 20
12.6227291656
 11
-2.5298514824
 21
12.6227291656
  0
LINE
  5
48E
100
AcDbEntity
  8
0
100
AcDbLine
 62
7
  6
CONTINUOUS
 10
-2.6676467579
 20
12.6227291656
 11
-2.9270955768
 21
12.6227291656
  0
LINE
  5
48F
100
AcDbEntity
  8
LAY0001
100
AcDbLine
 62
7
  6
CONTINUOUS
 10
-4.2568889378
 20
12.9042644194
 11
-4.2500196781
 21
12.9024980442
  0
LINE
  5
490
100
AcDbEntity
  8
LAY0001
100
AcDbLine
 62
7
  6
CONTINUOUS
 10
-3.8562208117
 20
12.2957981694
 11
-3.8522186106
 21
12.2946434648
  0
LINE
  5
491
100
AcDbEntity
  8
LAY0001
100
AcDbLine
 62
7
  6
CONTINUOUS
 10
-3.7289512051
 20
12.271549369
 11
-3.7329533695
 21
12.2727040737
  0
LINE
  5
492
100
AcDbEntity
  8
LAY0001
100
AcDbLine
 62
7
  6
CONTINUOUS
 10
-3.6208921051
 20
12.2426817503
 11
-3.6168899407
 21
12.2415270456
  0
LINE
  5
493
100
AcDbEntity
  8
LAY0001
100
AcDbLine
 62
7
  6
CONTINUOUS
 10
-3.7297516673
 20
12.2946434648
 11
-3.7337538317
 21
12.2957981694
  0
LINE
  5
494
100
AcDbEntity
  8
LAY0001
100
AcDbLine
 62
7
  6
CONTINUOUS
 10
-4.2500196781
 20
12.9130962959
 11
-4.2555150922
 21
12.914862671
  0
LINE
  5
495
100
AcDbEntity
  8
LAY0001
100
AcDbLine
 62
7
  6
CONTINUOUS
 10
-4.2527673851
 20
12.9413583009
 11
-4.2472719868
 21
12.9395919258
  0
LINE
  5
496
100
AcDbEntity
  8
LAY0001
100
AcDbLine
 62
7
  6
CONTINUOUS
 10
-4.2390288814
 20
12.9395919258
 11
-4.2335334673
 21
12.9378255508
  0
LINE
  5
497
100
AcDbEntity
  8
LAY0001
100
AcDbLine
 62
7
  6
CONTINUOUS
 10
-4.2472719868
 20
12.9501901763
 11
-4.2513935395
 21
12.9519565514
  0
LINE
  5
498
100
AcDbEntity
  8
LAY0001
100
AcDbLine
 62
7
  6
CONTINUOUS
 10
-4.2390288814
 20
12.9749194324
 11
-4.2349073287
 21
12.9731530573
  0
LINE
  5
499
100
AcDbEntity
  8
LAY0001
100
AcDbLine
 62
7
  6
CONTINUOUS
 10
-3.8213781825
 20
12.9749194324
 11
-3.8254997352
 21
12.9766858075
  0
LINE
  5
49A
100
AcDbEntity
  8
LAY0001
100
AcDbLine
 62
7
  6
CONTINUOUS
 10
-3.3976331024
 20
12.5668913647
 11
-3.9586567245
 21
12.8424819158
  0
LINE
  5
49B
100
AcDbEntity
  8
LAY0001
100
AcDbLine
 62
7
  6
CONTINUOUS
 10
-4.2582627835
 20
12.9448910511
 11
-4.2527673851
 21
12.9413583009
  0
LINE
  5
49C
100
AcDbEntity
  8
LAY0001
100
AcDbLine
 62
7
  6
CONTINUOUS
 10
-4.2266642233
 20
12.9448910511
 11
-4.2321596217
 21
12.9484238013
  0
LINE
  5
49D
100
AcDbEntity
  8
LAY0001
100
AcDbLine
 62
7
  6
CONTINUOUS
 10
-3.9697541108
 20
12.9042644194
 11
-3.9752494934
 21
12.9077971701
  0
LINE
  5
49E
100
AcDbEntity
  8
LAY0001
100
AcDbLine
 62
7
  6
CONTINUOUS
 10
-4.0439420592
 20
12.9837513078
 11
-4.0384466452
 21
12.9802185577
  0
LINE
  5
49F
100
AcDbEntity
  8
LAY0001
100
AcDbLine
 62
7
  6
CONTINUOUS
 10
-3.9436509333
 20
12.9837513078
 11
-3.9381555192
 21
12.9802185577
  0
LINE
  5
4A0
100
AcDbEntity
  8
LAY0001
100
AcDbLine
 62
7
  6
CONTINUOUS
 10
-3.5342433869
 20
12.9837513078
 11
-3.5287479414
 21
12.9802185577
  0
LINE
  5
4A1
100
AcDbEntity
  8
LAY0001
100
AcDbLine
 62
7
  6
CONTINUOUS
 10
-3.5356172168
 20
12.9731530573
 11
-3.5314956642
 21
12.9696203072
  0
LINE
  5
4A2
100
AcDbEntity
  8
0
100
AcDbLine
 62
7
  6
CONTINUOUS
 10
-1.0308237616
 20
9.8222063253
 11
-1.0308237616
 21
9.9526021013
  0
LINE
  5
4A3
100
AcDbEntity
  8
0
100
AcDbLine
 62
7
  6
CONTINUOUS
 10
-1.0308237616
 20
9.9722871406
 11
-1.0308237616
 21
10.7080330969
  0
LINE
  5
4A4
100
AcDbEntity
  8
0
100
AcDbLine
 62
7
  6
CONTINUOUS
 10
-0.9766766389
 20
9.7631512072
 11
-0.9766766389
 21
10.7670882151
  0
LINE
  5
4A5
100
AcDbEntity
  8
LAY0001
100
AcDbLine
 62
7
  6
CONTINUOUS
 10
-3.5342433869
 20
12.9042644194
 11
-3.5411125995
 21
12.9024980442
  0
LINE
  5
4A6
100
AcDbEntity
  8
LAY0001
100
AcDbLine
 62
7
  6
CONTINUOUS
 10
-3.9436509333
 20
12.9042644194
 11
-3.9505201773
 21
12.9024980442
  0
LINE
  5
4A7
100
AcDbEntity
  8
LAY0001
100
AcDbLine
 62
7
  6
CONTINUOUS
 10
-4.0439420592
 20
12.9042644194
 11
-4.0508113032
 21
12.9024980442
  0
LINE
  5
4A8
100
AcDbEntity
  8
LAY0001
100
AcDbLine
 62
7
  6
CONTINUOUS
 10
-4.2390288814
 20
12.9024980442
 11
-4.2321596217
 21
12.9042644194
  0
LINE
  5
4A9
100
AcDbEntity
  8
LAY0001
100
AcDbLine
 62
7
  6
CONTINUOUS
 10
-3.9697541108
 20
12.9837513078
 11
-3.9628848354
 21
12.9855176829
  0
LINE
  5
4AA
100
AcDbEntity
  8
0
100
AcDbLine
 62
7
  6
CONTINUOUS
 10
-3.0180217983
 20
12.6374137572
 11
-2.9270955768
 21
12.6374137572
  0
LINE
  5
4AB
100
AcDbEntity
  8
0
100
AcDbLine
 62
7
  6
CONTINUOUS
 10
-2.6676467579
 20
12.6374137572
 11
-2.5298514824
 21
12.6374137572
  0
LINE
  5
4AC
100
AcDbEntity
  8
0
100
AcDbLine
 62
7
  6
CONTINUOUS
 10
-2.5298514824
 20
12.6526076411
 11
-2.6676467579
 21
12.6526076411
  0
LINE
  5
4AD
100
AcDbEntity
  8
0
100
AcDbLine
 62
7
  6
CONTINUOUS
 10
-2.9270955768
 20
12.6526076411
 11
-3.0255447695
 21
12.6526076411
  0
LINE
  5
4AE
100
AcDbEntity
  8
0
100
AcDbLine
 62
7
  6
CONTINUOUS
 10
-2.9270955768
 20
12.6672922328
 11
-2.6676467579
 21
12.6672922328
  0
LINE
  5
4AF
100
AcDbEntity
  8
0
100
AcDbLine
 62
7
  6
CONTINUOUS
 10
-2.5298514824
 20
12.6672922328
 11
-2.2707963642
 21
12.6672922328
  0
LINE
  5
4B0
100
AcDbEntity
  8
0
100
AcDbLine
 62
7
  6
CONTINUOUS
 10
-0.7670729116
 20
12.7018801624
 11
-0.4085876388
 21
12.7018801624
  0
LINE
  5
4B1
100
AcDbEntity
  8
0
100
AcDbLine
 62
7
  6
CONTINUOUS
 10
-0.7654138403
 20
12.7064515899
 11
-0.4069285676
 21
12.7064515899
  0
LINE
  5
4B2
100
AcDbEntity
  8
03___PRT_ALL_CURVES
100
AcDbLine
 62
4
  6
CONTINUOUS
 10
-0.8798867136
 20
12.8153900844
 11
-0.8760867661
 21
12.8153900844
  0
LINE
  5
4B3
100
AcDbEntity
  8
03___PRT_ALL_CURVES
100
AcDbLine
 62
4
  6
CONTINUOUS
 10
-0.860253669
 20
12.8153900844
 11
-0.8558204035
 21
12.8153900844
  0
LINE
  5
4B4
100
AcDbEntity
  8
03___PRT_ALL_CURVES
100
AcDbLine
 62
4
  6
CONTINUOUS
 10
-0.7190224162
 20
12.8153900844
 11
-0.7228223601
 21
12.8153900844
  0
LINE
  5
4B5
100
AcDbEntity
  8
03___PRT_ALL_CURVES
100
AcDbLine
 62
4
  6
CONTINUOUS
 10
-0.7380221356
 20
12.8153900844
 11
-0.7418220795
 21
12.8153900844
  0
LINE
  5
4B6
100
AcDbEntity
  8
03___PRT_ALL_CURVES
100
AcDbLine
 62
4
  6
CONTINUOUS
 10
-0.7595551559
 20
12.8153900844
 11
-0.7633550997
 21
12.8153900844
  0
LINE
  5
4B7
100
AcDbEntity
  8
03___PRT_ALL_CURVES
100
AcDbLine
 62
4
  6
CONTINUOUS
 10
-0.7684216868
 20
12.8153900844
 11
-0.7912213501
 21
12.8153900844
  0
LINE
  5
4B8
100
AcDbEntity
  8
03___PRT_ALL_CURVES
100
AcDbLine
 62
4
  6
CONTINUOUS
 10
-0.8064211257
 20
12.8153900844
 11
-0.8102210696
 21
12.8153900844
  0
LINE
  5
4B9
100
AcDbEntity
  8
03___PRT_ALL_CURVES
100
AcDbLine
 62
4
  6
CONTINUOUS
 10
-0.8950864892
 20
12.8153900844
 11
-0.9001530798
 21
12.8153900844
  0
LINE
  5
4BA
100
AcDbEntity
  8
03___PRT_ALL_CURVES
100
AcDbLine
 62
4
  6
CONTINUOUS
 10
-0.9343525748
 20
12.8153900844
 11
-0.9381525187
 21
12.8153900844
  0
LINE
  5
4BB
100
AcDbEntity
  8
03___PRT_ALL_CURVES
100
AcDbLine
 62
4
  6
CONTINUOUS
 10
-0.7924886945
 20
12.8181307736
 11
-0.773488975
 21
12.8181307736
  0
LINE
  5
4BC
100
AcDbEntity
  8
03___PRT_ALL_CURVES
100
AcDbLine
 62
4
  6
CONTINUOUS
 10
-0.9001537774
 20
12.8181307736
 11
-0.9052203681
 21
12.8181307736
  0
LINE
  5
4BD
100
AcDbEntity
  8
03___PRT_ALL_CURVES
100
AcDbLine
 62
4
  6
CONTINUOUS
 10
-0.8938222753
 20
12.8249824965
 11
-0.8830557724
 21
12.8249824965
  0
LINE
  5
4BE
100
AcDbEntity
  8
03___PRT_ALL_CURVES
100
AcDbLine
 62
4
  6
CONTINUOUS
 10
-0.7895350447
 20
12.825439278
 11
-0.8060014633
 21
12.825439278
  0
LINE
  5
4BF
100
AcDbEntity
  8
03___PRT_ALL_CURVES
100
AcDbLine
 62
4
  6
CONTINUOUS
 10
-0.9364662078
 20
12.825439278
 11
-0.952932632
 21
12.825439278
  0
LINE
  5
4C0
100
AcDbEntity
  8
03___PRT_ALL_CURVES
100
AcDbLine
 62
4
  6
CONTINUOUS
 10
-0.8988895629
 20
12.8277231854
 11
-0.8868564097
 21
12.8277231854
  0
LINE
  5
4C1
100
AcDbEntity
  8
03___PRT_ALL_CURVES
100
AcDbLine
 62
4
  6
CONTINUOUS
 10
-0.9579999196
 20
12.8281799668
 11
-0.9415334955
 21
12.8281799668
  0
LINE
  5
4C2
100
AcDbEntity
  8
03___PRT_ALL_CURVES
100
AcDbLine
 62
4
  6
CONTINUOUS
 10
-0.811068751
 20
12.8281799668
 11
-0.7946023323
 21
12.8281799668
  0
LINE
  5
4C3
100
AcDbEntity
  8
03___PRT_ALL_CURVES
100
AcDbLine
 62
4
  6
CONTINUOUS
 10
-0.9347795502
 20
12.8341181272
 11
-0.9297129596
 21
12.8341181272
  0
LINE
  5
4C4
100
AcDbEntity
  8
03___PRT_ALL_CURVES
100
AcDbLine
 62
4
  6
CONTINUOUS
 10
-0.8030481572
 20
12.8341181272
 11
-0.8220478766
 21
12.8341181272
  0
LINE
  5
4C5
100
AcDbEntity
  8
03___PRT_ALL_CURVES
100
AcDbLine
 62
4
  6
CONTINUOUS
 10
-0.9499793258
 20
12.8341181272
 11
-0.9689790453
 21
12.8341181272
  0
LINE
  5
4C6
100
AcDbEntity
  8
03___PRT_ALL_CURVES
100
AcDbLine
 62
4
  6
CONTINUOUS
 10
-0.7443602605
 20
12.8345749087
 11
-0.7544934346
 21
12.8345749087
  0
LINE
  5
4C7
100
AcDbEntity
  8
03___PRT_ALL_CURVES
100
AcDbLine
 62
4
  6
CONTINUOUS
 10
-0.7582933784
 20
12.8345749087
 11
-0.768426567
 21
12.8345749087
  0
LINE
  5
4C8
100
AcDbEntity
  8
03___PRT_ALL_CURVES
100
AcDbLine
 62
4
  6
CONTINUOUS
 10
-0.83175897
 20
12.8345749087
 11
-0.841892144
 21
12.8345749087
  0
LINE
  5
4C9
100
AcDbEntity
  8
03___PRT_ALL_CURVES
100
AcDbLine
 62
4
  6
CONTINUOUS
 10
-0.8456920879
 20
12.8345749087
 11
-0.8558252765
 21
12.8345749087
  0
LINE
  5
4CA
100
AcDbEntity
  8
03___PRT_ALL_CURVES
100
AcDbLine
 62
4
  6
CONTINUOUS
 10
-0.8995246312
 20
12.8345749087
 11
-0.9115577845
 21
12.8345749087
  0
LINE
  5
4CB
100
AcDbEntity
  8
03___PRT_ALL_CURVES
100
AcDbLine
 62
4
  6
CONTINUOUS
 10
-0.9778462768
 20
12.836858816
 11
-0.9550466135
 21
12.836858816
  0
LINE
  5
4CC
100
AcDbEntity
  8
03___PRT_ALL_CURVES
100
AcDbLine
 62
4
  6
CONTINUOUS
 10
-0.9398468379
 20
12.836858816
 11
-0.9347802473
 21
12.836858816
  0
LINE
  5
4CD
100
AcDbEntity
  8
03___PRT_ALL_CURVES
100
AcDbLine
 62
4
  6
CONTINUOUS
 10
-0.8600480162
 20
12.836858816
 11
-0.8359817097
 21
12.836858816
  0
LINE
  5
4CE
100
AcDbEntity
  8
03___PRT_ALL_CURVES
100
AcDbLine
 62
4
  6
CONTINUOUS
 10
-0.8309151082
 20
12.836858816
 11
-0.8081154449
 21
12.836858816
  0
LINE
  5
4CF
100
AcDbEntity
  8
03___PRT_ALL_CURVES
100
AcDbLine
 62
4
  6
CONTINUOUS
 10
-0.8030488578
 20
12.836858816
 11
-0.7992489139
 21
12.836858816
  0
LINE
  5
4D0
100
AcDbEntity
  8
03___PRT_ALL_CURVES
100
AcDbLine
 62
4
  6
CONTINUOUS
 10
-0.7815158376
 20
12.836858816
 11
-0.7777158937
 21
12.836858816
  0
LINE
  5
4D1
100
AcDbEntity
  8
03___PRT_ALL_CURVES
100
AcDbLine
 62
4
  6
CONTINUOUS
 10
-0.7726493067
 20
12.836858816
 11
-0.7485830002
 21
12.836858816
  0
LINE
  5
4D2
100
AcDbEntity
  8
03___PRT_ALL_CURVES
100
AcDbLine
 62
4
  6
CONTINUOUS
 10
-0.9043806925
 20
12.836858816
 11
-0.9195804717
 21
12.836858816
  0
LINE
  5
4D3
100
AcDbEntity
  8
03___PRT_ALL_CURVES
100
AcDbLine
 62
4
  6
CONTINUOUS
 10
-0.9935181938
 20
12.8501306621
 11
-0.9884516013
 21
12.8501306621
  0
LINE
  5
4D4
100
AcDbEntity
  8
03___PRT_ALL_CURVES
100
AcDbLine
 62
4
  6
CONTINUOUS
 10
-0.8573535326
 20
12.8501306621
 11
-0.8535535887
 21
12.8501306621
  0
LINE
  5
4D5
100
AcDbEntity
  8
03___PRT_ALL_CURVES
100
AcDbLine
 62
4
  6
CONTINUOUS
 10
-0.8377204988
 20
12.8501306621
 11
-0.8332872261
 21
12.8501306621
  0
LINE
  5
4D6
100
AcDbEntity
  8
03___PRT_ALL_CURVES
100
AcDbLine
 62
4
  6
CONTINUOUS
 10
-0.7072557634
 20
12.8501306621
 11
-0.7129556792
 21
12.8501306621
  0
LINE
  5
4D7
100
AcDbEntity
  8
03___PRT_ALL_CURVES
100
AcDbLine
 62
4
  6
CONTINUOUS
 10
-0.7281554548
 20
12.8501306621
 11
-0.7338553706
 21
12.8501306621
  0
LINE
  5
4D8
100
AcDbEntity
  8
03___PRT_ALL_CURVES
100
AcDbLine
 62
4
  6
CONTINUOUS
 10
-0.7585550059
 20
12.8501306621
 11
-0.7623549353
 21
12.8501306621
  0
LINE
  5
4D9
100
AcDbEntity
  8
03___PRT_ALL_CURVES
100
AcDbLine
 62
4
  6
CONTINUOUS
 10
-0.7496884605
 20
12.8501306621
 11
-0.7534884044
 21
12.8501306621
  0
LINE
  5
4DA
100
AcDbEntity
  8
03___PRT_ALL_CURVES
100
AcDbLine
 62
4
  6
CONTINUOUS
 10
-0.7724881238
 20
12.8501306621
 11
-0.7775547109
 21
12.8501306621
  0
LINE
  5
4DB
100
AcDbEntity
  8
03___PRT_ALL_CURVES
100
AcDbLine
 62
4
  6
CONTINUOUS
 10
-0.7876878994
 20
12.8501306621
 11
-0.7927544864
 21
12.8501306621
  0
LINE
  5
4DC
100
AcDbEntity
  8
03___PRT_ALL_CURVES
100
AcDbLine
 62
4
  6
CONTINUOUS
 10
-0.802887675
 20
12.8501306621
 11
-0.8066876188
 21
12.8501306621
  0
LINE
  5
4DD
100
AcDbEntity
  8
03___PRT_ALL_CURVES
100
AcDbLine
 62
4
  6
CONTINUOUS
 10
-0.8244206952
 20
12.8501306621
 11
-0.8282206391
 21
12.8501306621
  0
LINE
  5
4DE
100
AcDbEntity
  8
03___PRT_ALL_CURVES
100
AcDbLine
 62
4
  6
CONTINUOUS
 10
-0.8725533081
 20
12.8501306621
 11
-0.8877530909
 21
12.8501306621
  0
LINE
  5
4DF
100
AcDbEntity
  8
03___PRT_ALL_CURVES
100
AcDbLine
 62
4
  6
CONTINUOUS
 10
-0.9232192291
 20
12.8501306621
 11
-0.9460188961
 21
12.8501306621
  0
LINE
  5
4E0
100
AcDbEntity
  8
03___PRT_ALL_CURVES
100
AcDbLine
 62
4
  6
CONTINUOUS
 10
-0.9510854867
 20
12.8501306621
 11
-0.97388515
 21
12.8501306621
  0
LINE
  5
4E1
100
AcDbEntity
  8
03___PRT_ALL_CURVES
100
AcDbLine
 62
4
  6
CONTINUOUS
 10
-0.9751524944
 20
12.8528713512
 11
-0.956152775
 21
12.8528713512
  0
LINE
  5
4E2
100
AcDbEntity
  8
03___PRT_ALL_CURVES
100
AcDbLine
 62
4
  6
CONTINUOUS
 10
-0.9472862404
 20
12.8528713512
 11
-0.9282865173
 21
12.8528713512
  0
LINE
  5
4E3
100
AcDbEntity
  8
03___PRT_ALL_CURVES
100
AcDbLine
 62
4
  6
CONTINUOUS
 10
-0.7180229675
 20
12.8528713512
 11
-0.7123230516
 21
12.8528713512
  0
LINE
  5
4E4
100
AcDbEntity
  8
03___PRT_ALL_CURVES
100
AcDbLine
 62
4
  6
CONTINUOUS
 10
-0.8776205964
 20
12.8528713512
 11
-0.8890204353
 21
12.8528713512
  0
LINE
  5
4E5
100
AcDbEntity
  8
03___PRT_ALL_CURVES
100
AcDbLine
 62
4
  6
CONTINUOUS
 10
-0.9935188896
 20
12.8528713512
 11
-0.998585482
 21
12.8528713512
  0
LINE
  5
4E6
100
AcDbEntity
  8
03___PRT_ALL_CURVES
100
AcDbLine
 62
4
  6
CONTINUOUS
 10
-0.8193554961
 20
12.8556120404
 11
-0.8320219709
 21
12.8556120404
  0
LINE
  5
4E7
100
AcDbEntity
  8
03___PRT_ALL_CURVES
100
AcDbLine
 62
4
  6
CONTINUOUS
 10
-1.0095639098
 20
12.8560688218
 11
-1.0133638537
 21
12.8560688218
  0
LINE
  5
4E8
100
AcDbEntity
  8
03___PRT_ALL_CURVES
100
AcDbLine
 62
4
  6
CONTINUOUS
 10
-0.8233670022
 20
12.8574391662
 11
-0.8347668339
 21
12.8574391662
  0
LINE
  5
4E9
100
AcDbEntity
  8
03___PRT_ALL_CURVES
100
AcDbLine
 62
4
  6
CONTINUOUS
 10
-0.7190801231
 20
12.8592662927
 11
-0.7247800389
 21
12.8592662927
  0
LINE
  5
4EA
100
AcDbEntity
  8
03___PRT_ALL_CURVES
100
AcDbLine
 62
4
  6
CONTINUOUS
 10
-1.0099870544
 20
12.8597230742
 11
-1.0061871105
 21
12.8597230742
  0
LINE
  5
4EB
100
AcDbEntity
  8
03___PRT_ALL_CURVES
100
AcDbLine
 62
4
  6
CONTINUOUS
 10
-0.8712890979
 20
12.8597230742
 11
-0.860522595
 21
12.8597230742
  0
LINE
  5
4EC
100
AcDbEntity
  8
03___PRT_ALL_CURVES
100
AcDbLine
 62
4
  6
CONTINUOUS
 10
-0.944332587
 20
12.8601798557
 11
-0.9607990093
 21
12.8601798557
  0
LINE
  5
4ED
100
AcDbEntity
  8
03___PRT_ALL_CURVES
100
AcDbLine
 62
4
  6
CONTINUOUS
 10
-0.972198841
 20
12.8601798557
 11
-0.9886652633
 21
12.8601798557
  0
LINE
  5
4EE
100
AcDbEntity
  8
03___PRT_ALL_CURVES
100
AcDbLine
 62
4
  6
CONTINUOUS
 10
-0.7298473266
 20
12.8620069816
 11
-0.7203474669
 21
12.8620069816
  0
LINE
  5
4EF
100
AcDbEntity
  8
03___PRT_ALL_CURVES
100
AcDbLine
 62
4
  6
CONTINUOUS
 10
-0.8763563855
 20
12.862463763
 11
-0.8643232395
 21
12.862463763
  0
LINE
  5
4F0
100
AcDbEntity
  8
03___PRT_ALL_CURVES
100
AcDbLine
 62
4
  6
CONTINUOUS
 10
-1.0112543982
 20
12.862463763
 11
-1.0150543421
 21
12.862463763
  0
LINE
  5
4F1
100
AcDbEntity
  8
03___PRT_ALL_CURVES
100
AcDbLine
 62
4
  6
CONTINUOUS
 10
-0.9937325509
 20
12.8629205445
 11
-0.9772661286
 21
12.8629205445
  0
LINE
  5
4F2
100
AcDbEntity
  8
03___PRT_ALL_CURVES
100
AcDbLine
 62
4
  6
CONTINUOUS
 10
-0.965866297
 20
12.8629205445
 11
-0.9493998746
 21
12.8629205445
  0
LINE
  5
4F3
100
AcDbEntity
  8
03___PRT_ALL_CURVES
100
AcDbLine
 62
4
  6
CONTINUOUS
 10
-0.7279483984
 20
12.8661180148
 11
-0.7317483422
 21
12.8661180148
  0
LINE
  5
4F4
100
AcDbEntity
  8
03___PRT_ALL_CURVES
100
AcDbLine
 62
4
  6
CONTINUOUS
 10
-1.015055389
 20
12.8665747975
 11
-1.0112554452
 21
12.8665747975
  0
LINE
  5
4F5
100
AcDbEntity
  8
03___PRT_ALL_CURVES
100
AcDbLine
 62
4
  6
CONTINUOUS
 10
-1.0268780156
 20
12.8688587049
 11
-1.0230780717
 21
12.8688587049
  0
LINE
  5
4F6
100
AcDbEntity
  8
03___PRT_ALL_CURVES
100
AcDbLine
 62
4
  6
CONTINUOUS
 10
-0.9185796175
 20
12.8688587049
 11
-0.9071797785
 21
12.8688587049
  0
LINE
  5
4F7
100
AcDbEntity
  8
03___PRT_ALL_CURVES
100
AcDbLine
 62
4
  6
CONTINUOUS
 10
-0.7418822338
 20
12.8688587049
 11
-0.7475821496
 21
12.8688587049
  0
LINE
  5
4F8
100
AcDbEntity
  8
03___PRT_ALL_CURVES
100
AcDbLine
 62
4
  6
CONTINUOUS
 10
-0.9578456995
 20
12.8688587049
 11
-0.9768454226
 21
12.8688587049
  0
LINE
  5
4F9
100
AcDbEntity
  8
03___PRT_ALL_CURVES
100
AcDbLine
 62
4
  6
CONTINUOUS
 10
-0.9857119571
 20
12.8688587049
 11
-1.0047116766
 21
12.8688587049
  0
LINE
  5
4FA
100
AcDbEntity
  8
03___PRT_ALL_CURVES
100
AcDbLine
 62
4
  6
CONTINUOUS
 10
-0.876991461
 20
12.8693154863
 11
-0.889024607
 21
12.8693154863
  0
LINE
  5
4FB
100
AcDbEntity
  8
03___PRT_ALL_CURVES
100
AcDbLine
 62
4
  6
CONTINUOUS
 10
-1.0135789081
 20
12.8715993937
 11
-0.9907792448
 21
12.8715993937
  0
LINE
  5
4FC
100
AcDbEntity
  8
03___PRT_ALL_CURVES
100
AcDbLine
 62
4
  6
CONTINUOUS
 10
-0.9857126541
 20
12.8715993937
 11
-0.9629129872
 21
12.8715993937
  0
LINE
  5
4FD
100
AcDbEntity
  8
03___PRT_ALL_CURVES
100
AcDbLine
 62
4
  6
CONTINUOUS
 10
-0.927446849
 20
12.8715993937
 11
-0.9122470662
 21
12.8715993937
  0
LINE
  5
4FE
100
AcDbEntity
  8
03___PRT_ALL_CURVES
100
AcDbLine
 62
4
  6
CONTINUOUS
 10
-0.8577812086
 20
12.8715993937
 11
-0.8527146216
 21
12.8715993937
  0
LINE
  5
4FF
100
AcDbEntity
  8
03___PRT_ALL_CURVES
100
AcDbLine
 62
4
  6
CONTINUOUS
 10
-0.837514846
 20
12.8715993937
 11
-0.8337149021
 21
12.8715993937
  0
LINE
  5
500
100
AcDbEntity
  8
03___PRT_ALL_CURVES
100
AcDbLine
 62
4
  6
CONTINUOUS
 10
-0.8248483567
 20
12.8715993937
 11
-0.8197817697
 21
12.8715993937
  0
LINE
  5
501
100
AcDbEntity
  8
03___PRT_ALL_CURVES
100
AcDbLine
 62
4
  6
CONTINUOUS
 10
-0.8109152388
 20
12.8715993937
 11
-0.8071152949
 21
12.8715993937
  0
LINE
  5
502
100
AcDbEntity
  8
03___PRT_ALL_CURVES
100
AcDbLine
 62
4
  6
CONTINUOUS
 10
-0.8020486934
 20
12.8715993937
 11
-0.798248764
 21
12.8715993937
  0
LINE
  5
503
100
AcDbEntity
  8
03___PRT_ALL_CURVES
100
AcDbLine
 62
4
  6
CONTINUOUS
 10
-0.7931821625
 20
12.8715993937
 11
-0.7874822466
 21
12.8715993937
  0
LINE
  5
504
100
AcDbEntity
  8
03___PRT_ALL_CURVES
100
AcDbLine
 62
4
  6
CONTINUOUS
 10
-0.7716491567
 20
12.8715993937
 11
-0.7678492129
 21
12.8715993937
  0
LINE
  5
505
100
AcDbEntity
  8
03___PRT_ALL_CURVES
100
AcDbLine
 62
4
  6
CONTINUOUS
 10
-0.7526494373
 20
12.8715993937
 11
-0.7469495215
 21
12.8715993937
  0
LINE
  5
506
100
AcDbEntity
  8
03___PRT_ALL_CURVES
100
AcDbLine
 62
4
  6
CONTINUOUS
 10
-0.8818475151
 20
12.8715993937
 11
-0.8970472906
 21
12.8715993937
  0
LINE
  5
507
100
AcDbEntity
  8
03___PRT_ALL_CURVES
100
AcDbLine
 62
4
  6
CONTINUOUS
 10
-1.0287786837
 20
12.8715993937
 11
-1.0319453033
 21
12.8715993937
  0
LINE
  5
508
100
AcDbEntity
  8
LAY0001
100
AcDbLine
 62
7
  6
CONTINUOUS
 10
-4.2500196781
 20
12.9024980442
 11
-4.2390288814
 21
12.9024980442
  0
LINE
  5
509
100
AcDbEntity
  8
LAY0001
100
AcDbLine
 62
7
  6
CONTINUOUS
 10
-3.8598460495
 20
12.9024980442
 11
-3.8516029441
 21
12.9024980442
  0
LINE
  5
50A
100
AcDbEntity
  8
LAY0001
100
AcDbLine
 62
7
  6
CONTINUOUS
 10
-3.8172566298
 20
12.9024980442
 11
-3.8076396945
 21
12.9024980442
  0
LINE
  5
50B
100
AcDbEntity
  8
LAY0001
100
AcDbLine
 62
7
  6
CONTINUOUS
 10
-3.5411125995
 20
12.9024980442
 11
-3.574085021
 21
12.9024980442
  0
LINE
  5
50C
100
AcDbEntity
  8
LAY0001
100
AcDbLine
 62
7
  6
CONTINUOUS
 10
-3.5850758491
 20
12.9024980442
 11
-3.6345344814
 21
12.9024980442
  0
LINE
  5
50D
100
AcDbEntity
  8
LAY0001
100
AcDbLine
 62
7
  6
CONTINUOUS
 10
-3.6455253096
 20
12.9024980442
 11
-3.653768415
 21
12.9024980442
  0
LINE
  5
50E
100
AcDbEntity
  8
LAY0001
100
AcDbLine
 62
7
  6
CONTINUOUS
 10
-3.7059747071
 20
12.9024980442
 11
-3.7142178125
 21
12.9024980442
  0
LINE
  5
50F
100
AcDbEntity
  8
LAY0001
100
AcDbLine
 62
7
  6
CONTINUOUS
 10
-3.7252086406
 20
12.9024980442
 11
-3.733451746
 21
12.9024980442
  0
LINE
  5
510
100
AcDbEntity
  8
LAY0001
100
AcDbLine
 62
7
  6
CONTINUOUS
 10
-3.7664241676
 20
12.9024980442
 11
-3.7746672729
 21
12.9024980442
  0
LINE
  5
511
100
AcDbEntity
  8
LAY0001
100
AcDbLine
 62
7
  6
CONTINUOUS
 10
-3.8708368462
 20
12.9024980442
 11
-3.9202954785
 21
12.9024980442
  0
LINE
  5
512
100
AcDbEntity
  8
LAY0001
100
AcDbLine
 62
7
  6
CONTINUOUS
 10
-3.9505201773
 20
12.9024980442
 11
-3.9628848354
 21
12.9024980442
  0
LINE
  5
513
100
AcDbEntity
  8
LAY0001
100
AcDbLine
 62
7
  6
CONTINUOUS
 10
-4.0508113032
 20
12.9024980442
 11
-4.0837837248
 21
12.9024980442
  0
LINE
  5
514
100
AcDbEntity
  8
LAY0001
100
AcDbLine
 62
7
  6
CONTINUOUS
 10
-4.0947745215
 20
12.9024980442
 11
-4.1442331695
 21
12.9024980442
  0
LINE
  5
515
100
AcDbEntity
  8
LAY0001
100
AcDbLine
 62
7
  6
CONTINUOUS
 10
-4.177205591
 20
12.9024980442
 11
-4.1854486964
 21
12.9024980442
  0
LINE
  5
516
100
AcDbEntity
  8
LAY0001
100
AcDbLine
 62
7
  6
CONTINUOUS
 10
-4.2802444004
 20
12.9024980442
 11
-4.3297030367
 21
12.9024980442
  0
LINE
  5
517
100
AcDbEntity
  8
LAY0001
100
AcDbLine
 62
7
  6
CONTINUOUS
 10
-4.3626754562
 20
12.9024980442
 11
-4.3709185616
 21
12.9024980442
  0
LINE
  5
518
100
AcDbEntity
  8
LAY0001
100
AcDbLine
 62
7
  6
CONTINUOUS
 10
-4.3214599274
 20
12.9130962959
 11
-4.2802444004
 21
12.9130962959
  0
LINE
  5
519
100
AcDbEntity
  8
LAY0001
100
AcDbLine
 62
7
  6
CONTINUOUS
 10
-4.1359900641
 20
12.9130962959
 11
-4.0947745215
 21
12.9130962959
  0
LINE
  5
51A
100
AcDbEntity
  8
LAY0001
100
AcDbLine
 62
7
  6
CONTINUOUS
 10
-3.9628848354
 20
12.9130962959
 11
-3.9505201773
 21
12.9130962959
  0
LINE
  5
51B
100
AcDbEntity
  8
LAY0001
100
AcDbLine
 62
7
  6
CONTINUOUS
 10
-3.9120523731
 20
12.9130962959
 11
-3.8708368462
 21
12.9130962959
  0
LINE
  5
51C
100
AcDbEntity
  8
LAY0001
100
AcDbLine
 62
7
  6
CONTINUOUS
 10
-3.6262913761
 20
12.9130962959
 11
-3.5850758491
 21
12.9130962959
  0
LINE
  5
51D
100
AcDbEntity
  8
LAY0001
100
AcDbLine
 62
7
  6
CONTINUOUS
 10
-3.5411125995
 20
12.9130962959
 11
-3.5658419156
 21
12.9130962959
  0
LINE
  5
51E
100
AcDbEntity
  8
LAY0001
100
AcDbLine
 62
7
  6
CONTINUOUS
 10
-4.0508113032
 20
12.9130962959
 11
-4.0755406194
 21
12.9130962959
  0
LINE
  5
51F
100
AcDbEntity
  8
LAY0001
100
AcDbLine
 62
7
  6
CONTINUOUS
 10
-4.2390288814
 20
12.9130962959
 11
-4.2500196781
 21
12.9130962959
  0
LINE
  5
520
100
AcDbEntity
  8
LAY0001
100
AcDbLine
 62
7
  6
CONTINUOUS
 10
-3.9395293806
 20
12.9236945476
 11
-3.9312862752
 21
12.9236945476
  0
LINE
  5
521
100
AcDbEntity
  8
LAY0001
100
AcDbLine
 62
7
  6
CONTINUOUS
 10
-4.2610104905
 20
12.9254609227
 11
-4.2692535959
 21
12.9254609227
  0
LINE
  5
522
100
AcDbEntity
  8
LAY0001
100
AcDbLine
 62
7
  6
CONTINUOUS
 10
-4.2472719868
 20
12.9395919258
 11
-4.2390288814
 21
12.9395919258
  0
LINE
  5
523
100
AcDbEntity
  8
LAY0001
100
AcDbLine
 62
7
  6
CONTINUOUS
 10
-3.8516029441
 20
12.9395919258
 11
-3.8282474579
 21
12.9395919258
  0
LINE
  5
524
100
AcDbEntity
  8
LAY0001
100
AcDbLine
 62
7
  6
CONTINUOUS
 10
-3.5905712318
 20
12.9413583009
 11
-3.6262913761
 21
12.9413583009
  0
LINE
  5
525
100
AcDbEntity
  8
LAY0001
100
AcDbLine
 62
7
  6
CONTINUOUS
 10
-3.6702546257
 20
12.9413583009
 11
-3.7059747071
 21
12.9413583009
  0
LINE
  5
526
100
AcDbEntity
  8
LAY0001
100
AcDbLine
 62
7
  6
CONTINUOUS
 10
-3.8763322288
 20
12.9413583009
 11
-3.9120523731
 21
12.9413583009
  0
LINE
  5
527
100
AcDbEntity
  8
LAY0001
100
AcDbLine
 62
7
  6
CONTINUOUS
 10
-4.1002699355
 20
12.9413583009
 11
-4.1359900641
 21
12.9413583009
  0
LINE
  5
528
100
AcDbEntity
  8
LAY0001
100
AcDbLine
 62
7
  6
CONTINUOUS
 10
-4.2857398066
 20
12.9413583009
 11
-4.3214599274
 21
12.9413583009
  0
LINE
  5
529
100
AcDbEntity
  8
LAY0001
100
AcDbLine
 62
7
  6
CONTINUOUS
 10
-3.8516029441
 20
12.9501901763
 11
-3.8254997352
 21
12.9501901763
  0
LINE
  5
52A
100
AcDbEntity
  8
LAY0001
100
AcDbLine
 62
7
  6
CONTINUOUS
 10
-4.2390288814
 20
12.9501901763
 11
-4.2472719868
 21
12.9501901763
  0
LINE
  5
52B
100
AcDbEntity
  8
LAY0001
100
AcDbLine
 62
7
  6
CONTINUOUS
 10
-4.3214599274
 20
12.9519565514
 11
-4.2857398066
 21
12.9519565514
  0
LINE
  5
52C
100
AcDbEntity
  8
LAY0001
100
AcDbLine
 62
7
  6
CONTINUOUS
 10
-4.1359900641
 20
12.9519565514
 11
-4.1002699355
 21
12.9519565514
  0
LINE
  5
52D
100
AcDbEntity
  8
LAY0001
100
AcDbLine
 62
7
  6
CONTINUOUS
 10
-3.9120523731
 20
12.9519565514
 11
-3.8763322288
 21
12.9519565514
  0
LINE
  5
52E
100
AcDbEntity
  8
LAY0001
100
AcDbLine
 62
7
  6
CONTINUOUS
 10
-3.7059747071
 20
12.9519565514
 11
-3.6702546257
 21
12.9519565514
  0
LINE
  5
52F
100
AcDbEntity
  8
LAY0001
100
AcDbLine
 62
7
  6
CONTINUOUS
 10
-3.6262913761
 20
12.9519565514
 11
-3.5905712318
 21
12.9519565514
  0
LINE
  5
530
100
AcDbEntity
  8
0
100
AcDbLine
 62
3
  6
CONTINUOUS
 10
-0.8665631783
 20
12.9550491669
 11
0.1536179105
 21
12.9550491669
  0
LINE
  5
531
100
AcDbEntity
  8
0
100
AcDbLine
 62
7
  6
CONTINUOUS
 10
-0.8750153375
 20
12.9596205943
 11
-1.2335006102
 21
12.9596205943
  0
LINE
  5
532
100
AcDbEntity
  8
LAY0001
100
AcDbLine
 62
7
  6
CONTINUOUS
 10
-3.9312862752
 20
12.964321177
 11
-3.9395293806
 21
12.964321177
  0
LINE
  5
533
100
AcDbEntity
  8
LAY0001
100
AcDbLine
 62
7
  6
CONTINUOUS
 10
-4.230785776
 20
12.966087557
 11
-4.2225426706
 21
12.966087557
  0
LINE
  5
534
100
AcDbEntity
  8
LAY0001
100
AcDbLine
 62
7
  6
CONTINUOUS
 10
-4.2472719868
 20
12.9749194324
 11
-4.2390288814
 21
12.9749194324
  0
LINE
  5
535
100
AcDbEntity
  8
LAY0001
100
AcDbLine
 62
7
  6
CONTINUOUS
 10
-4.0755406194
 20
12.9749194324
 11
-4.0508113032
 21
12.9749194324
  0
LINE
  5
536
100
AcDbEntity
  8
LAY0001
100
AcDbLine
 62
7
  6
CONTINUOUS
 10
-3.5658419156
 20
12.9749194324
 11
-3.5411125995
 21
12.9749194324
  0
LINE
  5
537
100
AcDbEntity
  8
LAY0001
100
AcDbLine
 62
7
  6
CONTINUOUS
 10
-3.5850758491
 20
12.9749194324
 11
-3.6262913761
 21
12.9749194324
  0
LINE
  5
538
100
AcDbEntity
  8
LAY0001
100
AcDbLine
 62
7
  6
CONTINUOUS
 10
-3.6647591802
 20
12.9749194324
 11
-3.7059747071
 21
12.9749194324
  0
LINE
  5
539
100
AcDbEntity
  8
LAY0001
100
AcDbLine
 62
7
  6
CONTINUOUS
 10
-3.8708368462
 20
12.9749194324
 11
-3.9120523731
 21
12.9749194324
  0
LINE
  5
53A
100
AcDbEntity
  8
LAY0001
100
AcDbLine
 62
7
  6
CONTINUOUS
 10
-3.9505201773
 20
12.9749194324
 11
-3.9628848354
 21
12.9749194324
  0
LINE
  5
53B
100
AcDbEntity
  8
LAY0001
100
AcDbLine
 62
7
  6
CONTINUOUS
 10
-4.0947745215
 20
12.9749194324
 11
-4.1359900641
 21
12.9749194324
  0
LINE
  5
53C
100
AcDbEntity
  8
LAY0001
100
AcDbLine
 62
7
  6
CONTINUOUS
 10
-4.2802444004
 20
12.9749194324
 11
-4.3214599274
 21
12.9749194324
  0
LINE
  5
53D
100
AcDbEntity
  8
LAY0001
100
AcDbLine
 62
7
  6
CONTINUOUS
 10
-3.7444425742
 20
12.9766858075
 11
-3.7664241676
 21
12.9766858075
  0
LINE
  5
53E
100
AcDbEntity
  8
LAY0001
100
AcDbLine
 62
7
  6
CONTINUOUS
 10
-3.7746672729
 20
12.9766858075
 11
-3.7966488663
 21
12.9766858075
  0
LINE
  5
53F
100
AcDbEntity
  8
LAY0001
100
AcDbLine
 62
7
  6
CONTINUOUS
 10
-3.8254997352
 20
12.9766858075
 11
-3.8516029441
 21
12.9766858075
  0
LINE
  5
540
100
AcDbEntity
  8
LAY0001
100
AcDbLine
 62
7
  6
CONTINUOUS
 10
-4.1552239662
 20
12.9766858075
 11
-4.177205591
 21
12.9766858075
  0
LINE
  5
541
100
AcDbEntity
  8
LAY0001
100
AcDbLine
 62
7
  6
CONTINUOUS
 10
-4.1854486964
 20
12.9766858075
 11
-4.2074303055
 21
12.9766858075
  0
LINE
  5
542
100
AcDbEntity
  8
LAY0001
100
AcDbLine
 62
7
  6
CONTINUOUS
 10
-4.3406938412
 20
12.9766858075
 11
-4.3626754562
 21
12.9766858075
  0
LINE
  5
543
100
AcDbEntity
  8
LAY0001
100
AcDbLine
 62
7
  6
CONTINUOUS
 10
-4.3709185616
 20
12.9766858075
 11
-4.3929001766
 21
12.9766858075
  0
LINE
  5
544
100
AcDbEntity
  8
LAY0001
100
AcDbLine
 62
7
  6
CONTINUOUS
 10
-4.3929001766
 20
12.9855176829
 11
-4.3406938412
 21
12.9855176829
  0
LINE
  5
545
100
AcDbEntity
  8
LAY0001
100
AcDbLine
 62
7
  6
CONTINUOUS
 10
-4.3297030367
 20
12.9855176829
 11
-4.2802444004
 21
12.9855176829
  0
LINE
  5
546
100
AcDbEntity
  8
LAY0001
100
AcDbLine
 62
7
  6
CONTINUOUS
 10
-4.2074303055
 20
12.9855176829
 11
-4.1552239662
 21
12.9855176829
  0
LINE
  5
547
100
AcDbEntity
  8
LAY0001
100
AcDbLine
 62
7
  6
CONTINUOUS
 10
-4.1442331695
 20
12.9855176829
 11
-4.0947745215
 21
12.9855176829
  0
LINE
  5
548
100
AcDbEntity
  8
LAY0001
100
AcDbLine
 62
7
  6
CONTINUOUS
 10
-4.0837837248
 20
12.9855176829
 11
-4.0508113032
 21
12.9855176829
  0
LINE
  5
549
100
AcDbEntity
  8
LAY0001
100
AcDbLine
 62
7
  6
CONTINUOUS
 10
-3.9628848354
 20
12.9855176829
 11
-3.9505201773
 21
12.9855176829
  0
LINE
  5
54A
100
AcDbEntity
  8
LAY0001
100
AcDbLine
 62
7
  6
CONTINUOUS
 10
-3.9202954785
 20
12.9855176829
 11
-3.8708368462
 21
12.9855176829
  0
LINE
  5
54B
100
AcDbEntity
  8
LAY0001
100
AcDbLine
 62
7
  6
CONTINUOUS
 10
-3.7966488663
 20
12.9855176829
 11
-3.7444425742
 21
12.9855176829
  0
LINE
  5
54C
100
AcDbEntity
  8
LAY0001
100
AcDbLine
 62
7
  6
CONTINUOUS
 10
-3.733451746
 20
12.9855176829
 11
-3.7252086406
 21
12.9855176829
  0
LINE
  5
54D
100
AcDbEntity
  8
LAY0001
100
AcDbLine
 62
7
  6
CONTINUOUS
 10
-3.7142178125
 20
12.9855176829
 11
-3.6647591802
 21
12.9855176829
  0
LINE
  5
54E
100
AcDbEntity
  8
LAY0001
100
AcDbLine
 62
7
  6
CONTINUOUS
 10
-3.653768415
 20
12.9855176829
 11
-3.6455253096
 21
12.9855176829
  0
LINE
  5
54F
100
AcDbEntity
  8
LAY0001
100
AcDbLine
 62
7
  6
CONTINUOUS
 10
-3.6345344814
 20
12.9855176829
 11
-3.5850758491
 21
12.9855176829
  0
LINE
  5
550
100
AcDbEntity
  8
LAY0001
100
AcDbLine
 62
7
  6
CONTINUOUS
 10
-3.574085021
 20
12.9855176829
 11
-3.5411125995
 21
12.9855176829
  0
LINE
  5
551
100
AcDbEntity
  8
LAY0001
100
AcDbLine
 62
7
  6
CONTINUOUS
 10
-3.826873628
 20
12.9855176829
 11
-3.8598460495
 21
12.9855176829
  0
LINE
  5
552
100
AcDbEntity
  8
LAY0001
100
AcDbLine
 62
7
  6
CONTINUOUS
 10
-4.240402727
 20
12.9855176829
 11
-4.2472719868
 21
12.9855176829
  0
LINE
  5
553
100
AcDbEntity
  8
0
100
AcDbLine
 62
7
  6
CONTINUOUS
 10
-2.5298514824
 20
13.0418048341
 11
-2.6676467579
 21
13.0418048341
  0
LINE
  5
554
100
AcDbEntity
  8
0
100
AcDbLine
 62
7
  6
CONTINUOUS
 10
-2.9270955768
 20
13.0418048341
 11
-3.0009043849
 21
13.0418048341
  0
LINE
  5
555
100
AcDbEntity
  8
0
100
AcDbLine
 62
7
  6
CONTINUOUS
 10
-2.9270955768
 20
13.0564894258
 11
-2.6676467579
 21
13.0564894258
  0
LINE
  5
556
100
AcDbEntity
  8
0
100
AcDbLine
 62
7
  6
CONTINUOUS
 10
-2.5298514824
 20
13.0564894258
 11
-2.3078884601
 21
13.0564894258
  0
LINE
  5
557
100
AcDbEntity
  8
03___PRT_ALL_CURVES
100
AcDbLine
 62
4
  6
CONTINUOUS
 10
-0.9001530798
 20
12.8153900844
 11
-0.9041642465
 21
12.8158468659
  0
LINE
  5
558
100
AcDbEntity
  8
03___PRT_ALL_CURVES
100
AcDbLine
 62
4
  6
CONTINUOUS
 10
-0.9347802473
 20
12.836858816
 11
-0.930769077
 21
12.8364020345
  0
LINE
  5
559
100
AcDbEntity
  8
03___PRT_ALL_CURVES
100
AcDbLine
 62
4
  6
CONTINUOUS
 10
-0.9003695295
 20
12.8364020345
 11
-0.9043806925
 21
12.836858816
  0
LINE
  5
55A
100
AcDbEntity
  8
03___PRT_ALL_CURVES
100
AcDbLine
 62
4
  6
CONTINUOUS
 10
-0.9975293614
 20
12.8505874436
 11
-0.9935181938
 21
12.8501306621
  0
LINE
  5
55B
100
AcDbEntity
  8
03___PRT_ALL_CURVES
100
AcDbLine
 62
4
  6
CONTINUOUS
 10
-1.0072432306
 20
12.8620069816
 11
-1.0112543982
 21
12.862463763
  0
LINE
  5
55C
100
AcDbEntity
  8
03___PRT_ALL_CURVES
100
AcDbLine
 62
4
  6
CONTINUOUS
 10
-1.0247675152
 20
12.8711426122
 11
-1.0287786837
 21
12.8715993937
  0
LINE
  5
55D
100
AcDbEntity
  8
03___PRT_ALL_CURVES
100
AcDbLine
 62
4
  6
CONTINUOUS
 10
-0.9122470662
 20
12.8715993937
 11
-0.9082359032
 21
12.8711426122
  0
LINE
  5
55E
100
AcDbEntity
  8
03___PRT_ALL_CURVES
100
AcDbLine
 62
4
  6
CONTINUOUS
 10
-0.7129556792
 20
12.8501306621
 11
-0.7169668278
 21
12.8505874436
  0
LINE
  5
55F
100
AcDbEntity
  8
03___PRT_ALL_CURVES
100
AcDbLine
 62
4
  6
CONTINUOUS
 10
-0.8778363521
 20
12.8711426122
 11
-0.8818475151
 21
12.8715993937
  0
LINE
  5
560
100
AcDbEntity
  8
03___PRT_ALL_CURVES
100
AcDbLine
 62
4
  6
CONTINUOUS
 10
-0.9052203681
 20
12.8181307736
 11
-0.9085982131
 21
12.818587555
  0
LINE
  5
561
100
AcDbEntity
  8
03___PRT_ALL_CURVES
100
AcDbLine
 62
4
  6
CONTINUOUS
 10
-0.9297129596
 20
12.8341181272
 11
-0.9263351145
 21
12.8336613457
  0
LINE
  5
562
100
AcDbEntity
  8
LAY0001
100
AcDbLine
 62
7
  6
CONTINUOUS
 10
-4.2321596217
 20
12.9484238013
 11
-4.2390288814
 21
12.9501901763
  0
LINE
  5
563
100
AcDbEntity
  8
LAY0001
100
AcDbLine
 62
7
  6
CONTINUOUS
 10
-3.9628848354
 20
12.9024980442
 11
-3.9697541108
 21
12.9042644194
  0
LINE
  5
564
100
AcDbEntity
  8
LAY0001
100
AcDbLine
 62
7
  6
CONTINUOUS
 10
-4.2335334673
 20
12.9837513078
 11
-4.240402727
 21
12.9855176829
  0
LINE
  5
565
100
AcDbEntity
  8
LAY0001
100
AcDbLine
 62
7
  6
CONTINUOUS
 10
-4.0508113032
 20
12.9855176829
 11
-4.0439420592
 21
12.9837513078
  0
LINE
  5
566
100
AcDbEntity
  8
LAY0001
100
AcDbLine
 62
7
  6
CONTINUOUS
 10
-3.9505201773
 20
12.9855176829
 11
-3.9436509333
 21
12.9837513078
  0
LINE
  5
567
100
AcDbEntity
  8
LAY0001
100
AcDbLine
 62
7
  6
CONTINUOUS
 10
-3.8200043525
 20
12.9837513078
 11
-3.826873628
 21
12.9855176829
  0
LINE
  5
568
100
AcDbEntity
  8
LAY0001
100
AcDbLine
 62
7
  6
CONTINUOUS
 10
-3.5411125995
 20
12.9855176829
 11
-3.5342433869
 21
12.9837513078
  0
LINE
  5
569
100
AcDbEntity
  8
LAY0001
100
AcDbLine
 62
7
  6
CONTINUOUS
 10
-3.9683802494
 20
12.914862671
 11
-3.9628848354
 21
12.9130962959
  0
LINE
  5
56A
100
AcDbEntity
  8
LAY0001
100
AcDbLine
 62
7
  6
CONTINUOUS
 10
-4.0508113032
 20
12.9749194324
 11
-4.0453158892
 21
12.9731530573
  0
LINE
  5
56B
100
AcDbEntity
  8
LAY0001
100
AcDbLine
 62
7
  6
CONTINUOUS
 10
-3.9450247947
 20
12.9731530573
 11
-3.9505201773
 21
12.9749194324
  0
LINE
  5
56C
100
AcDbEntity
  8
LAY0001
100
AcDbLine
 62
7
  6
CONTINUOUS
 10
-3.5411125995
 20
12.9749194324
 11
-3.5356172168
 21
12.9731530573
  0
LINE
  5
56D
100
AcDbEntity
  8
0
100
AcDbLine
 62
7
  6
CONTINUOUS
 10
-0.5086567245
 20
6.2243716796
 11
-0.5086567245
 21
5.2637417584
  0
LINE
  5
56E
100
AcDbEntity
  8
0
100
AcDbLine
 62
7
  6
CONTINUOUS
 10
-0.5086567245
 20
14.8301197111
 11
-0.5086567245
 21
15.7051197111
  0
LINE
  5
56F
100
AcDbEntity
  8
0
100
AcDbLine
 62
7
  6
CONTINUOUS
 10
-0.3486567245
 20
14.5238339968
 11
-0.3486567245
 21
14.4951197111
  0
LINE
  5
570
100
AcDbEntity
  8
0
100
AcDbLine
 62
7
  6
CONTINUOUS
 10
-0.3486567245
 20
6.3683536819
 11
-0.3486567245
 21
6.3768913647
  0
LINE
  5
571
100
AcDbEntity
  8
0
100
AcDbLine
 62
7
  6
CONTINUOUS
 10
-0.3336567245
 20
7.2715927986
 11
-0.3336567245
 21
6.3818519946
  0
LINE
  5
572
100
AcDbEntity
  8
0
100
AcDbLine
 62
7
  6
CONTINUOUS
 10
-0.3336567245
 20
13.1609095908
 11
-0.3336567245
 21
14.4951197111
  0
LINE
  5
573
100
AcDbEntity
  8
0
100
AcDbLine
 62
7
  6
CONTINUOUS
 10
-1.9628425133
 20
13.7406318943
 11
-1.9629635049
 21
13.7406166624
  0
LINE
  5
574
100
AcDbEntity
  8
0
100
AcDbLine
 62
7
  6
CONTINUOUS
 10
-6.5836567245
 20
13.1609095908
 11
-5.2420562068
 21
13.1609095908
  0
LINE
  5
575
100
AcDbEntity
  8
0
100
AcDbLine
 62
7
  6
CONTINUOUS
 10
-0.3336567245
 20
13.1609095908
 11
-1.6920562068
 21
13.1609095908
  0
LINE
  5
576
100
AcDbEntity
  8
0
100
AcDbLine
 62
7
  6
CONTINUOUS
 10
-4.5950939079
 20
13.1841996868
 11
-3.3314297335
 21
13.1841996868
  0
LINE
  5
577
100
AcDbEntity
  8
1_ALL_PLANES
100
AcDbLine
 62
7
  6
CONTINUOUS
 10
-4.504043915
 20
13.1918913647
 11
-3.4136567245
 21
13.1918913647
  0
LINE
  5
578
100
AcDbEntity
  8
0
100
AcDbLine
 62
7
  6
CONTINUOUS
 10
-1.8186567245
 20
13.5840173489
 11
-5.0986567245
 21
13.5840173489
  0
LINE
  5
579
100
AcDbEntity
  8
0
100
AcDbLine
 62
7
  6
CONTINUOUS
 10
-2.7420562068
 20
13.6043700484
 11
-4.7420562068
 21
13.6043700484
  0
LINE
  5
57A
100
AcDbEntity
  8
0
100
AcDbLine
 62
7
  6
CONTINUOUS
 10
-1.8186567245
 20
13.6438401476
 11
-5.0986567245
 21
13.6438401476
  0
LINE
  5
57B
100
AcDbEntity
  8
03___PRT_ALL_CURVES
100
AcDbLine
 62
4
  6
CONTINUOUS
 10
-0.7469495215
 20
12.8715993937
 11
-0.7429383439
 21
12.8711426122
  0
LINE
  5
57C
100
AcDbEntity
  8
0
100
AcDbLine
 62
7
  6
CONTINUOUS
 10
-4.9543499215
 20
13.7406166524
 11
-4.9544709356
 21
13.7406318943
  0
LINE
  5
57D
100
AcDbEntity
  8
03___PRT_ALL_CURVES
100
AcDbLine
 62
4
  6
CONTINUOUS
 10
-0.998585482
 20
12.8528713512
 11
-1.0019633258
 21
12.8533281327
  0
LINE
  5
57E
100
AcDbEntity
  8
03___PRT_ALL_CURVES
100
AcDbLine
 62
4
  6
CONTINUOUS
 10
-1.0133648986
 20
12.8601798557
 11
-1.0099870544
 21
12.8597230742
  0
LINE
  5
57F
100
AcDbEntity
  8
03___PRT_ALL_CURVES
100
AcDbLine
 62
4
  6
CONTINUOUS
 10
-1.0061871105
 20
12.8597230742
 11
-1.0028092663
 21
12.8592662927
  0
LINE
  5
580
100
AcDbEntity
  8
03___PRT_ALL_CURVES
100
AcDbLine
 62
4
  6
CONTINUOUS
 10
-0.9071797785
 20
12.8688587049
 11
-0.9038019443
 21
12.8684019234
  0
LINE
  5
581
100
AcDbEntity
  8
03___PRT_ALL_CURVES
100
AcDbLine
 62
4
  6
CONTINUOUS
 10
-0.7214008017
 20
12.8533281327
 11
-0.7180229675
 21
12.8528713512
  0
LINE
  5
582
100
AcDbEntity
  8
03___PRT_ALL_CURVES
100
AcDbLine
 62
4
  6
CONTINUOUS
 10
-0.7385043706
 20
12.8684019234
 11
-0.7418822338
 21
12.8688587049
  0
LINE
  5
583
100
AcDbEntity
  8
03___PRT_ALL_CURVES
100
AcDbLine
 62
4
  6
CONTINUOUS
 10
-0.8967801113
 20
12.8341181272
 11
-0.8995246312
 21
12.8345749087
  0
LINE
  5
584
100
AcDbEntity
  8
03___PRT_ALL_CURVES
100
AcDbLine
 62
4
  6
CONTINUOUS
 10
-1.0150543421
 20
12.862463763
 11
-1.0177988619
 21
12.8629205445
  0
LINE
  5
585
100
AcDbEntity
  8
03___PRT_ALL_CURVES
100
AcDbLine
 62
4
  6
CONTINUOUS
 10
-1.0230780717
 20
12.8688587049
 11
-1.0203335528
 21
12.8684019234
  0
LINE
  5
586
100
AcDbEntity
  8
03___PRT_ALL_CURVES
100
AcDbLine
 62
4
  6
CONTINUOUS
 10
-0.8742469412
 20
12.8688587049
 11
-0.876991461
 21
12.8693154863
  0
LINE
  5
587
100
AcDbEntity
  8
03___PRT_ALL_CURVES
100
AcDbLine
 62
4
  6
CONTINUOUS
 10
-0.9041642465
 20
12.8158468659
 11
-0.9083866398
 21
12.816760429
  0
LINE
  5
588
100
AcDbEntity
  8
03___PRT_ALL_CURVES
100
AcDbLine
 62
4
  6
CONTINUOUS
 10
-0.930769077
 20
12.8364020345
 11
-0.9265466876
 21
12.8354884716
  0
LINE
  5
589
100
AcDbEntity
  8
03___PRT_ALL_CURVES
100
AcDbLine
 62
4
  6
CONTINUOUS
 10
-1.0175872902
 20
12.8610934186
 11
-1.0133648986
 21
12.8601798557
  0
LINE
  5
58A
100
AcDbEntity
  8
03___PRT_ALL_CURVES
100
AcDbLine
 62
4
  6
CONTINUOUS
 10
-1.0030208394
 20
12.8610934186
 11
-1.0072432306
 21
12.8620069816
  0
LINE
  5
58B
100
AcDbEntity
  8
03___PRT_ALL_CURVES
100
AcDbLine
 62
4
  6
CONTINUOUS
 10
-0.9082359032
 20
12.8711426122
 11
-0.9040135065
 21
12.8702290493
  0
LINE
  5
58C
100
AcDbEntity
  8
03___PRT_ALL_CURVES
100
AcDbLine
 62
4
  6
CONTINUOUS
 10
-0.7169668278
 20
12.8505874436
 11
-0.7211892392
 21
12.8515010067
  0
LINE
  5
58D
100
AcDbEntity
  8
03___PRT_ALL_CURVES
100
AcDbLine
 62
4
  6
CONTINUOUS
 10
-0.7429383439
 20
12.8711426122
 11
-0.7387159618
 21
12.8702290493
  0
LINE
  5
58E
100
AcDbEntity
  8
03___PRT_ALL_CURVES
100
AcDbLine
 62
4
  6
CONTINUOUS
 10
-1.0032296253
 20
12.8519577881
 11
-0.9975293614
 21
12.8505874436
  0
LINE
  5
58F
100
AcDbEntity
  8
03___PRT_ALL_CURVES
100
AcDbLine
 62
4
  6
CONTINUOUS
 10
-0.9085982131
 20
12.818587555
 11
-0.9121872816
 21
12.8195011183
  0
LINE
  5
590
100
AcDbEntity
  8
03___PRT_ALL_CURVES
100
AcDbLine
 62
4
  6
CONTINUOUS
 10
-0.9263351145
 20
12.8336613457
 11
-0.9227460467
 21
12.8327477828
  0
LINE
  5
591
100
AcDbEntity
  8
03___PRT_ALL_CURVES
100
AcDbLine
 62
4
  6
CONTINUOUS
 10
-1.0177988619
 20
12.8629205445
 11
-1.0213879302
 21
12.8638341074
  0
LINE
  5
592
100
AcDbEntity
  8
03___PRT_ALL_CURVES
100
AcDbLine
 62
4
  6
CONTINUOUS
 10
-1.0028092663
 20
12.8592662927
 11
-0.9992201985
 21
12.8583527298
  0
LINE
  5
593
100
AcDbEntity
  8
03___PRT_ALL_CURVES
100
AcDbLine
 62
4
  6
CONTINUOUS
 10
-0.9038019443
 20
12.8684019234
 11
-0.9002128765
 21
12.8674883605
  0
LINE
  5
594
100
AcDbEntity
  8
03___PRT_ALL_CURVES
100
AcDbLine
 62
4
  6
CONTINUOUS
 10
-0.7249898701
 20
12.854241696
 11
-0.7214008017
 21
12.8533281327
  0
LINE
  5
595
100
AcDbEntity
  8
03___PRT_ALL_CURVES
100
AcDbLine
 62
4
  6
CONTINUOUS
 10
-0.7349153028
 20
12.8674883605
 11
-0.7385043706
 21
12.8684019234
  0
LINE
  5
596
100
AcDbEntity
  8
03___PRT_ALL_CURVES
100
AcDbLine
 62
4
  6
CONTINUOUS
 10
-0.8953025849
 20
12.8350316901
 11
-0.9003695295
 21
12.8364020345
  0
LINE
  5
597
100
AcDbEntity
  8
03___PRT_ALL_CURVES
100
AcDbLine
 62
4
  6
CONTINUOUS
 10
-1.0197005761
 20
12.8697722678
 11
-1.0247675152
 21
12.8711426122
  0
LINE
  5
598
100
AcDbEntity
  8
03___PRT_ALL_CURVES
100
AcDbLine
 62
4
  6
CONTINUOUS
 10
-0.8727694075
 20
12.8697722678
 11
-0.8778363521
 21
12.8711426122
  0
LINE
  5
599
100
AcDbEntity
  8
03___PRT_ALL_CURVES
100
AcDbLine
 62
4
  6
CONTINUOUS
 10
-0.9083866398
 20
12.816760429
 11
-0.9142981272
 21
12.818587555
  0
LINE
  5
59A
100
AcDbEntity
  8
03___PRT_ALL_CURVES
100
AcDbLine
 62
4
  6
CONTINUOUS
 10
-1.0019633258
 20
12.8533281327
 11
-1.0063969421
 21
12.8546984774
  0
LINE
  5
59B
100
AcDbEntity
  8
03___PRT_ALL_CURVES
100
AcDbLine
 62
4
  6
CONTINUOUS
 10
-1.023498778
 20
12.8629205445
 11
-1.0175872902
 21
12.8610934186
  0
LINE
  5
59C
100
AcDbEntity
  8
03___PRT_ALL_CURVES
100
AcDbLine
 62
4
  6
CONTINUOUS
 10
-0.9265466876
 20
12.8354884716
 11
-0.9206351987
 21
12.8336613457
  0
LINE
  5
59D
100
AcDbEntity
  8
03___PRT_ALL_CURVES
100
AcDbLine
 62
4
  6
CONTINUOUS
 10
-0.9971093505
 20
12.8592662927
 11
-1.0030208394
 21
12.8610934186
  0
LINE
  5
59E
100
AcDbEntity
  8
03___PRT_ALL_CURVES
100
AcDbLine
 62
4
  6
CONTINUOUS
 10
-1.0203335528
 20
12.8684019234
 11
-1.0173778083
 21
12.8674883605
  0
LINE
  5
59F
100
AcDbEntity
  8
03___PRT_ALL_CURVES
100
AcDbLine
 62
4
  6
CONTINUOUS
 10
-0.8938243651
 20
12.8332045643
 11
-0.8967801113
 21
12.8341181272
  0
LINE
  5
5A0
100
AcDbEntity
  8
03___PRT_ALL_CURVES
100
AcDbLine
 62
4
  6
CONTINUOUS
 10
-0.9040135065
 20
12.8702290493
 11
-0.8981020285
 21
12.8684019234
  0
LINE
  5
5A1
100
AcDbEntity
  8
03___PRT_ALL_CURVES
100
AcDbLine
 62
4
  6
CONTINUOUS
 10
-0.8712911876
 20
12.8679451419
 11
-0.8742469412
 21
12.8688587049
  0
LINE
  5
5A2
100
AcDbEntity
  8
03___PRT_ALL_CURVES
100
AcDbLine
 62
4
  6
CONTINUOUS
 10
-0.7211892392
 20
12.8515010067
 11
-0.7271007175
 21
12.8533281327
  0
LINE
  5
5A3
100
AcDbEntity
  8
03___PRT_ALL_CURVES
100
AcDbLine
 62
4
  6
CONTINUOUS
 10
-0.7387159618
 20
12.8702290493
 11
-0.7328044548
 21
12.8684019234
  0
LINE
  5
5A4
100
AcDbEntity
  8
03___PRT_ALL_CURVES
100
AcDbLine
 62
4
  6
CONTINUOUS
 10
-1.0144224124
 20
12.8679451419
 11
-1.0197005761
 21
12.8697722678
  0
LINE
  5
5A5
100
AcDbEntity
  8
03___PRT_ALL_CURVES
100
AcDbLine
 62
4
  6
CONTINUOUS
 10
-0.8900244212
 20
12.8332045643
 11
-0.8953025849
 21
12.8350316901
  0
LINE
  5
5A6
100
AcDbEntity
  8
03___PRT_ALL_CURVES
100
AcDbLine
 62
4
  6
CONTINUOUS
 10
-0.8674912438
 20
12.8679451419
 11
-0.8727694075
 21
12.8697722678
  0
LINE
  5
5A7
100
AcDbEntity
  8
03___PRT_ALL_CURVES
100
AcDbLine
 62
4
  6
CONTINUOUS
 10
-0.7728577499
 20
12.826352841
 11
-0.8030488578
 21
12.836858816
  0
LINE
  5
5A8
100
AcDbEntity
  8
03___PRT_ALL_CURVES
100
AcDbLine
 62
4
  6
CONTINUOUS
 10
-0.7418220795
 20
12.8153900844
 11
-0.7667350382
 21
12.8240689336
  0
LINE
  5
5A9
100
AcDbEntity
  8
03___PRT_ALL_CURVES
100
AcDbLine
 62
4
  6
CONTINUOUS
 10
-0.7992489139
 20
12.836858816
 11
-0.7743359697
 21
12.8281799668
  0
LINE
  5
5AA
100
AcDbEntity
  8
03___PRT_ALL_CURVES
100
AcDbLine
 62
4
  6
CONTINUOUS
 10
-0.769057806
 20
12.826352841
 11
-0.7380221356
 21
12.8153900844
  0
LINE
  5
5AB
100
AcDbEntity
  8
03___PRT_ALL_CURVES
100
AcDbLine
 62
4
  6
CONTINUOUS
 10
-0.9121872816
 20
12.8195011183
 11
-0.9159875722
 21
12.8208714627
  0
LINE
  5
5AC
100
AcDbEntity
  8
03___PRT_ALL_CURVES
100
AcDbLine
 62
4
  6
CONTINUOUS
 10
-0.9992201985
 20
12.8583527298
 11
-0.9954199067
 21
12.8569823848
  0
LINE
  5
5AD
100
AcDbEntity
  8
03___PRT_ALL_CURVES
100
AcDbLine
 62
4
  6
CONTINUOUS
 10
-0.9227460467
 20
12.8327477828
 11
-0.9189457537
 21
12.8313774371
  0
LINE
  5
5AE
100
AcDbEntity
  8
03___PRT_ALL_CURVES
100
AcDbLine
 62
4
  6
CONTINUOUS
 10
-0.9002128765
 20
12.8674883605
 11
-0.8964125727
 21
12.8661180148
  0
LINE
  5
5AF
100
AcDbEntity
  8
03___PRT_ALL_CURVES
100
AcDbLine
 62
4
  6
CONTINUOUS
 10
-0.7287901715
 20
12.8556120404
 11
-0.7249898701
 21
12.854241696
  0
LINE
  5
5B0
100
AcDbEntity
  8
03___PRT_ALL_CURVES
100
AcDbLine
 62
4
  6
CONTINUOUS
 10
-0.7874822466
 20
12.8715993937
 11
-0.7378672349
 21
12.8533281327
  0
LINE
  5
5B1
100
AcDbEntity
  8
03___PRT_ALL_CURVES
100
AcDbLine
 62
4
  6
CONTINUOUS
 10
-0.7338553706
 20
12.8501306621
 11
-0.7843149309
 21
12.8688587049
  0
LINE
  5
5B2
100
AcDbEntity
  8
03___PRT_ALL_CURVES
100
AcDbLine
 62
4
  6
CONTINUOUS
 10
-1.0093523379
 20
12.854241696
 11
-1.0032296253
 21
12.8519577881
  0
LINE
  5
5B3
100
AcDbEntity
  8
03___PRT_ALL_CURVES
100
AcDbLine
 62
4
  6
CONTINUOUS
 10
-0.9142981272
 20
12.818587555
 11
-0.9189429681
 21
12.8204146812
  0
LINE
  5
5B4
100
AcDbEntity
  8
03___PRT_ALL_CURVES
100
AcDbLine
 62
4
  6
CONTINUOUS
 10
-0.9924645108
 20
12.8574391662
 11
-0.9971093505
 21
12.8592662927
  0
LINE
  5
5B5
100
AcDbEntity
  8
03___PRT_ALL_CURVES
100
AcDbLine
 62
4
  6
CONTINUOUS
 10
-1.0173778083
 20
12.8674883605
 11
-1.015055389
 21
12.8665747975
  0
LINE
  5
5B6
100
AcDbEntity
  8
03___PRT_ALL_CURVES
100
AcDbLine
 62
4
  6
CONTINUOUS
 10
-0.9206351987
 20
12.8336613457
 11
-0.9159903601
 21
12.8318342199
  0
LINE
  5
5B7
100
AcDbEntity
  8
03___PRT_ALL_CURVES
100
AcDbLine
 62
4
  6
CONTINUOUS
 10
-0.8981020285
 20
12.8684019234
 11
-0.8934571791
 21
12.8665747975
  0
LINE
  5
5B8
100
AcDbEntity
  8
03___PRT_ALL_CURVES
100
AcDbLine
 62
4
  6
CONTINUOUS
 10
-0.8558204035
 20
12.8153900844
 11
-0.8809449244
 21
12.8258960595
  0
LINE
  5
5B9
100
AcDbEntity
  8
03___PRT_ALL_CURVES
100
AcDbLine
 62
4
  6
CONTINUOUS
 10
-0.8332872261
 20
12.8501306621
 11
-0.858411747
 21
12.8606366372
  0
LINE
  5
5BA
100
AcDbEntity
  8
03___PRT_ALL_CURVES
100
AcDbLine
 62
4
  6
CONTINUOUS
 10
-0.8830557724
 20
12.8249824965
 11
-0.860253669
 21
12.8153900844
  0
LINE
  5
5BB
100
AcDbEntity
  8
03___PRT_ALL_CURVES
100
AcDbLine
 62
4
  6
CONTINUOUS
 10
-0.860522595
 20
12.8597230742
 11
-0.8377204988
 21
12.8501306621
  0
LINE
  5
5BC
100
AcDbEntity
  8
03___PRT_ALL_CURVES
100
AcDbLine
 62
4
  6
CONTINUOUS
 10
-1.0063969421
 20
12.8546984774
 11
-1.0095639098
 21
12.8560688218
  0
LINE
  5
5BD
100
AcDbEntity
  8
03___PRT_ALL_CURVES
100
AcDbLine
 62
4
  6
CONTINUOUS
 10
-1.0213879302
 20
12.8638341074
 11
-1.0245548979
 21
12.8652044518
  0
LINE
  5
5BE
100
AcDbEntity
  8
03___PRT_ALL_CURVES
100
AcDbLine
 62
4
  6
CONTINUOUS
 10
-1.0112554452
 20
12.8665747975
 11
-1.0144224124
 21
12.8679451419
  0
LINE
  5
5BF
100
AcDbEntity
  8
03___PRT_ALL_CURVES
100
AcDbLine
 62
4
  6
CONTINUOUS
 10
-0.8906573997
 20
12.8318342199
 11
-0.8938243651
 21
12.8332045643
  0
LINE
  5
5C0
100
AcDbEntity
  8
03___PRT_ALL_CURVES
100
AcDbLine
 62
4
  6
CONTINUOUS
 10
-0.8868574558
 20
12.8318342199
 11
-0.8900244212
 21
12.8332045643
  0
LINE
  5
5C1
100
AcDbEntity
  8
03___PRT_ALL_CURVES
100
AcDbLine
 62
4
  6
CONTINUOUS
 10
-1.0133638537
 20
12.8560688218
 11
-1.0093523379
 21
12.854241696
  0
LINE
  5
5C2
100
AcDbEntity
  8
03___PRT_ALL_CURVES
100
AcDbLine
 62
4
  6
CONTINUOUS
 10
-1.0275102938
 20
12.8647476704
 11
-1.023498778
 21
12.8629205445
  0
LINE
  5
5C3
100
AcDbEntity
  8
03___PRT_ALL_CURVES
100
AcDbLine
 62
4
  6
CONTINUOUS
 10
-0.9159875722
 20
12.8208714627
 11
-0.9199990891
 21
12.8226985886
  0
LINE
  5
5C4
100
AcDbEntity
  8
03___PRT_ALL_CURVES
100
AcDbLine
 62
4
  6
CONTINUOUS
 10
-0.9189457537
 20
12.8313774371
 11
-0.9149342368
 21
12.8295503112
  0
LINE
  5
5C5
100
AcDbEntity
  8
03___PRT_ALL_CURVES
100
AcDbLine
 62
4
  6
CONTINUOUS
 10
-0.9189429681
 20
12.8204146812
 11
-0.9237990312
 21
12.8226985886
  0
LINE
  5
5C6
100
AcDbEntity
  8
03___PRT_ALL_CURVES
100
AcDbLine
 62
4
  6
CONTINUOUS
 10
-1.0344782515
 20
12.8702290493
 11
-1.0336333557
 21
12.8684019234
  0
LINE
  5
5C7
100
AcDbEntity
  8
0
100
AcDbLine
 62
7
  6
CONTINUOUS
 10
-5.1359425133
 20
13.7406318943
 11
-5.1360635049
 21
13.7406166624
  0
LINE
  5
5C8
100
AcDbEntity
  8
0
100
AcDbLine
 62
7
  6
CONTINUOUS
 10
-1.8186567245
 20
13.7037529276
 11
-5.0986567245
 21
13.7037529276
  0
LINE
  5
5C9
100
AcDbEntity
  8
0
100
AcDbLine
 62
7
  6
CONTINUOUS
 10
-1.7812499215
 20
13.7406166524
 11
-1.7813709356
 21
13.7406318943
  0
LINE
  5
5CA
100
AcDbEntity
  8
03___PRT_ALL_CURVES
100
AcDbLine
 62
4
  6
CONTINUOUS
 10
-0.7271007175
 20
12.8533281327
 11
-0.7317455675
 21
12.8551552589
  0
LINE
  5
5CB
100
AcDbEntity
  8
03___PRT_ALL_CURVES
100
AcDbLine
 62
4
  6
CONTINUOUS
 10
-0.8527146216
 20
12.8715993937
 11
-0.802887675
 21
12.8501306621
  0
LINE
  5
5CC
100
AcDbEntity
  8
03___PRT_ALL_CURVES
100
AcDbLine
 62
4
  6
CONTINUOUS
 10
-0.8681242295
 20
12.8665747975
 11
-0.8712911876
 21
12.8679451419
  0
LINE
  5
5CD
100
AcDbEntity
  8
03___PRT_ALL_CURVES
100
AcDbLine
 62
4
  6
CONTINUOUS
 10
-0.8643242856
 20
12.8665747975
 11
-0.8674912438
 21
12.8679451419
  0
LINE
  5
5CE
100
AcDbEntity
  8
03___PRT_ALL_CURVES
100
AcDbLine
 62
4
  6
CONTINUOUS
 10
-0.8066876188
 20
12.8501306621
 11
-0.8193554961
 21
12.8556120404
  0
LINE
  5
5CF
100
AcDbEntity
  8
03___PRT_ALL_CURVES
100
AcDbLine
 62
4
  6
CONTINUOUS
 10
-0.8518697161
 20
12.8697722678
 11
-0.8233670022
 21
12.8574391662
  0
LINE
  5
5D0
100
AcDbEntity
  8
03___PRT_ALL_CURVES
100
AcDbLine
 62
4
  6
CONTINUOUS
 10
-0.7317483422
 20
12.8661180148
 11
-0.7349153028
 21
12.8674883605
  0
LINE
  5
5D1
100
AcDbEntity
  8
0
100
AcDbLine
 62
7
  6
CONTINUOUS
 10
1.9139432646
 20
12.1651197111
 11
0.5058367785
 21
12.7889754662
  0
LINE
  5
5D2
100
AcDbEntity
  8
0
100
AcDbLine
 62
7
  6
CONTINUOUS
 10
0.1309913866
 20
12.9550491669
 11
-0.3336567245
 21
13.1609095908
  0
LINE
  5
5D3
100
AcDbEntity
  8
03___PRT_ALL_CURVES
100
AcDbLine
 62
4
  6
CONTINUOUS
 10
-0.8964125727
 20
12.8661180148
 11
-0.8924010666
 21
12.8642908889
  0
LINE
  5
5D4
100
AcDbEntity
  8
03___PRT_ALL_CURVES
100
AcDbLine
 62
4
  6
CONTINUOUS
 10
-0.7328016776
 20
12.8574391662
 11
-0.7287901715
 21
12.8556120404
  0
LINE
  5
5D5
100
AcDbEntity
  8
03___PRT_ALL_CURVES
100
AcDbLine
 62
4
  6
CONTINUOUS
 10
-0.8197817697
 20
12.8715993937
 11
-0.7843114532
 21
12.8551552589
  0
LINE
  5
5D6
100
AcDbEntity
  8
03___PRT_ALL_CURVES
100
AcDbLine
 62
4
  6
CONTINUOUS
 10
-0.7775547109
 20
12.8501306621
 11
-0.814714139
 21
12.8674883605
  0
LINE
  5
5D7
100
AcDbEntity
  8
03___PRT_ALL_CURVES
100
AcDbLine
 62
4
  6
CONTINUOUS
 10
-0.9159903601
 20
12.8318342199
 11
-0.9111342929
 21
12.8295503112
  0
LINE
  5
5D8
100
AcDbEntity
  8
03___PRT_ALL_CURVES
100
AcDbLine
 62
4
  6
CONTINUOUS
 10
-0.8934571791
 20
12.8665747975
 11
-0.8886011227
 21
12.8642908889
  0
LINE
  5
5D9
100
AcDbEntity
  8
03___PRT_ALL_CURVES
100
AcDbLine
 62
4
  6
CONTINUOUS
 10
-0.7317455675
 20
12.8551552589
 11
-0.7366016215
 21
12.8574391662
  0
LINE
  5
5DA
100
AcDbEntity
  8
03___PRT_ALL_CURVES
100
AcDbLine
 62
4
  6
CONTINUOUS
 10
-0.7328044548
 20
12.8684019234
 11
-0.7279483984
 21
12.8661180148
  0
LINE
  5
5DB
100
AcDbEntity
  8
03___PRT_ALL_CURVES
100
AcDbLine
 62
4
  6
CONTINUOUS
 10
-0.7927544864
 20
12.8501306621
 11
-0.837514846
 21
12.8715993937
  0
LINE
  5
5DC
100
AcDbEntity
  8
03___PRT_ALL_CURVES
100
AcDbLine
 62
4
  6
CONTINUOUS
 10
-0.8337149021
 20
12.8715993937
 11
-0.7995112287
 21
12.8551552589
  0
LINE
  5
5DD
100
AcDbEntity
  8
0
100
AcDbLine
 62
7
  6
CONTINUOUS
 10
0.013899002
 20
12.2708721637
 11
-1.1788008305
 21
12.9159547608
  0
LINE
  5
5DE
100
AcDbEntity
  8
0
100
AcDbLine
 62
7
  6
CONTINUOUS
 10
-1.2351596814
 20
12.9550491669
 11
-1.1761881199
 21
12.9231538592
  0
LINE
  5
5DF
100
AcDbEntity
  8
0
100
AcDbLine
 62
3
  6
CONTINUOUS
 10
0.0165117127
 20
12.2780712621
 11
-1.1761881199
 21
12.9231538592
  0
LINE
  5
5E0
100
AcDbEntity
  8
0
100
AcDbLine
 62
7
  6
CONTINUOUS
 10
-1.2335006102
 20
12.9596205943
 11
-0.7654138403
 21
12.7064515899
  0
LINE
  5
5E1
100
AcDbEntity
  8
03___PRT_ALL_CURVES
100
AcDbLine
 62
4
  6
CONTINUOUS
 10
-0.9381525187
 20
12.8153900844
 11
-0.9778462768
 21
12.836858816
  0
LINE
  5
5E2
100
AcDbEntity
  8
03___PRT_ALL_CURVES
100
AcDbLine
 62
4
  6
CONTINUOUS
 10
-1.030888488
 20
12.8665747975
 11
-1.0275102938
 21
12.8647476704
  0
LINE
  5
5E3
100
AcDbEntity
  8
03___PRT_ALL_CURVES
100
AcDbLine
 62
4
  6
CONTINUOUS
 10
-0.9689790453
 20
12.8341181272
 11
-0.9579999196
 21
12.8281799668
  0
LINE
  5
5E4
100
AcDbEntity
  8
03___PRT_ALL_CURVES
100
AcDbLine
 62
4
  6
CONTINUOUS
 10
-0.952932632
 20
12.825439278
 11
-0.9343525748
 21
12.8153900844
  0
LINE
  5
5E5
100
AcDbEntity
  8
03___PRT_ALL_CURVES
100
AcDbLine
 62
4
  6
CONTINUOUS
 10
-1.0245548979
 20
12.8652044518
 11
-1.0262439938
 21
12.8661180148
  0
LINE
  5
5E6
100
AcDbEntity
  8
03___PRT_ALL_CURVES
100
AcDbLine
 62
4
  6
CONTINUOUS
 10
-0.9954199067
 20
12.8569823848
 11
-0.9928862629
 21
12.8556120404
  0
LINE
  5
5E7
100
AcDbEntity
  8
03___PRT_ALL_CURVES
100
AcDbLine
 62
4
  6
CONTINUOUS
 10
-0.9415334955
 20
12.8281799668
 11
-0.9364662078
 21
12.825439278
  0
LINE
  5
5E8
100
AcDbEntity
  8
03___PRT_ALL_CURVES
100
AcDbLine
 62
4
  6
CONTINUOUS
 10
-0.9550466135
 20
12.836858816
 11
-0.9499793258
 21
12.8341181272
  0
LINE
  5
5E9
100
AcDbEntity
  8
03___PRT_ALL_CURVES
100
AcDbLine
 62
4
  6
CONTINUOUS
 10
-0.9882417711
 20
12.8551552589
 11
-0.9924645108
 21
12.8574391662
  0
LINE
  5
5EA
100
AcDbEntity
  8
03___PRT_ALL_CURVES
100
AcDbLine
 62
4
  6
CONTINUOUS
 10
-0.9237990312
 20
12.8226985886
 11
-0.9364672515
 21
12.8295503112
  0
LINE
  5
5EB
100
AcDbEntity
  8
03___PRT_ALL_CURVES
100
AcDbLine
 62
4
  6
CONTINUOUS
 10
-0.97388515
 20
12.8501306621
 11
-1.0135789081
 21
12.8715993937
  0
LINE
  5
5EC
100
AcDbEntity
  8
03___PRT_ALL_CURVES
100
AcDbLine
 62
4
  6
CONTINUOUS
 10
-0.9199990891
 20
12.8226985886
 11
-0.9326673095
 21
12.8295503112
  0
LINE
  5
5ED
100
AcDbEntity
  8
03___PRT_ALL_CURVES
100
AcDbLine
 62
4
  6
CONTINUOUS
 10
-1.0047116766
 20
12.8688587049
 11
-0.9937325509
 21
12.8629205445
  0
LINE
  5
5EE
100
AcDbEntity
  8
03___PRT_ALL_CURVES
100
AcDbLine
 62
4
  6
CONTINUOUS
 10
-0.9886652633
 20
12.8601798557
 11
-0.9751524944
 21
12.8528713512
  0
LINE
  5
5EF
100
AcDbEntity
  8
03___PRT_ALL_CURVES
100
AcDbLine
 62
4
  6
CONTINUOUS
 10
-0.9772661286
 20
12.8629205445
 11
-0.972198841
 21
12.8601798557
  0
LINE
  5
5F0
100
AcDbEntity
  8
03___PRT_ALL_CURVES
100
AcDbLine
 62
4
  6
CONTINUOUS
 10
-0.9149342368
 20
12.8295503112
 11
-0.9022660164
 21
12.8226985886
  0
LINE
  5
5F1
100
AcDbEntity
  8
03___PRT_ALL_CURVES
100
AcDbLine
 62
4
  6
CONTINUOUS
 10
-0.9907792448
 20
12.8715993937
 11
-0.9857119571
 21
12.8688587049
  0
LINE
  5
5F2
100
AcDbEntity
  8
03___PRT_ALL_CURVES
100
AcDbLine
 62
4
  6
CONTINUOUS
 10
-0.956152775
 20
12.8528713512
 11
-0.9510854867
 21
12.8501306621
  0
LINE
  5
5F3
100
AcDbEntity
  8
03___PRT_ALL_CURVES
100
AcDbLine
 62
4
  6
CONTINUOUS
 10
-0.9111342929
 20
12.8295503112
 11
-0.8984660725
 21
12.8226985886
  0
LINE
  5
5F4
100
AcDbEntity
  8
03___PRT_ALL_CURVES
100
AcDbLine
 62
4
  6
CONTINUOUS
 10
-0.9460188961
 20
12.8501306621
 11
-0.9857126541
 21
12.8715993937
  0
LINE
  5
5F5
100
AcDbEntity
  8
03___PRT_ALL_CURVES
100
AcDbLine
 62
4
  6
CONTINUOUS
 10
-0.9195804717
 20
12.836858816
 11
-0.8798867136
 21
12.8153900844
  0
LINE
  5
5F6
100
AcDbEntity
  8
03___PRT_ALL_CURVES
100
AcDbLine
 62
4
  6
CONTINUOUS
 10
-0.9768454226
 20
12.8688587049
 11
-0.965866297
 21
12.8629205445
  0
LINE
  5
5F7
100
AcDbEntity
  8
03___PRT_ALL_CURVES
100
AcDbLine
 62
4
  6
CONTINUOUS
 10
-0.9607990093
 20
12.8601798557
 11
-0.9472862404
 21
12.8528713512
  0
LINE
  5
5F8
100
AcDbEntity
  8
03___PRT_ALL_CURVES
100
AcDbLine
 62
4
  6
CONTINUOUS
 10
-0.9115577845
 20
12.8345749087
 11
-0.8988895629
 21
12.8277231854
  0
LINE
  5
5F9
100
AcDbEntity
  8
03___PRT_ALL_CURVES
100
AcDbLine
 62
4
  6
CONTINUOUS
 10
-0.8760867661
 20
12.8153900844
 11
-0.8938222753
 21
12.8249824965
  0
LINE
  5
5FA
100
AcDbEntity
  8
03___PRT_ALL_CURVES
100
AcDbLine
 62
4
  6
CONTINUOUS
 10
-0.9493998746
 20
12.8629205445
 11
-0.944332587
 21
12.8601798557
  0
LINE
  5
5FB
100
AcDbEntity
  8
03___PRT_ALL_CURVES
100
AcDbLine
 62
4
  6
CONTINUOUS
 10
-0.8881237535
 20
12.8304638742
 11
-0.8906573997
 21
12.8318342199
  0
LINE
  5
5FC
100
AcDbEntity
  8
03___PRT_ALL_CURVES
100
AcDbLine
 62
4
  6
CONTINUOUS
 10
-0.9629129872
 20
12.8715993937
 11
-0.9578456995
 21
12.8688587049
  0
LINE
  5
5FD
100
AcDbEntity
  8
03___PRT_ALL_CURVES
100
AcDbLine
 62
4
  6
CONTINUOUS
 10
-0.9282865173
 20
12.8528713512
 11
-0.9232192291
 21
12.8501306621
  0
LINE
  5
5FE
100
AcDbEntity
  8
03___PRT_ALL_CURVES
100
AcDbLine
 62
4
  6
CONTINUOUS
 10
-0.8834792616
 20
12.8300070927
 11
-0.8868574558
 21
12.8318342199
  0
LINE
  5
5FF
100
AcDbEntity
  8
03___PRT_ALL_CURVES
100
AcDbLine
 62
4
  6
CONTINUOUS
 10
-0.8877530909
 20
12.8501306621
 11
-0.927446849
 21
12.8715993937
  0
LINE
  5
600
100
AcDbEntity
  8
03___PRT_ALL_CURVES
100
AcDbLine
 62
4
  6
CONTINUOUS
 10
-0.8558252765
 20
12.8345749087
 11
-0.8600480162
 21
12.836858816
  0
LINE
  5
601
100
AcDbEntity
  8
03___PRT_ALL_CURVES
100
AcDbLine
 62
4
  6
CONTINUOUS
 10
-0.8890204353
 20
12.8528713512
 11
-0.9185796175
 21
12.8688587049
  0
LINE
  5
602
100
AcDbEntity
  8
03___PRT_ALL_CURVES
100
AcDbLine
 62
4
  6
CONTINUOUS
 10
-0.8102210696
 20
12.8153900844
 11
-0.8456920879
 21
12.8345749087
  0
LINE
  5
603
100
AcDbEntity
  8
03___PRT_ALL_CURVES
100
AcDbLine
 62
4
  6
CONTINUOUS
 10
-0.841892144
 20
12.8345749087
 11
-0.8064211257
 21
12.8153900844
  0
LINE
  5
604
100
AcDbEntity
  8
03___PRT_ALL_CURVES
100
AcDbLine
 62
4
  6
CONTINUOUS
 10
-0.8924010666
 20
12.8642908889
 11
-0.8797328462
 21
12.8574391662
  0
LINE
  5
605
100
AcDbEntity
  8
03___PRT_ALL_CURVES
100
AcDbLine
 62
4
  6
CONTINUOUS
 10
-0.8886011227
 20
12.8642908889
 11
-0.8759329024
 21
12.8574391662
  0
LINE
  5
606
100
AcDbEntity
  8
03___PRT_ALL_CURVES
100
AcDbLine
 62
4
  6
CONTINUOUS
 10
-0.8359817097
 20
12.836858816
 11
-0.83175897
 21
12.8345749087
  0
LINE
  5
607
100
AcDbEntity
  8
03___PRT_ALL_CURVES
100
AcDbLine
 62
4
  6
CONTINUOUS
 10
-0.8970472906
 20
12.8715993937
 11
-0.8573535326
 21
12.8501306621
  0
LINE
  5
608
100
AcDbEntity
  8
03___PRT_ALL_CURVES
100
AcDbLine
 62
4
  6
CONTINUOUS
 10
-0.7912213501
 20
12.8153900844
 11
-0.8309151082
 21
12.836858816
  0
LINE
  5
609
100
AcDbEntity
  8
03___PRT_ALL_CURVES
100
AcDbLine
 62
4
  6
CONTINUOUS
 10
-0.889024607
 20
12.8693154863
 11
-0.8763563855
 21
12.862463763
  0
LINE
  5
60A
100
AcDbEntity
  8
03___PRT_ALL_CURVES
100
AcDbLine
 62
4
  6
CONTINUOUS
 10
-0.8535535887
 20
12.8501306621
 11
-0.8712890979
 21
12.8597230742
  0
LINE
  5
60B
100
AcDbEntity
  8
03___PRT_ALL_CURVES
100
AcDbLine
 62
4
  6
CONTINUOUS
 10
-0.8220478766
 20
12.8341181272
 11
-0.811068751
 21
12.8281799668
  0
LINE
  5
60C
100
AcDbEntity
  8
03___PRT_ALL_CURVES
100
AcDbLine
 62
4
  6
CONTINUOUS
 10
-0.8060014633
 20
12.825439278
 11
-0.7924886945
 21
12.8181307736
  0
LINE
  5
60D
100
AcDbEntity
  8
03___PRT_ALL_CURVES
100
AcDbLine
 62
4
  6
CONTINUOUS
 10
-0.8655905833
 20
12.8652044518
 11
-0.8681242295
 21
12.8665747975
  0
LINE
  5
60E
100
AcDbEntity
  8
03___PRT_ALL_CURVES
100
AcDbLine
 62
4
  6
CONTINUOUS
 10
-0.7946023323
 20
12.8281799668
 11
-0.7895350447
 21
12.825439278
  0
LINE
  5
60F
100
AcDbEntity
  8
03___PRT_ALL_CURVES
100
AcDbLine
 62
4
  6
CONTINUOUS
 10
-0.8609460915
 20
12.8647476704
 11
-0.8643242856
 21
12.8665747975
  0
LINE
  5
610
100
AcDbEntity
  8
03___PRT_ALL_CURVES
100
AcDbLine
 62
4
  6
CONTINUOUS
 10
-0.8081154449
 20
12.836858816
 11
-0.8030481572
 21
12.8341181272
  0
LINE
  5
611
100
AcDbEntity
  8
03___PRT_ALL_CURVES
100
AcDbLine
 62
4
  6
CONTINUOUS
 10
-0.773488975
 20
12.8181307736
 11
-0.7684216868
 21
12.8153900844
  0
LINE
  5
612
100
AcDbEntity
  8
03___PRT_ALL_CURVES
100
AcDbLine
 62
4
  6
CONTINUOUS
 10
-0.768426567
 20
12.8345749087
 11
-0.7726493067
 21
12.836858816
  0
LINE
  5
613
100
AcDbEntity
  8
03___PRT_ALL_CURVES
100
AcDbLine
 62
4
  6
CONTINUOUS
 10
-0.7228223601
 20
12.8153900844
 11
-0.7582933784
 21
12.8345749087
  0
LINE
  5
614
100
AcDbEntity
  8
03___PRT_ALL_CURVES
100
AcDbLine
 62
4
  6
CONTINUOUS
 10
-0.7544934346
 20
12.8345749087
 11
-0.7190224162
 21
12.8153900844
  0
LINE
  5
615
100
AcDbEntity
  8
03___PRT_ALL_CURVES
100
AcDbLine
 62
4
  6
CONTINUOUS
 10
-0.7485830002
 20
12.836858816
 11
-0.7443602605
 21
12.8345749087
  0
LINE
  5
616
100
AcDbEntity
  8
03___PRT_ALL_CURVES
100
AcDbLine
 62
4
  6
CONTINUOUS
 10
-0.7623549353
 20
12.8501306621
 11
-0.8020486934
 21
12.8715993937
  0
LINE
  5
617
100
AcDbEntity
  8
03___PRT_ALL_CURVES
100
AcDbLine
 62
4
  6
CONTINUOUS
 10
-0.798248764
 20
12.8715993937
 11
-0.7585550059
 21
12.8501306621
  0
LINE
  5
618
100
AcDbEntity
  8
03___PRT_ALL_CURVES
100
AcDbLine
 62
4
  6
CONTINUOUS
 10
-0.7534884044
 20
12.8501306621
 11
-0.7931821625
 21
12.8715993937
  0
LINE
  5
619
100
AcDbEntity
  8
03___PRT_ALL_CURVES
100
AcDbLine
 62
4
  6
CONTINUOUS
 10
-0.7843149309
 20
12.8688587049
 11
-0.7496884605
 21
12.8501306621
  0
LINE
  5
61A
100
AcDbEntity
  8
03___PRT_ALL_CURVES
100
AcDbLine
 62
4
  6
CONTINUOUS
 10
-0.7378672349
 20
12.8533281327
 11
-0.7716491567
 21
12.8715993937
  0
LINE
  5
61B
100
AcDbEntity
  8
03___PRT_ALL_CURVES
100
AcDbLine
 62
4
  6
CONTINUOUS
 10
-0.7678492129
 20
12.8715993937
 11
-0.7281554548
 21
12.8501306621
  0
LINE
  5
61C
100
AcDbEntity
  8
03___PRT_ALL_CURVES
100
AcDbLine
 62
4
  6
CONTINUOUS
 10
-0.7366016215
 20
12.8574391662
 11
-0.7492698419
 21
12.8642908889
  0
LINE
  5
61D
100
AcDbEntity
  8
03___PRT_ALL_CURVES
100
AcDbLine
 62
4
  6
CONTINUOUS
 10
-0.745469898
 20
12.8642908889
 11
-0.7328016776
 21
12.8574391662
  0
LINE
  5
61E
100
AcDbEntity
  8
03___PRT_ALL_CURVES
100
AcDbLine
 62
4
  6
CONTINUOUS
 10
-0.7247800389
 20
12.8592662927
 11
-0.7298473266
 21
12.8620069816
  0
LINE
  5
61F
100
AcDbEntity
  8
03___PRT_ALL_CURVES
100
AcDbLine
 62
4
  6
CONTINUOUS
 10
-0.7123237384
 20
12.8556120404
 11
-0.7190801231
 21
12.8592662927
  0
LINE
  5
620
100
AcDbEntity
  8
03___PRT_ALL_CURVES
100
AcDbLine
 62
4
  6
CONTINUOUS
 10
-0.7203474669
 20
12.8620069816
 11
-0.7076792465
 21
12.8551552589
  0
LINE
  5
621
100
AcDbEntity
  8
0
100
AcDbLine
 62
7
  6
CONTINUOUS
 10
-0.4069285676
 20
12.7064515899
 11
-0.8750153375
 21
12.9596205943
  0
LINE
  5
622
100
AcDbEntity
  8
03___PRT_ALL_CURVES
100
AcDbLine
 62
4
  6
CONTINUOUS
 10
-0.7843114532
 20
12.8551552589
 11
-0.8109152388
 21
12.8715993937
  0
LINE
  5
623
100
AcDbEntity
  8
03___PRT_ALL_CURVES
100
AcDbLine
 62
4
  6
CONTINUOUS
 10
-0.8071152949
 20
12.8715993937
 11
-0.7724881238
 21
12.8501306621
  0
LINE
  5
624
100
AcDbEntity
  8
03___PRT_ALL_CURVES
100
AcDbLine
 62
4
  6
CONTINUOUS
 10
-0.9364672515
 20
12.8295503112
 11
-0.9400566702
 21
12.8318342199
  0
LINE
  5
625
100
AcDbEntity
  8
03___PRT_ALL_CURVES
100
AcDbLine
 62
4
  6
CONTINUOUS
 10
-0.8984660725
 20
12.8226985886
 11
-0.894876658
 21
12.8204146812
  0
LINE
  5
626
100
AcDbEntity
  8
03___PRT_ALL_CURVES
100
AcDbLine
 62
4
  6
CONTINUOUS
 10
-0.8759329024
 20
12.8574391662
 11
-0.872343477
 21
12.8551552589
  0
LINE
  5
627
100
AcDbEntity
  8
03___PRT_ALL_CURVES
100
AcDbLine
 62
4
  6
CONTINUOUS
 10
-0.7492698419
 20
12.8642908889
 11
-0.7528592696
 21
12.8665747975
  0
LINE
  5
628
100
AcDbEntity
  8
03___PRT_ALL_CURVES
100
AcDbLine
 62
4
  6
CONTINUOUS
 10
-0.814714139
 20
12.8674883605
 11
-0.7876878994
 21
12.8501306621
  0
LINE
  5
629
100
AcDbEntity
  8
03___PRT_ALL_CURVES
100
AcDbLine
 62
4
  6
CONTINUOUS
 10
-0.7995112287
 20
12.8551552589
 11
-0.8248483567
 21
12.8715993937
  0
LINE
  5
62A
100
AcDbEntity
  8
03___PRT_ALL_CURVES
100
AcDbLine
 62
4
  6
CONTINUOUS
 10
-1.0336333557
 20
12.8684019234
 11
-1.030888488
 21
12.8665747975
  0
LINE
  5
62B
100
AcDbEntity
  8
03___PRT_ALL_CURVES
100
AcDbLine
 62
4
  6
CONTINUOUS
 10
-0.9326673095
 20
12.8295503112
 11
-0.935412176
 21
12.8313774371
  0
LINE
  5
62C
100
AcDbEntity
  8
03___PRT_ALL_CURVES
100
AcDbLine
 62
4
  6
CONTINUOUS
 10
-0.9022660164
 20
12.8226985886
 11
-0.8995211498
 21
12.8208714627
  0
LINE
  5
62D
100
AcDbEntity
  8
03___PRT_ALL_CURVES
100
AcDbLine
 62
4
  6
CONTINUOUS
 10
-0.8797328462
 20
12.8574391662
 11
-0.8769879688
 21
12.8556120404
  0
LINE
  5
62E
100
AcDbEntity
  8
03___PRT_ALL_CURVES
100
AcDbLine
 62
4
  6
CONTINUOUS
 10
-0.7482147754
 20
12.8661180148
 11
-0.745469898
 21
12.8642908889
  0
LINE
  5
62F
100
AcDbEntity
  8
03___PRT_ALL_CURVES
100
AcDbLine
 62
4
  6
CONTINUOUS
 10
-0.7076792465
 20
12.8551552589
 11
-0.7049343685
 21
12.8533281327
  0
LINE
  5
630
100
AcDbEntity
  8
03___PRT_ALL_CURVES
100
AcDbLine
 62
4
  6
CONTINUOUS
 10
-1.0262439938
 20
12.8661180148
 11
-1.0281443161
 21
12.8674883605
  0
LINE
  5
631
100
AcDbEntity
  8
03___PRT_ALL_CURVES
100
AcDbLine
 62
4
  6
CONTINUOUS
 10
-0.8862234312
 20
12.8290935298
 11
-0.8881237535
 21
12.8304638742
  0
LINE
  5
632
100
AcDbEntity
  8
03___PRT_ALL_CURVES
100
AcDbLine
 62
4
  6
CONTINUOUS
 10
-0.8815789394
 20
12.8286367483
 11
-0.8834792616
 21
12.8300070927
  0
LINE
  5
633
100
AcDbEntity
  8
03___PRT_ALL_CURVES
100
AcDbLine
 62
4
  6
CONTINUOUS
 10
-0.8636902538
 20
12.8638341074
 11
-0.8655905833
 21
12.8652044518
  0
LINE
  5
634
100
AcDbEntity
  8
03___PRT_ALL_CURVES
100
AcDbLine
 62
4
  6
CONTINUOUS
 10
-0.8590457619
 20
12.863377326
 11
-0.8609460915
 21
12.8647476704
  0
LINE
  5
635
100
AcDbEntity
  8
03___PRT_ALL_CURVES
100
AcDbLine
 62
4
  6
CONTINUOUS
 10
-0.8347668339
 20
12.8574391662
 11
-0.8518697161
 21
12.8697722678
  0
LINE
  5
636
100
AcDbEntity
  8
03___PRT_ALL_CURVES
100
AcDbLine
 62
4
  6
CONTINUOUS
 10
-0.8320219709
 20
12.8556120404
 11
-0.8244206952
 21
12.8501306621
  0
LINE
  5
637
100
AcDbEntity
  8
03___PRT_ALL_CURVES
100
AcDbLine
 62
4
  6
CONTINUOUS
 10
-0.7104234088
 20
12.854241696
 11
-0.7123237384
 21
12.8556120404
  0
LINE
  5
638
100
AcDbEntity
  8
03___PRT_ALL_CURVES
100
AcDbLine
 62
4
  6
CONTINUOUS
 10
-0.8282206391
 20
12.8501306621
 11
-0.8577812086
 21
12.8715993937
  0
LINE
  5
639
100
AcDbEntity
  8
03___PRT_ALL_CURVES
100
AcDbLine
 62
4
  6
CONTINUOUS
 10
-0.9861302255
 20
12.8533281327
 11
-0.9882417711
 21
12.8551552589
  0
LINE
  5
63A
100
AcDbEntity
  8
03___PRT_ALL_CURVES
100
AcDbLine
 62
4
  6
CONTINUOUS
 10
-0.9400566702
 20
12.8318342199
 11
-0.9421682135
 21
12.8336613457
  0
LINE
  5
63B
100
AcDbEntity
  8
03___PRT_ALL_CURVES
100
AcDbLine
 62
4
  6
CONTINUOUS
 10
-0.894876658
 20
12.8204146812
 11
-0.8927651124
 21
12.818587555
  0
LINE
  5
63C
100
AcDbEntity
  8
03___PRT_ALL_CURVES
100
AcDbLine
 62
4
  6
CONTINUOUS
 10
-0.872343477
 20
12.8551552589
 11
-0.8702319422
 21
12.8533281327
  0
LINE
  5
63D
100
AcDbEntity
  8
03___PRT_ALL_CURVES
100
AcDbLine
 62
4
  6
CONTINUOUS
 10
-0.7528592696
 20
12.8665747975
 11
-0.7549708038
 21
12.8684019234
  0
LINE
  5
63E
100
AcDbEntity
  8
03___PRT_ALL_CURVES
100
AcDbLine
 62
4
  6
CONTINUOUS
 10
-0.9928862629
 20
12.8556120404
 11
-0.9916192658
 21
12.854241696
  0
LINE
  5
63F
100
AcDbEntity
  8
03___PRT_ALL_CURVES
100
AcDbLine
 62
4
  6
CONTINUOUS
 10
-0.935412176
 20
12.8313774371
 11
-0.9366791755
 21
12.8327477828
  0
LINE
  5
640
100
AcDbEntity
  8
03___PRT_ALL_CURVES
100
AcDbLine
 62
4
  6
CONTINUOUS
 10
-0.8995211498
 20
12.8208714627
 11
-0.8982541528
 21
12.8195011183
  0
LINE
  5
641
100
AcDbEntity
  8
03___PRT_ALL_CURVES
100
AcDbLine
 62
4
  6
CONTINUOUS
 10
-0.8769879688
 20
12.8556120404
 11
-0.8757209826
 21
12.854241696
  0
LINE
  5
642
100
AcDbEntity
  8
03___PRT_ALL_CURVES
100
AcDbLine
 62
4
  6
CONTINUOUS
 10
-0.749481764
 20
12.8674883605
 11
-0.7482147754
 21
12.8661180148
  0
LINE
  5
643
100
AcDbEntity
  8
03___PRT_ALL_CURVES
100
AcDbLine
 62
4
  6
CONTINUOUS
 10
-0.7633550997
 20
12.8153900844
 11
-0.7728577499
 21
12.826352841
  0
LINE
  5
644
100
AcDbEntity
  8
03___PRT_ALL_CURVES
100
AcDbLine
 62
4
  6
CONTINUOUS
 10
-0.7743359697
 20
12.8281799668
 11
-0.7815158376
 21
12.836858816
  0
LINE
  5
645
100
AcDbEntity
  8
03___PRT_ALL_CURVES
100
AcDbLine
 62
4
  6
CONTINUOUS
 10
-0.7667350382
 20
12.8240689336
 11
-0.7595551559
 21
12.8153900844
  0
LINE
  5
646
100
AcDbEntity
  8
03___PRT_ALL_CURVES
100
AcDbLine
 62
4
  6
CONTINUOUS
 10
-0.7777158937
 20
12.836858816
 11
-0.769057806
 21
12.826352841
  0
LINE
  5
647
100
AcDbEntity
  8
03___PRT_ALL_CURVES
100
AcDbLine
 62
4
  6
CONTINUOUS
 10
-0.8801007195
 20
12.8268096224
 11
-0.8815789394
 21
12.8286367483
  0
LINE
  5
648
100
AcDbEntity
  8
03___PRT_ALL_CURVES
100
AcDbLine
 62
4
  6
CONTINUOUS
 10
-0.8575675421
 20
12.8615502001
 11
-0.8590457619
 21
12.863377326
  0
LINE
  5
649
100
AcDbEntity
  8
03___PRT_ALL_CURVES
100
AcDbLine
 62
4
  6
CONTINUOUS
 10
-0.9852853305
 20
12.8515010067
 11
-0.9861302255
 21
12.8533281327
  0
LINE
  5
64A
100
AcDbEntity
  8
03___PRT_ALL_CURVES
100
AcDbLine
 62
4
  6
CONTINUOUS
 10
-0.9421682135
 20
12.8336613457
 11
-0.9430131099
 21
12.8354884716
  0
LINE
  5
64B
100
AcDbEntity
  8
03___PRT_ALL_CURVES
100
AcDbLine
 62
4
  6
CONTINUOUS
 10
-0.8927651124
 20
12.818587555
 11
-0.8919202175
 21
12.816760429
  0
LINE
  5
64C
100
AcDbEntity
  8
03___PRT_ALL_CURVES
100
AcDbLine
 62
4
  6
CONTINUOUS
 10
-0.8858009857
 20
12.8281799668
 11
-0.8862234312
 21
12.8290935298
  0
LINE
  5
64D
100
AcDbEntity
  8
03___PRT_ALL_CURVES
100
AcDbLine
 62
4
  6
CONTINUOUS
 10
-0.8702319422
 20
12.8533281327
 11
-0.8693870364
 21
12.8515010067
  0
LINE
  5
64E
100
AcDbEntity
  8
03___PRT_ALL_CURVES
100
AcDbLine
 62
4
  6
CONTINUOUS
 10
-0.8632678155
 20
12.8629205445
 11
-0.8636902538
 21
12.8638341074
  0
LINE
  5
64F
100
AcDbEntity
  8
03___PRT_ALL_CURVES
100
AcDbLine
 62
4
  6
CONTINUOUS
 10
-0.7549708038
 20
12.8684019234
 11
-0.7558157093
 21
12.8702290493
  0
LINE
  5
650
100
AcDbEntity
  8
03___PRT_ALL_CURVES
100
AcDbLine
 62
4
  6
CONTINUOUS
 10
-0.7049343685
 20
12.8533281327
 11
-0.7040894917
 21
12.8515010067
  0
LINE
  5
651
100
AcDbEntity
  8
0
100
AcDbLine
 62
7
  6
CONTINUOUS
 10
1.4766930448
 20
12.2440099709
 11
1.4793057555
 21
12.2512090693
  0
LINE
  5
652
100
AcDbEntity
  8
0
100
AcDbLine
 62
7
  6
CONTINUOUS
 10
-6.5836563705
 20
14.4951197111
 11
-0.3336570784
 21
14.4951197111
  0
LINE
  5
653
100
AcDbEntity
  8
0
100
AcDbLine
 62
7
  6
CONTINUOUS
 10
-0.3486567245
 20
14.5238339968
 11
-6.5686567245
 21
14.5238339968
  0
LINE
  5
654
100
AcDbEntity
  8
0
100
AcDbLine
 62
3
  6
CONTINUOUS
 10
1.4504528036
 20
12.2780712621
 11
0.257752971
 21
12.9231538592
  0
LINE
  5
655
100
AcDbEntity
  8
0
100
AcDbLine
 62
7
  6
CONTINUOUS
 10
-0.5086567245
 20
14.8301197111
 11
-6.4086567245
 21
14.8301197111
  0
LINE
  5
656
100
AcDbEntity
  8
0
100
AcDbLine
 62
7
  6
CONTINUOUS
 10
-0.3486567245
 20
14.5238339968
 11
-0.5086567245
 21
14.8301197111
  0
LINE
  5
657
100
AcDbEntity
  8
0
100
AcDbLine
 62
7
  6
CONTINUOUS
 10
-0.3336567245
 20
6.3818519946
 11
-0.3391692245
 21
6.3768913647
  0
LINE
  5
658
100
AcDbEntity
  8
0
100
AcDbLine
 62
7
  6
CONTINUOUS
 10
-0.3486567245
 20
6.3683536819
 11
-0.5086567245
 21
6.2243716796
  0
LINE
  5
659
100
AcDbEntity
  8
0
100
AcDbLine
 62
7
  6
CONTINUOUS
 10
-0.5086568973
 20
15.7051197111
 11
-6.4086565516
 21
15.7051197111
  0
LINE
  5
65A
100
AcDbEntity
  8
0
100
AcDbLine
 62
7
  6
CONTINUOUS
 10
2.3363432755
 20
9.7651197111
 11
2.3363432755
 21
7.9802542159
  0
LINE
  5
65B
100
AcDbEntity
  8
0
100
AcDbLine
 62
7
  6
CONTINUOUS
 10
2.3363432755
 20
11.0643323095
 11
2.3363432755
 21
11.5159770101
  0
LINE
  5
65C
100
AcDbEntity
  8
0
100
AcDbLine
 62
7
  6
CONTINUOUS
 10
2.415083433
 20
11.0643323095
 11
2.415083433
 21
9.7651197111
  0
LINE
  5
65D
100
AcDbEntity
  8
0
100
AcDbLine
 62
7
  6
CONTINUOUS
 10
7.6665923548
 20
11.0643323095
 11
7.6665923548
 21
9.7651197111
  0
LINE
  5
65E
100
AcDbEntity
  8
0
100
AcDbLine
 62
7
  6
CONTINUOUS
 10
7.7453325123
 20
9.7651197111
 11
7.7453325123
 21
7.9802542159
  0
LINE
  5
65F
100
AcDbEntity
  8
0
100
AcDbLine
 62
7
  6
CONTINUOUS
 10
7.7453325123
 20
11.0643323095
 11
7.7453325123
 21
11.5159770101
  0
LINE
  5
660
100
AcDbEntity
  8
0
100
AcDbLine
 62
7
  6
CONTINUOUS
 10
7.9839040476
 20
13.5839273676
 11
7.9903720585
 21
13.7037529276
  0
LINE
  5
661
100
AcDbEntity
  8
0
100
AcDbLine
 62
7
  6
CONTINUOUS
 10
7.845439313
 20
10.7670882151
 11
7.845439313
 21
9.7631512072
  0
LINE
  5
662
100
AcDbEntity
  8
0
100
AcDbLine
 62
7
  6
CONTINUOUS
 10
7.8619377757
 20
10.7080330969
 11
7.8619377757
 21
9.9722871406
  0
LINE
  5
663
100
AcDbEntity
  8
0
100
AcDbLine
 62
7
  6
CONTINUOUS
 10
7.8619377757
 20
9.9526021013
 11
7.8619377757
 21
9.8222063253
  0
LINE
  5
664
100
AcDbEntity
  8
0
100
AcDbLine
 62
7
  6
CONTINUOUS
 10
7.9822370651
 20
11.5159770297
 11
7.9822370651
 21
13.5840173489
  0
LINE
  5
665
100
AcDbEntity
  8
0
100
AcDbLine
 62
7
  6
CONTINUOUS
 10
8.1649083751
 20
9.8222063253
 11
8.1649083751
 21
9.9526021013
  0
LINE
  5
666
100
AcDbEntity
  8
0
100
AcDbLine
 62
7
  6
CONTINUOUS
 10
8.1649083751
 20
9.9722871406
 11
8.1649083751
 21
10.7080330969
  0
LINE
  5
667
100
AcDbEntity
  8
0
100
AcDbLine
 62
7
  6
CONTINUOUS
 10
8.1686079524
 20
9.8222063253
 11
8.1686079524
 21
9.9526021013
  0
LINE
  5
668
100
AcDbEntity
  8
0
100
AcDbLine
 62
7
  6
CONTINUOUS
 10
8.1686079524
 20
9.9722871406
 11
8.1686079524
 21
10.7080330969
  0
LINE
  5
669
100
AcDbEntity
  8
0
100
AcDbLine
 62
7
  6
CONTINUOUS
 10
8.1888059923
 20
9.7631512072
 11
8.1888059923
 21
10.7670882151
  0
LINE
  5
66A
100
AcDbEntity
  8
0
100
AcDbLine
 62
7
  6
CONTINUOUS
 10
8.1925055696
 20
9.7631512072
 11
8.1925055696
 21
10.7670882151
  0
LINE
  5
66B
100
AcDbEntity
  8
0
100
AcDbLine
 62
7
  6
CONTINUOUS
 10
16.4509624336
 20
5.2243716796
 11
10.6297025911
 21
5.2243716796
  0
LINE
  5
66C
100
AcDbEntity
  8
0
100
AcDbLine
 62
7
  6
CONTINUOUS
 10
8.9220634419
 20
13.6534615706
 11
8.9242329206
 21
13.6936530605
  0
LINE
  5
66D
100
AcDbEntity
  8
0
100
AcDbLine
 62
7
  6
CONTINUOUS
 10
10.4153325123
 20
6.3818519946
 11
10.4208450123
 21
6.3768913647
  0
LINE
  5
66E
100
AcDbEntity
  8
0
100
AcDbLine
 62
7
  6
CONTINUOUS
 10
10.4303325123
 20
6.3683536819
 11
10.5903325123
 21
6.2243716796
  0
LINE
  5
66F
100
AcDbEntity
  8
0
100
AcDbLine
 62
7
  6
CONTINUOUS
 10
9.07300469
 20
13.7410649448
 11
9.0735635506
 21
13.7514183259
  0
LINE
  5
670
100
AcDbEntity
  8
0
100
AcDbLine
 62
7
  6
CONTINUOUS
 10
9.1035199406
 20
13.7498013232
 11
9.10296108
 21
13.7394479421
  0
LINE
  5
671
100
AcDbEntity
  8
0
100
AcDbLine
 62
7
  6
CONTINUOUS
 10
9.2435953613
 20
13.6361057413
 11
9.24576484
 21
13.6762972313
  0
LINE
  5
672
100
AcDbEntity
  8
0
100
AcDbLine
 62
7
  6
CONTINUOUS
 10
10.4303325123
 20
14.5238339968
 11
10.5903325123
 21
14.8301197111
  0
LINE
  5
673
100
AcDbEntity
  8
0
100
AcDbLine
 62
7
  6
CONTINUOUS
 10
16.4903325123
 20
6.2243716796
 11
10.5903325123
 21
6.2243716796
  0
LINE
  5
674
100
AcDbEntity
  8
03___PRT_ALL_CURVES
100
AcDbLine
 62
4
  6
CONTINUOUS
 10
10.357177052
 20
12.818587555
 11
10.3577335261
 21
12.8204146812
  0
LINE
  5
675
100
AcDbEntity
  8
03___PRT_ALL_CURVES
100
AcDbLine
 62
4
  6
CONTINUOUS
 10
10.3984303543
 20
12.8574391662
 11
10.3989868315
 21
12.8592662927
  0
LINE
  5
676
100
AcDbEntity
  8
03___PRT_ALL_CURVES
100
AcDbLine
 62
4
  6
CONTINUOUS
 10
10.4023954483
 20
12.8674883605
 11
10.4021172101
 21
12.8665747975
  0
LINE
  5
677
100
AcDbEntity
  8
03___PRT_ALL_CURVES
100
AcDbLine
 62
4
  6
CONTINUOUS
 10
10.4074442286
 20
12.8336613457
 11
10.4068877523
 21
12.8318342199
  0
LINE
  5
678
100
AcDbEntity
  8
03___PRT_ALL_CURVES
100
AcDbLine
 62
4
  6
CONTINUOUS
 10
10.4281094071
 20
12.8153900844
 11
10.4335703386
 21
12.8258960595
  0
LINE
  5
679
100
AcDbEntity
  8
03___PRT_ALL_CURVES
100
AcDbLine
 62
4
  6
CONTINUOUS
 10
10.5969991009
 20
12.8501306621
 11
10.6024600324
 21
12.8606366372
  0
LINE
  5
67A
100
AcDbEntity
  8
03___PRT_ALL_CURVES
100
AcDbLine
 62
4
  6
CONTINUOUS
 10
10.4269607386
 20
12.8249824965
 11
10.4217780479
 21
12.8153900844
  0
LINE
  5
67B
100
AcDbEntity
  8
03___PRT_ALL_CURVES
100
AcDbLine
 62
4
  6
CONTINUOUS
 10
10.5958504324
 20
12.8597230742
 11
10.5906677313
 21
12.8501306621
  0
LINE
  5
67C
100
AcDbEntity
  8
03___PRT_ALL_CURVES
100
AcDbLine
 62
4
  6
CONTINUOUS
 10
10.6537363349
 20
12.8715993937
 11
10.6404141593
 21
12.8501306621
  0
LINE
  5
67D
100
AcDbEntity
  8
03___PRT_ALL_CURVES
100
AcDbLine
 62
4
  6
CONTINUOUS
 10
10.3677477905
 20
12.8546984774
 11
10.3686173868
 21
12.8560688218
  0
LINE
  5
67E
100
AcDbEntity
  8
03___PRT_ALL_CURVES
100
AcDbLine
 62
4
  6
CONTINUOUS
 10
10.3822884092
 20
12.8638341074
 11
10.3831580056
 21
12.8652044518
  0
LINE
  5
67F
100
AcDbEntity
  8
03___PRT_ALL_CURVES
100
AcDbLine
 62
4
  6
CONTINUOUS
 10
10.4075440924
 20
12.8665747975
 11
10.4084136894
 21
12.8679451419
  0
LINE
  5
680
100
AcDbEntity
  8
03___PRT_ALL_CURVES
100
AcDbLine
 62
4
  6
CONTINUOUS
 10
10.4430669693
 20
12.8318342199
 11
10.4439365689
 21
12.8332045643
  0
LINE
  5
681
100
AcDbEntity
  8
03___PRT_ALL_CURVES
100
AcDbLine
 62
4
  6
CONTINUOUS
 10
10.4484938516
 20
12.8318342199
 11
10.4493634512
 21
12.8332045643
  0
LINE
  5
682
100
AcDbEntity
  8
03___PRT_ALL_CURVES
100
AcDbLine
 62
4
  6
CONTINUOUS
 10
10.6119566528
 20
12.8665747975
 11
10.6128262627
 21
12.8679451419
  0
LINE
  5
683
100
AcDbEntity
  8
03___PRT_ALL_CURVES
100
AcDbLine
 62
4
  6
CONTINUOUS
 10
10.6173835351
 20
12.8665747975
 11
10.618253145
 21
12.8679451419
  0
LINE
  5
684
100
AcDbEntity
  8
03___PRT_ALL_CURVES
100
AcDbLine
 62
4
  6
CONTINUOUS
 10
10.634987277
 20
12.8501306621
 11
10.6384656554
 21
12.8556120404
  0
LINE
  5
685
100
AcDbEntity
  8
03___PRT_ALL_CURVES
100
AcDbLine
 62
4
  6
CONTINUOUS
 10
10.6477529918
 20
12.8697722678
 11
10.6399266242
 21
12.8574391662
  0
LINE
  5
686
100
AcDbEntity
  8
03___PRT_ALL_CURVES
100
AcDbLine
 62
4
  6
CONTINUOUS
 10
10.3631905046
 20
12.8560688218
 11
10.3617295496
 21
12.854241696
  0
LINE
  5
687
100
AcDbEntity
  8
03___PRT_ALL_CURVES
100
AcDbLine
 62
4
  6
CONTINUOUS
 10
10.3771397644
 20
12.8647476704
 11
10.3756788096
 21
12.8629205445
  0
LINE
  5
688
100
AcDbEntity
  8
03___PRT_ALL_CURVES
100
AcDbLine
 62
4
  6
CONTINUOUS
 10
10.3637517672
 20
12.8208714627
 11
10.3652127205
 21
12.8226985886
  0
LINE
  5
689
100
AcDbEntity
  8
03___PRT_ALL_CURVES
100
AcDbLine
 62
4
  6
CONTINUOUS
 10
10.4008695095
 20
12.8313774371
 11
10.3994085563
 21
12.8295503112
  0
LINE
  5
68A
100
AcDbEntity
  8
03___PRT_ALL_CURVES
100
AcDbLine
 62
4
  6
CONTINUOUS
 10
10.5697592085
 20
12.8661180148
 11
10.5682982397
 21
12.8642908889
  0
LINE
  5
68B
100
AcDbEntity
  8
03___PRT_ALL_CURVES
100
AcDbLine
 62
4
  6
CONTINUOUS
 10
10.7692673119
 20
12.8574391662
 11
10.7678063432
 21
12.8556120404
  0
LINE
  5
68C
100
AcDbEntity
  8
03___PRT_ALL_CURVES
100
AcDbLine
 62
4
  6
CONTINUOUS
 10
10.7007693216
 20
12.8715993937
 11
10.6867162372
 21
12.8551552589
  0
LINE
  5
68D
100
AcDbEntity
  8
03___PRT_ALL_CURVES
100
AcDbLine
 62
4
  6
CONTINUOUS
 10
10.6765933814
 20
12.8501306621
 11
10.6918291637
 21
12.8674883605
  0
LINE
  5
68E
100
AcDbEntity
  8
03___PRT_ALL_CURVES
100
AcDbLine
 62
4
  6
CONTINUOUS
 10
10.3577335261
 20
12.8204146812
 11
10.3597858408
 21
12.8226985886
  0
LINE
  5
68F
100
AcDbEntity
  8
03___PRT_ALL_CURVES
100
AcDbLine
 62
4
  6
CONTINUOUS
 10
10.4068877523
 20
12.8318342199
 11
10.4048354386
 21
12.8295503112
  0
LINE
  5
690
100
AcDbEntity
  8
03___PRT_ALL_CURVES
100
AcDbLine
 62
4
  6
CONTINUOUS
 10
10.5757774513
 20
12.8665747975
 11
10.573725122
 21
12.8642908889
  0
LINE
  5
691
100
AcDbEntity
  8
03___PRT_ALL_CURVES
100
AcDbLine
 62
4
  6
CONTINUOUS
 10
10.761788102
 20
12.8551552589
 11
10.7638404296
 21
12.8574391662
  0
LINE
  5
692
100
AcDbEntity
  8
03___PRT_ALL_CURVES
100
AcDbLine
 62
4
  6
CONTINUOUS
 10
10.8124033125
 20
12.8684019234
 11
10.8103509833
 21
12.8661180148
  0
LINE
  5
693
100
AcDbEntity
  8
03___PRT_ALL_CURVES
100
AcDbLine
 62
4
  6
CONTINUOUS
 10
10.6548858523
 20
12.8501306621
 11
10.675443864
 21
12.8715993937
  0
LINE
  5
694
100
AcDbEntity
  8
03___PRT_ALL_CURVES
100
AcDbLine
 62
4
  6
CONTINUOUS
 10
10.6808707463
 20
12.8715993937
 11
10.665008708
 21
12.8551552589
  0
LINE
  5
695
100
AcDbEntity
  8
0
100
AcDbLine
 62
7
  6
CONTINUOUS
 10
10.4562931915
 20
12.9596205943
 11
10.1285353066
 21
12.7064515899
  0
LINE
  5
696
100
AcDbEntity
  8
0
100
AcDbLine
 62
3
  6
CONTINUOUS
 10
9.5810251401
 20
12.2780712621
 11
10.1296970009
 21
12.7018801624
  0
LINE
  5
697
100
AcDbEntity
  8
03___PRT_ALL_CURVES
100
AcDbLine
 62
4
  6
CONTINUOUS
 10
10.3105269609
 20
12.8153900844
 11
10.3383208295
 21
12.836858816
  0
LINE
  5
698
100
AcDbEntity
  8
03___PRT_ALL_CURVES
100
AcDbLine
 62
4
  6
CONTINUOUS
 10
10.3795052014
 20
12.8665747975
 11
10.3771397644
 21
12.8647476704
  0
LINE
  5
699
100
AcDbEntity
  8
03___PRT_ALL_CURVES
100
AcDbLine
 62
4
  6
CONTINUOUS
 10
10.3289637392
 20
12.825439278
 11
10.3159538432
 21
12.8153900844
  0
LINE
  5
69A
100
AcDbEntity
  8
03___PRT_ALL_CURVES
100
AcDbLine
 62
4
  6
CONTINUOUS
 10
10.3401995588
 20
12.8341181272
 11
10.3325118922
 21
12.8281799668
  0
LINE
  5
69B
100
AcDbEntity
  8
03___PRT_ALL_CURVES
100
AcDbLine
 62
4
  6
CONTINUOUS
 10
10.3831580056
 20
12.8652044518
 11
10.3843407232
 21
12.8661180148
  0
LINE
  5
69C
100
AcDbEntity
  8
03___PRT_ALL_CURVES
100
AcDbLine
 62
4
  6
CONTINUOUS
 10
10.3924121132
 20
12.8569823848
 11
10.3906380367
 21
12.8556120404
  0
LINE
  5
69D
100
AcDbEntity
  8
03___PRT_ALL_CURVES
100
AcDbLine
 62
4
  6
CONTINUOUS
 10
10.356028383
 20
12.8281799668
 11
10.35248023
 21
12.825439278
  0
LINE
  5
69E
100
AcDbEntity
  8
03___PRT_ALL_CURVES
100
AcDbLine
 62
4
  6
CONTINUOUS
 10
10.3708821233
 20
12.836858816
 11
10.3673339702
 21
12.8341181272
  0
LINE
  5
69F
100
AcDbEntity
  8
03___PRT_ALL_CURVES
100
AcDbLine
 62
4
  6
CONTINUOUS
 10
10.3954735602
 20
12.8551552589
 11
10.3984303543
 21
12.8574391662
  0
LINE
  5
6A0
100
AcDbEntity
  8
03___PRT_ALL_CURVES
100
AcDbLine
 62
4
  6
CONTINUOUS
 10
10.3597858408
 20
12.8226985886
 11
10.3686562241
 21
12.8295503112
  0
LINE
  5
6A1
100
AcDbEntity
  8
03___PRT_ALL_CURVES
100
AcDbLine
 62
4
  6
CONTINUOUS
 10
10.3962044561
 20
12.8501306621
 11
10.4239983247
 21
12.8715993937
  0
LINE
  5
6A2
100
AcDbEntity
  8
03___PRT_ALL_CURVES
100
AcDbLine
 62
4
  6
CONTINUOUS
 10
10.3652127205
 20
12.8226985886
 11
10.3740831038
 21
12.8295503112
  0
LINE
  5
6A3
100
AcDbEntity
  8
03___PRT_ALL_CURVES
100
AcDbLine
 62
4
  6
CONTINUOUS
 10
10.425877054
 20
12.8688587049
 11
10.4181893874
 21
12.8629205445
  0
LINE
  5
6A4
100
AcDbEntity
  8
03___PRT_ALL_CURVES
100
AcDbLine
 62
4
  6
CONTINUOUS
 10
10.4146412344
 20
12.8601798557
 11
10.4051794918
 21
12.8528713512
  0
LINE
  5
6A5
100
AcDbEntity
  8
03___PRT_ALL_CURVES
100
AcDbLine
 62
4
  6
CONTINUOUS
 10
10.4417058756
 20
12.8629205445
 11
10.4381577226
 21
12.8601798557
  0
LINE
  5
6A6
100
AcDbEntity
  8
03___PRT_ALL_CURVES
100
AcDbLine
 62
4
  6
CONTINUOUS
 10
10.3994085563
 20
12.8295503112
 11
10.3905381729
 21
12.8226985886
  0
LINE
  5
6A7
100
AcDbEntity
  8
03___PRT_ALL_CURVES
100
AcDbLine
 62
4
  6
CONTINUOUS
 10
10.4565596184
 20
12.8715993937
 11
10.4530114654
 21
12.8688587049
  0
LINE
  5
6A8
100
AcDbEntity
  8
03___PRT_ALL_CURVES
100
AcDbLine
 62
4
  6
CONTINUOUS
 10
10.4323139032
 20
12.8528713512
 11
10.4287657498
 21
12.8501306621
  0
LINE
  5
6A9
100
AcDbEntity
  8
03___PRT_ALL_CURVES
100
AcDbLine
 62
4
  6
CONTINUOUS
 10
10.4048354386
 20
12.8295503112
 11
10.3959650552
 21
12.8226985886
  0
LINE
  5
6AA
100
AcDbEntity
  8
03___PRT_ALL_CURVES
100
AcDbLine
 62
4
  6
CONTINUOUS
 10
10.4360015911
 20
12.8501306621
 11
10.4637954598
 21
12.8715993937
  0
LINE
  5
6AB
100
AcDbEntity
  8
03___PRT_ALL_CURVES
100
AcDbLine
 62
4
  6
CONTINUOUS
 10
10.4215330229
 20
12.836858816
 11
10.3937391543
 21
12.8153900844
  0
LINE
  5
6AC
100
AcDbEntity
  8
03___PRT_ALL_CURVES
100
AcDbLine
 62
4
  6
CONTINUOUS
 10
10.465674189
 20
12.8688587049
 11
10.4579865225
 21
12.8629205445
  0
LINE
  5
6AD
100
AcDbEntity
  8
03___PRT_ALL_CURVES
100
AcDbLine
 62
4
  6
CONTINUOUS
 10
10.4544383695
 20
12.8601798557
 11
10.4449766269
 21
12.8528713512
  0
LINE
  5
6AE
100
AcDbEntity
  8
03___PRT_ALL_CURVES
100
AcDbLine
 62
4
  6
CONTINUOUS
 10
10.4240031162
 20
12.8345749087
 11
10.415132732
 21
12.8277231854
  0
LINE
  5
6AF
100
AcDbEntity
  8
03___PRT_ALL_CURVES
100
AcDbLine
 62
4
  6
CONTINUOUS
 10
10.3991660418
 20
12.8153900844
 11
10.411584579
 21
12.8249824965
  0
LINE
  5
6B0
100
AcDbEntity
  8
03___PRT_ALL_CURVES
100
AcDbLine
 62
4
  6
CONTINUOUS
 10
10.4815030107
 20
12.8629205445
 11
10.4779548577
 21
12.8601798557
  0
LINE
  5
6B1
100
AcDbEntity
  8
03___PRT_ALL_CURVES
100
AcDbLine
 62
4
  6
CONTINUOUS
 10
10.4412928911
 20
12.8304638742
 11
10.4430669693
 21
12.8318342199
  0
LINE
  5
6B2
100
AcDbEntity
  8
03___PRT_ALL_CURVES
100
AcDbLine
 62
4
  6
CONTINUOUS
 10
10.4963567587
 20
12.8715993937
 11
10.4928086057
 21
12.8688587049
  0
LINE
  5
6B3
100
AcDbEntity
  8
03___PRT_ALL_CURVES
100
AcDbLine
 62
4
  6
CONTINUOUS
 10
10.4721110435
 20
12.8528713512
 11
10.4685628901
 21
12.8501306621
  0
LINE
  5
6B4
100
AcDbEntity
  8
03___PRT_ALL_CURVES
100
AcDbLine
 62
4
  6
CONTINUOUS
 10
10.4461284146
 20
12.8300070927
 11
10.4484938516
 21
12.8318342199
  0
LINE
  5
6B5
100
AcDbEntity
  8
03___PRT_ALL_CURVES
100
AcDbLine
 62
4
  6
CONTINUOUS
 10
10.5192137846
 20
12.8501306621
 11
10.5470076532
 21
12.8715993937
  0
LINE
  5
6B6
100
AcDbEntity
  8
03___PRT_ALL_CURVES
100
AcDbLine
 62
4
  6
CONTINUOUS
 10
10.5035973864
 20
12.8345749087
 11
10.5065541806
 21
12.836858816
  0
LINE
  5
6B7
100
AcDbEntity
  8
03___PRT_ALL_CURVES
100
AcDbLine
 62
4
  6
CONTINUOUS
 10
10.5281888203
 20
12.8528713512
 11
10.5488863825
 21
12.8688587049
  0
LINE
  5
6B8
100
AcDbEntity
  8
03___PRT_ALL_CURVES
100
AcDbLine
 62
4
  6
CONTINUOUS
 10
10.493232005
 20
12.8153900844
 11
10.5180690794
 21
12.8345749087
  0
LINE
  5
6B9
100
AcDbEntity
  8
03___PRT_ALL_CURVES
100
AcDbLine
 62
4
  6
CONTINUOUS
 10
10.5234959617
 20
12.8345749087
 11
10.4986588873
 21
12.8153900844
  0
LINE
  5
6BA
100
AcDbEntity
  8
03___PRT_ALL_CURVES
100
AcDbLine
 62
4
  6
CONTINUOUS
 10
10.5682982397
 20
12.8642908889
 11
10.5594278563
 21
12.8574391662
  0
LINE
  5
6BB
100
AcDbEntity
  8
03___PRT_ALL_CURVES
100
AcDbLine
 62
4
  6
CONTINUOUS
 10
10.573725122
 20
12.8642908889
 11
10.5648547386
 21
12.8574391662
  0
LINE
  5
6BC
100
AcDbEntity
  8
03___PRT_ALL_CURVES
100
AcDbLine
 62
4
  6
CONTINUOUS
 10
10.5409244282
 20
12.836858816
 11
10.537967634
 21
12.8345749087
  0
LINE
  5
6BD
100
AcDbEntity
  8
03___PRT_ALL_CURVES
100
AcDbLine
 62
4
  6
CONTINUOUS
 10
10.5904227219
 20
12.8715993937
 11
10.5626288533
 21
12.8501306621
  0
LINE
  5
6BE
100
AcDbEntity
  8
03___PRT_ALL_CURVES
100
AcDbLine
 62
4
  6
CONTINUOUS
 10
10.5203664164
 20
12.8153900844
 11
10.5481602851
 21
12.836858816
  0
LINE
  5
6BF
100
AcDbEntity
  8
03___PRT_ALL_CURVES
100
AcDbLine
 62
4
  6
CONTINUOUS
 10
10.59289281
 20
12.8693154863
 11
10.5840224258
 21
12.862463763
  0
LINE
  5
6C0
100
AcDbEntity
  8
03___PRT_ALL_CURVES
100
AcDbLine
 62
4
  6
CONTINUOUS
 10
10.5680557356
 20
12.8501306621
 11
10.5804742728
 21
12.8597230742
  0
LINE
  5
6C1
100
AcDbEntity
  8
03___PRT_ALL_CURVES
100
AcDbLine
 62
4
  6
CONTINUOUS
 10
10.5500390143
 20
12.8341181272
 11
10.5423513478
 21
12.8281799668
  0
LINE
  5
6C2
100
AcDbEntity
  8
03___PRT_ALL_CURVES
100
AcDbLine
 62
4
  6
CONTINUOUS
 10
10.5388031948
 20
12.825439278
 11
10.5293414522
 21
12.8181307736
  0
LINE
  5
6C3
100
AcDbEntity
  8
03___PRT_ALL_CURVES
100
AcDbLine
 62
4
  6
CONTINUOUS
 10
10.6101825746
 20
12.8652044518
 11
10.6119566528
 21
12.8665747975
  0
LINE
  5
6C4
100
AcDbEntity
  8
03___PRT_ALL_CURVES
100
AcDbLine
 62
4
  6
CONTINUOUS
 10
10.5658678309
 20
12.8281799668
 11
10.5623196778
 21
12.825439278
  0
LINE
  5
6C5
100
AcDbEntity
  8
03___PRT_ALL_CURVES
100
AcDbLine
 62
4
  6
CONTINUOUS
 10
10.6150180981
 20
12.8647476704
 11
10.6173835351
 21
12.8665747975
  0
LINE
  5
6C6
100
AcDbEntity
  8
03___PRT_ALL_CURVES
100
AcDbLine
 62
4
  6
CONTINUOUS
 10
10.5807215788
 20
12.836858816
 11
10.5771734258
 21
12.8341181272
  0
LINE
  5
6C7
100
AcDbEntity
  8
03___PRT_ALL_CURVES
100
AcDbLine
 62
4
  6
CONTINUOUS
 10
10.5564758636
 20
12.8181307736
 11
10.5529277102
 21
12.8153900844
  0
LINE
  5
6C8
100
AcDbEntity
  8
03___PRT_ALL_CURVES
100
AcDbLine
 62
4
  6
CONTINUOUS
 10
10.6284156792
 20
12.8345749087
 11
10.6313724733
 21
12.836858816
  0
LINE
  5
6C9
100
AcDbEntity
  8
03___PRT_ALL_CURVES
100
AcDbLine
 62
4
  6
CONTINUOUS
 10
10.6180502977
 20
12.8153900844
 11
10.6428873722
 21
12.8345749087
  0
LINE
  5
6CA
100
AcDbEntity
  8
03___PRT_ALL_CURVES
100
AcDbLine
 62
4
  6
CONTINUOUS
 10
10.6483142545
 20
12.8345749087
 11
10.62347718
 21
12.8153900844
  0
LINE
  5
6CB
100
AcDbEntity
  8
03___PRT_ALL_CURVES
100
AcDbLine
 62
4
  6
CONTINUOUS
 10
10.665742721
 20
12.836858816
 11
10.6627859268
 21
12.8345749087
  0
LINE
  5
6CC
100
AcDbEntity
  8
03___PRT_ALL_CURVES
100
AcDbLine
 62
4
  6
CONTINUOUS
 10
10.6983009106
 20
12.8501306621
 11
10.7260947793
 21
12.8715993937
  0
LINE
  5
6CD
100
AcDbEntity
  8
03___PRT_ALL_CURVES
100
AcDbLine
 62
4
  6
CONTINUOUS
 10
10.7315216408
 20
12.8715993937
 11
10.7037277722
 21
12.8501306621
  0
LINE
  5
6CE
100
AcDbEntity
  8
03___PRT_ALL_CURVES
100
AcDbLine
 62
4
  6
CONTINUOUS
 10
10.7109636291
 20
12.8501306621
 11
10.7387574977
 21
12.8715993937
  0
LINE
  5
6CF
100
AcDbEntity
  8
03___PRT_ALL_CURVES
100
AcDbLine
 62
4
  6
CONTINUOUS
 10
10.740636227
 20
12.8688587049
 11
10.7163905114
 21
12.8501306621
  0
LINE
  5
6D0
100
AcDbEntity
  8
03___PRT_ALL_CURVES
100
AcDbLine
 62
4
  6
CONTINUOUS
 10
10.3686562241
 20
12.8295503112
 11
10.3725174995
 21
12.8318342199
  0
LINE
  5
6D1
100
AcDbEntity
  8
03___PRT_ALL_CURVES
100
AcDbLine
 62
4
  6
CONTINUOUS
 10
10.3959650552
 20
12.8226985886
 11
10.3921037789
 21
12.8204146812
  0
LINE
  5
6D2
100
AcDbEntity
  8
03___PRT_ALL_CURVES
100
AcDbLine
 62
4
  6
CONTINUOUS
 10
10.3827751173
 20
12.8684019234
 11
10.3795052014
 21
12.8665747975
  0
LINE
  5
6D3
100
AcDbEntity
  8
03___PRT_ALL_CURVES
100
AcDbLine
 62
4
  6
CONTINUOUS
 10
10.3740831038
 20
12.8295503112
 11
10.3773530213
 21
12.8313774371
  0
LINE
  5
6D4
100
AcDbEntity
  8
0
100
AcDbLine
 62
7
  6
CONTINUOUS
 10
10.1703325123
 20
13.0523633541
 11
10.4153325123
 21
13.1609095908
  0
LINE
  5
6D5
100
AcDbEntity
  8
0
100
AcDbLine
 62
7
  6
CONTINUOUS
 10
10.4303325123
 20
6.3683536819
 11
16.6503325123
 21
6.3683536819
  0
LINE
  5
6D6
100
AcDbEntity
  8
0
100
AcDbLine
 62
7
  6
CONTINUOUS
 10
16.6598200123
 20
6.3768913647
 11
10.4208450123
 21
6.3768913647
  0
LINE
  5
6D7
100
AcDbEntity
  8
0
100
AcDbLine
 62
7
  6
CONTINUOUS
 10
16.6653325123
 20
6.3818519946
 11
10.4153325123
 21
6.3818519946
  0
LINE
  5
6D8
100
AcDbEntity
  8
03___PRT_ALL_CURVES
100
AcDbLine
 62
4
  6
CONTINUOUS
 10
10.3637866498
 20
12.8195011183
 11
10.3637517672
 21
12.8208714627
  0
LINE
  5
6D9
100
AcDbEntity
  8
03___PRT_ALL_CURVES
100
AcDbLine
 62
4
  6
CONTINUOUS
 10
10.3923772315
 20
12.8583527298
 11
10.3924121132
 21
12.8569823848
  0
LINE
  5
6DA
100
AcDbEntity
  8
0
100
AcDbLine
 62
7
  6
CONTINUOUS
 10
10.1703325123
 20
13.4659071127
 11
10.1703325123
 21
12.8989215803
  0
LINE
  5
6DB
100
AcDbEntity
  8
0
100
AcDbLine
 62
7
  6
CONTINUOUS
 10
10.4153325123
 20
7.2715927986
 11
10.4153325123
 21
6.3818519946
  0
LINE
  5
6DC
100
AcDbEntity
  8
0
100
AcDbLine
 62
7
  6
CONTINUOUS
 10
10.4153325123
 20
13.1609095908
 11
10.4153325123
 21
14.4951197111
  0
LINE
  5
6DD
100
AcDbEntity
  8
0
100
AcDbLine
 62
7
  6
CONTINUOUS
 10
10.4303325123
 20
14.5238339968
 11
10.4303325123
 21
14.4951197111
  0
LINE
  5
6DE
100
AcDbEntity
  8
0
100
AcDbLine
 62
7
  6
CONTINUOUS
 10
10.4303325123
 20
6.3683536819
 11
10.4303325123
 21
6.3768913647
  0
LINE
  5
6DF
100
AcDbEntity
  8
0
100
AcDbLine
 62
7
  6
CONTINUOUS
 10
10.1688187338
 20
13.4659888243
 11
10.1752867447
 21
13.5858143843
  0
LINE
  5
6E0
100
AcDbEntity
  8
03___PRT_ALL_CURVES
100
AcDbLine
 62
4
  6
CONTINUOUS
 10
10.3617295496
 20
12.854241696
 11
10.361486196
 21
12.8519577881
  0
LINE
  5
6E1
100
AcDbEntity
  8
03___PRT_ALL_CURVES
100
AcDbLine
 62
4
  6
CONTINUOUS
 10
10.5763339121
 20
12.8684019234
 11
10.5757774513
 21
12.8665747975
  0
LINE
  5
6E2
100
AcDbEntity
  8
03___PRT_ALL_CURVES
100
AcDbLine
 62
4
  6
CONTINUOUS
 10
10.7612316408
 20
12.8533281327
 11
10.761788102
 21
12.8551552589
  0
LINE
  5
6E3
100
AcDbEntity
  8
03___PRT_ALL_CURVES
100
AcDbLine
 62
4
  6
CONTINUOUS
 10
10.804924101
 20
12.8661180148
 11
10.8057937126
 21
12.8674883605
  0
LINE
  5
6E4
100
AcDbEntity
  8
03___PRT_ALL_CURVES
100
AcDbLine
 62
4
  6
CONTINUOUS
 10
10.7458554605
 20
12.8533281327
 11
10.7695098169
 21
12.8715993937
  0
LINE
  5
6E5
100
AcDbEntity
  8
03___PRT_ALL_CURVES
100
AcDbLine
 62
4
  6
CONTINUOUS
 10
10.7749366992
 20
12.8715993937
 11
10.7471428306
 21
12.8501306621
  0
LINE
  5
6E6
100
AcDbEntity
  8
03___PRT_ALL_CURVES
100
AcDbLine
 62
4
  6
CONTINUOUS
 10
10.7638404296
 20
12.8574391662
 11
10.772710813
 21
12.8642908889
  0
LINE
  5
6E7
100
AcDbEntity
  8
03___PRT_ALL_CURVES
100
AcDbLine
 62
4
  6
CONTINUOUS
 10
10.7781376953
 20
12.8642908889
 11
10.7692673119
 21
12.8574391662
  0
LINE
  5
6E8
100
AcDbEntity
  8
03___PRT_ALL_CURVES
100
AcDbLine
 62
4
  6
CONTINUOUS
 10
10.787913395
 20
12.8592662927
 11
10.791461548
 21
12.8620069816
  0
LINE
  5
6E9
100
AcDbEntity
  8
03___PRT_ALL_CURVES
100
AcDbLine
 62
4
  6
CONTINUOUS
 10
10.7913228469
 20
12.8556120404
 11
10.7960537184
 21
12.8592662927
  0
LINE
  5
6EA
100
AcDbEntity
  8
03___PRT_ALL_CURVES
100
AcDbLine
 62
4
  6
CONTINUOUS
 10
10.8050287537
 20
12.8620069816
 11
10.7961583704
 21
12.8551552589
  0
LINE
  5
6EB
100
AcDbEntity
  8
0
100
AcDbLine
 62
7
  6
CONTINUOUS
 10
10.6405053343
 20
12.7064515899
 11
10.9682632191
 21
12.9596205943
  0
LINE
  5
6EC
100
AcDbEntity
  8
0
100
AcDbLine
 62
7
  6
CONTINUOUS
 10
10.6416670285
 20
12.7018801624
 11
10.9694249133
 21
12.9550491669
  0
LINE
  5
6ED
100
AcDbEntity
  8
03___PRT_ALL_CURVES
100
AcDbLine
 62
4
  6
CONTINUOUS
 10
10.6867162372
 20
12.8551552589
 11
10.7134320401
 21
12.8715993937
  0
LINE
  5
6EE
100
AcDbEntity
  8
03___PRT_ALL_CURVES
100
AcDbLine
 62
4
  6
CONTINUOUS
 10
10.7188589224
 20
12.8715993937
 11
10.6838292176
 21
12.8501306621
  0
LINE
  5
6EF
100
AcDbEntity
  8
03___PRT_ALL_CURVES
100
AcDbLine
 62
4
  6
CONTINUOUS
 10
10.5648547386
 20
12.8574391662
 11
10.5609934779
 21
12.8551552589
  0
LINE
  5
6F0
100
AcDbEntity
  8
03___PRT_ALL_CURVES
100
AcDbLine
 62
4
  6
CONTINUOUS
 10
10.772710813
 20
12.8642908889
 11
10.7765720754
 21
12.8665747975
  0
LINE
  5
6F1
100
AcDbEntity
  8
03___PRT_ALL_CURVES
100
AcDbLine
 62
4
  6
CONTINUOUS
 10
10.6918291637
 20
12.8674883605
 11
10.6621216884
 21
12.8501306621
  0
LINE
  5
6F2
100
AcDbEntity
  8
03___PRT_ALL_CURVES
100
AcDbLine
 62
4
  6
CONTINUOUS
 10
10.665008708
 20
12.8551552589
 11
10.6935334855
 21
12.8715993937
  0
LINE
  5
6F3
100
AcDbEntity
  8
03___PRT_ALL_CURVES
100
AcDbLine
 62
4
  6
CONTINUOUS
 10
10.3905381729
 20
12.8226985886
 11
10.3872682554
 21
12.8208714627
  0
LINE
  5
6F4
100
AcDbEntity
  8
03___PRT_ALL_CURVES
100
AcDbLine
 62
4
  6
CONTINUOUS
 10
10.5594278563
 20
12.8574391662
 11
10.5561579544
 21
12.8556120404
  0
LINE
  5
6F5
100
AcDbEntity
  8
03___PRT_ALL_CURVES
100
AcDbLine
 62
4
  6
CONTINUOUS
 10
10.7814075972
 20
12.8661180148
 11
10.7781376953
 21
12.8642908889
  0
LINE
  5
6F6
100
AcDbEntity
  8
03___PRT_ALL_CURVES
100
AcDbLine
 62
4
  6
CONTINUOUS
 10
10.7961583704
 20
12.8551552589
 11
10.792888468
 21
12.8533281327
  0
LINE
  5
6F7
100
AcDbEntity
  8
03___PRT_ALL_CURVES
100
AcDbLine
 62
4
  6
CONTINUOUS
 10
10.3843407232
 20
12.8661180148
 11
10.3870192816
 21
12.8674883605
  0
LINE
  5
6F8
100
AcDbEntity
  8
03___PRT_ALL_CURVES
100
AcDbLine
 62
4
  6
CONTINUOUS
 10
10.4386143377
 20
12.8290935298
 11
10.4412928911
 21
12.8304638742
  0
LINE
  5
6F9
100
AcDbEntity
  8
03___PRT_ALL_CURVES
100
AcDbLine
 62
4
  6
CONTINUOUS
 10
10.4434498612
 20
12.8286367483
 11
10.4461284146
 21
12.8300070927
  0
LINE
  5
6FA
100
AcDbEntity
  8
03___PRT_ALL_CURVES
100
AcDbLine
 62
4
  6
CONTINUOUS
 10
10.6075040315
 20
12.8638341074
 11
10.6101825746
 21
12.8652044518
  0
LINE
  5
6FB
100
AcDbEntity
  8
03___PRT_ALL_CURVES
100
AcDbLine
 62
4
  6
CONTINUOUS
 10
10.612339555
 20
12.863377326
 11
10.6150180981
 21
12.8647476704
  0
LINE
  5
6FC
100
AcDbEntity
  8
03___PRT_ALL_CURVES
100
AcDbLine
 62
4
  6
CONTINUOUS
 10
10.6236459773
 20
12.8574391662
 11
10.6477529918
 21
12.8697722678
  0
LINE
  5
6FD
100
AcDbEntity
  8
03___PRT_ALL_CURVES
100
AcDbLine
 62
4
  6
CONTINUOUS
 10
10.6203760547
 20
12.8556120404
 11
10.6096618194
 21
12.8501306621
  0
LINE
  5
6FE
100
AcDbEntity
  8
03___PRT_ALL_CURVES
100
AcDbLine
 62
4
  6
CONTINUOUS
 10
10.7886443038
 20
12.854241696
 11
10.7913228469
 21
12.8556120404
  0
LINE
  5
6FF
100
AcDbEntity
  8
03___PRT_ALL_CURVES
100
AcDbLine
 62
4
  6
CONTINUOUS
 10
10.6042349371
 20
12.8501306621
 11
10.6465004987
 21
12.8715993937
  0
LINE
  5
700
100
AcDbEntity
  8
03___PRT_ALL_CURVES
100
AcDbLine
 62
4
  6
CONTINUOUS
 10
10.3912991654
 20
12.8533281327
 11
10.3954735602
 21
12.8551552589
  0
LINE
  5
701
100
AcDbEntity
  8
03___PRT_ALL_CURVES
100
AcDbLine
 62
4
  6
CONTINUOUS
 10
10.3725174995
 20
12.8318342199
 11
10.3766918965
 21
12.8336613457
  0
LINE
  5
702
100
AcDbEntity
  8
03___PRT_ALL_CURVES
100
AcDbLine
 62
4
  6
CONTINUOUS
 10
10.3921037789
 20
12.8204146812
 11
10.3879293841
 21
12.818587555
  0
LINE
  5
703
100
AcDbEntity
  8
03___PRT_ALL_CURVES
100
AcDbLine
 62
4
  6
CONTINUOUS
 10
10.5609934779
 20
12.8551552589
 11
10.5568190675
 21
12.8533281327
  0
LINE
  5
704
100
AcDbEntity
  8
03___PRT_ALL_CURVES
100
AcDbLine
 62
4
  6
CONTINUOUS
 10
10.7765720754
 20
12.8665747975
 11
10.7807464853
 21
12.8684019234
  0
LINE
  5
705
100
AcDbEntity
  8
03___PRT_ALL_CURVES
100
AcDbLine
 62
4
  6
CONTINUOUS
 10
10.3906380367
 20
12.8556120404
 11
10.3870550012
 21
12.854241696
  0
LINE
  5
706
100
AcDbEntity
  8
03___PRT_ALL_CURVES
100
AcDbLine
 62
4
  6
CONTINUOUS
 10
10.3773530213
 20
12.8313774371
 11
10.3809360585
 21
12.8327477828
  0
LINE
  5
707
100
AcDbEntity
  8
03___PRT_ALL_CURVES
100
AcDbLine
 62
4
  6
CONTINUOUS
 10
10.3872682554
 20
12.8208714627
 11
10.3836852199
 21
12.8195011183
  0
LINE
  5
708
100
AcDbEntity
  8
03___PRT_ALL_CURVES
100
AcDbLine
 62
4
  6
CONTINUOUS
 10
10.5561579544
 20
12.8556120404
 11
10.5525749033
 21
12.854241696
  0
LINE
  5
709
100
AcDbEntity
  8
03___PRT_ALL_CURVES
100
AcDbLine
 62
4
  6
CONTINUOUS
 10
10.78499065
 20
12.8674883605
 11
10.7814075972
 21
12.8661180148
  0
LINE
  5
70A
100
AcDbEntity
  8
03___PRT_ALL_CURVES
100
AcDbLine
 62
4
  6
CONTINUOUS
 10
10.5601635464
 20
12.8153900844
 11
10.5897323197
 21
12.826352841
  0
LINE
  5
70B
100
AcDbEntity
  8
03___PRT_ALL_CURVES
100
AcDbLine
 62
4
  6
CONTINUOUS
 10
10.5948111962
 20
12.8281799668
 11
10.6187097549
 21
12.836858816
  0
LINE
  5
70C
100
AcDbEntity
  8
03___PRT_ALL_CURVES
100
AcDbLine
 62
4
  6
CONTINUOUS
 10
10.5894889667
 20
12.8240689336
 11
10.5655904287
 21
12.8153900844
  0
LINE
  5
70D
100
AcDbEntity
  8
03___PRT_ALL_CURVES
100
AcDbLine
 62
4
  6
CONTINUOUS
 10
10.6241366372
 20
12.836858816
 11
10.595159202
 21
12.826352841
  0
LINE
  5
70E
100
AcDbEntity
  8
03___PRT_ALL_CURVES
100
AcDbLine
 62
4
  6
CONTINUOUS
 10
10.4383709847
 20
12.8268096224
 11
10.4434498612
 21
12.8286367483
  0
LINE
  5
70F
100
AcDbEntity
  8
03___PRT_ALL_CURVES
100
AcDbLine
 62
4
  6
CONTINUOUS
 10
10.6072606785
 20
12.8615502001
 11
10.612339555
 21
12.863377326
  0
LINE
  5
710
100
AcDbEntity
  8
03___PRT_ALL_CURVES
100
AcDbLine
 62
4
  6
CONTINUOUS
 10
10.3887584742
 20
12.8702290493
 11
10.3827751173
 21
12.8684019234
  0
LINE
  5
711
100
AcDbEntity
  8
03___PRT_ALL_CURVES
100
AcDbLine
 62
4
  6
CONTINUOUS
 10
10.3853158066
 20
12.8515010067
 11
10.3912991654
 21
12.8533281327
  0
LINE
  5
712
100
AcDbEntity
  8
03___PRT_ALL_CURVES
100
AcDbLine
 62
4
  6
CONTINUOUS
 10
10.3766918965
 20
12.8336613457
 11
10.3826752525
 21
12.8354884716
  0
LINE
  5
713
100
AcDbEntity
  8
03___PRT_ALL_CURVES
100
AcDbLine
 62
4
  6
CONTINUOUS
 10
10.3879293841
 20
12.818587555
 11
10.3819460253
 21
12.816760429
  0
LINE
  5
714
100
AcDbEntity
  8
03___PRT_ALL_CURVES
100
AcDbLine
 62
4
  6
CONTINUOUS
 10
10.4356226558
 20
12.8281799668
 11
10.4386143377
 21
12.8290935298
  0
LINE
  5
715
100
AcDbEntity
  8
03___PRT_ALL_CURVES
100
AcDbLine
 62
4
  6
CONTINUOUS
 10
10.5568190675
 20
12.8533281327
 11
10.5508357243
 21
12.8515010067
  0
LINE
  5
716
100
AcDbEntity
  8
03___PRT_ALL_CURVES
100
AcDbLine
 62
4
  6
CONTINUOUS
 10
10.6045123393
 20
12.8629205445
 11
10.6075040315
 21
12.8638341074
  0
LINE
  5
717
100
AcDbEntity
  8
03___PRT_ALL_CURVES
100
AcDbLine
 62
4
  6
CONTINUOUS
 10
10.7807464853
 20
12.8684019234
 11
10.7867298284
 21
12.8702290493
  0
LINE
  5
718
100
AcDbEntity
  8
03___PRT_ALL_CURVES
100
AcDbLine
 62
4
  6
CONTINUOUS
 10
10.792888468
 20
12.8533281327
 11
10.7869050833
 21
12.8515010067
  0
LINE
  5
719
100
AcDbEntity
  8
0
100
AcDbLine
 62
7
  6
CONTINUOUS
 10
18.626671095
 20
7.2715927986
 11
8.4539939296
 21
7.2715927986
  0
LINE
  5
71A
100
AcDbEntity
  8
0
100
AcDbLine
 62
7
  6
CONTINUOUS
 10
9.5710401332
 20
12.2514790447
 11
9.5692106935
 21
12.2586781431
  0
LINE
  5
71B
100
AcDbEntity
  8
03___PRT_ALL_CURVES
100
AcDbLine
 62
4
  6
CONTINUOUS
 10
10.595159202
 20
12.826352841
 11
10.5963427685
 21
12.8153900844
  0
LINE
  5
71C
100
AcDbEntity
  8
03___PRT_ALL_CURVES
100
AcDbLine
 62
4
  6
CONTINUOUS
 10
10.4008346286
 20
12.8327477828
 11
10.4008695095
 21
12.8313774371
  0
LINE
  5
71D
100
AcDbEntity
  8
03___PRT_ALL_CURVES
100
AcDbLine
 62
4
  6
CONTINUOUS
 10
10.5697243121
 20
12.8674883605
 11
10.5697592085
 21
12.8661180148
  0
LINE
  5
71E
100
AcDbEntity
  8
03___PRT_ALL_CURVES
100
AcDbLine
 62
4
  6
CONTINUOUS
 10
10.7678063432
 20
12.8556120404
 11
10.7678412412
 21
12.854241696
  0
LINE
  5
71F
100
AcDbEntity
  8
0
100
AcDbLine
 62
7
  6
CONTINUOUS
 10
10.5903325123
 20
6.2243716796
 11
10.5903325123
 21
5.2637417584
  0
LINE
  5
720
100
AcDbEntity
  8
0
100
AcDbLine
 62
7
  6
CONTINUOUS
 10
10.5903325123
 20
14.8301197111
 11
10.5903325123
 21
15.7051197111
  0
LINE
  5
721
100
AcDbEntity
  8
03___PRT_ALL_CURVES
100
AcDbLine
 62
4
  6
CONTINUOUS
 10
10.7468978211
 20
12.8715993937
 11
10.7458554605
 21
12.8533281327
  0
LINE
  5
722
100
AcDbEntity
  8
03___PRT_ALL_CURVES
100
AcDbLine
 62
4
  6
CONTINUOUS
 10
10.7390025071
 20
12.8501306621
 11
10.740636227
 21
12.8688587049
  0
LINE
  5
723
100
AcDbEntity
  8
0
100
AcDbLine
 62
3
  6
CONTINUOUS
 10
11.6289052509
 20
12.2780712621
 11
12.4640426644
 21
12.9231538592
  0
LINE
  5
724
100
AcDbEntity
  8
0
100
AcDbLine
 62
7
  6
CONTINUOUS
 10
11.6307346905
 20
12.2708721637
 11
12.4658721041
 21
12.9159547608
  0
LINE
  5
725
100
AcDbEntity
  8
0
100
AcDbLine
 62
7
  6
CONTINUOUS
 10
10.1296970009
 20
12.7018801624
 11
10.1285353066
 21
12.7064515899
  0
LINE
  5
726
100
AcDbEntity
  8
03___PRT_ALL_CURVES
100
AcDbLine
 62
4
  6
CONTINUOUS
 10
10.4084136894
 20
12.8679451419
 11
10.4080656836
 21
12.8697722678
  0
LINE
  5
727
100
AcDbEntity
  8
03___PRT_ALL_CURVES
100
AcDbLine
 62
4
  6
CONTINUOUS
 10
10.4493634512
 20
12.8332045643
 11
10.4490154454
 21
12.8350316901
  0
LINE
  5
728
100
AcDbEntity
  8
0
100
AcDbLine
 62
7
  6
CONTINUOUS
 10
10.6416670285
 20
12.7018801624
 11
10.6405053343
 21
12.7064515899
  0
LINE
  5
729
100
AcDbEntity
  8
03___PRT_ALL_CURVES
100
AcDbLine
 62
4
  6
CONTINUOUS
 10
10.618253145
 20
12.8679451419
 11
10.6179051392
 21
12.8697722678
  0
LINE
  5
72A
100
AcDbEntity
  8
03___PRT_ALL_CURVES
100
AcDbLine
 62
4
  6
CONTINUOUS
 10
10.5897323197
 20
12.826352841
 11
10.587957415
 21
12.836858816
  0
LINE
  5
72B
100
AcDbEntity
  8
03___PRT_ALL_CURVES
100
AcDbLine
 62
4
  6
CONTINUOUS
 10
10.5909158863
 20
12.8153900844
 11
10.5894889667
 21
12.8240689336
  0
LINE
  5
72C
100
AcDbEntity
  8
03___PRT_ALL_CURVES
100
AcDbLine
 62
4
  6
CONTINUOUS
 10
10.5933842973
 20
12.836858816
 11
10.5948111962
 21
12.8281799668
  0
LINE
  5
72D
100
AcDbEntity
  8
0
100
AcDbLine
 62
7
  6
CONTINUOUS
 10
10.9694249133
 20
12.9550491669
 11
10.9682632191
 21
12.9596205943
  0
LINE
  5
72E
100
AcDbEntity
  8
03___PRT_ALL_CURVES
100
AcDbLine
 62
4
  6
CONTINUOUS
 10
10.3584295371
 20
12.816760429
 11
10.357177052
 21
12.818587555
  0
LINE
  5
72F
100
AcDbEntity
  8
03___PRT_ALL_CURVES
100
AcDbLine
 62
4
  6
CONTINUOUS
 10
10.3686871547
 20
12.8533281327
 11
10.3677477905
 21
12.8546984774
  0
LINE
  5
730
100
AcDbEntity
  8
03___PRT_ALL_CURVES
100
AcDbLine
 62
4
  6
CONTINUOUS
 10
10.3756788096
 20
12.8629205445
 11
10.3769312959
 21
12.8610934186
  0
LINE
  5
731
100
AcDbEntity
  8
03___PRT_ALL_CURVES
100
AcDbLine
 62
4
  6
CONTINUOUS
 10
10.4061917407
 20
12.8354884716
 11
10.4074442286
 21
12.8336613457
  0
LINE
  5
732
100
AcDbEntity
  8
03___PRT_ALL_CURVES
100
AcDbLine
 62
4
  6
CONTINUOUS
 10
10.3989868315
 20
12.8592662927
 11
10.3977343436
 21
12.8610934186
  0
LINE
  5
733
100
AcDbEntity
  8
03___PRT_ALL_CURVES
100
AcDbLine
 62
4
  6
CONTINUOUS
 10
10.4017692043
 20
12.8684019234
 11
10.4023954483
 21
12.8674883605
  0
LINE
  5
734
100
AcDbEntity
  8
03___PRT_ALL_CURVES
100
AcDbLine
 62
4
  6
CONTINUOUS
 10
10.4439365689
 20
12.8332045643
 11
10.4433103223
 21
12.8341181272
  0
LINE
  5
735
100
AcDbEntity
  8
03___PRT_ALL_CURVES
100
AcDbLine
 62
4
  6
CONTINUOUS
 10
10.5750814397
 20
12.8702290493
 11
10.5763339121
 21
12.8684019234
  0
LINE
  5
736
100
AcDbEntity
  8
03___PRT_ALL_CURVES
100
AcDbLine
 62
4
  6
CONTINUOUS
 10
10.6128262627
 20
12.8679451419
 11
10.6122000058
 21
12.8688587049
  0
LINE
  5
737
100
AcDbEntity
  8
0
100
AcDbLine
 62
7
  6
CONTINUOUS
 10
7.845439313
 20
9.7631512072
 11
8.1925055696
 21
9.7631512072
  0
LINE
  5
738
100
AcDbEntity
  8
0
100
AcDbLine
 62
7
  6
CONTINUOUS
 10
19.4140726698
 20
9.7651197111
 11
8.1925055696
 21
9.7651197111
  0
LINE
  5
739
100
AcDbEntity
  8
0
100
AcDbLine
 62
7
  6
CONTINUOUS
 10
7.845439313
 20
9.7651197111
 11
7.6665923548
 21
9.7651197111
  0
LINE
  5
73A
100
AcDbEntity
  8
0
100
AcDbLine
 62
7
  6
CONTINUOUS
 10
7.8619377757
 20
9.8222063253
 11
8.1686079524
 21
9.8222063253
  0
LINE
  5
73B
100
AcDbEntity
  8
0
100
AcDbLine
 62
7
  6
CONTINUOUS
 10
8.1686079524
 20
9.9526021013
 11
7.8619377757
 21
9.9526021013
  0
LINE
  5
73C
100
AcDbEntity
  8
0
100
AcDbLine
 62
7
  6
CONTINUOUS
 10
7.8619377757
 20
9.9722871406
 11
8.1686079524
 21
9.9722871406
  0
LINE
  5
73D
100
AcDbEntity
  8
03___PRT_ALL_CURVES
100
AcDbLine
 62
4
  6
CONTINUOUS
 10
10.762484113
 20
12.8515010067
 11
10.7612316408
 21
12.8533281327
  0
LINE
  5
73E
100
AcDbEntity
  8
03___PRT_ALL_CURVES
100
AcDbLine
 62
4
  6
CONTINUOUS
 10
10.8111507987
 20
12.8702290493
 11
10.8124033125
 21
12.8684019234
  0
LINE
  5
73F
100
AcDbEntity
  8
03___PRT_ALL_CURVES
100
AcDbLine
 62
4
  6
CONTINUOUS
 10
10.4490154454
 20
12.8350316901
 11
10.4471715935
 21
12.8364020345
  0
LINE
  5
740
100
AcDbEntity
  8
03___PRT_ALL_CURVES
100
AcDbLine
 62
4
  6
CONTINUOUS
 10
10.4080656836
 20
12.8697722678
 11
10.4062218394
 21
12.8711426122
  0
LINE
  5
741
100
AcDbEntity
  8
0
100
AcDbLine
 62
7
  6
CONTINUOUS
 10
12.4776865508
 20
12.9353478799
 11
12.4758571111
 21
12.9425469783
  0
LINE
  5
742
100
AcDbEntity
  8
0
100
AcDbLine
 62
7
  6
CONTINUOUS
 10
8.1686079524
 20
10.7080330969
 11
7.8619377757
 21
10.7080330969
  0
LINE
  5
743
100
AcDbEntity
  8
0
100
AcDbLine
 62
7
  6
CONTINUOUS
 10
8.1925055696
 20
10.7670882151
 11
7.845439313
 21
10.7670882151
  0
LINE
  5
744
100
AcDbEntity
  8
03___PRT_ALL_CURVES
100
AcDbLine
 62
4
  6
CONTINUOUS
 10
10.3653173728
 20
12.818587555
 11
10.3637866498
 21
12.8195011183
  0
LINE
  5
745
100
AcDbEntity
  8
03___PRT_ALL_CURVES
100
AcDbLine
 62
4
  6
CONTINUOUS
 10
10.3993039052
 20
12.8336613457
 11
10.4008346286
 21
12.8327477828
  0
LINE
  5
746
100
AcDbEntity
  8
03___PRT_ALL_CURVES
100
AcDbLine
 62
4
  6
CONTINUOUS
 10
10.3838191333
 20
12.8629205445
 11
10.3822884092
 21
12.8638341074
  0
LINE
  5
747
100
AcDbEntity
  8
03___PRT_ALL_CURVES
100
AcDbLine
 62
4
  6
CONTINUOUS
 10
10.390846508
 20
12.8592662927
 11
10.3923772315
 21
12.8583527298
  0
LINE
  5
748
100
AcDbEntity
  8
03___PRT_ALL_CURVES
100
AcDbLine
 62
4
  6
CONTINUOUS
 10
10.5681935886
 20
12.8684019234
 11
10.5697243121
 21
12.8674883605
  0
LINE
  5
749
100
AcDbEntity
  8
03___PRT_ALL_CURVES
100
AcDbLine
 62
4
  6
CONTINUOUS
 10
10.6179051392
 20
12.8697722678
 11
10.6160612873
 21
12.8711426122
  0
LINE
  5
74A
100
AcDbEntity
  8
0
100
AcDbLine
 62
7
  6
CONTINUOUS
 10
19.4140726698
 20
11.0643323095
 11
7.6665923548
 21
11.0643323095
  0
LINE
  5
74B
100
AcDbEntity
  8
03___PRT_ALL_CURVES
100
AcDbLine
 62
4
  6
CONTINUOUS
 10
10.3608647425
 20
12.8158468659
 11
10.3584295371
 21
12.816760429
  0
LINE
  5
74C
100
AcDbEntity
  8
03___PRT_ALL_CURVES
100
AcDbLine
 62
4
  6
CONTINUOUS
 10
10.4037565403
 20
12.8364020345
 11
10.4061917407
 21
12.8354884716
  0
LINE
  5
74D
100
AcDbEntity
  8
03___PRT_ALL_CURVES
100
AcDbLine
 62
4
  6
CONTINUOUS
 10
10.361486196
 20
12.8519577881
 11
10.3642345212
 21
12.8505874436
  0
LINE
  5
74E
100
AcDbEntity
  8
03___PRT_ALL_CURVES
100
AcDbLine
 62
4
  6
CONTINUOUS
 10
10.7678412412
 20
12.854241696
 11
10.7693719643
 21
12.8533281327
  0
LINE
  5
74F
100
AcDbEntity
  8
03___PRT_ALL_CURVES
100
AcDbLine
 62
4
  6
CONTINUOUS
 10
10.8057937126
 20
12.8674883605
 11
10.8042629891
 21
12.8684019234
  0
LINE
  5
750
100
AcDbEntity
  8
03___PRT_ALL_CURVES
100
AcDbLine
 62
4
  6
CONTINUOUS
 10
10.3769312959
 20
12.8610934186
 11
10.3793664995
 21
12.8601798557
  0
LINE
  5
751
100
AcDbEntity
  8
03___PRT_ALL_CURVES
100
AcDbLine
 62
4
  6
CONTINUOUS
 10
10.3977343436
 20
12.8610934186
 11
10.3952991406
 21
12.8620069816
  0
LINE
  5
752
100
AcDbEntity
  8
03___PRT_ALL_CURVES
100
AcDbLine
 62
4
  6
CONTINUOUS
 10
10.5726462289
 20
12.8711426122
 11
10.5750814397
 21
12.8702290493
  0
LINE
  5
753
100
AcDbEntity
  8
03___PRT_ALL_CURVES
100
AcDbLine
 62
4
  6
CONTINUOUS
 10
10.7649193443
 20
12.8505874436
 11
10.762484113
 21
12.8515010067
  0
LINE
  5
754
100
AcDbEntity
  8
03___PRT_ALL_CURVES
100
AcDbLine
 62
4
  6
CONTINUOUS
 10
10.8087156087
 20
12.8711426122
 11
10.8111507987
 21
12.8702290493
  0
LINE
  5
755
100
AcDbEntity
  8
0
100
AcDbLine
 62
7
  6
CONTINUOUS
 10
9.6060624088
 20
12.2389768561
 11
11.5249421976
 21
12.2389768561
  0
LINE
  5
756
100
AcDbEntity
  8
0
100
AcDbLine
 62
3
  6
CONTINUOUS
 10
9.6042329692
 20
12.2461759545
 11
11.5231127579
 21
12.2461759545
  0
LINE
  5
757
100
AcDbEntity
  8
03___PRT_ALL_CURVES
100
AcDbLine
 62
4
  6
CONTINUOUS
 10
10.3647957838
 20
12.8153900844
 11
10.3608647425
 21
12.8158468659
  0
LINE
  5
758
100
AcDbEntity
  8
03___PRT_ALL_CURVES
100
AcDbLine
 62
4
  6
CONTINUOUS
 10
10.3998254938
 20
12.836858816
 11
10.4037565403
 21
12.8364020345
  0
LINE
  5
759
100
AcDbEntity
  8
03___PRT_ALL_CURVES
100
AcDbLine
 62
4
  6
CONTINUOUS
 10
10.4471715935
 20
12.8364020345
 11
10.4432405573
 21
12.836858816
  0
LINE
  5
75A
100
AcDbEntity
  8
03___PRT_ALL_CURVES
100
AcDbLine
 62
4
  6
CONTINUOUS
 10
10.3642345212
 20
12.8505874436
 11
10.3681655638
 21
12.8501306621
  0
LINE
  5
75B
100
AcDbEntity
  8
03___PRT_ALL_CURVES
100
AcDbLine
 62
4
  6
CONTINUOUS
 10
10.3952991406
 20
12.8620069816
 11
10.3913680979
 21
12.862463763
  0
LINE
  5
75C
100
AcDbEntity
  8
03___PRT_ALL_CURVES
100
AcDbLine
 62
4
  6
CONTINUOUS
 10
10.4062218394
 20
12.8711426122
 11
10.4022907955
 21
12.8715993937
  0
LINE
  5
75D
100
AcDbEntity
  8
03___PRT_ALL_CURVES
100
AcDbLine
 62
4
  6
CONTINUOUS
 10
10.5687151927
 20
12.8715993937
 11
10.5726462289
 21
12.8711426122
  0
LINE
  5
75E
100
AcDbEntity
  8
03___PRT_ALL_CURVES
100
AcDbLine
 62
4
  6
CONTINUOUS
 10
10.7688503597
 20
12.8501306621
 11
10.7649193443
 21
12.8505874436
  0
LINE
  5
75F
100
AcDbEntity
  8
03___PRT_ALL_CURVES
100
AcDbLine
 62
4
  6
CONTINUOUS
 10
10.6160612873
 20
12.8711426122
 11
10.6121302511
 21
12.8715993937
  0
LINE
  5
760
100
AcDbEntity
  8
03___PRT_ALL_CURVES
100
AcDbLine
 62
4
  6
CONTINUOUS
 10
10.8047845518
 20
12.8715993937
 11
10.8087156087
 21
12.8711426122
  0
LINE
  5
761
100
AcDbEntity
  8
03___PRT_ALL_CURVES
100
AcDbLine
 62
4
  6
CONTINUOUS
 10
10.3683439372
 20
12.8181307736
 11
10.3653173728
 21
12.818587555
  0
LINE
  5
762
100
AcDbEntity
  8
03___PRT_ALL_CURVES
100
AcDbLine
 62
4
  6
CONTINUOUS
 10
10.3962773407
 20
12.8341181272
 11
10.3993039052
 21
12.8336613457
  0
LINE
  5
763
100
AcDbEntity
  8
03___PRT_ALL_CURVES
100
AcDbLine
 62
4
  6
CONTINUOUS
 10
10.3717137172
 20
12.8528713512
 11
10.3686871547
 21
12.8533281327
  0
LINE
  5
764
100
AcDbEntity
  8
03___PRT_ALL_CURVES
100
AcDbLine
 62
4
  6
CONTINUOUS
 10
10.3793664995
 20
12.8601798557
 11
10.3823930626
 21
12.8597230742
  0
LINE
  5
765
100
AcDbEntity
  8
03___PRT_ALL_CURVES
100
AcDbLine
 62
4
  6
CONTINUOUS
 10
10.3878199449
 20
12.8597230742
 11
10.390846508
 21
12.8592662927
  0
LINE
  5
766
100
AcDbEntity
  8
03___PRT_ALL_CURVES
100
AcDbLine
 62
4
  6
CONTINUOUS
 10
10.5651670397
 20
12.8688587049
 11
10.5681935886
 21
12.8684019234
  0
LINE
  5
767
100
AcDbEntity
  8
03___PRT_ALL_CURVES
100
AcDbLine
 62
4
  6
CONTINUOUS
 10
10.7693719643
 20
12.8533281327
 11
10.7723985132
 21
12.8528713512
  0
LINE
  5
768
100
AcDbEntity
  8
03___PRT_ALL_CURVES
100
AcDbLine
 62
4
  6
CONTINUOUS
 10
10.8042629891
 20
12.8684019234
 11
10.8012363988
 21
12.8688587049
  0
LINE
  5
769
100
AcDbEntity
  8
03___PRT_ALL_CURVES
100
AcDbLine
 62
4
  6
CONTINUOUS
 10
10.4433103223
 20
12.8341181272
 11
10.44118824
 21
12.8345749087
  0
LINE
  5
76A
100
AcDbEntity
  8
03___PRT_ALL_CURVES
100
AcDbLine
 62
4
  6
CONTINUOUS
 10
10.3859412156
 20
12.862463763
 11
10.3838191333
 21
12.8629205445
  0
LINE
  5
76B
100
AcDbEntity
  8
03___PRT_ALL_CURVES
100
AcDbLine
 62
4
  6
CONTINUOUS
 10
10.3996471233
 20
12.8688587049
 11
10.4017692043
 21
12.8684019234
  0
LINE
  5
76C
100
AcDbEntity
  8
03___PRT_ALL_CURVES
100
AcDbLine
 62
4
  6
CONTINUOUS
 10
10.6122000058
 20
12.8688587049
 11
10.6100779235
 21
12.8693154863
  0
LINE
  5
76D
100
AcDbEntity
  8
03___PRT_ALL_CURVES
100
AcDbLine
 62
4
  6
CONTINUOUS
 10
10.7805388366
 20
12.8528713512
 11
10.7847481446
 21
12.8533281327
  0
LINE
  5
76E
100
AcDbEntity
  8
03___PRT_ALL_CURVES
100
AcDbLine
 62
4
  6
CONTINUOUS
 10
10.3797890607
 20
12.818587555
 11
10.3755797786
 21
12.8181307736
  0
LINE
  5
76F
100
AcDbEntity
  8
03___PRT_ALL_CURVES
100
AcDbLine
 62
4
  6
CONTINUOUS
 10
10.7930960753
 20
12.8688587049
 11
10.7888868088
 21
12.8684019234
  0
LINE
  5
770
100
AcDbEntity
  8
03___PRT_ALL_CURVES
100
AcDbLine
 62
4
  6
CONTINUOUS
 10
10.7821044578
 20
12.8505874436
 11
10.7769906832
 21
12.8501306621
  0
LINE
  5
771
100
AcDbEntity
  8
03___PRT_ALL_CURVES
100
AcDbLine
 62
4
  6
CONTINUOUS
 10
10.3771453894
 20
12.8158468659
 11
10.3720316251
 21
12.8153900844
  0
LINE
  5
772
100
AcDbEntity
  8
03___PRT_ALL_CURVES
100
AcDbLine
 62
4
  6
CONTINUOUS
 10
10.7915304952
 20
12.8711426122
 11
10.7966442284
 21
12.8715993937
  0
LINE
  5
773
100
AcDbEntity
  8
03___PRT_ALL_CURVES
100
AcDbLine
 62
4
  6
CONTINUOUS
 10
10.3874758934
 20
12.8364020345
 11
10.3925896524
 21
12.836858816
  0
LINE
  5
774
100
AcDbEntity
  8
03___PRT_ALL_CURVES
100
AcDbLine
 62
4
  6
CONTINUOUS
 10
10.546035078
 20
12.8505874436
 11
10.5409213241
 21
12.8501306621
  0
LINE
  5
775
100
AcDbEntity
  8
03___PRT_ALL_CURVES
100
AcDbLine
 62
4
  6
CONTINUOUS
 10
10.3754014077
 20
12.8501306621
 11
10.3805151681
 21
12.8505874436
  0
LINE
  5
776
100
AcDbEntity
  8
0
100
AcDbLine
 62
7
  6
CONTINUOUS
 10
10.1296970009
 20
12.7018801624
 11
10.6416670285
 21
12.7018801624
  0
LINE
  5
777
100
AcDbEntity
  8
0
100
AcDbLine
 62
7
  6
CONTINUOUS
 10
10.1285353066
 20
12.7064515899
 11
10.6405053343
 21
12.7064515899
  0
LINE
  5
778
100
AcDbEntity
  8
03___PRT_ALL_CURVES
100
AcDbLine
 62
4
  6
CONTINUOUS
 10
10.62347718
 20
12.8153900844
 11
10.6180502977
 21
12.8153900844
  0
LINE
  5
779
100
AcDbEntity
  8
03___PRT_ALL_CURVES
100
AcDbLine
 62
4
  6
CONTINUOUS
 10
10.5963427685
 20
12.8153900844
 11
10.5909158863
 21
12.8153900844
  0
LINE
  5
77A
100
AcDbEntity
  8
03___PRT_ALL_CURVES
100
AcDbLine
 62
4
  6
CONTINUOUS
 10
10.5655904287
 20
12.8153900844
 11
10.5601635464
 21
12.8153900844
  0
LINE
  5
77B
100
AcDbEntity
  8
03___PRT_ALL_CURVES
100
AcDbLine
 62
4
  6
CONTINUOUS
 10
10.5529277102
 20
12.8153900844
 11
10.5203664164
 21
12.8153900844
  0
LINE
  5
77C
100
AcDbEntity
  8
03___PRT_ALL_CURVES
100
AcDbLine
 62
4
  6
CONTINUOUS
 10
10.4986588873
 20
12.8153900844
 11
10.493232005
 21
12.8153900844
  0
LINE
  5
77D
100
AcDbEntity
  8
03___PRT_ALL_CURVES
100
AcDbLine
 62
4
  6
CONTINUOUS
 10
10.3720316251
 20
12.8153900844
 11
10.3647957838
 21
12.8153900844
  0
LINE
  5
77E
100
AcDbEntity
  8
03___PRT_ALL_CURVES
100
AcDbLine
 62
4
  6
CONTINUOUS
 10
10.3159538432
 20
12.8153900844
 11
10.3105269609
 21
12.8153900844
  0
LINE
  5
77F
100
AcDbEntity
  8
03___PRT_ALL_CURVES
100
AcDbLine
 62
4
  6
CONTINUOUS
 10
10.3937391543
 20
12.8153900844
 11
10.3991660418
 21
12.8153900844
  0
LINE
  5
780
100
AcDbEntity
  8
03___PRT_ALL_CURVES
100
AcDbLine
 62
4
  6
CONTINUOUS
 10
10.4217780479
 20
12.8153900844
 11
10.4281094071
 21
12.8153900844
  0
LINE
  5
781
100
AcDbEntity
  8
03___PRT_ALL_CURVES
100
AcDbLine
 62
4
  6
CONTINUOUS
 10
10.3755797786
 20
12.8181307736
 11
10.3683439372
 21
12.8181307736
  0
LINE
  5
782
100
AcDbEntity
  8
03___PRT_ALL_CURVES
100
AcDbLine
 62
4
  6
CONTINUOUS
 10
10.5293414522
 20
12.8181307736
 11
10.5564758636
 21
12.8181307736
  0
LINE
  5
783
100
AcDbEntity
  8
03___PRT_ALL_CURVES
100
AcDbLine
 62
4
  6
CONTINUOUS
 10
10.411584579
 20
12.8249824965
 11
10.4269607386
 21
12.8249824965
  0
LINE
  5
784
100
AcDbEntity
  8
03___PRT_ALL_CURVES
100
AcDbLine
 62
4
  6
CONTINUOUS
 10
10.5623196778
 20
12.825439278
 11
10.5388031948
 21
12.825439278
  0
LINE
  5
785
100
AcDbEntity
  8
03___PRT_ALL_CURVES
100
AcDbLine
 62
4
  6
CONTINUOUS
 10
10.35248023
 20
12.825439278
 11
10.3289637392
 21
12.825439278
  0
LINE
  5
786
100
AcDbEntity
  8
03___PRT_ALL_CURVES
100
AcDbLine
 62
4
  6
CONTINUOUS
 10
10.415132732
 20
12.8277231854
 11
10.4323178558
 21
12.8277231854
  0
LINE
  5
787
100
AcDbEntity
  8
03___PRT_ALL_CURVES
100
AcDbLine
 62
4
  6
CONTINUOUS
 10
10.3325118922
 20
12.8281799668
 11
10.356028383
 21
12.8281799668
  0
LINE
  5
788
100
AcDbEntity
  8
03___PRT_ALL_CURVES
100
AcDbLine
 62
4
  6
CONTINUOUS
 10
10.5423513478
 20
12.8281799668
 11
10.5658678309
 21
12.8281799668
  0
LINE
  5
789
100
AcDbEntity
  8
03___PRT_ALL_CURVES
100
AcDbLine
 62
4
  6
CONTINUOUS
 10
10.5771734258
 20
12.8341181272
 11
10.5500390143
 21
12.8341181272
  0
LINE
  5
78A
100
AcDbEntity
  8
03___PRT_ALL_CURVES
100
AcDbLine
 62
4
  6
CONTINUOUS
 10
10.3673339702
 20
12.8341181272
 11
10.3401995588
 21
12.8341181272
  0
LINE
  5
78B
100
AcDbEntity
  8
03___PRT_ALL_CURVES
100
AcDbLine
 62
4
  6
CONTINUOUS
 10
10.3890414994
 20
12.8341181272
 11
10.3962773407
 21
12.8341181272
  0
LINE
  5
78C
100
AcDbEntity
  8
03___PRT_ALL_CURVES
100
AcDbLine
 62
4
  6
CONTINUOUS
 10
10.6627859268
 20
12.8345749087
 11
10.6483142545
 21
12.8345749087
  0
LINE
  5
78D
100
AcDbEntity
  8
03___PRT_ALL_CURVES
100
AcDbLine
 62
4
  6
CONTINUOUS
 10
10.6428873722
 20
12.8345749087
 11
10.6284156792
 21
12.8345749087
  0
LINE
  5
78E
100
AcDbEntity
  8
03___PRT_ALL_CURVES
100
AcDbLine
 62
4
  6
CONTINUOUS
 10
10.537967634
 20
12.8345749087
 11
10.5234959617
 21
12.8345749087
  0
LINE
  5
78F
100
AcDbEntity
  8
03___PRT_ALL_CURVES
100
AcDbLine
 62
4
  6
CONTINUOUS
 10
10.5180690794
 20
12.8345749087
 11
10.5035973864
 21
12.8345749087
  0
LINE
  5
790
100
AcDbEntity
  8
03___PRT_ALL_CURVES
100
AcDbLine
 62
4
  6
CONTINUOUS
 10
10.44118824
 20
12.8345749087
 11
10.4240031162
 21
12.8345749087
  0
LINE
  5
791
100
AcDbEntity
  8
03___PRT_ALL_CURVES
100
AcDbLine
 62
4
  6
CONTINUOUS
 10
10.4432405573
 20
12.836858816
 11
10.4215330229
 21
12.836858816
  0
LINE
  5
792
100
AcDbEntity
  8
03___PRT_ALL_CURVES
100
AcDbLine
 62
4
  6
CONTINUOUS
 10
10.3383208295
 20
12.836858816
 11
10.3708821233
 21
12.836858816
  0
LINE
  5
793
100
AcDbEntity
  8
03___PRT_ALL_CURVES
100
AcDbLine
 62
4
  6
CONTINUOUS
 10
10.3925896524
 20
12.836858816
 11
10.3998254938
 21
12.836858816
  0
LINE
  5
794
100
AcDbEntity
  8
03___PRT_ALL_CURVES
100
AcDbLine
 62
4
  6
CONTINUOUS
 10
10.5065541806
 20
12.836858816
 11
10.5409244282
 21
12.836858816
  0
LINE
  5
795
100
AcDbEntity
  8
03___PRT_ALL_CURVES
100
AcDbLine
 62
4
  6
CONTINUOUS
 10
10.5481602851
 20
12.836858816
 11
10.5807215788
 21
12.836858816
  0
LINE
  5
796
100
AcDbEntity
  8
03___PRT_ALL_CURVES
100
AcDbLine
 62
4
  6
CONTINUOUS
 10
10.587957415
 20
12.836858816
 11
10.5933842973
 21
12.836858816
  0
LINE
  5
797
100
AcDbEntity
  8
03___PRT_ALL_CURVES
100
AcDbLine
 62
4
  6
CONTINUOUS
 10
10.6187097549
 20
12.836858816
 11
10.6241366372
 21
12.836858816
  0
LINE
  5
798
100
AcDbEntity
  8
03___PRT_ALL_CURVES
100
AcDbLine
 62
4
  6
CONTINUOUS
 10
10.6313724733
 20
12.836858816
 11
10.665742721
 21
12.836858816
  0
LINE
  5
799
100
AcDbEntity
  8
03___PRT_ALL_CURVES
100
AcDbLine
 62
4
  6
CONTINUOUS
 10
10.7769906832
 20
12.8501306621
 11
10.7688503597
 21
12.8501306621
  0
LINE
  5
79A
100
AcDbEntity
  8
03___PRT_ALL_CURVES
100
AcDbLine
 62
4
  6
CONTINUOUS
 10
10.7471428306
 20
12.8501306621
 11
10.7390025071
 21
12.8501306621
  0
LINE
  5
79B
100
AcDbEntity
  8
03___PRT_ALL_CURVES
100
AcDbLine
 62
4
  6
CONTINUOUS
 10
10.7163905114
 20
12.8501306621
 11
10.7109636291
 21
12.8501306621
  0
LINE
  5
79C
100
AcDbEntity
  8
03___PRT_ALL_CURVES
100
AcDbLine
 62
4
  6
CONTINUOUS
 10
10.7037277722
 20
12.8501306621
 11
10.6983009106
 21
12.8501306621
  0
LINE
  5
79D
100
AcDbEntity
  8
03___PRT_ALL_CURVES
100
AcDbLine
 62
4
  6
CONTINUOUS
 10
10.6838292176
 20
12.8501306621
 11
10.6765933814
 21
12.8501306621
  0
LINE
  5
79E
100
AcDbEntity
  8
03___PRT_ALL_CURVES
100
AcDbLine
 62
4
  6
CONTINUOUS
 10
10.6621216884
 20
12.8501306621
 11
10.6548858523
 21
12.8501306621
  0
LINE
  5
79F
100
AcDbEntity
  8
03___PRT_ALL_CURVES
100
AcDbLine
 62
4
  6
CONTINUOUS
 10
10.6404141593
 20
12.8501306621
 11
10.634987277
 21
12.8501306621
  0
LINE
  5
7A0
100
AcDbEntity
  8
03___PRT_ALL_CURVES
100
AcDbLine
 62
4
  6
CONTINUOUS
 10
10.6096618194
 20
12.8501306621
 11
10.6042349371
 21
12.8501306621
  0
LINE
  5
7A1
100
AcDbEntity
  8
03___PRT_ALL_CURVES
100
AcDbLine
 62
4
  6
CONTINUOUS
 10
10.5409213241
 20
12.8501306621
 11
10.5192137846
 21
12.8501306621
  0
LINE
  5
7A2
100
AcDbEntity
  8
03___PRT_ALL_CURVES
100
AcDbLine
 62
4
  6
CONTINUOUS
 10
10.4685628901
 20
12.8501306621
 11
10.4360015911
 21
12.8501306621
  0
LINE
  5
7A3
100
AcDbEntity
  8
03___PRT_ALL_CURVES
100
AcDbLine
 62
4
  6
CONTINUOUS
 10
10.4287657498
 20
12.8501306621
 11
10.3962044561
 21
12.8501306621
  0
LINE
  5
7A4
100
AcDbEntity
  8
03___PRT_ALL_CURVES
100
AcDbLine
 62
4
  6
CONTINUOUS
 10
10.3681655638
 20
12.8501306621
 11
10.3754014077
 21
12.8501306621
  0
LINE
  5
7A5
100
AcDbEntity
  8
03___PRT_ALL_CURVES
100
AcDbLine
 62
4
  6
CONTINUOUS
 10
10.5626288533
 20
12.8501306621
 11
10.5680557356
 21
12.8501306621
  0
LINE
  5
7A6
100
AcDbEntity
  8
03___PRT_ALL_CURVES
100
AcDbLine
 62
4
  6
CONTINUOUS
 10
10.5906677313
 20
12.8501306621
 11
10.5969991009
 21
12.8501306621
  0
LINE
  5
7A7
100
AcDbEntity
  8
03___PRT_ALL_CURVES
100
AcDbLine
 62
4
  6
CONTINUOUS
 10
10.5444694775
 20
12.8528713512
 11
10.5281888203
 21
12.8528713512
  0
LINE
  5
7A8
100
AcDbEntity
  8
03___PRT_ALL_CURVES
100
AcDbLine
 62
4
  6
CONTINUOUS
 10
10.3789495611
 20
12.8528713512
 11
10.3717137172
 21
12.8528713512
  0
LINE
  5
7A9
100
AcDbEntity
  8
03___PRT_ALL_CURVES
100
AcDbLine
 62
4
  6
CONTINUOUS
 10
10.4051794918
 20
12.8528713512
 11
10.4323139032
 21
12.8528713512
  0
LINE
  5
7AA
100
AcDbEntity
  8
03___PRT_ALL_CURVES
100
AcDbLine
 62
4
  6
CONTINUOUS
 10
10.4449766269
 20
12.8528713512
 11
10.4721110435
 21
12.8528713512
  0
LINE
  5
7AB
100
AcDbEntity
  8
03___PRT_ALL_CURVES
100
AcDbLine
 62
4
  6
CONTINUOUS
 10
10.7723985132
 20
12.8528713512
 11
10.7805388366
 21
12.8528713512
  0
LINE
  5
7AC
100
AcDbEntity
  8
03___PRT_ALL_CURVES
100
AcDbLine
 62
4
  6
CONTINUOUS
 10
10.6384656554
 20
12.8556120404
 11
10.6203760547
 21
12.8556120404
  0
LINE
  5
7AD
100
AcDbEntity
  8
03___PRT_ALL_CURVES
100
AcDbLine
 62
4
  6
CONTINUOUS
 10
10.3686173868
 20
12.8560688218
 11
10.3631905046
 21
12.8560688218
  0
LINE
  5
7AE
100
AcDbEntity
  8
03___PRT_ALL_CURVES
100
AcDbLine
 62
4
  6
CONTINUOUS
 10
10.6399266242
 20
12.8574391662
 11
10.6236459773
 21
12.8574391662
  0
LINE
  5
7AF
100
AcDbEntity
  8
03___PRT_ALL_CURVES
100
AcDbLine
 62
4
  6
CONTINUOUS
 10
10.7960537184
 20
12.8592662927
 11
10.787913395
 21
12.8592662927
  0
LINE
  5
7B0
100
AcDbEntity
  8
03___PRT_ALL_CURVES
100
AcDbLine
 62
4
  6
CONTINUOUS
 10
10.3823930626
 20
12.8597230742
 11
10.3878199449
 21
12.8597230742
  0
LINE
  5
7B1
100
AcDbEntity
  8
03___PRT_ALL_CURVES
100
AcDbLine
 62
4
  6
CONTINUOUS
 10
10.5804742728
 20
12.8597230742
 11
10.5958504324
 21
12.8597230742
  0
LINE
  5
7B2
100
AcDbEntity
  8
03___PRT_ALL_CURVES
100
AcDbLine
 62
4
  6
CONTINUOUS
 10
10.4779548577
 20
12.8601798557
 11
10.4544383695
 21
12.8601798557
  0
LINE
  5
7B3
100
AcDbEntity
  8
03___PRT_ALL_CURVES
100
AcDbLine
 62
4
  6
CONTINUOUS
 10
10.4381577226
 20
12.8601798557
 11
10.4146412344
 21
12.8601798557
  0
LINE
  5
7B4
100
AcDbEntity
  8
03___PRT_ALL_CURVES
100
AcDbLine
 62
4
  6
CONTINUOUS
 10
10.791461548
 20
12.8620069816
 11
10.8050287537
 21
12.8620069816
  0
LINE
  5
7B5
100
AcDbEntity
  8
03___PRT_ALL_CURVES
100
AcDbLine
 62
4
  6
CONTINUOUS
 10
10.3913680979
 20
12.862463763
 11
10.3859412156
 21
12.862463763
  0
LINE
  5
7B6
100
AcDbEntity
  8
03___PRT_ALL_CURVES
100
AcDbLine
 62
4
  6
CONTINUOUS
 10
10.5840224258
 20
12.862463763
 11
10.6012075393
 21
12.862463763
  0
LINE
  5
7B7
100
AcDbEntity
  8
03___PRT_ALL_CURVES
100
AcDbLine
 62
4
  6
CONTINUOUS
 10
10.4181893874
 20
12.8629205445
 11
10.4417058756
 21
12.8629205445
  0
LINE
  5
7B8
100
AcDbEntity
  8
03___PRT_ALL_CURVES
100
AcDbLine
 62
4
  6
CONTINUOUS
 10
10.4579865225
 20
12.8629205445
 11
10.4815030107
 21
12.8629205445
  0
LINE
  5
7B9
100
AcDbEntity
  8
03___PRT_ALL_CURVES
100
AcDbLine
 62
4
  6
CONTINUOUS
 10
10.8103509833
 20
12.8661180148
 11
10.804924101
 21
12.8661180148
  0
LINE
  5
7BA
100
AcDbEntity
  8
03___PRT_ALL_CURVES
100
AcDbLine
 62
4
  6
CONTINUOUS
 10
10.4021172101
 20
12.8665747975
 11
10.4075440924
 21
12.8665747975
  0
LINE
  5
7BB
100
AcDbEntity
  8
03___PRT_ALL_CURVES
100
AcDbLine
 62
4
  6
CONTINUOUS
 10
10.8012363988
 20
12.8688587049
 11
10.7930960753
 21
12.8688587049
  0
LINE
  5
7BC
100
AcDbEntity
  8
03___PRT_ALL_CURVES
100
AcDbLine
 62
4
  6
CONTINUOUS
 10
10.4928086057
 20
12.8688587049
 11
10.465674189
 21
12.8688587049
  0
LINE
  5
7BD
100
AcDbEntity
  8
03___PRT_ALL_CURVES
100
AcDbLine
 62
4
  6
CONTINUOUS
 10
10.4530114654
 20
12.8688587049
 11
10.425877054
 21
12.8688587049
  0
LINE
  5
7BE
100
AcDbEntity
  8
03___PRT_ALL_CURVES
100
AcDbLine
 62
4
  6
CONTINUOUS
 10
10.394220241
 20
12.8688587049
 11
10.3996471233
 21
12.8688587049
  0
LINE
  5
7BF
100
AcDbEntity
  8
03___PRT_ALL_CURVES
100
AcDbLine
 62
4
  6
CONTINUOUS
 10
10.5488863825
 20
12.8688587049
 11
10.5651670397
 21
12.8688587049
  0
LINE
  5
7C0
100
AcDbEntity
  8
03___PRT_ALL_CURVES
100
AcDbLine
 62
4
  6
CONTINUOUS
 10
10.6100779235
 20
12.8693154863
 11
10.59289281
 21
12.8693154863
  0
LINE
  5
7C1
100
AcDbEntity
  8
03___PRT_ALL_CURVES
100
AcDbLine
 62
4
  6
CONTINUOUS
 10
10.6121302511
 20
12.8715993937
 11
10.5904227219
 21
12.8715993937
  0
LINE
  5
7C2
100
AcDbEntity
  8
03___PRT_ALL_CURVES
100
AcDbLine
 62
4
  6
CONTINUOUS
 10
10.4022907955
 20
12.8715993937
 11
10.397768394
 21
12.8715993937
  0
LINE
  5
7C3
100
AcDbEntity
  8
03___PRT_ALL_CURVES
100
AcDbLine
 62
4
  6
CONTINUOUS
 10
10.4239983247
 20
12.8715993937
 11
10.4565596184
 21
12.8715993937
  0
LINE
  5
7C4
100
AcDbEntity
  8
03___PRT_ALL_CURVES
100
AcDbLine
 62
4
  6
CONTINUOUS
 10
10.4637954598
 20
12.8715993937
 11
10.4963567587
 21
12.8715993937
  0
LINE
  5
7C5
100
AcDbEntity
  8
03___PRT_ALL_CURVES
100
AcDbLine
 62
4
  6
CONTINUOUS
 10
10.5470076532
 20
12.8715993937
 11
10.5687151927
 21
12.8715993937
  0
LINE
  5
7C6
100
AcDbEntity
  8
03___PRT_ALL_CURVES
100
AcDbLine
 62
4
  6
CONTINUOUS
 10
10.6465004987
 20
12.8715993937
 11
10.6537363349
 21
12.8715993937
  0
LINE
  5
7C7
100
AcDbEntity
  8
03___PRT_ALL_CURVES
100
AcDbLine
 62
4
  6
CONTINUOUS
 10
10.675443864
 20
12.8715993937
 11
10.6808707463
 21
12.8715993937
  0
LINE
  5
7C8
100
AcDbEntity
  8
03___PRT_ALL_CURVES
100
AcDbLine
 62
4
  6
CONTINUOUS
 10
10.6935334855
 20
12.8715993937
 11
10.7007693216
 21
12.8715993937
  0
LINE
  5
7C9
100
AcDbEntity
  8
03___PRT_ALL_CURVES
100
AcDbLine
 62
4
  6
CONTINUOUS
 10
10.7134320401
 20
12.8715993937
 11
10.7188589224
 21
12.8715993937
  0
LINE
  5
7CA
100
AcDbEntity
  8
03___PRT_ALL_CURVES
100
AcDbLine
 62
4
  6
CONTINUOUS
 10
10.7260947793
 20
12.8715993937
 11
10.7315216408
 21
12.8715993937
  0
LINE
  5
7CB
100
AcDbEntity
  8
03___PRT_ALL_CURVES
100
AcDbLine
 62
4
  6
CONTINUOUS
 10
10.7387574977
 20
12.8715993937
 11
10.7468978211
 21
12.8715993937
  0
LINE
  5
7CC
100
AcDbEntity
  8
03___PRT_ALL_CURVES
100
AcDbLine
 62
4
  6
CONTINUOUS
 10
10.7695098169
 20
12.8715993937
 11
10.7749366992
 21
12.8715993937
  0
LINE
  5
7CD
100
AcDbEntity
  8
03___PRT_ALL_CURVES
100
AcDbLine
 62
4
  6
CONTINUOUS
 10
10.7966442284
 20
12.8715993937
 11
10.8047845518
 21
12.8715993937
  0
LINE
  5
7CE
100
AcDbEntity
  8
0
100
AcDbLine
 62
3
  6
CONTINUOUS
 10
10.9694249133
 20
12.9550491669
 11
12.4408348354
 21
12.9550491669
  0
LINE
  5
7CF
100
AcDbEntity
  8
0
100
AcDbLine
 62
7
  6
CONTINUOUS
 10
10.9682632191
 20
12.9596205943
 11
10.4562931915
 21
12.9596205943
  0
LINE
  5
7D0
100
AcDbEntity
  8
0
100
AcDbLine
 62
7
  6
CONTINUOUS
 10
16.4903325123
 20
6.2243716796
 11
16.4903325123
 21
5.2637417584
  0
LINE
  5
7D1
100
AcDbEntity
  8
0
100
AcDbLine
 62
7
  6
CONTINUOUS
 10
16.4903325123
 20
14.8301197111
 11
16.4903325123
 21
15.7051197111
  0
LINE
  5
7D2
100
AcDbEntity
  8
0
100
AcDbLine
 62
7
  6
CONTINUOUS
 10
16.6503325123
 20
14.5238339968
 11
16.6503325123
 21
14.4951197111
  0
LINE
  5
7D3
100
AcDbEntity
  8
0
100
AcDbLine
 62
7
  6
CONTINUOUS
 10
16.6503325123
 20
6.3683536819
 11
16.6503325123
 21
6.3768913647
  0
LINE
  5
7D4
100
AcDbEntity
  8
0
100
AcDbLine
 62
7
  6
CONTINUOUS
 10
16.6653325123
 20
7.2715927986
 11
16.6653325123
 21
6.3818519946
  0
LINE
  5
7D5
100
AcDbEntity
  8
0
100
AcDbLine
 62
7
  6
CONTINUOUS
 10
16.6653325123
 20
13.1609095908
 11
16.6653325123
 21
14.4951197111
  0
LINE
  5
7D6
100
AcDbEntity
  8
03___PRT_ALL_CURVES
100
AcDbLine
 62
4
  6
CONTINUOUS
 10
10.7847481446
 20
12.8533281327
 11
10.7886443038
 21
12.854241696
  0
LINE
  5
7D7
100
AcDbEntity
  8
03___PRT_ALL_CURVES
100
AcDbLine
 62
4
  6
CONTINUOUS
 10
10.7888868088
 20
12.8684019234
 11
10.78499065
 21
12.8674883605
  0
LINE
  5
7D8
100
AcDbEntity
  8
03___PRT_ALL_CURVES
100
AcDbLine
 62
4
  6
CONTINUOUS
 10
10.5525749033
 20
12.854241696
 11
10.5486787441
 21
12.8533281327
  0
LINE
  5
7D9
100
AcDbEntity
  8
03___PRT_ALL_CURVES
100
AcDbLine
 62
4
  6
CONTINUOUS
 10
10.3836852199
 20
12.8195011183
 11
10.3797890607
 21
12.818587555
  0
LINE
  5
7DA
100
AcDbEntity
  8
03___PRT_ALL_CURVES
100
AcDbLine
 62
4
  6
CONTINUOUS
 10
10.3809360585
 20
12.8327477828
 11
10.3848322173
 21
12.8336613457
  0
LINE
  5
7DB
100
AcDbEntity
  8
03___PRT_ALL_CURVES
100
AcDbLine
 62
4
  6
CONTINUOUS
 10
10.3870550012
 20
12.854241696
 11
10.3831588419
 21
12.8533281327
  0
LINE
  5
7DC
100
AcDbEntity
  8
03___PRT_ALL_CURVES
100
AcDbLine
 62
4
  6
CONTINUOUS
 10
10.3870192816
 20
12.8674883605
 11
10.390915441
 21
12.8684019234
  0
LINE
  5
7DD
100
AcDbEntity
  8
03___PRT_ALL_CURVES
100
AcDbLine
 62
4
  6
CONTINUOUS
 10
10.7869050833
 20
12.8515010067
 11
10.7821044578
 21
12.8505874436
  0
LINE
  5
7DE
100
AcDbEntity
  8
03___PRT_ALL_CURVES
100
AcDbLine
 62
4
  6
CONTINUOUS
 10
10.7867298284
 20
12.8702290493
 11
10.7915304952
 21
12.8711426122
  0
LINE
  5
7DF
100
AcDbEntity
  8
03___PRT_ALL_CURVES
100
AcDbLine
 62
4
  6
CONTINUOUS
 10
10.4335703386
 20
12.8258960595
 11
10.4383709847
 21
12.8268096224
  0
LINE
  5
7E0
100
AcDbEntity
  8
03___PRT_ALL_CURVES
100
AcDbLine
 62
4
  6
CONTINUOUS
 10
10.3819460253
 20
12.816760429
 11
10.3771453894
 21
12.8158468659
  0
LINE
  5
7E1
100
AcDbEntity
  8
03___PRT_ALL_CURVES
100
AcDbLine
 62
4
  6
CONTINUOUS
 10
10.6024600324
 20
12.8606366372
 11
10.6072606785
 21
12.8615502001
  0
LINE
  5
7E2
100
AcDbEntity
  8
03___PRT_ALL_CURVES
100
AcDbLine
 62
4
  6
CONTINUOUS
 10
10.5508357243
 20
12.8515010067
 11
10.546035078
 21
12.8505874436
  0
LINE
  5
7E3
100
AcDbEntity
  8
03___PRT_ALL_CURVES
100
AcDbLine
 62
4
  6
CONTINUOUS
 10
10.3826752525
 20
12.8354884716
 11
10.3874758934
 21
12.8364020345
  0
LINE
  5
7E4
100
AcDbEntity
  8
03___PRT_ALL_CURVES
100
AcDbLine
 62
4
  6
CONTINUOUS
 10
10.3805151681
 20
12.8505874436
 11
10.3853158066
 21
12.8515010067
  0
LINE
  5
7E5
100
AcDbEntity
  8
03___PRT_ALL_CURVES
100
AcDbLine
 62
4
  6
CONTINUOUS
 10
10.3935591132
 20
12.8711426122
 11
10.3887584742
 21
12.8702290493
  0
LINE
  5
7E6
100
AcDbEntity
  8
03___PRT_ALL_CURVES
100
AcDbLine
 62
4
  6
CONTINUOUS
 10
10.4323178558
 20
12.8277231854
 11
10.4356226558
 21
12.8281799668
  0
LINE
  5
7E7
100
AcDbEntity
  8
03___PRT_ALL_CURVES
100
AcDbLine
 62
4
  6
CONTINUOUS
 10
10.6012075393
 20
12.862463763
 11
10.6045123393
 21
12.8629205445
  0
LINE
  5
7E8
100
AcDbEntity
  8
03___PRT_ALL_CURVES
100
AcDbLine
 62
4
  6
CONTINUOUS
 10
10.390915441
 20
12.8684019234
 11
10.394220241
 21
12.8688587049
  0
LINE
  5
7E9
100
AcDbEntity
  8
03___PRT_ALL_CURVES
100
AcDbLine
 62
4
  6
CONTINUOUS
 10
10.3848322173
 20
12.8336613457
 11
10.3890414994
 21
12.8341181272
  0
LINE
  5
7EA
100
AcDbEntity
  8
03___PRT_ALL_CURVES
100
AcDbLine
 62
4
  6
CONTINUOUS
 10
10.5486787441
 20
12.8533281327
 11
10.5444694775
 21
12.8528713512
  0
LINE
  5
7EB
100
AcDbEntity
  8
03___PRT_ALL_CURVES
100
AcDbLine
 62
4
  6
CONTINUOUS
 10
10.3831588419
 20
12.8533281327
 11
10.3789495611
 21
12.8528713512
  0
LINE
  5
7EC
100
AcDbEntity
  8
03___PRT_ALL_CURVES
100
AcDbLine
 62
4
  6
CONTINUOUS
 10
10.397768394
 20
12.8715993937
 11
10.3935591132
 21
12.8711426122
  0
LINE
  5
7ED
100
AcDbEntity
  8
0
100
AcDbLine
 62
7
  6
CONTINUOUS
 10
16.6653325123
 20
13.1609095908
 11
10.4153325123
 21
13.1609095908
  0
LINE
  5
7EE
100
AcDbEntity
  8
0
100
AcDbLine
 62
7
  6
CONTINUOUS
 10
7.9822370651
 20
13.5840173489
 11
10.1703325123
 21
13.4659071127
  0
LINE
  5
7EF
100
AcDbEntity
  8
0
100
AcDbLine
 62
7
  6
CONTINUOUS
 10
7.9871380531
 20
13.6438401476
 11
10.1720527393
 21
13.5259016043
  0
LINE
  5
7F0
100
AcDbEntity
  8
0
100
AcDbLine
 62
7
  6
CONTINUOUS
 10
10.1752867447
 20
13.5858143843
 11
7.9903720585
 21
13.7037529276
  0
LINE
  5
7F1
100
AcDbEntity
  8
0
100
AcDbLine
 62
7
  6
CONTINUOUS
 10
18.9129325013
 20
12.1651197111
 11
16.6653325123
 21
13.1609095908
  0
LINE
  5
7F2
100
AcDbEntity
  8
0
100
AcDbLine
 62
7
  6
CONTINUOUS
 10
10.4153325123
 20
14.4951197111
 11
16.6653325123
 21
14.4951197111
  0
LINE
  5
7F3
100
AcDbEntity
  8
0
100
AcDbLine
 62
7
  6
CONTINUOUS
 10
16.6503325123
 20
14.5238339968
 11
10.4303325123
 21
14.5238339968
  0
LINE
  5
7F4
100
AcDbEntity
  8
0
100
AcDbLine
 62
7
  6
CONTINUOUS
 10
16.4903325123
 20
14.8301197111
 11
10.5903325123
 21
14.8301197111
  0
LINE
  5
7F5
100
AcDbEntity
  8
0
100
AcDbLine
 62
7
  6
CONTINUOUS
 10
16.6503325123
 20
14.5238339968
 11
16.4903325123
 21
14.8301197111
  0
LINE
  5
7F6
100
AcDbEntity
  8
0
100
AcDbLine
 62
7
  6
CONTINUOUS
 10
16.6653325123
 20
6.3818519946
 11
16.6598200123
 21
6.3768913647
  0
LINE
  5
7F7
100
AcDbEntity
  8
0
100
AcDbLine
 62
7
  6
CONTINUOUS
 10
16.6503325123
 20
6.3683536819
 11
16.4903325123
 21
6.2243716796
  0
LINE
  5
7F8
100
AcDbEntity
  8
0
100
AcDbLine
 62
7
  6
CONTINUOUS
 10
16.4903325123
 20
15.7051197111
 11
10.5903325123
 21
15.7051197111
  0
LINE
  5
7F9
100
AcDbEntity
  8
0
100
AcDbLine
 62
7
  6
CONTINUOUS
 10
19.3353325123
 20
9.7651197111
 11
19.3353325123
 21
7.9802542159
  0
LINE
  5
7FA
100
AcDbEntity
  8
0
100
AcDbLine
 62
7
  6
CONTINUOUS
 10
19.3353325123
 20
11.0643323095
 11
19.3353325123
 21
11.5159770101
  0
LINE
  5
7FB
100
AcDbEntity
  8
0
100
AcDbLine
 62
7
  6
CONTINUOUS
 10
19.4140726698
 20
11.0643323095
 11
19.4140726698
 21
9.7651197111
  0
LINE
  5
7FC
100
AcDbEntity
  8
0
100
AcDbLine
 62
7
  6
CONTINUOUS
 10
-1.9214153729
 20
-0.2024336762
 11
-1.920068837
 21
-0.198734099
  0
LINE
  5
7FD
100
AcDbEntity
  8
0
100
AcDbLine
 62
7
  6
CONTINUOUS
 10
-1.8645751782
 20
-0.2189321389
 11
-1.8632286422
 21
-0.2152325617
  0
LINE
  5
7FE
100
AcDbEntity
  8
0
100
AcDbLine
 62
7
  6
CONTINUOUS
 10
-2.5893605509
 20
-4.3092220013
 11
-2.5372204222
 21
-4.2189126493
  0
LINE
  5
7FF
100
AcDbEntity
  8
0
100
AcDbLine
 62
7
  6
CONTINUOUS
 10
-4.3962723629
 20
-7.4388850646
 11
-4.4494745511
 21
-7.5310339576
  0
LINE
  5
800
100
AcDbEntity
  8
0
100
AcDbLine
 62
7
  6
CONTINUOUS
 10
-2.5207142208
 20
-4.3478033849
 11
-2.4675026268
 21
-4.2556382004
  0
LINE
  5
801
100
AcDbEntity
  8
0
100
AcDbLine
 62
7
  6
CONTINUOUS
 10
-4.3276260329
 20
-7.4774664482
 11
-4.3797712651
 21
-7.5677846398
  0
LINE
  5
802
100
AcDbEntity
  8
0
100
AcDbLine
 62
7
  6
CONTINUOUS
 10
-1.6519238533
 20
-5.932997377
 11
-1.5496808695
 21
-5.932997377
  0
LINE
  5
803
100
AcDbEntity
  8
0
100
AcDbLine
 62
7
  6
CONTINUOUS
 10
-5.2675510159
 20
-5.932997377
 11
-5.3704391788
 21
-5.932997377
  0
LINE
  5
804
100
AcDbEntity
  8
0
100
AcDbLine
 62
7
  6
CONTINUOUS
 10
-1.6492983881
 20
-5.8542572195
 11
-1.5464141348
 21
-5.8542572195
  0
LINE
  5
805
100
AcDbEntity
  8
0
100
AcDbLine
 62
7
  6
CONTINUOUS
 10
-5.2649255506
 20
-5.8542572195
 11
-5.367172444
 21
-5.8542572195
  0
LINE
  5
806
100
AcDbEntity
  8
0
100
AcDbLine
 62
7
  6
CONTINUOUS
 10
-4.3965248167
 20
-4.3479322693
 11
-4.4470023112
 21
-4.260502684
  0
LINE
  5
807
100
AcDbEntity
  8
0
100
AcDbLine
 62
7
  6
CONTINUOUS
 10
-2.5880977924
 20
-7.480219757
 11
-2.5380864687
 21
-7.5668419107
  0
LINE
  5
808
100
AcDbEntity
  8
0
100
AcDbLine
 62
7
  6
CONTINUOUS
 10
-4.3293297514
 20
-4.3068372213
 11
-4.3793106772
 21
-4.2202677185
  0
LINE
  5
809
100
AcDbEntity
  8
0
100
AcDbLine
 62
7
  6
CONTINUOUS
 10
-2.5208578344
 20
-7.4392024657
 11
-2.4703948346
 21
-7.5266069453
  0
LINE
  5
80A
100
AcDbEntity
  8
0
100
AcDbLine
 62
7
  6
CONTINUOUS
 10
-1.0321702976
 20
-0.5219027383
 11
-1.0308237616
 21
-0.5182031611
  0
LINE
  5
80B
100
AcDbEntity
  8
0
100
AcDbLine
 62
7
  6
CONTINUOUS
 10
-0.9780231749
 20
-0.5458003556
 11
-0.9766766389
 21
-0.5421007783
  0
LINE
  5
80C
100
AcDbEntity
  8
0
100
AcDbLine
 62
7
  6
CONTINUOUS
 10
-4.4586567245
 20
-0.0198871408
 11
-2.4586567245
 21
-0.0198871408
  0
LINE
  5
80D
100
AcDbEntity
  8
0
100
AcDbLine
 62
7
  6
CONTINUOUS
 10
-1.9214153729
 20
-0.2024336762
 11
-0.9780231749
 21
-0.5458003556
  0
LINE
  5
80E
100
AcDbEntity
  8
0
100
AcDbLine
 62
7
  6
CONTINUOUS
 10
-1.920068837
 20
-0.198734099
 11
-0.9766766389
 21
-0.5421007783
  0
LINE
  5
80F
100
AcDbEntity
  8
0
100
AcDbLine
 62
7
  6
CONTINUOUS
 10
-1.8632286422
 20
-0.2152325617
 11
-1.0308237616
 21
-0.5182031611
  0
ARC
  5
810
100
AcDbEntity
  8
0
100
AcDbCircle
 62
7
  6
CONTINUOUS
 10
-8.5449953071
 20
7.9802542159
 40
0.7086614173
100
AcDbArc
 50
180.0
 51
270.0
  0
ARC
  5
811
100
AcDbEntity
  8
0
100
AcDbCircle
 62
7
  6
CONTINUOUS
 10
-6.3692866457
 20
5.2637417584
 40
0.0393700787
100
AcDbArc
 50
180.0
 51
270.0
  0
ARC
  5
812
100
AcDbEntity
  8
0
100
AcDbCircle
 62
7
  6
CONTINUOUS
 10
-8.5436567245
 20
11.5159770101
 40
0.71
100
AcDbArc
 50
113.8955392853
 51
180.0
  0
ARC
  5
813
100
AcDbEntity
  8
0
100
AcDbCircle
 62
7
  6
CONTINUOUS
 10
-5.0452064706
 20
13.4935727162
 40
0.2515886355
100
AcDbArc
 50
86.5919272731
 51
93.4080236864
  0
ARC
  5
814
100
AcDbEntity
  8
0
100
AcDbCircle
 62
7
  6
CONTINUOUS
 10
-5.0452088786
 20
13.5364985659
 40
0.2233915622
100
AcDbArc
 50
66.0346940034
 51
66.3095634884
  0
ARC
  5
815
100
AcDbEntity
  8
0
100
AcDbCircle
 62
7
  6
CONTINUOUS
 10
-5.0452045768
 20
13.5364985827
 40
0.2233915442
100
AcDbArc
 50
113.690374791
 51
113.9653062259
  0
ARC
  5
816
100
AcDbEntity
  8
0
100
AcDbCircle
 62
7
  6
CONTINUOUS
 10
-5.0452066558
 20
13.5366896084
 40
0.2232513947
100
AcDbArc
 50
48.4621128224
 51
65.9851484377
  0
ARC
  5
817
100
AcDbEntity
  8
0
100
AcDbCircle
 62
7
  6
CONTINUOUS
 10
-5.0452071606
 20
13.5366902234
 40
0.2232506823
100
AcDbArc
 50
114.0148232904
 51
132.9226652879
  0
ARC
  5
818
100
AcDbEntity
  8
0
100
AcDbCircle
 62
7
  6
CONTINUOUS
 10
-5.0451818395
 20
13.5369587272
 40
0.2229593777
100
AcDbArc
 50
66.2684721849
 51
74.1284981748
  0
ARC
  5
819
100
AcDbEntity
  8
0
100
AcDbCircle
 62
7
  6
CONTINUOUS
 10
-5.0452321402
 20
13.5369603258
 40
0.222957695
100
AcDbArc
 50
105.8714829588
 51
113.731564891
  0
ARC
  5
81A
100
AcDbEntity
  8
0
100
AcDbCircle
 62
7
  6
CONTINUOUS
 10
-5.0614350091
 20
13.5890096888
 40
0.1684668274
100
AcDbArc
 50
95.3162257952
 51
105.4121068862
  0
ARC
  5
81B
100
AcDbEntity
  8
0
100
AcDbCircle
 62
7
  6
CONTINUOUS
 10
-5.028978438
 20
13.5890096988
 40
0.1684668172
100
AcDbArc
 50
74.5878928075
 51
84.6837745111
  0
ARC
  5
81C
100
AcDbEntity
  8
1_ALL_PLANES
100
AcDbCircle
 62
7
  6
CONTINUOUS
 10
-4.5036567245
 20
12.0218913647
 40
0.08
100
AcDbArc
 50
180.0
 51
270.0
  0
ARC
  5
81D
100
AcDbEntity
  8
1_ALL_PLANES
100
AcDbCircle
 62
7
  6
CONTINUOUS
 10
-4.504043915
 20
13.1122785553
 40
0.0796128094
100
AcDbArc
 50
90.0
 51
180.0
  0
ARC
  5
81E
100
AcDbEntity
  8
0
100
AcDbCircle
 62
7
  6
CONTINUOUS
 10
-4.379916567
 20
9.8438598686
 40
0.0787401575
100
AcDbArc
 50
180.0000108829
 51
269.9999020512
  0
ARC
  5
81F
100
AcDbEntity
  8
0
100
AcDbCircle
 62
7
  6
CONTINUOUS
 10
-4.379916567
 20
10.6863795536
 40
0.0787401575
100
AcDbArc
 50
90.0000979486
 51
179.999989117
  0
ARC
  5
820
100
AcDbEntity
  8
0
100
AcDbCircle
 62
7
  6
CONTINUOUS
 10
-5.2414774358
 20
13.6330600027
 40
0.000578771
100
AcDbArc
 50
173.7071242094
 51
179.9874507136
  0
ARC
  5
821
100
AcDbEntity
  8
0
100
AcDbCircle
 62
7
  6
CONTINUOUS
 10
-3.4583918856
 20
5.8670376266
 40
6.1783548195
100
AcDbArc
 50
88.8224877721
 51
90.0024560172
  0
ARC
  5
822
100
AcDbEntity
  8
0
100
AcDbCircle
 62
7
  6
CONTINUOUS
 10
1.6276818582
 20
7.9802542159
 40
0.7086614173
100
AcDbArc
 50
270.0
 51
360.0
  0
ARC
  5
823
100
AcDbEntity
  8
0
100
AcDbCircle
 62
7
  6
CONTINUOUS
 10
-0.5480268032
 20
5.2637417584
 40
0.0393700787
100
AcDbArc
 50
270.0
 51
360.0
  0
ARC
  5
824
100
AcDbEntity
  8
0
100
AcDbCircle
 62
7
  6
CONTINUOUS
 10
1.6263432755
 20
11.5159770101
 40
0.71
100
AcDbArc
 50
0.0
 51
66.1044607147
  0
CIRCLE
  5
825
100
AcDbEntity
  8
0
100
AcDbCircle
 62
7
  6
CONTINUOUS
 10
-2.6496254619
 20
12.8243298276
 40
0.4133858268
  0
ARC
  5
826
100
AcDbEntity
  8
0
100
AcDbCircle
 62
7
  6
CONTINUOUS
 10
-1.8721064706
 20
13.4935727162
 40
0.2515886355
100
AcDbArc
 50
86.5919272731
 51
93.4080236864
  0
ARC
  5
827
100
AcDbEntity
  8
0
100
AcDbCircle
 62
7
  6
CONTINUOUS
 10
-1.8721088786
 20
13.5364985659
 40
0.2233915622
100
AcDbArc
 50
66.0346940034
 51
66.3095634884
  0
ARC
  5
828
100
AcDbEntity
  8
0
100
AcDbCircle
 62
7
  6
CONTINUOUS
 10
-1.8721045768
 20
13.5364985827
 40
0.2233915442
100
AcDbArc
 50
113.690374791
 51
113.9653062259
  0
ARC
  5
829
100
AcDbEntity
  8
0
100
AcDbCircle
 62
7
  6
CONTINUOUS
 10
-1.8721065544
 20
13.5366897736
 40
0.2232512025
100
AcDbArc
 50
46.6781737091
 51
65.9851549696
  0
ARC
  5
82A
100
AcDbEntity
  8
0
100
AcDbCircle
 62
7
  6
CONTINUOUS
 10
-1.8721069785
 20
13.5366899329
 40
0.2232510218
100
AcDbArc
 50
114.0148356392
 51
131.5303107939
  0
ARC
  5
82B
100
AcDbEntity
  8
0
100
AcDbCircle
 62
7
  6
CONTINUOUS
 10
-1.8720818395
 20
13.5369587272
 40
0.2229593777
100
AcDbArc
 50
66.2684721849
 51
74.1284981748
  0
ARC
  5
82C
100
AcDbEntity
  8
0
100
AcDbCircle
 62
7
  6
CONTINUOUS
 10
-1.8721321402
 20
13.5369603258
 40
0.222957695
100
AcDbArc
 50
105.8714829589
 51
113.731564891
  0
ARC
  5
82D
100
AcDbEntity
  8
0
100
AcDbCircle
 62
3
  6
CONTINUOUS
 10
0.1158669409
 20
12.4617717349
 40
0.2088476121
100
AcDbArc
 50
241.5930611552
 51
241.8050679143
  0
ARC
  5
82E
100
AcDbEntity
  8
0
100
AcDbCircle
 62
7
  6
CONTINUOUS
 10
-1.0825684278
 20
13.0938957676
 40
0.2022960139
100
AcDbArc
 50
241.1452654324
 51
241.5950024102
  0
ARC
  5
82F
100
AcDbEntity
  8
0
100
AcDbCircle
 62
7
  6
CONTINUOUS
 10
-1.8883350091
 20
13.5890096888
 40
0.1684668274
100
AcDbArc
 50
95.3162257952
 51
105.4121068862
  0
ARC
  5
830
100
AcDbEntity
  8
0
100
AcDbCircle
 62
7
  6
CONTINUOUS
 10
-1.855878438
 20
13.5890096988
 40
0.1684668172
100
AcDbArc
 50
74.5878928075
 51
84.6837745111
  0
ARC
  5
831
100
AcDbEntity
  8
1_ALL_PLANES
100
AcDbCircle
 62
7
  6
CONTINUOUS
 10
-3.4136567245
 20
13.1118913647
 40
0.08
100
AcDbArc
 50
0.0
 51
90.0
  0
ARC
  5
832
100
AcDbEntity
  8
0
100
AcDbCircle
 62
7
  6
CONTINUOUS
 10
-2.5373968819
 20
10.6863795536
 40
0.0787401575
100
AcDbArc
 50
0.0000108223
 51
89.9999020513
  0
ARC
  5
833
100
AcDbEntity
  8
0
100
AcDbCircle
 62
7
  6
CONTINUOUS
 10
-2.5373968819
 20
9.8438598686
 40
0.0787401575
100
AcDbArc
 50
270.0000979489
 51
359.9999891776
  0
ARC
  5
834
100
AcDbEntity
  8
0
100
AcDbCircle
 62
7
  6
CONTINUOUS
 10
-1.6926427028
 20
13.6330595175
 40
0.0005864964
100
AcDbArc
 50
0.0597857695
 51
10.6842317395
  0
ARC
  5
835
100
AcDbEntity
  8
0
100
AcDbCircle
 62
7
  6
CONTINUOUS
 10
18.6253325123
 20
11.5159770101
 40
0.71
100
AcDbArc
 50
0.0
 51
66.1044607147
  0
ARC
  5
836
100
AcDbEntity
  8
0
100
AcDbCircle
 62
7
  6
CONTINUOUS
 10
8.4553325123
 20
11.5159770101
 40
0.71
100
AcDbArc
 50
131.7845645878
 51
180.0
  0
ARC
  5
837
100
AcDbEntity
  8
0
100
AcDbCircle
 62
7
  6
CONTINUOUS
 10
18.626671095
 20
7.9802542159
 40
0.7086614173
100
AcDbArc
 50
270.0
 51
360.0
  0
ARC
  5
838
100
AcDbEntity
  8
0
100
AcDbCircle
 62
7
  6
CONTINUOUS
 10
8.4539939296
 20
7.9802542159
 40
0.7086614173
100
AcDbArc
 50
180.0
 51
270.0
  0
ARC
  5
839
100
AcDbEntity
  8
0
100
AcDbCircle
 62
7
  6
CONTINUOUS
 10
9.0739945085
 20
13.4811095321
 40
0.2595241734
100
AcDbArc
 50
83.6064531083
 51
90.2140568567
  0
ARC
  5
83A
100
AcDbEntity
  8
0
100
AcDbCircle
 62
7
  6
CONTINUOUS
 10
9.0769351845
 20
13.5352229272
 40
0.2240831562
100
AcDbArc
 50
63.0296349689
 51
63.3035743532
  0
ARC
  5
83B
100
AcDbEntity
  8
0
100
AcDbCircle
 62
7
  6
CONTINUOUS
 10
9.0768958729
 20
13.5352250496
 40
0.2240831558
100
AcDbArc
 50
110.5169356115
 51
110.7908749964
  0
ARC
  5
83C
100
AcDbEntity
  8
0
100
AcDbCircle
 62
7
  6
CONTINUOUS
 10
9.0769946322
 20
13.5366894486
 40
0.223251569
100
AcDbArc
 50
110.9651621604
 51
131.42358219
  0
ARC
  5
83D
100
AcDbEntity
  8
0
100
AcDbCircle
 62
7
  6
CONTINUOUS
 10
9.0769946322
 20
13.5366894486
 40
0.223251569
100
AcDbArc
 50
42.3969277749
 51
62.8553478046
  0
ARC
  5
83E
100
AcDbEntity
  8
0
100
AcDbCircle
 62
7
  6
CONTINUOUS
 10
9.0769946322
 20
13.5366894486
 40
0.2227470832
100
AcDbArc
 50
63.1477309843
 51
71.0165713599
  0
ARC
  5
83F
100
AcDbEntity
  8
0
100
AcDbCircle
 62
7
  6
CONTINUOUS
 10
9.0769946322
 20
13.5366894486
 40
0.2227470832
100
AcDbArc
 50
102.803938605
 51
110.6727789806
  0
ARC
  5
840
100
AcDbEntity
  8
0
100
AcDbCircle
 62
7
  6
CONTINUOUS
 10
9.1014515568
 20
13.5887162477
 40
0.1657103028
100
AcDbArc
 50
73.161723094
 51
83.374341328
  0
ARC
  5
841
100
AcDbEntity
  8
0
100
AcDbCircle
 62
7
  6
CONTINUOUS
 10
9.0582801577
 20
13.5910465865
 40
0.1657102937
100
AcDbArc
 50
90.4461683584
 51
100.6587871495
  0
ARC
  5
842
100
AcDbEntity
  8
0
100
AcDbCircle
 62
3
  6
CONTINUOUS
 10
11.5840618815
 20
12.3361806878
 40
0.0734004981
100
AcDbArc
 50
306.004146339
 51
307.6575702537
  0
ARC
  5
843
100
AcDbEntity
  8
0
100
AcDbCircle
 62
7
  6
CONTINUOUS
 10
16.4509624336
 20
5.2637417584
 40
0.0393700787
100
AcDbArc
 50
270.0
 51
360.0
  0
ARC
  5
844
100
AcDbEntity
  8
0
100
AcDbCircle
 62
7
  6
CONTINUOUS
 10
10.6297025911
 20
5.2637417584
 40
0.0393700787
100
AcDbArc
 50
180.0
 51
270.0
  0
ARC
  5
845
100
AcDbEntity
  8
0
100
AcDbCircle
 62
7
  6
CONTINUOUS
 10
8.9392111156
 20
13.6928445591
 40
0.015
100
AcDbArc
 50
131.42358219
 51
176.9102549825
  0
ARC
  5
846
100
AcDbEntity
  8
0
100
AcDbCircle
 62
7
  6
CONTINUOUS
 10
9.230786645
 20
13.6771057326
 40
0.015
100
AcDbArc
 50
356.9102549825
 51
42.3969277749
  0
CIRCLE
  5
847
100
AcDbEntity
  8
0
100
AcDbCircle
 62
7
  6
CONTINUOUS
 10
-3.4586567245
 20
-5.8936272983
 40
5.8737401575
  0
CIRCLE
  5
848
100
AcDbEntity
  8
0
100
AcDbCircle
 62
7
  6
CONTINUOUS
 10
-3.4586567245
 20
-5.8936272983
 40
5.795
  0
CIRCLE
  5
849
100
AcDbEntity
  8
0
100
AcDbCircle
 62
7
  6
CONTINUOUS
 10
-3.4586567245
 20
-5.8936272983
 40
3.125
  0
CIRCLE
  5
84A
100
AcDbEntity
  8
0
100
AcDbCircle
 62
7
  6
CONTINUOUS
 10
-3.4586567245
 20
-5.8936272983
 40
3.1194875
  0
CIRCLE
  5
84B
100
AcDbEntity
  8
0
100
AcDbCircle
 62
7
  6
CONTINUOUS
 10
-3.4586567245
 20
-5.8936272983
 40
3.11
  0
CIRCLE
  5
84C
100
AcDbEntity
  8
0
100
AcDbCircle
 62
7
  6
CONTINUOUS
 10
-3.4586567245
 20
-5.8936272983
 40
2.95
  0
CIRCLE
  5
84D
100
AcDbEntity
  8
0
100
AcDbCircle
 62
7
  6
CONTINUOUS
 10
-3.4586567245
 20
-5.8936272983
 40
2.8712598425
  0
CIRCLE
  5
84E
100
AcDbEntity
  8
0
100
AcDbCircle
 62
7
  6
CONTINUOUS
 10
-3.4584166987
 20
-5.8933872725
 40
1.9980314961
  0
CIRCLE
  5
84F
100
AcDbEntity
  8
0
100
AcDbCircle
 62
7
  6
CONTINUOUS
 10
-3.4584166987
 20
-5.8933872725
 40
1.9153543307
  0
CIRCLE
  5
850
100
AcDbEntity
  8
0
100
AcDbCircle
 62
7
  6
CONTINUOUS
 10
-3.4584166987
 20
-5.8933872725
 40
1.811023622
  0
CIRCLE
  5
851
100
AcDbEntity
  8
0
100
AcDbCircle
 62
7
  6
CONTINUOUS
 10
-3.4584166987
 20
-5.8933872725
 40
1.6653543307
  0
CIRCLE
  5
852
100
AcDbEntity
  8
0
100
AcDbCircle
 62
7
  6
CONTINUOUS
 10
-3.4584166987
 20
-5.8933872725
 40
1.2007874016
  0
CIRCLE
  5
853
100
AcDbEntity
  8
0
100
AcDbCircle
 62
7
  6
CONTINUOUS
 10
-3.4584166987
 20
-5.8933872725
 40
0.6692913386
  0
CIRCLE
  5
854
100
AcDbEntity
  8
0
100
AcDbCircle
 62
7
  6
CONTINUOUS
 10
-3.4584166987
 20
-5.8933872725
 40
0.437007874
  0
CIRCLE
  5
855
100
AcDbEntity
  8
0
100
AcDbCircle
 62
7
  6
CONTINUOUS
 10
-3.4584166987
 20
-5.8933872725
 40
0.4133858268
  0
LINE
  5
856
100
AcDbEntity
  8
0
100
AcDbLine
 62
7
  6
CONTINUOUS
 10
-1.8870631732
 20
13.7447164076
 11
-1.8871067297
 21
13.7450943046
  0
SPLINE
  5
857
100
AcDbEntity
  8
0
100
AcDbSpline
 62
7
  6
CONTINUOUS
 70
0
 71
3
 72
11
 73
7
 74
0
 42
0.0000001
 43
0.0000001
 44
0.0000000001
 40
0.0
 40
0.0
 40
0.0
 40
0.0
 40
0.2534715907
 40
0.5039109902
 40
0.7523854733
 40
1.0
 40
1.0
 40
1.0
 40
1.0
 10
-1.8871067245
 20
13.7538977301
 30
0.0
 10
-1.8884822766
 20
13.7543505492
 30
0.0
 10
-1.8912507655
 20
13.7551518265
 30
0.0
 10
-1.8954620401
 20
13.7560338439
 30
0.0
 10
-1.8996954499
 20
13.7565859254
 30
0.0
 10
-1.9025293098
 20
13.7567333634
 30
0.0
 10
-1.903943893
 20
13.756751856
 30
0.0
  0
LINE
  5
858
100
AcDbEntity
  8
0
100
AcDbLine
 62
7
  6
CONTINUOUS
 10
-1.8571067192
 20
13.7450943046
 11
-1.8571502757
 21
13.7447164076
  0
SPLINE
  5
859
100
AcDbEntity
  8
0
100
AcDbSpline
 62
7
  6
CONTINUOUS
 70
0
 71
3
 72
11
 73
7
 74
0
 42
0.0000001
 43
0.0000001
 44
0.0000000001
 40
0.0
 40
0.0
 40
0.0
 40
0.0
 40
0.2476128897
 40
0.4960861565
 40
0.7465267433
 40
1.0
 40
1.0
 40
1.0
 40
1.0
 10
-1.8402695559
 20
13.756751856
 30
0.0
 10
-1.8416841297
 20
13.7567333635
 30
0.0
 10
-1.8445179734
 20
13.7565859271
 30
0.0
 10
-1.8487513741
 20
13.7560338502
 30
0.0
 10
-1.8529626581
 20
13.7551518321
 30
0.0
 10
-1.8557311633
 20
13.7543505521
 30
0.0
 10
-1.8571067245
 20
13.7538977301
 30
0.0
  0
LINE
  5
85A
100
AcDbEntity
  8
0
100
AcDbLine
 62
7
  6
CONTINUOUS
 10
-5.0601631732
 20
13.7447164076
 11
-5.0602067297
 21
13.7450943046
  0
SPLINE
  5
85B
100
AcDbEntity
  8
0
100
AcDbSpline
 62
7
  6
CONTINUOUS
 70
0
 71
3
 72
11
 73
7
 74
0
 42
0.0000001
 43
0.0000001
 44
0.0000000001
 40
0.0
 40
0.0
 40
0.0
 40
0.0
 40
0.2534715907
 40
0.5039109902
 40
0.7523854733
 40
1.0
 40
1.0
 40
1.0
 40
1.0
 10
-5.0602067245
 20
13.7538977301
 30
0.0
 10
-5.0615822766
 20
13.7543505492
 30
0.0
 10
-5.0643507655
 20
13.7551518265
 30
0.0
 10
-5.0685620401
 20
13.7560338439
 30
0.0
 10
-5.0727954499
 20
13.7565859254
 30
0.0
 10
-5.0756293098
 20
13.7567333634
 30
0.0
 10
-5.077043893
 20
13.756751856
 30
0.0
  0
LINE
  5
85C
100
AcDbEntity
  8
0
100
AcDbLine
 62
7
  6
CONTINUOUS
 10
-5.0302067192
 20
13.7450943046
 11
-5.0302502757
 21
13.7447164076
  0
SPLINE
  5
85D
100
AcDbEntity
  8
0
100
AcDbSpline
 62
7
  6
CONTINUOUS
 70
0
 71
3
 72
11
 73
7
 74
0
 42
0.0000001
 43
0.0000001
 44
0.0000000001
 40
0.0
 40
0.0
 40
0.0
 40
0.0
 40
0.2476128897
 40
0.4960861565
 40
0.7465267433
 40
1.0
 40
1.0
 40
1.0
 40
1.0
 10
-5.0133695559
 20
13.756751856
 30
0.0
 10
-5.0147841297
 20
13.7567333635
 30
0.0
 10
-5.0176179734
 20
13.7565859271
 30
0.0
 10
-5.0218513741
 20
13.7560338502
 30
0.0
 10
-5.0260626581
 20
13.7551518321
 30
0.0
 10
-5.0288311633
 20
13.7543505521
 30
0.0
 10
-5.0302067245
 20
13.7538977301
 30
0.0
  0
SPLINE
  5
85E
100
AcDbEntity
  8
0
100
AcDbSpline
 62
7
  6
CONTINUOUS
 70
0
 71
3
 72
27
 73
23
 74
0
 42
0.0000001
 43
0.0000001
 44
0.0000000001
 40
0.0
 40
0.0
 40
0.0
 40
0.0
 40
0.0015966516
 40
0.0033715764
 40
0.0054561616
 40
0.0079321825
 40
0.0142265977
 40
0.022464587
 40
0.032724327
 40
0.0450404276
 40
0.0594276506
 40
0.0758814144
 40
0.0943841462
 40
0.114914757
 40
0.1619647051
 40
0.2168280691
 40
0.2792094249
 40
0.3487459152
 40
0.4250686989
 40
0.5964116689
 40
0.7896153061
 40
1.0
 40
1.0
 40
1.0
 40
1.0
 10
-1.6920562068
 20
13.693725118
 30
0.0
 10
-1.6920562068
 20
13.6937930799
 30
0.0
 10
-1.6920829405
 20
13.6939374461
 30
0.0
 10
-1.6921961116
 20
13.6941433845
 30
0.0
 10
-1.6923775518
 20
13.6943451276
 30
0.0
 10
-1.6927393085
 20
13.6946347829
 30
0.0
 10
-1.6933797067
 20
13.6949816408
 30
0.0
 10
-1.6943609977
 20
13.6953717398
 30
0.0
 10
-1.6956144198
 20
13.6957618274
 30
0.0
 10
-1.6971392738
 20
13.6961509833
 30
0.0
 10
-1.6989354569
 20
13.6965377511
 30
0.0
 10
-1.7010006667
 20
13.6969213472
 30
0.0
 10
-1.7033319134
 20
13.6973011549
 30
0.0
 10
-1.7069584964
 20
13.6978256361
 30
0.0
 10
-1.7121328501
 20
13.698454949
 30
0.0
 10
-1.7190910892
 20
13.6991569629
 30
0.0
 10
-1.727013135
 20
13.6998309797
 30
0.0
 10
-1.7358538407
 20
13.7004732499
 30
0.0
 10
-1.7493296709
 20
13.7013134745
 30
0.0
 10
-1.7680736424
 20
13.7022336555
 30
0.0
 10
-1.7925301497
 20
13.7031205956
 30
0.0
 10
-1.8097036599
 20
13.7035625405
 30
0.0
 10
-1.8186567245
 20
13.7037529276
 30
0.0
  0
SPLINE
  5
85F
100
AcDbEntity
  8
0
100
AcDbSpline
 62
7
  6
CONTINUOUS
 70
0
 71
3
 72
30
 73
26
 74
0
 42
0.0000001
 43
0.0000001
 44
0.0000000001
 40
0.0
 40
0.0
 40
0.0
 40
0.0
 40
0.2070200293
 40
0.3989791929
 40
0.570517254
 40
0.6472951392
 40
0.7174343283
 40
0.7805027542
 40
0.8360742883
 40
0.8609340663
 40
0.8837998162
 40
0.9046416398
 40
0.9234308489
 40
0.9401406101
 40
0.9547473039
 40
0.9672410777
 40
0.9776321811
 40
0.9820479793
 40
0.9859514627
 40
0.9893528047
 40
0.9922682605
 40
0.9947247293
 40
0.9967685011
 40
0.9984811004
 40
1.0
 40
1.0
 40
1.0
 40
1.0
 10
-5.0986567245
 20
13.7037529276
 30
0.0
 10
-5.1086268046
 20
13.7035943631
 30
0.0
 10
-5.1278404211
 20
13.7032014112
 30
0.0
 10
-5.1553074096
 20
13.7023535174
 30
0.0
 10
-5.176494674
 20
13.7014348297
 30
0.0
 10
-5.1918095422
 20
13.7005761538
 30
0.0
 10
-5.2019020392
 20
13.6999112203
 30
0.0
 10
-5.2109676941
 20
13.6992068607
 30
0.0
 10
-5.2178505009
 20
13.6985699538
 30
0.0
 10
-5.2227972591
 20
13.698035893
 30
0.0
 10
-5.2260765456
 20
13.6976432617
 30
0.0
 10
-5.229060322
 20
13.6972442567
 30
0.0
 10
-5.2317438574
 20
13.6968396022
 30
0.0
 10
-5.2341224659
 20
13.6964301173
 30
0.0
 10
-5.2361920989
 20
13.6960166553
 30
0.0
 10
-5.2379495936
 20
13.6955999552
 30
0.0
 10
-5.2392137834
 20
13.6952345689
 30
0.0
 10
-5.2400638376
 20
13.6949344988
 30
0.0
 10
-5.2405869274
 20
13.6947214771
 30
0.0
 10
-5.2410310602
 20
13.6945082548
 30
0.0
 10
-5.2413964563
 20
13.6942947705
 30
0.0
 10
-5.2416836482
 20
13.6940806874
 30
0.0
 10
-5.2418932373
 20
13.6938645699
 30
0.0
 10
-5.2420247272
 20
13.6936433819
 30
0.0
 10
-5.2420562068
 20
13.6934867652
 30
0.0
 10
-5.2420562068
 20
13.6934136058
 30
0.0
  0
SPLINE
  5
860
100
AcDbEntity
  8
0
100
AcDbSpline
 62
7
  6
CONTINUOUS
 70
0
 71
3
 72
18
 73
14
 74
0
 42
0.0000001
 43
0.0000001
 44
0.0000000001
 40
0.0
 40
0.0
 40
0.0
 40
0.0
 40
0.1755492389
 40
0.341767812
 40
0.4954814338
 40
0.6342451435
 40
0.755865349
 40
0.8096405968
 40
0.8584170201
 40
0.90198096
 40
0.9401832942
 40
0.9728956612
 40
1.0
 40
1.0
 40
1.0
 40
1.0
 10
-5.0986567245
 20
13.6438401476
 30
0.0
 10
-5.1066813196
 20
13.6437125242
 30
0.0
 10
-5.1223031545
 20
13.6434064286
 30
0.0
 10
-5.1449467293
 20
13.6427791009
 30
0.0
 10
-5.1659029847
 20
13.6420024266
 30
0.0
 10
-5.1848128525
 20
13.6410920409
 30
0.0
 10
-5.1991485126
 20
13.6402031054
 30
0.0
 10
-5.209367227
 20
13.6394201141
 30
0.0
 10
-5.2160216421
 20
13.6388340845
 30
0.0
 10
-5.2219589742
 20
13.6382272447
 30
0.0
 10
-5.2271556505
 20
13.6376029861
 30
0.0
 10
-5.2315914965
 20
13.6369646318
 30
0.0
 10
-5.2342852505
 20
13.6364879058
 30
0.0
 10
-5.2354990334
 20
13.6362385434
 30
0.0
  0
SPLINE
  5
861
100
AcDbEntity
  8
0
100
AcDbSpline
 62
7
  6
CONTINUOUS
 70
0
 71
3
 72
16
 73
12
 74
0
 42
0.0000001
 43
0.0000001
 44
0.0000000001
 40
0.0
 40
0.0
 40
0.0
 40
0.0
 40
0.3998113865
 40
0.5600343896
 40
0.6941391268
 40
0.8027416056
 40
0.8871336094
 40
0.9211389689
 40
0.9504854913
 40
0.9762465824
 40
1.0
 40
1.0
 40
1.0
 40
1.0
 10
-5.2354990334
 20
13.6362385434
 30
0.0
 10
-5.2364580483
 20
13.6360415212
 30
0.0
 10
-5.2377970588
 20
13.6357382042
 30
0.0
 10
-5.2394265912
 20
13.6352527272
 30
0.0
 10
-5.2403549317
 20
13.6349155031
 30
0.0
 10
-5.2410824636
 20
13.6345785145
 30
0.0
 10
-5.2415552908
 20
13.6342791545
 30
0.0
 10
-5.241820576
 20
13.634031473
 30
0.0
 10
-5.2419544753
 20
13.6338575151
 30
0.0
 10
-5.2420370867
 20
13.6336808549
 30
0.0
 10
-5.2420562068
 20
13.6335589923
 30
0.0
 10
-5.2420562068
 20
13.6335008258
 30
0.0
  0
SPLINE
  5
862
100
AcDbEntity
  8
0
100
AcDbSpline
 62
7
  6
CONTINUOUS
 70
0
 71
3
 72
17
 73
13
 74
0
 42
0.0000001
 43
0.0000001
 44
0.0000000001
 40
0.0
 40
0.0
 40
0.0
 40
0.0
 40
0.0251303945
 40
0.0521130088
 40
0.0824442877
 40
0.1171832365
 40
0.2023568402
 40
0.3109882756
 40
0.4445104394
 40
0.6036341636
 40
0.7887317526
 40
1.0
 40
1.0
 40
1.0
 40
1.0
 10
-1.6920562068
 20
13.633812338
 30
0.0
 10
-1.6920562068
 20
13.6338664163
 30
0.0
 10
-1.6920725415
 20
13.6339790726
 30
0.0
 10
-1.6921436537
 20
13.6341433478
 30
0.0
 10
-1.6922594448
 20
13.6343054829
 30
0.0
 10
-1.6924881946
 20
13.6345354286
 30
0.0
 10
-1.6928973177
 20
13.6348145846
 30
0.0
 10
-1.6935285383
 20
13.6351290625
 30
0.0
 10
-1.6943337351
 20
13.6354436277
 30
0.0
 10
-1.6953130309
 20
13.6357578065
 30
0.0
 10
-1.6964669385
 20
13.6360710972
 30
0.0
 10
-1.6972974464
 20
13.6362660809
 30
0.0
 10
-1.6977413312
 20
13.6363643403
 30
0.0
  0
SPLINE
  5
863
100
AcDbEntity
  8
0
100
AcDbSpline
 62
7
  6
CONTINUOUS
 70
0
 71
3
 72
18
 73
14
 74
0
 42
0.0000001
 43
0.0000001
 44
0.0000000001
 40
0.0
 40
0.0
 40
0.0
 40
0.0
 40
0.026682405
 40
0.0588888498
 40
0.0965258248
 40
0.1394883024
 40
0.1876518672
 40
0.2408353538
 40
0.3614722417
 40
0.4997534929
 40
0.6537906351
 40
0.8214664059
 40
1.0
 40
1.0
 40
1.0
 40
1.0
 10
-1.6977413312
 20
13.6363643403
 30
0.0
 10
-1.6987941799
 20
13.6365974015
 30
0.0
 10
-1.701132809
 20
13.6370438863
 30
0.0
 10
-1.7049878113
 20
13.63764351
 30
0.0
 10
-1.7095089757
 20
13.6382319901
 30
0.0
 10
-1.714681175
 20
13.6388065525
 30
0.0
 10
-1.7204867021
 20
13.6393643764
 30
0.0
 10
-1.7294266058
 20
13.6401150792
 30
0.0
 10
-1.7420109786
 20
13.6409777225
 30
0.0
 10
-1.7586760875
 20
13.6418788891
 30
0.0
 10
-1.7772496669
 20
13.6426703883
 30
0.0
 10
-1.7974556991
 20
13.6433385337
 30
0.0
 10
-1.8114431452
 20
13.6436867507
 30
0.0
 10
-1.8186567245
 20
13.6438401476
 30
0.0
  0
SPLINE
  5
864
100
AcDbEntity
  8
0
100
AcDbSpline
 62
7
  6
CONTINUOUS
 70
0
 71
3
 72
32
 73
28
 74
0
 42
0.0000001
 43
0.0000001
 44
0.0000000001
 40
0.0
 40
0.0
 40
0.0
 40
0.0
 40
0.0013808527
 40
0.0030509775
 40
0.0051422211
 40
0.0077213568
 40
0.010822728
 40
0.0144650181
 40
0.0186588922
 40
0.0234106031
 40
0.0345996881
 40
0.0480444586
 40
0.063725351
 40
0.0816077152
 40
0.1016533588
 40
0.1238220559
 40
0.1480720142
 40
0.1743497144
 40
0.2327155342
 40
0.2983672336
 40
0.3707132885
 40
0.4490355025
 40
0.5325853096
 40
0.6205886351
 40
0.7122345851
 40
0.8066946803
 40
1.0
 40
1.0
 40
1.0
 40
1.0
 10
-5.2420527194
 20
13.6331234422
 30
0.0
 10
-5.2420425893
 20
13.63321542
 30
0.0
 10
-5.2419691765
 20
13.6334134993
 30
0.0
 10
-5.2417434921
 20
13.6336788982
 30
0.0
 10
-5.2414054872
 20
13.6339394918
 30
0.0
 10
-5.2409524435
 20
13.6341985154
 30
0.0
 10
-5.2403831977
 20
13.6344573924
 30
0.0
 10
-5.2396969671
 20
13.6347159945
 30
0.0
 10
-5.2388936391
 20
13.6349741874
 30
0.0
 10
-5.2375939476
 20
13.6353375168
 30
0.0
 10
-5.2356737469
 20
13.6357783119
 30
0.0
 10
-5.2330184708
 20
13.6362784725
 30
0.0
 10
-5.2299069708
 20
13.6367724201
 30
0.0
 10
-5.2263474018
 20
13.6372588653
 30
0.0
 10
-5.2223484152
 20
13.6377361783
 30
0.0
 10
-5.2179189162
 20
13.6382030328
 30
0.0
 10
-5.2130685791
 20
13.6386580611
 30
0.0
 10
-5.2057969102
 20
13.639268954
 30
0.0
 10
-5.1957503145
 20
13.6399841597
 30
0.0
 10
-5.1826137867
 20
13.640753044
 30
0.0
 10
-5.1681342509
 20
13.6414500266
 30
0.0
 10
-5.1524508452
 20
13.6420694677
 30
0.0
 10
-5.1357145524
 20
13.642604435
 30
0.0
 10
-5.1180824947
 20
13.6430492968
 30
0.0
 10
-5.0997170624
 20
13.6434004393
 30
0.0
 10
-5.0742940418
 20
13.6437398267
 30
0.0
 10
-5.0550100229
 20
13.6438401476
 30
0.0
 10
-5.0420562068
 20
13.6438401476
 30
0.0
  0
SPLINE
  5
865
100
AcDbEntity
  8
0
100
AcDbSpline
 62
7
  6
CONTINUOUS
 70
0
 71
3
 72
30
 73
26
 74
0
 42
0.0000001
 43
0.0000001
 44
0.0000000001
 40
0.0
 40
0.0
 40
0.0
 40
0.0
 40
0.192847285
 40
0.2870965728
 40
0.3785528339
 40
0.4663935166
 40
0.5498137831
 40
0.6280448484
 40
0.7003438363
 40
0.7659962185
 40
0.824412824
 40
0.8750446677
 40
0.8972857808
 40
0.9174170731
 40
0.935398532
 40
0.9511920934
 40
0.9647630296
 40
0.9760900012
 40
0.9809144077
 40
0.9851831097
 40
0.9889018277
 40
0.9920802876
 40
0.9947354037
 40
0.9968979452
 40
1.0
 40
1.0
 40
1.0
 40
1.0
 10
-1.8920562068
 20
13.6438401476
 30
0.0
 10
-1.8791364972
 20
13.6438401476
 30
0.0
 10
-1.8599023813
 20
13.6437403382
 30
0.0
 10
-1.8345435743
 20
13.6434027427
 30
0.0
 10
-1.8162206941
 20
13.6430534127
 30
0.0
 10
-1.7986255322
 20
13.6426108125
 30
0.0
 10
-1.7819192752
 20
13.642078522
 30
0.0
 10
-1.7662578473
 20
13.641462109
 30
0.0
 10
-1.7517912305
 20
13.640768372
 30
0.0
 10
-1.7386576289
 20
13.6400031936
 30
0.0
 10
-1.7269826007
 20
13.6391755994
 30
0.0
 10
-1.718219387
 20
13.6384132662
 30
0.0
 10
-1.7120222777
 20
13.6377649833
 30
0.0
 10
-1.7080067985
 20
13.6372895005
 30
0.0
 10
-1.7044278345
 20
13.6368048865
 30
0.0
 10
-1.7012939981
 20
13.6363126783
 30
0.0
 10
-1.6986134635
 20
13.6358141955
 30
0.0
 10
-1.6966703497
 20
13.6353750497
 30
0.0
 10
-1.6953507592
 20
13.6350132157
 30
0.0
 10
-1.6945317462
 20
13.6347558665
 30
0.0
 10
-1.6938289986
 20
13.6344977746
 30
0.0
 10
-1.6932433031
 20
13.634240247
 30
0.0
 10
-1.6927715296
 20
13.6339801107
 30
0.0
 10
-1.6923458039
 20
13.6336723368
 30
0.0
 10
-1.6921047718
 20
13.6333724942
 30
0.0
 10
-1.692066374
 20
13.6331682517
 30
0.0
  0
SPLINE
  5
866
100
AcDbEntity
  8
0
100
AcDbSpline
 62
7
  6
CONTINUOUS
 70
0
 71
3
 72
21
 73
17
 74
0
 42
0.0000001
 43
0.0000001
 44
0.0000000001
 40
0.0
 40
0.0
 40
0.0
 40
0.0
 40
0.1663407021
 40
0.3410283782
 40
0.5130805819
 40
0.5947159903
 40
0.6716846365
 40
0.7427829512
 40
0.806884234
 40
0.8629925073
 40
0.9102306212
 40
0.9478783963
 40
0.9753998794
 40
0.9925027601
 40
0.9972635907
 40
1.0
 40
1.0
 40
1.0
 40
1.0
 10
-3.0234415826
 20
12.6483268447
 30
0.0
 10
-3.0180264227
 20
12.6484654616
 30
0.0
 10
-3.0069218535
 20
12.6486553939
 30
0.0
 10
-2.9902129093
 20
12.6487128621
 30
0.0
 10
-2.9762629018
 20
12.6485760509
 30
0.0
 10
-2.9654972565
 20
12.648350013
 30
0.0
 10
-2.958020041
 20
12.6481315715
 30
0.0
 10
-2.9511156781
 20
12.6478653813
 30
0.0
 10
-2.9448933886
 20
12.6475558796
 30
0.0
 10
-2.9394507183
 20
12.6472085564
 30
0.0
 10
-2.9348758987
 20
12.6468313636
 30
0.0
 10
-2.9312326056
 20
12.6464298531
 30
0.0
 10
-2.9285925712
 20
12.6460254783
 30
0.0
 10
-2.9270094022
 20
12.6456402876
 30
0.0
 10
-2.9262888102
 20
12.6453148379
 30
0.0
 10
-2.9261113249
 20
12.6450998111
 30
0.0
 10
-2.9261113249
 20
12.6450106992
 30
0.0
  0
SPLINE
  5
867
100
AcDbEntity
  8
0
100
AcDbSpline
 62
7
  6
CONTINUOUS
 70
0
 71
3
 72
33
 73
29
 74
0
 42
0.0000001
 43
0.0000001
 44
0.0000000001
 40
0.0
 40
0.0
 40
0.0
 40
0.0
 40
0.0035563077
 40
0.0068176385
 40
0.0111866883
 40
0.0233209475
 40
0.0399511058
 40
0.0609562239
 40
0.0861546984
 40
0.1153077539
 40
0.1481497659
 40
0.2235999878
 40
0.3096321063
 40
0.4029566771
 40
0.5
 40
0.5970433229
 40
0.6903678937
 40
0.7764000122
 40
0.8518502341
 40
0.8846922461
 40
0.9138453016
 40
0.9390437761
 40
0.9600488942
 40
0.9766790525
 40
0.9888133117
 40
0.9931823615
 40
0.9964436923
 40
1.0
 40
1.0
 40
1.0
 40
1.0
 10
-2.6686310099
 20
12.6450106992
 30
0.0
 10
-2.6686310099
 20
12.6451730172
 30
0.0
 10
-2.6683008086
 20
12.645389828
 30
0.0
 10
-2.6678559699
 20
12.64557092
 30
0.0
 10
-2.6669768827
 20
12.6458366779
 30
0.0
 10
-2.6655014321
 20
12.6461266935
 30
0.0
 10
-2.6632487648
 20
12.6464563985
 30
0.0
 10
-2.6603996054
 20
12.6467718024
 30
0.0
 10
-2.6569727695
 20
12.6470750305
 30
0.0
 10
-2.6530033008
 20
12.6473597271
 30
0.0
 10
-2.6467405918
 20
12.6477279838
 30
0.0
 10
-2.6378788116
 20
12.6481073204
 30
0.0
 10
-2.62625314
 20
12.648434602
 30
0.0
 10
-2.6136389445
 20
12.6486365675
 30
0.0
 10
-2.6005207737
 20
12.6487049291
 30
0.0
 10
-2.5874026029
 20
12.6486365675
 30
0.0
 10
-2.5747884074
 20
12.648434602
 30
0.0
 10
-2.5631627358
 20
12.6481073204
 30
0.0
 10
-2.5543009556
 20
12.6477279838
 30
0.0
 10
-2.5480382466
 20
12.6473597271
 30
0.0
 10
-2.5440687779
 20
12.6470750305
 30
0.0
 10
-2.540641942
 20
12.6467718024
 30
0.0
 10
-2.5377927826
 20
12.6464563985
 30
0.0
 10
-2.5355401153
 20
12.6461266935
 30
0.0
 10
-2.5340646647
 20
12.6458366779
 30
0.0
 10
-2.5331855775
 20
12.64557092
 30
0.0
 10
-2.5327407388
 20
12.645389828
 30
0.0
 10
-2.5324105375
 20
12.6451730172
 30
0.0
 10
-2.5324105375
 20
12.6450106992
 30
0.0
  0
SPLINE
  5
868
100
AcDbEntity
  8
0
100
AcDbSpline
 62
7
  6
CONTINUOUS
 70
0
 71
3
 72
21
 73
17
 74
0
 42
0.0000001
 43
0.0000001
 44
0.0000000001
 40
0.0
 40
0.0
 40
0.0
 40
0.0
 40
0.0027391409
 40
0.0074440353
 40
0.0242733159
 40
0.0513370453
 40
0.0883728411
 40
0.1348903219
 40
0.1902126172
 40
0.2535258007
 40
0.3238910856
 40
0.4002543427
 40
0.481479631
 40
0.6535847802
 40
0.829934837
 40
1.0
 40
1.0
 40
1.0
 40
1.0
 10
-2.9261113249
 20
12.6450106992
 30
0.0
 10
-2.9261113249
 20
12.6449244261
 30
0.0
 10
-2.9262776569
 20
12.6447159031
 30
0.0
 10
-2.9269632374
 20
12.6443967546
 30
0.0
 10
-2.928467081
 20
12.6440218512
 30
0.0
 10
-2.9309776301
 20
12.6436258554
 30
0.0
 10
-2.9344437777
 20
12.6432326105
 30
0.0
 10
-2.9388010621
 20
12.642861486
 30
0.0
 10
-2.9439921362
 20
12.6425179447
 30
0.0
 10
-2.9499369893
 20
12.6422095705
 30
0.0
 10
-2.9565472785
 20
12.6419414513
 30
0.0
 10
-2.9637236061
 20
12.6417179402
 30
0.0
 10
-2.9741051479
 20
12.6414800792
 30
0.0
 10
-2.987638095
 20
12.6413211134
 30
0.0
 10
-3.0039700099
 20
12.6413414819
 30
0.0
 10
-3.0148801584
 20
12.6414986233
 30
0.0
 10
-3.0202352737
 20
12.6416178795
 30
0.0
  0
SPLINE
  5
869
100
AcDbEntity
  8
0
100
AcDbSpline
 62
7
  6
CONTINUOUS
 70
0
 71
3
 72
33
 73
29
 74
0
 42
0.0000001
 43
0.0000001
 44
0.0000000001
 40
0.0
 40
0.0
 40
0.0
 40
0.0
 40
0.0035563077
 40
0.0068176385
 40
0.0111866883
 40
0.0233209475
 40
0.0399511058
 40
0.0609562239
 40
0.0861546984
 40
0.1153077539
 40
0.1481497659
 40
0.2235999878
 40
0.3096321063
 40
0.4029566771
 40
0.5
 40
0.5970433229
 40
0.6903678937
 40
0.7764000122
 40
0.8518502341
 40
0.8846922461
 40
0.9138453016
 40
0.9390437761
 40
0.9600488942
 40
0.9766790525
 40
0.9888133117
 40
0.9931823615
 40
0.9964436923
 40
1.0
 40
1.0
 40
1.0
 40
1.0
 10
-2.5324105375
 20
12.6450106992
 30
0.0
 10
-2.5324105375
 20
12.6448483811
 30
0.0
 10
-2.5327407388
 20
12.6446315704
 30
0.0
 10
-2.5331855775
 20
12.6444504784
 30
0.0
 10
-2.5340646647
 20
12.6441847205
 30
0.0
 10
-2.5355401153
 20
12.6438947049
 30
0.0
 10
-2.5377927826
 20
12.6435649998
 30
0.0
 10
-2.540641942
 20
12.6432495959
 30
0.0
 10
-2.5440687779
 20
12.6429463678
 30
0.0
 10
-2.5480382466
 20
12.6426616713
 30
0.0
 10
-2.5543009556
 20
12.6422934145
 30
0.0
 10
-2.5631627358
 20
12.641914078
 30
0.0
 10
-2.5747884074
 20
12.6415867963
 30
0.0
 10
-2.5874026029
 20
12.6413848308
 30
0.0
 10
-2.6005207737
 20
12.6413164692
 30
0.0
 10
-2.6136389445
 20
12.6413848308
 30
0.0
 10
-2.62625314
 20
12.6415867963
 30
0.0
 10
-2.6378788116
 20
12.641914078
 30
0.0
 10
-2.6467405918
 20
12.6422934145
 30
0.0
 10
-2.6530033008
 20
12.6426616713
 30
0.0
 10
-2.6569727695
 20
12.6429463678
 30
0.0
 10
-2.6603996054
 20
12.6432495959
 30
0.0
 10
-2.6632487648
 20
12.6435649998
 30
0.0
 10
-2.6655014321
 20
12.6438947049
 30
0.0
 10
-2.6669768827
 20
12.6441847205
 30
0.0
 10
-2.6678559699
 20
12.6444504784
 30
0.0
 10
-2.6683008086
 20
12.6446315704
 30
0.0
 10
-2.6686310099
 20
12.6448483811
 30
0.0
 10
-2.6686310099
 20
12.6450106992
 30
0.0
  0
SPLINE
  5
86A
100
AcDbEntity
  8
0
100
AcDbSpline
 62
7
  6
CONTINUOUS
 70
0
 71
3
 72
17
 73
13
 74
0
 42
0.0000001
 43
0.0000001
 44
0.0000000001
 40
0.0
 40
0.0
 40
0.0
 40
0.0
 40
0.066355759
 40
0.1052891121
 40
0.1484253942
 40
0.19592553
 40
0.2478774588
 40
0.365197543
 40
0.5000999946
 40
0.6518123383
 40
0.8190841637
 40
1.0
 40
1.0
 40
1.0
 40
1.0
 10
-1.2078024486
 20
12.940167746
 30
0.0
 10
-1.2076446349
 20
12.9393663843
 30
0.0
 10
-1.2071620415
 20
12.9381403
 30
0.0
 10
-1.2062378848
 20
12.9365649108
 30
0.0
 10
-1.2053103426
 20
12.9352644234
 30
0.0
 10
-1.2041891122
 20
12.9339128436
 30
0.0
 10
-1.2023629298
 20
12.931965573
 30
0.0
 10
-1.199589875
 20
12.929441889
 30
0.0
 10
-1.1956736369
 20
12.926373809
 30
0.0
 10
-1.1910811516
 20
12.9231878056
 30
0.0
 10
-1.18586458
 20
12.91992133
 30
0.0
 10
-1.1821449346
 20
12.9177902771
 30
0.0
 10
-1.1801945802
 20
12.9167156006
 30
0.0
  0
SPLINE
  5
86B
100
AcDbEntity
  8
0
100
AcDbSpline
 62
7
  6
CONTINUOUS
 70
0
 71
3
 72
20
 73
16
 74
0
 42
0.0000001
 43
0.0000001
 44
0.0000000001
 40
0.0
 40
0.0
 40
0.0
 40
0.0
 40
0.0615780996
 40
0.1262163159
 40
0.2619812477
 40
0.4022453825
 40
0.5420314381
 40
0.6101441229
 40
0.6762422017
 40
0.7397249191
 40
0.800033884
 40
0.8566749633
 40
0.9091726966
 40
0.9570837734
 40
1.0
 40
1.0
 40
1.0
 40
1.0
 10
0.013899002
 20
12.2708721637
 30
0.0
 10
0.0158796784
 20
12.2698008969
 30
0.0
 10
0.0199752339
 20
12.2676707853
 30
0.0
 10
0.0285958551
 20
12.26348937
 30
0.0
 10
0.0400146895
 20
12.2584948961
 30
0.0
 10
0.0542173433
 20
12.2530503418
 30
0.0
 10
0.0663026355
 20
12.2490288699
 30
0.0
 10
0.0759177015
 20
12.2462073871
 30
0.0
 10
0.0829039172
 20
12.2443450519
 30
0.0
 10
0.0896598014
 20
12.2427358888
 30
0.0
 10
0.0961215365
 20
12.2413959165
 30
0.0
 10
0.1022279415
 20
12.2403361205
 30
0.0
 10
0.1079211334
 20
12.2395682174
 30
0.0
 10
0.1131429513
 20
12.2390979375
 30
0.0
 10
0.1164646799
 20
12.2389768561
 30
0.0
 10
0.1180340625
 20
12.2389768561
 30
0.0
  0
SPLINE
  5
86C
100
AcDbEntity
  8
0
100
AcDbSpline
 62
7
  6
CONTINUOUS
 70
0
 71
3
 72
11
 73
7
 74
0
 42
0.0000001
 43
0.0000001
 44
0.0000000001
 40
0.0
 40
0.0
 40
0.0
 40
0.0
 40
0.2889548944
 40
0.5520928387
 40
0.7890910649
 40
1.0
 40
1.0
 40
1.0
 40
1.0
 10
1.4616481555
 20
12.2389768561
 30
0.0
 10
1.4625890928
 20
12.2389768561
 30
0.0
 10
1.4643873125
 20
12.2390165948
 30
0.0
 10
1.4669508576
 20
12.2392138125
 30
0.0
 10
1.4692443912
 20
12.2395444156
 30
0.0
 10
1.4706684339
 20
12.2398719348
 30
0.0
 10
1.471327922
 20
12.2400636624
 30
0.0
  0
SPLINE
  5
86D
100
AcDbEntity
  8
0
100
AcDbSpline
 62
7
  6
CONTINUOUS
 70
0
 71
3
 72
12
 73
8
 74
0
 42
0.0000001
 43
0.0000001
 44
0.0000000001
 40
0.0
 40
0.0
 40
0.0
 40
0.0
 40
0.3053026361
 40
0.566442734
 40
0.792810322
 40
0.8977067722
 40
1.0
 40
1.0
 40
1.0
 40
1.0
 10
1.471327922
 20
12.2400636624
 30
0.0
 10
1.4720014636
 20
12.2402594756
 30
0.0
 10
1.4732331503
 20
12.24069601
 30
0.0
 10
1.4748328721
 20
12.2415889471
 30
0.0
 10
1.4758493216
 20
12.242521963
 30
0.0
 10
1.476410065
 20
12.2433498244
 30
0.0
 10
1.4766104962
 20
12.2437844373
 30
0.0
 10
1.4766907662
 20
12.2440053214
 30
0.0
  0
SPLINE
  5
86E
100
AcDbEntity
  8
0
100
AcDbSpline
 62
7
  6
CONTINUOUS
 70
0
 71
3
 72
36
 73
32
 74
0
 42
0.0000001
 43
0.0000001
 44
0.0000000001
 40
0.0
 40
0.0
 40
0.0
 40
0.0
 40
0.0171654263
 40
0.0343030211
 40
0.0513948346
 40
0.0599237741
 40
0.0684396941
 40
0.0769434816
 40
0.0854361896
 40
0.1023886173
 40
0.1108496902
 40
0.1193008825
 40
0.1361744482
 40
0.1530108248
 40
0.1698105634
 40
0.2033006069
 40
0.2366428108
 40
0.2698325234
 40
0.3028635408
 40
0.3357287421
 40
0.4009301131
 40
0.4653711851
 40
0.5289828655
 40
0.5916941664
 40
0.6534334501
 40
0.7141299659
 40
0.7737165507
 40
0.8321332923
 40
0.8893310663
 40
0.9452856521
 40
1.0
 40
1.0
 40
1.0
 40
1.0
 10
-1.8186567245
 20
11.5159769863
 30
0.0
 10
-1.8186567245
 20
11.5185216829
 30
0.0
 10
-1.8183648716
 20
11.5236110601
 30
0.0
 10
-1.8171410115
 20
11.5311413011
 30
0.0
 10
-1.8156298595
 20
11.5373025167
 30
0.0
 10
-1.8142145878
 20
11.5421615062
 30
0.0
 10
-1.813071455
 20
11.5457726947
 30
0.0
 10
-1.8118595779
 20
11.5493555844
 30
0.0
 10
-1.8101692832
 20
11.5540961927
 30
0.0
 10
-1.8083897656
 20
11.5587976127
 30
0.0
 10
-1.8065476559
 20
11.5634677424
 30
0.0
 10
-1.8046757044
 20
11.5681134155
 30
0.0
 10
-1.8022858346
 20
11.5738887977
 30
0.0
 10
-1.7993648653
 20
11.5807834556
 30
0.0
 10
-1.7954313257
 20
11.5899242071
 30
0.0
 10
-1.7904704476
 20
11.6012865482
 30
0.0
 10
-1.784513721
 20
11.6148652367
 30
0.0
 10
-1.7786032307
 20
11.6283899123
 30
0.0
 10
-1.7727686908
 20
11.6418705511
 30
0.0
 10
-1.765139925
 20
11.6597453653
 30
0.0
 10
-1.7558932857
 20
11.6819921655
 30
0.0
 10
-1.7453357216
 20
11.7086266462
 30
0.0
 10
-1.7354379666
 20
11.7351202368
 30
0.0
 10
-1.7262879544
 20
11.7614583646
 30
0.0
 10
-1.7179755531
 20
11.7876205332
 30
0.0
 10
-1.7105963495
 20
11.8135809689
 30
0.0
 10
-1.7042540745
 20
11.8393085005
 30
0.0
 10
-1.6990634715
 20
11.8647655705
 30
0.0
 10
-1.6951523322
 20
11.8899085411
 30
0.0
 10
-1.6926647274
 20
11.914682402
 30
0.0
 10
-1.6920562068
 20
11.9310926025
 30
0.0
 10
-1.6920562068
 20
11.9392037564
 30
0.0
  0
SPLINE
  5
86F
100
AcDbEntity
  8
0
100
AcDbSpline
 62
7
  6
CONTINUOUS
 70
0
 71
3
 72
22
 73
18
 74
0
 42
0.0000001
 43
0.0000001
 44
0.0000000001
 40
0.0
 40
0.0
 40
0.0
 40
0.0
 40
0.0547172843
 40
0.1106873743
 40
0.1679156878
 40
0.2263768178
 40
0.2860206865
 40
0.3467850717
 40
0.4086004796
 40
0.4713937766
 40
0.5350896285
 40
0.5996130772
 40
0.6648898445
 40
0.7308457263
 40
0.7974071074
 40
0.8645020805
 40
1.0
 40
1.0
 40
1.0
 40
1.0
 10
-5.2420562068
 20
11.9394924254
 30
0.0
 10
-5.2420562068
 20
11.9312693016
 30
0.0
 10
-5.2414281135
 20
11.914630553
 30
0.0
 10
-5.2388617056
 20
11.8895127261
 30
0.0
 10
-5.2348275263
 20
11.8640207687
 30
0.0
 10
-5.2294731942
 20
11.8382120715
 30
0.0
 10
-5.222928811
 20
11.8121328433
 30
0.0
 10
-5.2153105709
 20
11.7858232047
 30
0.0
 10
-5.2067216078
 20
11.7593174474
 30
0.0
 10
-5.1972544297
 20
11.7326454897
 30
0.0
 10
-5.1869933171
 20
11.7058332801
 30
0.0
 10
-5.1760143807
 20
11.6789039865
 30
0.0
 10
-5.1643874866
 20
11.6518783453
 30
0.0
 10
-5.1521779213
 20
11.6247750004
 30
0.0
 10
-5.1394458899
 20
11.5976112923
 30
0.0
 10
-5.1217925365
 20
11.5612163038
 30
0.0
 10
-5.1080237817
 20
11.5340578298
 30
0.0
 10
-5.0986567245
 20
11.5159770101
 30
0.0
  0
SPLINE
  5
870
100
AcDbEntity
  8
0
100
AcDbSpline
 62
7
  6
CONTINUOUS
 70
0
 71
3
 72
55
 73
51
 74
0
 42
0.0000001
 43
0.0000001
 44
0.0000000001
 40
0.0
 40
0.0
 40
0.0
 40
0.0
 40
0.0624971773
 40
0.0937459736
 40
0.1249948999
 40
0.1874920835
 40
0.2187411726
 40
0.2499902033
 40
0.2812393948
 40
0.3124886172
 40
0.3437378772
 40
0.3749874064
 40
0.4062368587
 40
0.4374866939
 40
0.4687365139
 40
0.4843615684
 40
0.4999868338
 40
0.5312369596
 40
0.5468621049
 40
0.5624874372
 40
0.5781128514
 40
0.5937381154
 40
0.6093633735
 40
0.6249888993
 40
0.6562387291
 40
0.6874887334
 40
0.7031142431
 40
0.7187400958
 40
0.7343657274
 40
0.7499916425
 40
0.7656175374
 40
0.781243489
 40
0.7968695331
 40
0.804682727
 40
0.8124961701
 40
0.8281220947
 40
0.8437481285
 40
0.8593738157
 40
0.874999348
 40
0.8906246802
 40
0.9062494756
 40
0.9218735465
 40
0.937496624
 40
0.9531184195
 40
0.9609320418
 40
0.9687456311
 40
0.9765591694
 40
0.9843725608
 40
0.9921868207
 40
1.0
 40
1.0
 40
1.0
 40
1.0
 10
-3.3314265786
 20
12.0440877386
 30
0.0
 10
-3.2959860751
 20
12.0433587698
 30
0.0
 10
-3.2428330091
 20
12.0418059433
 30
0.0
 10
-3.1720005924
 20
12.0387788418
 30
0.0
 10
-3.1011989812
 20
12.0351005226
 30
0.0
 10
-3.030452226
 20
12.0304117281
 30
0.0
 10
-2.9597899451
 20
12.0246404277
 30
0.0
 10
-2.9068419926
 20
12.0197426597
 30
0.0
 10
-2.8539521933
 20
12.0142512823
 30
0.0
 10
-2.8011309652
 20
12.0081328072
 30
0.0
 10
-2.7483905733
 20
12.0013500948
 30
0.0
 10
-2.6957448499
 20
11.9938655862
 30
0.0
 10
-2.643211222
 20
11.9856271708
 30
0.0
 10
-2.5908092392
 20
11.976586995
 30
0.0
 10
-2.5472707002
 20
11.9683318036
 30
0.0
 10
-2.5125331855
 20
11.9612594694
 30
0.0
 10
-2.4778629129
 20
11.9538641458
 30
0.0
 10
-2.4433020419
 20
11.9459614363
 30
0.0
 10
-2.408875124
 20
11.9375041041
 30
0.0
 10
-2.3831271286
 20
11.9308724206
 30
0.0
 10
-2.3574589825
 20
11.923937697
 30
0.0
 10
-2.3318792561
 20
11.9166835185
 30
0.0
 10
-2.3063967948
 20
11.9090940421
 30
0.0
 10
-2.2725636284
 20
11.8985071206
 30
0.0
 10
-2.23056902
 20
11.884341267
 30
0.0
 10
-2.1890626917
 20
11.868794573
 30
0.0
 10
-2.1562303259
 20
11.8554189372
 30
0.0
 10
-2.1318134566
 20
11.8448897662
 30
0.0
 10
-2.107633714
 20
11.8338257025
 30
0.0
 10
-2.0837220072
 20
11.8221927483
 30
0.0
 10
-2.0601170582
 20
11.8099477148
 30
0.0
 10
-2.0368645784
 20
11.7970448712
 30
0.0
 10
-2.0178252564
 20
11.7857025608
 30
0.0
 10
-2.0028314405
 20
11.7762454389
 30
0.0
 10
-1.9880076175
 20
11.7665242354
 30
0.0
 10
-1.9698228106
 20
11.7538535519
 30
0.0
 10
-1.9486516112
 20
11.737754265
 30
0.0
 10
-1.9282522833
 20
11.7206841089
 30
0.0
 10
-1.9087739051
 20
11.7025665029
 30
0.0
 10
-1.8904025201
 20
11.6833224594
 30
0.0
 10
-1.8733686386
 20
11.6628794476
 30
0.0
 10
-1.8579542497
 20
11.6411816937
 30
0.0
 10
-1.8444981906
 20
11.618211885
 30
0.0
 10
-1.8352374555
 20
11.5980362032
 30
0.0
 10
-1.8292122768
 20
11.5813585681
 30
0.0
 10
-1.8254314893
 20
11.5686034739
 30
0.0
 10
-1.8224360776
 20
11.555641282
 30
0.0
 10
-1.8202656355
 20
11.5425145474
 30
0.0
 10
-1.818950728
 20
11.5292751737
 30
0.0
 10
-1.8186567245
 20
11.5204086151
 30
0.0
 10
-1.8186567245
 20
11.5159770297
 30
0.0
  0
SPLINE
  5
871
100
AcDbEntity
  8
0
100
AcDbSpline
 62
7
  6
CONTINUOUS
 70
0
 71
3
 72
61
 73
57
 74
0
 42
0.0000001
 43
0.0000001
 44
0.0000000001
 40
0.0
 40
0.0
 40
0.0
 40
0.0
 40
0.0078130487
 40
0.0156269415
 40
0.0234400827
 40
0.0312535008
 40
0.0390668554
 40
0.0468802589
 40
0.0546937876
 40
0.0625072449
 40
0.0781298774
 40
0.093753614
 40
0.1093781238
 40
0.1171917453
 40
0.1250051358
 40
0.1328187321
 40
0.1406321012
 40
0.1562578309
 40
0.1718834698
 40
0.1796969102
 40
0.1875101209
 40
0.2031359872
 40
0.2109492542
 40
0.2187622976
 40
0.2343881169
 40
0.2500138522
 40
0.2812630705
 40
0.2968884679
 40
0.3125140742
 40
0.3281394826
 40
0.3437647916
 40
0.359390271
 40
0.37501554
 40
0.390640731
 40
0.4062660843
 40
0.421891372
 40
0.4375164701
 40
0.4531416507
 40
0.4687669396
 40
0.4843920982
 40
0.5000170795
 40
0.5312668293
 40
0.546891837
 40
0.5625166652
 40
0.5937660263
 40
0.6250153617
 40
0.6562644513
 40
0.6875135969
 40
0.7500104629
 40
0.7812593967
 40
0.8125082443
 40
0.8437570792
 40
0.8750057826
 40
0.9062545305
 40
0.9375034287
 40
1.0
 40
1.0
 40
1.0
 40
1.0
 10
-5.0986567245
 20
11.5159770101
 30
0.0
 10
-5.0986567245
 20
11.5207399198
 30
0.0
 10
-5.0983171332
 20
11.5302696982
 30
0.0
 10
-5.0967989961
 20
11.5444893612
 30
0.0
 10
-5.0942969347
 20
11.5585696751
 30
0.0
 10
-5.0908515343
 20
11.5724480067
 30
0.0
 10
-5.0865137213
 20
11.5860731146
 30
0.0
 10
-5.0813429803
 20
11.5994033766
 30
0.0
 10
-5.0754018448
 20
11.6124079219
 30
0.0
 10
-5.0665407562
 20
11.6292806224
 30
0.0
 10
-5.0538518675
 20
11.6494780716
 30
0.0
 10
-5.0365227389
 20
11.6722355896
 30
0.0
 10
-5.0206499307
 20
11.6900167172
 30
0.0
 10
-5.0072545881
 20
11.7035669275
 30
0.0
 10
-4.9968901272
 20
11.7134076682
 30
0.0
 10
-4.9862383516
 20
11.7229357625
 30
0.0
 10
-4.9716905133
 20
11.7352408285
 30
0.0
 10
-4.9529127243
 20
11.7499040485
 30
0.0
 10
-4.933483914
 20
11.7636882636
 30
0.0
 10
-4.9176125084
 20
11.7742289248
 30
0.0
 10
-4.9015403179
 20
11.7844609614
 30
0.0
 10
-4.885189104
 20
11.7942478045
 30
0.0
 10
-4.8686033814
 20
11.8036233159
 30
0.0
 10
-4.8518724264
 20
11.8127373298
 30
0.0
 10
-4.830704567
 20
11.8236557782
 30
0.0
 10
-4.7963746837
 20
11.8401911929
 30
0.0
 10
-4.7614361647
 20
11.8554300199
 30
0.0
 10
-4.7260437176
 20
11.8695424872
 30
0.0
 10
-4.6992928825
 20
11.8795978516
 30
0.0
 10
-4.6723624008
 20
11.8891599523
 30
0.0
 10
-4.6452716281
 20
11.8982574715
 30
0.0
 10
-4.6180375486
 20
11.9069156598
 30
0.0
 10
-4.5906761861
 20
11.9151620676
 30
0.0
 10
-4.5632002897
 20
11.9230177814
 30
0.0
 10
-4.5356209635
 20
11.9305019553
 30
0.0
 10
-4.5079489151
 20
11.9376350679
 30
0.0
 10
-4.4801933089
 20
11.9444350646
 30
0.0
 10
-4.4523615034
 20
11.9509158908
 30
0.0
 10
-4.4244605819
 20
11.9570922405
 30
0.0
 10
-4.3964973219
 20
11.9629792212
 30
0.0
 10
-4.3591378216
 20
11.970459532
 30
0.0
 10
-4.3216735993
 20
11.9774070441
 30
0.0
 10
-4.2841241551
 20
11.983864638
 30
0.0
 10
-4.2465224346
 20
11.9900095174
 30
0.0
 10
-4.1994296834
 20
11.9971228343
 30
0.0
 10
-4.142798163
 20
12.0048142307
 30
0.0
 10
-4.0860654884
 20
12.01171845
 30
0.0
 10
-4.0103096279
 20
12.0199324469
 30
0.0
 10
-3.9344088702
 20
12.0267513192
 30
0.0
 10
-3.8584126074
 20
12.0323051011
 30
0.0
 10
-3.8013736015
 20
12.0358648421
 30
0.0
 10
-3.7443014146
 20
12.0388392018
 30
0.0
 10
-3.6872027498
 20
12.0412499212
 30
0.0
 10
-3.6300833712
 20
12.043108725
 30
0.0
 10
-3.5539052693
 20
12.0448686937
 30
0.0
 10
-3.4967552361
 20
12.0453924404
 30
0.0
 10
-3.4586567245
 20
12.0453924404
 30
0.0
  0
SPLINE
  5
872
100
AcDbEntity
  8
0
100
AcDbSpline
 62
3
  6
CONTINUOUS
 70
0
 71
3
 72
20
 73
16
 74
0
 42
0.0000001
 43
0.0000001
 44
0.0000000001
 40
0.0
 40
0.0
 40
0.0
 40
0.0
 40
0.0615780996
 40
0.1262163159
 40
0.2619812477
 40
0.4022453825
 40
0.5420314381
 40
0.6101441229
 40
0.6762422017
 40
0.7397249191
 40
0.800033884
 40
0.8566749633
 40
0.9091726966
 40
0.9570837734
 40
1.0
 40
1.0
 40
1.0
 40
1.0
 10
0.257752971
 20
12.9231538592
 30
0.0
 10
0.2557722946
 20
12.9242251261
 30
0.0
 10
0.2516767391
 20
12.9263552377
 30
0.0
 10
0.243056118
 20
12.930536653
 30
0.0
 10
0.2316372836
 20
12.9355311269
 30
0.0
 10
0.2174346298
 20
12.9409756812
 30
0.0
 10
0.2053493375
 20
12.9449971531
 30
0.0
 10
0.1957342715
 20
12.9478186358
 30
0.0
 10
0.1887480558
 20
12.9496809711
 30
0.0
 10
0.1819921717
 20
12.9512901342
 30
0.0
 10
0.1755304365
 20
12.9526301064
 30
0.0
 10
0.1694240315
 20
12.9536899024
 30
0.0
 10
0.1637308396
 20
12.9544578056
 30
0.0
 10
0.1585090217
 20
12.9549280855
 30
0.0
 10
0.1551872932
 20
12.9550491669
 30
0.0
 10
0.1536179105
 20
12.9550491669
 30
0.0
  0
SPLINE
  5
873
100
AcDbEntity
  8
0
100
AcDbSpline
 62
3
  6
CONTINUOUS
 70
0
 71
3
 72
20
 73
16
 74
0
 42
0.0000001
 43
0.0000001
 44
0.0000000001
 40
0.0
 40
0.0
 40
0.0
 40
0.0
 40
0.0280244103
 40
0.0578662201
 40
0.0910234392
 40
0.1285783154
 40
0.171212856
 40
0.2193014284
 40
0.2730410504
 40
0.332517377
 40
0.3977170859
 40
0.4685369092
 40
0.6264239
 40
0.8045229226
 40
1.0
 40
1.0
 40
1.0
 40
1.0
 10
1.4793034768
 20
12.2512044197
 30
0.0
 10
1.4794349407
 20
12.2515661774
 30
0.0
 10
1.4796031165
 20
12.2523543919
 30
0.0
 10
1.4795442794
 20
12.2536140873
 30
0.0
 10
1.4791894476
 20
12.2549573144
 30
0.0
 10
1.4785453654
 20
12.256380562
 30
0.0
 10
1.4776177686
 20
12.2578827722
 30
0.0
 10
1.4764114323
 20
12.2594612626
 30
0.0
 10
1.4749303683
 20
12.2611113716
 30
0.0
 10
1.4731789565
 20
12.2628272048
 30
0.0
 10
1.471163197
 20
12.2646025731
 30
0.0
 10
1.468017259
 20
12.2671336957
 30
0.0
 10
1.4634626348
 20
12.2703782202
 30
0.0
 10
1.457281288
 20
12.2742657476
 30
0.0
 10
1.4528143264
 20
12.2767940109
 30
0.0
 10
1.4504528036
 20
12.2780712621
 30
0.0
  0
SPLINE
  5
874
100
AcDbEntity
  8
0
100
AcDbSpline
 62
3
  6
CONTINUOUS
 70
0
 71
3
 72
11
 73
7
 74
0
 42
0.0000001
 43
0.0000001
 44
0.0000000001
 40
0.0
 40
0.0
 40
0.0
 40
0.0
 40
0.2889548944
 40
0.5520928387
 40
0.7890910649
 40
1.0
 40
1.0
 40
1.0
 40
1.0
 10
1.4642608662
 20
12.2461759545
 30
0.0
 10
1.4652018034
 20
12.2461759545
 30
0.0
 10
1.4670000231
 20
12.2462156932
 30
0.0
 10
1.4695635683
 20
12.2464129108
 30
0.0
 10
1.4718571018
 20
12.246743514
 30
0.0
 10
1.4732811445
 20
12.2470710331
 30
0.0
 10
1.4739406326
 20
12.2472627607
 30
0.0
  0
SPLINE
  5
875
100
AcDbEntity
  8
0
100
AcDbSpline
 62
3
  6
CONTINUOUS
 70
0
 71
3
 72
12
 73
8
 74
0
 42
0.0000001
 43
0.0000001
 44
0.0000000001
 40
0.0
 40
0.0
 40
0.0
 40
0.0
 40
0.3053026361
 40
0.566442734
 40
0.792810322
 40
0.8977067722
 40
1.0
 40
1.0
 40
1.0
 40
1.0
 10
1.4739406326
 20
12.2472627607
 30
0.0
 10
1.4746141742
 20
12.247458574
 30
0.0
 10
1.475845861
 20
12.2478951084
 30
0.0
 10
1.4774455827
 20
12.2487880455
 30
0.0
 10
1.4784620323
 20
12.2497210614
 30
0.0
 10
1.4790227756
 20
12.2505489227
 30
0.0
 10
1.4792232068
 20
12.2509835357
 30
0.0
 10
1.4793034768
 20
12.2512044197
 30
0.0
  0
SPLINE
  5
876
100
AcDbEntity
  8
0
100
AcDbSpline
 62
3
  6
CONTINUOUS
 70
0
 71
3
 72
20
 73
16
 74
0
 42
0.0000001
 43
0.0000001
 44
0.0000000001
 40
0.0
 40
0.0
 40
0.0
 40
0.0
 40
0.0619421628
 40
0.1268474779
 40
0.2629014319
 40
0.4032067166
 40
0.542851766
 40
0.6108499033
 40
0.6768180535
 40
0.7401648725
 40
0.8003433365
 40
0.8568677807
 40
0.9092703307
 40
0.9571149843
 40
1.0
 40
1.0
 40
1.0
 40
1.0
 10
0.0171921227
 20
12.2777048847
 30
0.0
 10
0.019174416
 20
12.2766421871
 30
0.0
 10
0.0232684515
 20
12.274530061
 30
0.0
 10
0.0318701346
 20
12.2703877993
 30
0.0
 10
0.0432395846
 20
12.2654457284
 30
0.0
 10
0.0573583345
 20
12.2600626552
 30
0.0
 10
0.069357053
 20
12.2560899963
 30
0.0
 10
0.0788947213
 20
12.2533051575
 30
0.0
 10
0.0858206426
 20
12.2514679978
 30
0.0
 10
0.0925167547
 20
12.2498811376
 30
0.0
 10
0.0989207176
 20
12.2485600209
 30
0.0
 10
0.104972818
 20
12.2475153479
 30
0.0
 10
0.1106164731
 20
12.2467585764
 30
0.0
 10
0.1157947863
 20
12.2462951542
 30
0.0
 10
0.1190895763
 20
12.2461759545
 30
0.0
 10
0.1206467732
 20
12.2461759545
 30
0.0
  0
SPLINE
  5
877
100
AcDbEntity
  8
0
100
AcDbSpline
 62
7
  6
CONTINUOUS
 70
0
 71
3
 72
11
 73
7
 74
0
 42
0.0000001
 43
0.0000001
 44
0.0000000001
 40
0.0
 40
0.0
 40
0.0
 40
0.0
 40
0.2558181721
 40
0.507113322
 40
0.754835959
 40
1.0
 40
1.0
 40
1.0
 40
1.0
 10
9.0735635506
 20
13.7514183259
 30
0.0
 10
9.0722248911
 20
13.7520719876
 30
0.0
 10
9.0695260598
 20
13.7532777992
 30
0.0
 10
9.0653911774
 20
13.7547804894
 30
0.0
 10
9.0612161773
 20
13.7559567938
 30
0.0
 10
9.0583991891
 20
13.756524244
 30
0.0
 10
9.056989767
 20
13.756751856
 30
0.0
  0
LINE
  5
878
100
AcDbEntity
  8
0
100
AcDbLine
 62
7
  6
CONTINUOUS
 10
9.0730249292
 20
13.7406318943
 11
9.0730046943
 21
13.7410648478
  0
LINE
  5
879
100
AcDbEntity
  8
0
100
AcDbLine
 62
7
  6
CONTINUOUS
 10
9.10296108
 20
13.7394479421
 11
9.1028943433
 21
13.7390195864
  0
SPLINE
  5
87A
100
AcDbEntity
  8
0
100
AcDbSpline
 62
7
  6
CONTINUOUS
 70
0
 71
3
 72
11
 73
7
 74
0
 42
0.0000001
 43
0.0000001
 44
0.0000000001
 40
0.0
 40
0.0
 40
0.0
 40
0.0
 40
0.2451651054
 40
0.4928886142
 40
0.7441831458
 40
1.0
 40
1.0
 40
1.0
 40
1.0
 10
9.1205715429
 20
13.7533198034
 30
0.0
 10
9.119145803
 20
13.7532452287
 30
0.0
 10
9.1162840892
 20
13.7529843042
 30
0.0
 10
9.112006719
 20
13.7522642432
 30
0.0
 10
9.1077341136
 20
13.7512153774
 30
0.0
 10
9.1049211771
 20
13.7503070862
 30
0.0
 10
9.1035199406
 20
13.7498013232
 30
0.0
  0
SPLINE
  5
87B
100
AcDbEntity
  8
0
100
AcDbSpline
 62
7
  6
CONTINUOUS
 70
0
 71
3
 72
8
 73
4
 74
0
 42
0.0000001
 43
0.0000001
 44
0.0000000001
 40
0.0
 40
0.0
 40
0.0
 40
0.0
 40
1.0
 40
1.0
 40
1.0
 40
1.0
 10
9.1788506013
 20
13.7353515352
 30
0.0
 10
9.1788398726
 20
13.7353359543
 30
0.0
 10
9.1788291439
 20
13.7353203735
 30
0.0
 10
9.1788184152
 20
13.7353047927
 30
0.0
  0
LINE
  5
87C
100
AcDbEntity
  8
0
100
AcDbLine
 62
7
  6
CONTINUOUS
 10
9.1788184152
 20
13.7353047927
 11
9.1787224896
 21
13.7351655592
  0
LINE
  5
87D
100
AcDbEntity
  8
0
100
AcDbLine
 62
7
  6
CONTINUOUS
 10
9.1787224896
 20
13.7351655592
 11
9.1785635255
 21
13.7349350731
  0
LINE
  5
87E
100
AcDbEntity
  8
0
100
AcDbLine
 62
7
  6
CONTINUOUS
 10
8.997355747
 20
13.7447164076
 11
8.9972225461
 21
13.7449626119
  0
LINE
  5
87F
100
AcDbEntity
  8
0
100
AcDbLine
 62
7
  6
CONTINUOUS
 10
8.9972225461
 20
13.7449626119
 11
8.9971421491
 21
13.7451113924
  0
SPLINE
  5
880
100
AcDbEntity
  8
0
100
AcDbSpline
 62
7
  6
CONTINUOUS
 70
0
 71
3
 72
8
 73
4
 74
0
 42
0.0000001
 43
0.0000001
 44
0.0000000001
 40
0.0
 40
0.0
 40
0.0
 40
0.0
 40
1.0
 40
1.0
 40
1.0
 40
1.0
 10
8.9971421491
 20
13.7451113924
 30
0.0
 10
8.9971331556
 20
13.7451280455
 30
0.0
 10
8.9971241621
 20
13.7451446986
 30
0.0
 10
8.9971151686
 20
13.7451613517
 30
0.0
  0
LINE
  5
881
100
AcDbEntity
  8
0
100
AcDbLine
 62
7
  6
CONTINUOUS
 10
12.4658721041
 20
12.9159547608
 11
12.4690263094
 21
12.9185583813
  0
SPLINE
  5
882
100
AcDbEntity
  8
0
100
AcDbSpline
 62
7
  6
CONTINUOUS
 70
0
 71
3
 72
15
 73
11
 74
0
 42
0.0000001
 43
0.0000001
 44
0.0000000001
 40
0.0
 40
0.0
 40
0.0
 40
0.0
 40
0.1663318509
 40
0.3192707389
 40
0.4588514137
 40
0.58567022
 40
0.7009837823
 40
0.806634758
 40
0.9051968428
 40
1.0
 40
1.0
 40
1.0
 40
1.0
 10
12.4690263094
 20
12.9185583813
 30
0.0
 10
12.4698475716
 20
12.919286173
 30
0.0
 10
12.4713821406
 20
12.9207317526
 30
0.0
 10
12.4734279236
 20
12.9229673446
 30
0.0
 10
12.4751092823
 20
12.9251698491
 30
0.0
 10
12.4764157998
 20
12.9273295339
 30
0.0
 10
12.4773417363
 20
12.9294372363
 30
0.0
 10
12.4778797479
 20
12.9314863309
 30
0.0
 10
12.4780187266
 20
12.9334665724
 30
0.0
 10
12.4778393762
 20
12.9347412496
 30
0.0
 10
12.4776853792
 20
12.9353474381
 30
0.0
  0
SPLINE
  5
883
100
AcDbEntity
  8
0
100
AcDbSpline
 62
7
  6
CONTINUOUS
 70
0
 71
3
 72
20
 73
16
 74
0
 42
0.0000001
 43
0.0000001
 44
0.0000000001
 40
0.0
 40
0.0
 40
0.0
 40
0.0
 40
0.0382121829
 40
0.0774141699
 40
0.118523486
 40
0.1623084802
 40
0.2093607995
 40
0.2601226045
 40
0.3149150387
 40
0.3739541248
 40
0.437349064
 40
0.5051430785
 40
0.653846532
 40
0.8193788185
 40
1.0
 40
1.0
 40
1.0
 40
1.0
 10
9.5710413047
 20
12.2514794865
 30
0.0
 10
9.5711646262
 20
12.2509940482
 30
0.0
 10
9.5715008971
 20
12.2500304272
 30
0.0
 10
9.5722565193
 20
12.2486654211
 30
0.0
 10
9.573262159
 20
12.2473791668
 30
0.0
 10
9.5745108212
 20
12.2461755384
 30
0.0
 10
9.575996118
 20
12.2450561551
 30
0.0
 10
9.5777127084
 20
12.2440233388
 30
0.0
 10
9.579655571
 20
12.2430798198
 30
0.0
 10
9.581819066
 20
12.2422286025
 30
0.0
 10
9.5841962739
 20
12.2414711242
 30
0.0
 10
9.5877519613
 20
12.2405610289
 30
0.0
 10
9.5926928826
 20
12.2397008101
 30
0.0
 10
9.5991561825
 20
12.2391006459
 30
0.0
 10
9.6036949565
 20
12.2389768561
 30
0.0
 10
9.6060624088
 20
12.2389768561
 30
0.0
  0
SPLINE
  5
884
100
AcDbEntity
  8
0
100
AcDbSpline
 62
7
  6
CONTINUOUS
 70
0
 71
3
 72
21
 73
17
 74
0
 42
0.0000001
 43
0.0000001
 44
0.0000000001
 40
0.0
 40
0.0
 40
0.0
 40
0.0
 40
0.0581604317
 40
0.1195364107
 40
0.2495970855
 40
0.3857510554
 40
0.4547266203
 40
0.5235031514
 40
0.591486408
 40
0.6580995469
 40
0.7227739733
 40
0.7849801058
 40
0.8442465842
 40
0.900122236
 40
0.9521749692
 40
1.0
 40
1.0
 40
1.0
 40
1.0
 10
11.5249421976
 20
12.2389768561
 30
0.0
 10
11.5271138598
 20
12.2389768561
 30
0.0
 10
11.5315777436
 20
12.2390886762
 30
0.0
 10
11.540878245
 20
12.2397200881
 30
0.0
 10
11.5530231615
 20
12.2412746758
 30
0.0
 10
11.5653099757
 20
12.2437060082
 30
0.0
 10
11.5752364843
 20
12.2461747847
 30
0.0
 10
11.5826288007
 20
12.248269692
 30
0.0
 10
11.5898635497
 20
12.2505816548
 30
0.0
 10
11.5968716258
 20
12.2530859871
 30
0.0
 10
11.6035856464
 20
12.2557589565
 30
0.0
 10
11.609941661
 20
12.2585762421
 30
0.0
 10
11.6158808849
 20
12.2615096296
 30
0.0
 10
11.6213456184
 20
12.2645334735
 30
0.0
 10
11.6262812538
 20
12.2676147156
 30
0.0
 10
11.6293214504
 20
12.2697805391
 30
0.0
 10
11.6307346905
 20
12.2708721637
 30
0.0
  0
SPLINE
  5
885
100
AcDbEntity
  8
0
100
AcDbSpline
 62
7
  6
CONTINUOUS
 70
0
 71
3
 72
33
 73
29
 74
0
 42
0.0000001
 43
0.0000001
 44
0.0000000001
 40
0.0
 40
0.0
 40
0.0
 40
0.0
 40
0.0087084582
 40
0.0135667582
 40
0.0188116658
 40
0.0244719973
 40
0.0305685608
 40
0.0371160917
 40
0.0441244693
 40
0.0595411589
 40
0.0768374302
 40
0.0959981752
 40
0.1169895087
 40
0.1397646871
 40
0.1642686941
 40
0.1904405768
 40
0.2182154252
 40
0.2475254479
 40
0.2783013568
 40
0.343966903
 40
0.4146428892
 40
0.4897509784
 40
0.5687080332
 40
0.6509235085
 40
0.7357945237
 40
0.8227003967
 40
0.9109942963
 40
1.0
 40
1.0
 40
1.0
 40
1.0
 10
10.1703325123
 20
12.8989215803
 30
0.0
 10
10.1703325123
 20
12.8982368507
 30
0.0
 10
10.170175034
 20
12.8971680565
 30
0.0
 10
10.1697423372
 20
12.8957531322
 30
0.0
 10
10.1692757331
 20
12.8946029253
 30
0.0
 10
10.1686804324
 20
12.8934048954
 30
0.0
 10
10.1679576946
 20
12.892159254
 30
0.0
 10
10.1671088689
 20
12.8908672187
 30
0.0
 10
10.1657674601
 20
12.8890250799
 30
0.0
 10
10.1637689105
 20
12.8866208392
 30
0.0
 10
10.1609652893
 20
12.8836557298
 30
0.0
 10
10.1576970848
 20
12.8805352328
 30
0.0
 10
10.1539780737
 20
12.8772700041
 30
0.0
 10
10.1498225436
 20
12.8738704915
 30
0.0
 10
10.1452454259
 20
12.8703473327
 30
0.0
 10
10.1402621348
 20
12.8667109013
 30
0.0
 10
10.134888345
 20
12.8629715122
 30
0.0
 10
10.1291399698
 20
12.8591391604
 30
0.0
 10
10.1208157444
 20
12.8538024431
 30
0.0
 10
10.1095799394
 20
12.8469850352
 30
0.0
 10
10.0951355723
 20
12.83874881
 30
0.0
 10
10.0795802195
 20
12.8303614851
 30
0.0
 10
10.0630432748
 20
12.821892176
 30
0.0
 10
10.0456556288
 20
12.8134081529
 30
0.0
 10
10.0275512642
 20
12.8049754097
 30
0.0
 10
10.0088686173
 20
12.7966594649
 30
0.0
 10
9.9897521278
 20
12.7885259265
 30
0.0
 10
9.9768368294
 20
12.7832762444
 30
0.0
 10
9.9703325123
 20
12.7806934613
 30
0.0
  0
SPLINE
  5
886
100
AcDbEntity
  8
0
100
AcDbSpline
 62
7
  6
CONTINUOUS
 70
0
 71
3
 72
28
 73
24
 74
0
 42
0.0000001
 43
0.0000001
 44
0.0000000001
 40
0.0
 40
0.0
 40
0.0
 40
0.0
 40
0.0162737442
 40
0.0323743318
 40
0.0482235723
 40
0.0638341753
 40
0.0792525671
 40
0.0945300418
 40
0.1097070548
 40
0.1248149401
 40
0.1549079043
 40
0.1849303174
 40
0.2149507511
 40
0.2450107456
 40
0.3053458251
 40
0.3660693213
 40
0.4272519072
 40
0.4889355661
 40
0.5511444501
 40
0.6138885046
 40
0.7409362109
 40
0.8698536885
 40
1.0
 40
1.0
 40
1.0
 40
1.0
 10
7.9822370651
 20
11.5159769863
 30
0.0
 10
7.9822370651
 20
11.5185183778
 30
0.0
 10
7.9823505056
 20
11.5235747905
 30
0.0
 10
7.9828355109
 20
11.5310917875
 30
0.0
 10
7.9835752479
 20
11.5384834148
 30
0.0
 10
7.9845121987
 20
11.5457447454
 30
0.0
 10
7.98560259
 20
11.5528940444
 30
0.0
 10
7.986816772
 20
11.5599545088
 30
0.0
 10
7.9881369098
 20
11.5669465084
 30
0.0
 10
7.9900181842
 20
11.5761860986
 30
0.0
 10
7.9925838673
 20
11.5876510214
 30
0.0
 10
7.995962891
 20
11.6013165162
 30
0.0
 10
7.9996179854
 20
11.6149054081
 30
0.0
 10
8.0048495254
 20
11.6329687041
 30
0.0
 10
8.0120374395
 20
11.6554526233
 30
0.0
 10
8.02163808
 20
11.6822496954
 30
0.0
 10
8.03220481
 20
11.7089073539
 30
0.0
 10
8.0437227997
 20
11.7354207447
 30
0.0
 10
8.0561797202
 20
11.7617762605
 30
0.0
 10
8.0740966415
 20
11.7968206073
 30
0.0
 10
8.0987838942
 20
11.8400761323
 30
0.0
 10
8.1317374927
 20
11.8906097156
 30
0.0
 10
8.1557661732
 20
11.9231898405
 30
0.0
 10
8.1682814577
 20
11.9392037564
 30
0.0
  0
SPLINE
  5
887
100
AcDbEntity
  8
0
100
AcDbSpline
 62
7
  6
CONTINUOUS
 70
0
 71
3
 72
17
 73
13
 74
0
 42
0.0000001
 43
0.0000001
 44
0.0000000001
 40
0.0
 40
0.0
 40
0.0
 40
0.0
 40
0.124994917
 40
0.1875015808
 40
0.2500066876
 40
0.3750022809
 40
0.4999980019
 40
0.5625038329
 40
0.6250099109
 40
0.7500062076
 40
0.8750031466
 40
1.0
 40
1.0
 40
1.0
 40
1.0
 10
8.1682814577
 20
11.9392037564
 30
0.0
 10
8.177983855
 20
11.9516184461
 30
0.0
 10
8.1931638154
 20
11.9697646876
 30
0.0
 10
8.2145565039
 20
11.9929116312
 30
0.0
 10
8.2366968025
 20
12.0153463585
 30
0.0
 10
8.2657257814
 20
12.0420175637
 30
0.0
 10
8.2964145875
 20
12.066760031
 30
0.0
 10
8.3218716566
 20
12.0853454237
 30
0.0
 10
8.3479060607
 20
12.103112949
 30
0.0
 10
8.381483592
 20
12.1237662193
 30
0.0
 10
8.4232410645
 20
12.1459789361
 30
0.0
 10
8.4519470761
 20
12.1590379194
 30
0.0
 10
8.4664825684
 20
12.1651197111
 30
0.0
  0
SPLINE
  5
888
100
AcDbEntity
  8
0
100
AcDbSpline
 62
7
  6
CONTINUOUS
 70
0
 71
3
 72
14
 73
10
 74
0
 42
0.0000001
 43
0.0000001
 44
0.0000000001
 40
0.0
 40
0.0
 40
0.0
 40
0.0
 40
0.2499999524
 40
0.3749999652
 40
0.4999999796
 40
0.624999993
 40
0.7499999988
 40
0.8750000042
 40
1.0
 40
1.0
 40
1.0
 40
1.0
 10
8.4664825684
 20
12.1651197111
 30
0.0
 10
8.591403703
 20
12.2173879322
 30
0.0
 10
8.7788964555
 20
12.2955255476
 30
0.0
 10
9.0291581577
 20
12.3990542679
 30
0.0
 10
9.2170054654
 20
12.4763349401
 30
0.0
 10
9.4050208945
 20
12.5532057484
 30
0.0
 10
9.5932241006
 20
12.6296158084
 30
0.0
 10
9.7816377071
 20
12.7055056458
 30
0.0
 10
9.9074046072
 20
12.7557055763
 30
0.0
 10
9.9703325123
 20
12.7806934613
 30
0.0
  0
SPLINE
  5
889
100
AcDbEntity
  8
0
100
AcDbSpline
 62
3
  6
CONTINUOUS
 70
0
 71
3
 72
15
 73
11
 74
0
 42
0.0000001
 43
0.0000001
 44
0.0000000001
 40
0.0
 40
0.0
 40
0.0
 40
0.0
 40
0.1709929901
 40
0.3277139407
 40
0.4699166053
 40
0.5977654657
 40
0.7123079903
 40
0.8154481411
 40
0.9100344181
 40
1.0
 40
1.0
 40
1.0
 40
1.0
 10
9.5810251401
 20
12.2780712621
 30
0.0
 10
9.5799480924
 20
12.2772393215
 30
0.0
 10
9.5779302899
 20
12.2755830167
 30
0.0
 10
9.5752153381
 20
12.2730052378
 30
0.0
 10
9.5729599691
 20
12.2704584185
 30
0.0
 10
9.5711837023
 20
12.2679566097
 30
0.0
 10
9.5698990839
 20
12.265513799
 30
0.0
 10
9.5691161202
 20
12.2631399874
 30
0.0
 10
9.5688523329
 20
12.2608474463
 30
0.0
 10
9.5690355615
 20
12.2593725802
 30
0.0
 10
9.569211865
 20
12.2586785848
 30
0.0
  0
SPLINE
  5
88A
100
AcDbEntity
  8
0
100
AcDbSpline
 62
3
  6
CONTINUOUS
 70
0
 71
3
 72
20
 73
16
 74
0
 42
0.0000001
 43
0.0000001
 44
0.0000000001
 40
0.0
 40
0.0
 40
0.0
 40
0.0
 40
0.0382121829
 40
0.0774141699
 40
0.118523486
 40
0.1623084802
 40
0.2093607995
 40
0.2601226045
 40
0.3149150387
 40
0.3739541248
 40
0.437349064
 40
0.5051430785
 40
0.653846532
 40
0.8193788185
 40
1.0
 40
1.0
 40
1.0
 40
1.0
 10
12.4758559395
 20
12.9425465365
 30
0.0
 10
12.4757326181
 20
12.9430319748
 30
0.0
 10
12.4753963471
 20
12.9439955958
 30
0.0
 10
12.474640725
 20
12.9453606019
 30
0.0
 10
12.4736350853
 20
12.9466468562
 30
0.0
 10
12.4723864231
 20
12.9478504846
 30
0.0
 10
12.4709011262
 20
12.9489698679
 30
0.0
 10
12.4691845358
 20
12.9500026842
 30
0.0
 10
12.4672416732
 20
12.9509462032
 30
0.0
 10
12.4650781783
 20
12.9517974205
 30
0.0
 10
12.4627009704
 20
12.9525548988
 30
0.0
 10
12.459145283
 20
12.9534649941
 30
0.0
 10
12.4542043616
 20
12.9543252129
 30
0.0
 10
12.4477410618
 20
12.9549253771
 30
0.0
 10
12.4432022878
 20
12.9550491669
 30
0.0
 10
12.4408348354
 20
12.9550491669
 30
0.0
  0
SPLINE
  5
88B
100
AcDbEntity
  8
0
100
AcDbSpline
 62
3
  6
CONTINUOUS
 70
0
 71
3
 72
19
 73
15
 74
0
 42
0.0000001
 43
0.0000001
 44
0.0000000001
 40
0.0
 40
0.0
 40
0.0
 40
0.0
 40
0.0577342955
 40
0.1185959737
 40
0.2474936211
 40
0.3825055831
 40
0.4510032869
 40
0.5194114814
 40
0.6537048372
 40
0.7810644642
 40
0.8409183193
 40
0.8976313979
 40
0.9507898429
 40
1.0
 40
1.0
 40
1.0
 40
1.0
 10
11.5231127579
 20
12.2461759545
 30
0.0
 10
11.5252276826
 20
12.2461759545
 30
0.0
 10
11.5295725574
 20
12.2462819937
 30
0.0
 10
11.5386209095
 20
12.2468817392
 30
0.0
 10
11.5504371021
 20
12.2483598475
 30
0.0
 10
11.5624006189
 20
12.2506747435
 30
0.0
 10
11.5720811649
 20
12.2530274824
 30
0.0
 10
11.5816572846
 20
12.2556774917
 30
0.0
 10
11.5931517492
 20
12.2594559752
 30
0.0
 10
11.6040771088
 20
12.2638850769
 30
0.0
 10
11.612143935
 20
12.2677335901
 30
0.0
 10
11.6176352696
 20
12.2706542248
 30
0.0
 10
11.622641573
 20
12.273641603
 30
0.0
 10
11.6257517497
 20
12.2757416617
 30
0.0
 10
11.627209909
 20
12.2768015597
 30
0.0
  0
SPLINE
  5
88C
100
AcDbEntity
  8
0
100
AcDbSpline
 62
3
  6
CONTINUOUS
 70
0
 71
3
 72
14
 73
10
 74
0
 42
0.0000001
 43
0.0000001
 44
0.0000000001
 40
0.0
 40
0.0
 40
0.0
 40
0.0
 40
0.1066249131
 40
0.2152946816
 40
0.3279436603
 40
0.4462833949
 40
0.5717033158
 40
0.7053015177
 40
1.0
 40
1.0
 40
1.0
 40
1.0
 10
9.569211865
 20
12.2586785848
 30
0.0
 10
9.5693176237
 20
12.25826228
 30
0.0
 10
9.5695942867
 20
12.2574363595
 30
0.0
 10
9.570194001
 20
12.256254436
 30
0.0
 10
9.5709782486
 20
12.2551281812
 30
0.0
 10
9.5719438635
 20
12.2540610342
 30
0.0
 10
9.5730866644
 20
12.2530541588
 30
0.0
 10
9.5749011686
 20
12.2517520545
 30
0.0
 10
9.5764336461
 20
12.2509390215
 30
0.0
 10
9.5775150122
 20
12.2504491154
 30
0.0
  0
SPLINE
  5
88D
100
AcDbEntity
  8
0
100
AcDbSpline
 62
3
  6
CONTINUOUS
 70
0
 71
3
 72
14
 73
10
 74
0
 42
0.0000001
 43
0.0000001
 44
0.0000000001
 40
0.0
 40
0.0
 40
0.0
 40
0.0
 40
0.0968594668
 40
0.2019153349
 40
0.3152526195
 40
0.436851082
 40
0.5665678119
 40
0.7040070326
 40
1.0
 40
1.0
 40
1.0
 40
1.0
 10
9.5775150122
 20
12.2504491154
 30
0.0
 10
9.5783160486
 20
12.2500862109
 30
0.0
 10
9.5800218353
 20
12.2494077447
 30
0.0
 10
9.5827557378
 20
12.2485531953
 30
0.0
 10
9.5857571692
 20
12.2478238791
 30
0.0
 10
9.5890145256
 20
12.2472233679
 30
0.0
 10
9.5925142314
 20
12.246755117
 30
0.0
 10
9.5976077541
 20
12.2462969053
 30
0.0
 10
9.601545584
 20
12.2461759545
 30
0.0
 10
9.6042329692
 20
12.2461759545
 30
0.0
  0
SPLINE
  5
88E
100
AcDbEntity
  8
0
100
AcDbSpline
 62
3
  6
CONTINUOUS
 70
0
 71
3
 72
11
 73
7
 74
0
 42
0.0000001
 43
0.0000001
 44
0.0000000001
 40
0.0
 40
0.0
 40
0.0
 40
0.0
 40
0.2777616303
 40
0.5372010778
 40
0.7779782228
 40
1.0
 40
1.0
 40
1.0
 40
1.0
 10
12.4640426644
 20
12.9231538592
 30
0.0
 10
12.4649126629
 20
12.9238258694
 30
0.0
 10
12.4665644567
 20
12.9251663023
 30
0.0
 10
12.4688441039
 20
12.9272387762
 30
0.0
 10
12.4708321394
 20
12.9292955962
 30
0.0
 10
12.4720034636
 20
12.9307070764
 30
0.0
 10
12.4725321167
 20
12.9314089723
 30
0.0
  0
SPLINE
  5
88F
100
AcDbEntity
  8
0
100
AcDbSpline
 62
3
  6
CONTINUOUS
 70
0
 71
3
 72
14
 73
10
 74
0
 42
0.0000001
 43
0.0000001
 44
0.0000000001
 40
0.0
 40
0.0
 40
0.0
 40
0.0
 40
0.2945973904
 40
0.4281083808
 40
0.5534629569
 40
0.6717864305
 40
0.7844826382
 40
0.8932500513
 40
1.0
 40
1.0
 40
1.0
 40
1.0
 10
12.4725321167
 20
12.9314089723
 30
0.0
 10
12.4732418643
 20
12.9323513085
 30
0.0
 10
12.474190837
 20
12.9337903739
 30
0.0
 10
12.4751521586
 20
12.9357904458
 30
0.0
 10
12.4756685535
 20
12.9372129923
 30
0.0
 10
12.4760021333
 20
12.9386040294
 30
0.0
 10
12.4761502654
 20
12.9399607026
 30
0.0
 10
12.4761118322
 20
12.9412786867
 30
0.0
 10
12.4759611943
 20
12.9421322152
 30
0.0
 10
12.4758559395
 20
12.9425465365
 30
0.0
  0
ELLIPSE
  5
890
100
AcDbEntity
  8
0
100
AcDbEllipse
 62
7
  6
CONTINUOUS
 10
-1.8920562068
 20
13.5739749409
 30
0.0
 11
0.2
 21
0.0
 31
0.0
 40
0.0539785576
 41
-0.0
 42
1.1950171889
  0
ELLIPSE
  5
891
100
AcDbEntity
  8
0
100
AcDbEllipse
 62
7
  6
CONTINUOUS
 10
-5.0420562068
 20
13.5736629753
 30
0.0
 11
0.2
 21
-0.0
 31
0.0
 40
0.0539785576
 41
1.8577195653
 42
3.1415926536
  0
ENDSEC
  0
SECTION
  2
OBJECTS
  0
DICTIONARY
  5
C
100
AcDbDictionary
280
0
281
1
  3
ACAD_GROUP
350
D
  3
ACAD_MLINESTYLE
350
17
  3
ACAD_LAYOUT
350
1A
  3
ACAD_PLOTSETTINGS
350
19
  3
ACAD_PLOTSTYLENAME
350
E
  0
DICTIONARY
  5
D
102
{ACAD_REACTORS
330
C
102
}
100
AcDbDictionary
280
0
281
1
  0
ACDBDICTIONARYWDFLT
  5
E
102
{ACAD_REACTORS
330
C
102
}
100
AcDbDictionary
281
1
  3
Normal
350
F
100
AcDbDictionaryWithDefault
340
F
  0
DICTIONARY
  5
17
102
{ACAD_REACTORS
330
C
102
}
100
AcDbDictionary
280
0
281
1
  3
Standard
350
18
  0
DICTIONARY
  5
19
102
{ACAD_REACTORS
330
C
102
}
100
AcDbDictionary
281
1
  0
DICTIONARY
  5
1A
102
{ACAD_REACTORS
330
C
102
}
100
AcDbDictionary
281
1
  3
Model
350
892
  3
Layout1
350
893
  0
ACDBPLACEHOLDER
  5
F
102
{ACAD_REACTORS
330
E
102
}
  0
MLINESTYLE
  5
18
102
{ACAD_REACTORS
330
17
102
}
100
AcDbMlineStyle
  2
STANDARD
 70
0
  3

 62
256
 51
90.0
 52
90.0
 71
2
 49
0.5
 62
256
  6
BYLAYER
 49
-0.5
 62
256
  6
BYLAYER
  0
LAYOUT
  5
892
102
{ACAD_REACTORS
330
1A
102
}
100
AcDbPlotSettings
  1

  2
none_device
  4

  6

 40
0.0
 41
0.0
 42
0.0
 43
0.0
 44
431.8
 45
279.4
 46
0.0
 47
0.0
 48
0.0
 49
0.0
140
0.0
141
0.0
142
1.0
143
1.0
 70
1024
 72
0
 73
0
 74
0
  7

 75
0
147
1.0
148
0.0
149
0.0
100
AcDbLayout
  1
Model
 70
0
 71
0
 10
0.0
 20
0.0
 11
17.0
 21
11.0
 12
0.0
 22
0.0
 32
0.0
 14
0.0
 24
0.0
 34
0.0
 15
0.0
 25
0.0
 35
0.0
146
0.0
 13
0.0
 23
0.0
 33
0.0
 16
1.0
 26
0.0
 36
0.0
 17
0.0
 27
1.0
 37
0.0
 76
0
330
214
345
0
346
0
  0
LAYOUT
  5
893
102
{ACAD_REACTORS
330
1A
102
}
100
AcDbPlotSettings
  1

  2
none_device
  4

  6

 40
0.0
 41
0.0
 42
0.0
 43
0.0
 44
431.8
 45
279.4
 46
0.0
 47
0.0
 48
0.0
 49
0.0
140
0.0
141
0.0
142
1.0
143
1.0
 70
0
 72
0
 73
0
 74
0
  7

 75
0
147
1.0
148
0.0
149
0.0
100
AcDbLayout
  1
Layout1
 70
0
 71
1
 10
0.0
 20
0.0
 11
17.0
 21
11.0
 12
0.0
 22
0.0
 32
0.0
 14
0.0
 24
0.0
 34
0.0
 15
0.0
 25
0.0
 35
0.0
146
0.0
 13
0.0
 23
0.0
 33
0.0
 16
1.0
 26
0.0
 36
0.0
 17
0.0
 27
1.0
 37
0.0
 76
0
330
215
345
0
346
0
  0
ENDSEC
  0
EOF
