999
DXF file: N:\Master\master\M3_ProE_files\Lenexa\MADAM DXF\411288.dxf
999
Pro/ENGINEER 2010280 by Parametric Technology Corporation
  0
SECTION
  2
HEADER
  9
$ACADVER
  1
AC1021
  9
$DWGCODEPAGE
  3
ANSI_1252
  9
$EXTMAX
 10
17.0
 20
11.0
 30
0.0
  9
$EXTMIN
 10
0.0
 20
-0.0
 30
0.0
  9
$LIMMIN
 10
0.0
 20
-0.0
  9
$LIMMAX
 10
17.0
 20
11.0
  9
$VIEWCTR
 10
8.5
 20
5.5
  9
$VIEWSIZE
 40
11.0
  9
$CLAYER
  8
0
  9
$LTSCALE
 40
0.935
  9
$CELTYPE
  6
BYLAYER
  9
$DIMSCALE
 40
1.0
  9
$DIMASZ
 40
0.125
  9
$DIMEXO
 40
0.10625
  9
$DIMDLI
 40
0.646
  9
$DIMEXE
 40
0.306
  9
$DIMCEN
 40
0.153
  9
$DIMLFAC
 40
1.0
  9
$DIMBLK
  1
_FILLED
  9
$DIMTXT
 40
0.125
  9
$DIMTOL
 70
1
  9
$DIMLIM
 70
0
  9
$DIMTFAC
 40
1.0
  9
$DIMTP
 40
0.01
  9
$DIMTM
 40
0.01
  9
$PDMODE
 70
3
  9
$PDSIZE
 40
0.3125
  9
$HANDSEED
  5
228
  9
$TILEMODE
 70
1
  9
$MEASUREMENT
 70
0
  9
$INSUNITS
 70
1
  0
ENDSEC
  0
SECTION
  2
CLASSES
  0
CLASS
  1
ACDBDICTIONARYWDFLT
  2
AcDbDictionaryWithDefault
  3
AutoCAD 2000
 90
0
 91
1
280
0
281
0
  0
CLASS
  1
ACDBPLACEHOLDER
  2
AcDbPlaceHolder
  3
AutoCAD 2000
 90
0
 91
1
280
0
281
0
  0
CLASS
  1
LAYOUT
  2
AcDbLayout
  3
AutoCAD 2000
 90
0
 91
0
280
0
281
0
  0
ENDSEC
  0
SECTION
  2
TABLES
  0
TABLE
  2
VPORT
  5
8
100
AcDbSymbolTable
 70
2
  0
VPORT
  5
1F4
100
AcDbSymbolTableRecord
100
AcDbViewportTableRecord
  2
*ACTIVE
 70
0
 10
0.0
 20
0.0
 11
1.0
 21
1.0
 12
8.5
 22
5.5
 13
0.0
 23
0.0
 14
1.0
 24
1.0
 15
0.0
 25
0.0
 16
0.0
 26
0.0
 36
1.0
 17
0.0
 27
0.0
 37
0.0
 40
11.0
 41
1.5454545455
 42
50.0
 43
0.0
 44
0.0
 50
0.0
 51
0.0
 71
0
 72
100
 73
1
 74
1
 75
0
 76
0
 77
0
 78
0
  0
ENDTAB
  0
TABLE
  2
LTYPE
  5
5
100
AcDbSymbolTable
 70
6
  0
LTYPE
  5
14
100
AcDbSymbolTableRecord
100
AcDbLinetypeTableRecord
  2
BYBLOCK
 70
0
  3

 72
65
 73
0
 40
0.0
  0
LTYPE
  5
15
100
AcDbSymbolTableRecord
100
AcDbLinetypeTableRecord
  2
BYLAYER
 70
0
  3

 72
65
 73
0
 40
0.0
  0
LTYPE
  5
16
100
AcDbSymbolTableRecord
100
AcDbLinetypeTableRecord
  2
CONTINUOUS
 70
64
  3
Solid line
 72
65
 73
0
 40
0.0
  0
LTYPE
  5
1F5
100
AcDbSymbolTableRecord
100
AcDbLinetypeTableRecord
  2
CENTER
 70
64
  3
____ _ ____ _ ____ _ ____ _ ____ _ ____ _ ____
 72
65
 73
4
 40
0.6
 49
0.375
 74
0
 49
-0.075
 74
0
 49
0.075
 74
0
 49
-0.075
 74
0
  0
LTYPE
  5
1F6
100
AcDbSymbolTableRecord
100
AcDbLinetypeTableRecord
  2
HIDDEN
 70
64
  3
- - - - - - - - - - - - - - - - - - - -
 72
65
 73
2
 40
0.2
 49
0.1
 74
0
 49
-0.1
 74
0
  0
LTYPE
  5
1F7
100
AcDbSymbolTableRecord
100
AcDbLinetypeTableRecord
  2
PHANTOM
 70
64
  3
_____ _ _ _____ _ _ _____ _ _ _____
 72
65
 73
6
 40
0.8
 49
0.45
 74
0
 49
-0.05
 74
0
 49
0.1
 74
0
 49
-0.05
 74
0
 49
0.1
 74
0
 49
-0.05
 74
0
  0
LTYPE
  5
1F8
100
AcDbSymbolTableRecord
100
AcDbLinetypeTableRecord
  2
DOT
 70
64
  3
. . . . . . . . . . . . . . . . . . . .
 72
65
 73
2
 40
0.2
 49
0.1
 74
0
 49
-0.1
 74
0
  0
LTYPE
  5
1F9
100
AcDbSymbolTableRecord
100
AcDbLinetypeTableRecord
  2
DASHED
 70
64
  3
- - - - - - - - - - - - - - - - - - - -
 72
65
 73
2
 40
0.2
 49
0.1
 74
0
 49
-0.1
 74
0
  0
ENDTAB
  0
TABLE
  2
LAYER
  5
2
100
AcDbSymbolTable
 70
36
  0
LAYER
  5
10
100
AcDbSymbolTableRecord
100
AcDbLayerTableRecord
  2
0
 70
0
 62
7
  6
CONTINUOUS
370
-3
390
F
  0
LAYER
  5
1FA
100
AcDbSymbolTableRecord
100
AcDbLayerTableRecord
  2
DEFAULT_1
 70
0
 62
7
  6
CENTER
370
-3
390
F
  0
LAYER
  5
1FB
100
AcDbSymbolTableRecord
100
AcDbLayerTableRecord
  2
DEFAULT_2
 70
0
 62
8
  6
HIDDEN
370
-3
390
F
  0
LAYER
  5
1FC
100
AcDbSymbolTableRecord
100
AcDbLayerTableRecord
  2
DEFAULT_3
 70
0
 62
7
  6
PHANTOM
370
-3
390
F
  0
LAYER
  5
1FD
100
AcDbSymbolTableRecord
100
AcDbLayerTableRecord
  2
01___PRT_ALL_DTM_PLN
 70
0
 62
7
  6
CONTINUOUS
370
-3
390
F
  0
LAYER
  5
1FE
100
AcDbSymbolTableRecord
100
AcDbLayerTableRecord
  2
01___PRT_DEF_DTM_PLN
 70
0
 62
7
  6
CONTINUOUS
370
-3
390
F
  0
LAYER
  5
1FF
100
AcDbSymbolTableRecord
100
AcDbLayerTableRecord
  2
02___PRT_ALL_AXES
 70
0
 62
7
  6
CONTINUOUS
370
-3
390
F
  0
LAYER
  5
200
100
AcDbSymbolTableRecord
100
AcDbLayerTableRecord
  2
03___PRT_ALL_CURVES
 70
0
 62
7
  6
CONTINUOUS
370
-3
390
F
  0
LAYER
  5
201
100
AcDbSymbolTableRecord
100
AcDbLayerTableRecord
  2
04___PRT_ALL_DTM_PNT
 70
0
 62
7
  6
CONTINUOUS
370
-3
390
F
  0
LAYER
  5
202
100
AcDbSymbolTableRecord
100
AcDbLayerTableRecord
  2
05___PRT_ALL_DTM_CSYS
 70
0
 62
7
  6
CONTINUOUS
370
-3
390
F
  0
LAYER
  5
203
100
AcDbSymbolTableRecord
100
AcDbLayerTableRecord
  2
05___PRT_DEF_DTM_CSYS
 70
0
 62
7
  6
CONTINUOUS
370
-3
390
F
  0
LAYER
  5
204
100
AcDbSymbolTableRecord
100
AcDbLayerTableRecord
  2
06___PRT_ALL_SURFS
 70
0
 62
7
  6
CONTINUOUS
370
-3
390
F
  0
ENDTAB
  0
TABLE
  2
STYLE
  5
3
100
AcDbSymbolTable
 70
1
  0
STYLE
  5
11
100
AcDbSymbolTableRecord
100
AcDbTextStyleTableRecord
  2
STANDARD
 70
0
 40
0.0
 41
0.8
 50
0.0
 71
0
 42
0.2
  3
txt
  4

  0
STYLE
  5
205
100
AcDbSymbolTableRecord
100
AcDbTextStyleTableRecord
  2
TEXTSTYLE_1
 70
0
 40
0.0
 41
0.8
 50
0.0
 71
0
 42
0.2
  3
gdt
  4

  0
ENDTAB
  0
TABLE
  2
VIEW
  5
6
100
AcDbSymbolTable
 70
0
  0
ENDTAB
  0
TABLE
  2
UCS
  5
7
100
AcDbSymbolTable
 70
0
  0
ENDTAB
  0
TABLE
  2
APPID
  5
9
100
AcDbSymbolTable
 70
1
  0
APPID
  5
206
100
AcDbSymbolTableRecord
100
AcDbRegAppTableRecord
  2
ACAD
 70
0
  0
ENDTAB
  0
TABLE
  2
BLOCK_RECORD
  5
1
100
AcDbSymbolTable
 70
0
  0
BLOCK_RECORD
  5
207
100
AcDbSymbolTableRecord
100
AcDbBlockTableRecord
  2
*Model_Space
  0
BLOCK_RECORD
  5
208
100
AcDbSymbolTableRecord
100
AcDbBlockTableRecord
  2
*Paper_Space
  0
ENDTAB
  0
TABLE
  2
DIMSTYLE
  5
A
100
AcDbSymbolTable
 70
1
100
AcDbDimStyleTable
 71
0
  0
DIMSTYLE
105
209
100
AcDbSymbolTableRecord
100
AcDbDimStyleTableRecord
  2
STANDARD
 70
0
  3

  4

 40
1.0
 41
0.125
 42
0.0625
 43
0.38
 44
0.18
 45
0.0
 46
0.0
 47
0.01
 48
0.01
140
0.125
141
0.09
142
0.0
143
25.4
144
1.0
145
0.0
146
1.0
147
0.09
 71
1.0
 72
0.0
 73
1
 74
1
 75
0
 76
0
 77
0
 78
4
170
0
171
2
172
0
173
0
174
0
175
0
176
0
177
0
178
0
270
2
271
2
272
2
273
2
274
2
275
0
280
0
281
0
282
0
283
1
284
4
285
0
286
0
287
3
288
0
340
11
  0
ENDTAB
  0
ENDSEC
  0
SECTION
  2
BLOCKS
  0
BLOCK
  5
20
100
AcDbEntity
  8
0
100
AcDbBlockBegin
  2
*Model_Space
 70
0
 10
0.0
 20
0.0
 30
0.0
  3
*Model_Space
  1

  0
ENDBLK
  5
21
100
AcDbEntity
  8
0
100
AcDbBlockEnd
  0
BLOCK
  5
1C
100
AcDbEntity
  8
0
100
AcDbBlockBegin
  2
*Paper_Space
 70
0
 10
0.0
 20
0.0
 30
0.0
  3
*Paper_Space
  1

  0
ENDBLK
  5
1D
100
AcDbEntity
  8
0
100
AcDbBlockEnd
  0
ENDSEC
  0
SECTION
  2
ENTITIES
  0
MTEXT
  5
20A
100
AcDbEntity
  8
0
100
AcDbMText
 62
2
  6
CONTINUOUS
  7
STANDARD
 71
1
 72
1
 10
17.4486427545
 20
26.5752927613
 30
0.0
 11
1.0
 21
0.0
 31
0.0
 44
0.9
  1
411288
 40
3.0
 41
14.4
  0
LINE
  5
20B
100
AcDbEntity
  8
02___PRT_ALL_AXES
100
AcDbLine
 62
7
  6
CONTINUOUS
 10
-12.2506327998
 20
-8.468913796
 11
22.1787368942
 21
-8.6370473013
  0
LINE
  5
20C
100
AcDbEntity
  8
02___PRT_ALL_AXES
100
AcDbLine
 62
7
  6
CONTINUOUS
 10
-14.2643528669
 20
-4.1090280609
 11
-12.2293901214
 21
-4.1189656642
  0
LINE
  5
20D
100
AcDbEntity
  8
02___PRT_ALL_AXES
100
AcDbLine
 62
7
  6
CONTINUOUS
 10
22.2337005383
 20
-4.2872638436
 11
24.234942318
 21
-4.2970367729
  0
LINE
  5
20E
100
AcDbEntity
  8
02___PRT_ALL_AXES
100
AcDbLine
 62
7
  6
CONTINUOUS
 10
-14.1847538651
 20
12.1907775821
 11
-12.1497911196
 21
12.1808399787
  0
LINE
  5
20F
100
AcDbEntity
  8
02___PRT_ALL_AXES
100
AcDbLine
 62
7
  6
CONTINUOUS
 10
22.3133509432
 20
12.0125415483
 11
24.3145413198
 21
12.0027688701
  0
LINE
  5
210
100
AcDbEntity
  8
02___PRT_ALL_AXES
100
AcDbLine
 62
7
  6
CONTINUOUS
 10
-12.1285484413
 20
16.5307881105
 11
22.3008212527
 21
16.3626546051
  0
ARC
  5
211
100
AcDbEntity
  8
02___PRT_ALL_AXES
100
AcDbCircle
 62
7
  6
CONTINUOUS
 10
-2938.2110815471
 20
18.4611268007
 40
2960.531639606
100
AcDbArc
 50
359.6786323348
 51
359.8754453951
  0
ARC
  5
212
100
AcDbEntity
  8
02___PRT_ALL_AXES
100
AcDbCircle
 62
7
  6
CONTINUOUS
 10
-2972.6404512393
 20
18.6292602863
 40
2960.5316396046
100
AcDbArc
 50
359.6786323351
 51
359.8754453955
  0
ARC
  5
213
100
AcDbEntity
  8
02___PRT_ALL_AXES
100
AcDbCircle
 62
7
  6
CONTINUOUS
 10
-2344.1754478295
 20
14.2738355487
 40
2366.4820503383
100
AcDbArc
 50
359.5501248571
 51
359.6993413441
  0
ARC
  5
214
100
AcDbEntity
  8
02___PRT_ALL_AXES
100
AcDbCircle
 62
7
  6
CONTINUOUS
 10
-2378.6048175587
 20
14.4419632116
 40
2366.4820503354
100
AcDbArc
 50
359.5501249986
 51
359.6993414856
  0
CIRCLE
  5
215
100
AcDbEntity
  8
02___PRT_ALL_AXES
100
AcDbCircle
 62
7
  6
CONTINUOUS
 10
44.6671253626
 20
3.521760334
 40
12.5
  0
CIRCLE
  5
216
100
AcDbEntity
  8
02___PRT_ALL_AXES
100
AcDbCircle
 62
7
  6
CONTINUOUS
 10
44.6671253626
 20
3.521760334
 40
8.15
  0
CIRCLE
  5
217
100
AcDbEntity
  8
02___PRT_ALL_AXES
100
AcDbCircle
 62
7
  6
CONTINUOUS
 10
44.6671253626
 20
3.521760334
 40
8.0
  0
SPLINE
  5
218
100
AcDbEntity
  8
02___PRT_ALL_AXES
100
AcDbSpline
 62
7
  6
CONTINUOUS
 70
0
 71
3
 72
40
 73
36
 74
0
 42
0.0000001
 43
0.0000001
 44
0.0000000001
 40
0.0
 40
0.0
 40
0.0
 40
0.0
 40
0.1144416207
 40
0.2231209849
 40
0.3257329769
 40
0.4219778302
 40
0.5115753393
 40
0.5942759106
 40
0.6698341602
 40
0.7380339855
 40
0.7693151125
 40
0.7986855696
 40
0.8261219194
 40
0.8516044965
 40
0.8751173449
 40
0.8966446704
 40
0.9161706865
 40
0.9336796185
 40
0.9491568011
 40
0.9625929899
 40
0.9685433572
 40
0.9739806573
 40
0.9789039631
 40
0.9833123592
 40
0.9872049474
 40
0.9905808576
 40
0.9934392682
 40
0.9957795103
 40
0.9976017273
 40
0.9983188767
 40
0.9989069958
 40
0.9993665104
 40
0.9996983304
 40
0.9999050389
 40
1.0
 40
1.0
 40
1.0
 40
1.0
 10
22.2336850338
 20
-4.3071233615
 30
0.0
 10
22.2323685968
 20
-4.472318928
 30
0.0
 10
22.2297496137
 20
-4.7943918758
 30
0.0
 10
22.2257531445
 20
-5.2645827863
 30
0.0
 10
22.2217984217
 20
-5.7085053457
 30
0.0
 10
22.2178968597
 20
-6.1248818642
 30
0.0
 10
22.2140596561
 20
-6.5125147835
 30
0.0
 10
22.2102990025
 20
-6.8702850416
 30
0.0
 10
22.2066255959
 20
-7.1971660619
 30
0.0
 10
22.2035650724
 20
-7.4498232868
 30
0.0
 10
22.2011554044
 20
-7.6358095747
 30
0.0
 10
22.1994289367
 20
-7.7629561305
 30
0.0
 10
22.1977319732
 20
-7.8817318611
 30
0.0
 10
22.1960657756
 20
-7.9920514544
 30
0.0
 10
22.194431779
 20
-8.0938406186
 30
0.0
 10
22.1928313605
 20
-8.18703064
 30
0.0
 10
22.1912659523
 20
-8.2715530339
 30
0.0
 10
22.189737251
 20
-8.3473409115
 30
0.0
 10
22.1882465113
 20
-8.4143367335
 30
0.0
 10
22.1869924913
 20
-8.4646483315
 30
0.0
 10
22.1859976565
 20
-8.5004687191
 30
0.0
 10
22.1852922462
 20
-8.5240036787
 30
0.0
 10
22.1845972655
 20
-8.5453119954
 30
0.0
 10
22.1839129999
 20
-8.5643895207
 30
0.0
 10
22.1832399451
 20
-8.5812322136
 30
0.0
 10
22.1825786898
 20
-8.5958358046
 30
0.0
 10
22.1819305289
 20
-8.6081969951
 30
0.0
 10
22.1812966537
 20
-8.6183114
 30
0.0
 10
22.1807485683
 20
-8.6253364011
 30
0.0
 10
22.1803006881
 20
-8.6298261891
 30
0.0
 10
22.1799916232
 20
-8.6323611094
 30
0.0
 10
22.1797031697
 20
-8.634316093
 30
0.0
 10
22.1793910721
 20
-8.6357614865
 30
0.0
 10
22.1791635968
 20
-8.6365754673
 30
0.0
 10
22.1788749983
 20
-8.6370319626
 30
0.0
 10
22.1787379186
 20
-8.637031698
 30
0.0
  0
SPLINE
  5
219
100
AcDbEntity
  8
02___PRT_ALL_AXES
100
AcDbSpline
 62
7
  6
CONTINUOUS
 70
0
 71
3
 72
40
 73
36
 74
0
 42
0.0000001
 43
0.0000001
 44
0.0000000001
 40
0.0
 40
0.0
 40
0.0
 40
0.0
 40
0.114434042
 40
0.2231113805
 40
0.3257236139
 40
0.4219667546
 40
0.5115685457
 40
0.5942729526
 40
0.6698327328
 40
0.7380388742
 40
0.7693223161
 40
0.7986929946
 40
0.8261291854
 40
0.8516134898
 40
0.875128847
 40
0.8966582015
 40
0.9161845056
 40
0.9336913934
 40
0.9491676094
 40
0.9626042645
 40
0.9685549981
 40
0.9739925375
 40
0.978915794
 40
0.9833236904
 40
0.9872151669
 40
0.9905892066
 40
0.9934452994
 40
0.9957835617
 40
0.997604335
 40
0.9983209146
 40
0.9989085381
 40
0.9993676113
 40
0.9996990247
 40
0.9999053476
 40
1.0
 40
1.0
 40
1.0
 40
1.0
 10
22.3134651825
 20
12.0252680123
 30
0.0
 10
22.3137634664
 20
12.1907297151
 30
0.0
 10
22.3142924642
 20
12.5133295245
 30
0.0
 10
22.3148916944
 20
12.9842980236
 30
0.0
 10
22.3152757832
 20
13.4289642319
 30
0.0
 10
22.3154433238
 20
13.8460489431
 30
0.0
 10
22.315394382
 20
14.2343486505
 30
0.0
 10
22.3151298789
 20
14.5927418757
 30
0.0
 10
22.3146502689
 20
14.9201985469
 30
0.0
 10
22.3140583972
 20
15.1733045146
 30
0.0
 10
22.3134657378
 20
15.3596246504
 30
0.0
 10
22.3129812676
 20
15.4869948975
 30
0.0
 10
22.3124444073
 20
15.6059797931
 30
0.0
 10
22.3118557431
 20
15.7164980343
 30
0.0
 10
22.3112158953
 20
15.8184750525
 30
0.0
 10
22.3105255413
 20
15.9118367655
 30
0.0
 10
22.3097854359
 20
15.9965100631
 30
0.0
 10
22.308996422
 20
16.0724301826
 30
0.0
 10
22.3081595228
 20
16.1395440733
 30
0.0
 10
22.3073964767
 20
16.1899482264
 30
0.0
 10
22.3067511036
 20
16.2258371996
 30
0.0
 10
22.3062752499
 20
16.2494175158
 30
0.0
 10
22.3057880562
 20
16.2707662744
 30
0.0
 10
22.305289765
 20
16.289878616
 30
0.0
 10
22.3047808352
 20
16.3067498085
 30
0.0
 10
22.3042617811
 20
16.3213755717
 30
0.0
 10
22.3037338117
 20
16.333753961
 30
0.0
 10
22.3031982281
 20
16.3438824476
 30
0.0
 10
22.3027183241
 20
16.350918287
 30
0.0
 10
22.302313983
 20
16.3554160151
 30
0.0
 10
22.3020293539
 20
16.3579558575
 30
0.0
 10
22.3017599778
 20
16.3599148264
 30
0.0
 10
22.3014613049
 20
16.3613638742
 30
0.0
 10
22.3012424885
 20
16.3621797363
 30
0.0
 10
22.3009570873
 20
16.3626387377
 30
0.0
 10
22.3008202282
 20
16.3626390019
 30
0.0
  0
SPLINE
  5
21A
100
AcDbEntity
  8
02___PRT_ALL_AXES
100
AcDbSpline
 62
7
  6
CONTINUOUS
 70
0
 71
3
 72
40
 73
36
 74
0
 42
0.0000001
 43
0.0000001
 44
0.0000000001
 40
0.0
 40
0.0
 40
0.0
 40
0.0
 40
0.0000949611
 40
0.0003016696
 40
0.0006334896
 40
0.0010930042
 40
0.0016811233
 40
0.0023982727
 40
0.0042204897
 40
0.0065607318
 40
0.0094191424
 40
0.0127950526
 40
0.0166876408
 40
0.0210960369
 40
0.0260193427
 40
0.0314566428
 40
0.0374070101
 40
0.0508431989
 40
0.0663203815
 40
0.0838293135
 40
0.1033553296
 40
0.1248826551
 40
0.1483955035
 40
0.1738780806
 40
0.2013144304
 40
0.2306848875
 40
0.2619660145
 40
0.3301658398
 40
0.4057240894
 40
0.4884246607
 40
0.5780221698
 40
0.6742670231
 40
0.7768790151
 40
0.8855583793
 40
1.0
 40
1.0
 40
1.0
 40
1.0
 10
-12.1285494657
 20
16.5307725072
 30
0.0
 10
-12.1286865454
 20
16.5307727718
 30
0.0
 10
-12.1289751439
 20
16.5303162764
 30
0.0
 10
-12.1292026192
 20
16.5295022957
 30
0.0
 10
-12.1295147168
 20
16.5280569022
 30
0.0
 10
-12.1298031703
 20
16.5261019186
 30
0.0
 10
-12.1301122352
 20
16.5235669983
 30
0.0
 10
-12.1305601154
 20
16.5190772103
 30
0.0
 10
-12.1311082008
 20
16.5120522092
 30
0.0
 10
-12.131742076
 20
16.5019378043
 30
0.0
 10
-12.1323902369
 20
16.4895766138
 30
0.0
 10
-12.1330514922
 20
16.4749730228
 30
0.0
 10
-12.133724547
 20
16.4581303299
 30
0.0
 10
-12.1344088126
 20
16.4390528045
 30
0.0
 10
-12.1351037933
 20
16.4177444879
 30
0.0
 10
-12.1358092036
 20
16.3942095283
 30
0.0
 10
-12.1368040384
 20
16.3583891406
 30
0.0
 10
-12.1380580584
 20
16.3080775427
 30
0.0
 10
-12.1395487981
 20
16.2410817207
 30
0.0
 10
-12.1410774994
 20
16.1652938431
 30
0.0
 10
-12.1426429076
 20
16.0807714492
 30
0.0
 10
-12.1442433261
 20
15.9875814278
 30
0.0
 10
-12.1458773227
 20
15.8857922635
 30
0.0
 10
-12.1475435203
 20
15.7754726702
 30
0.0
 10
-12.1492404838
 20
15.6566969397
 30
0.0
 10
-12.1509669515
 20
15.5295503838
 30
0.0
 10
-12.1533766195
 20
15.343564096
 30
0.0
 10
-12.156437143
 20
15.0909068711
 30
0.0
 10
-12.1601105496
 20
14.7640258508
 30
0.0
 10
-12.1638712032
 20
14.4062555927
 30
0.0
 10
-12.1677084068
 20
14.0186226733
 30
0.0
 10
-12.1716099688
 20
13.6022461549
 30
0.0
 10
-12.1755646916
 20
13.1583235955
 30
0.0
 10
-12.1795611608
 20
12.688132685
 30
0.0
 10
-12.1821801439
 20
12.3660597372
 30
0.0
 10
-12.1834965809
 20
12.2008641707
 30
0.0
  0
SPLINE
  5
21B
100
AcDbEntity
  8
02___PRT_ALL_AXES
100
AcDbSpline
 62
7
  6
CONTINUOUS
 70
0
 71
3
 72
45
 73
41
 74
0
 42
0.0000001
 43
0.0000001
 44
0.0000000001
 40
0.0
 40
0.0
 40
0.0
 40
0.0
 40
0.1026706006
 40
0.2031327824
 40
0.3005026163
 40
0.3940456205
 40
0.4830573689
 40
0.5668427217
 40
0.6447452414
 40
0.7161634965
 40
0.7492656879
 40
0.7805451997
 40
0.809939039
 40
0.8373885081
 40
0.8628436895
 40
0.88625574
 40
0.9075760993
 40
0.9267633535
 40
0.9437836658
 40
0.9514707626
 40
0.9586035778
 40
0.9651779627
 40
0.9711906802
 40
0.976639538
 40
0.9815224056
 40
0.9858371595
 40
0.9895816882
 40
0.9927538998
 40
0.9941247447
 40
0.9953517458
 40
0.9964346896
 40
0.9973735453
 40
0.9981683629
 40
0.9988192299
 40
0.9993263141
 40
0.9996899901
 40
0.9998183655
 40
0.9999115099
 40
0.9999704467
 40
1.0
 40
1.0
 40
1.0
 40
1.0
 10
24.2970942205
 20
2.5443106759
 30
0.0
 10
24.2958146825
 20
2.3101607696
 30
0.0
 10
24.2932088593
 20
1.8468978649
 30
0.0
 10
24.2891258451
 20
1.1615754636
 30
0.0
 10
24.2849324851
 20
0.4970707766
 30
0.0
 10
24.2806630671
 20
-0.1413186928
 30
0.0
 10
24.2763502523
 20
-0.7487259876
 30
0.0
 10
24.2720282046
 20
-1.3204621419
 30
0.0
 10
24.2677305996
 20
-1.8520730582
 30
0.0
 10
24.2641130842
 20
-2.2680962125
 30
0.0
 10
24.2612432975
 20
-2.5777920526
 30
0.0
 10
24.2591726631
 20
-2.791649123
 30
0.0
 10
24.2571328434
 20
-2.9926141127
 30
0.0
 10
24.2551276919
 20
-3.1802956164
 30
0.0
 10
24.2531615077
 20
-3.3543344955
 30
0.0
 10
24.2512383765
 20
-3.5143947138
 30
0.0
 10
24.2493622065
 20
-3.6601596103
 30
0.0
 10
24.2475368252
 20
-3.7913467111
 30
0.0
 10
24.2460147075
 20
-3.8914425603
 30
0.0
 10
24.2448160193
 20
-3.9640483689
 30
0.0
 10
24.2439627136
 20
-4.0128333391
 30
0.0
 10
24.2431247354
 20
-4.0577993308
 30
0.0
 10
24.2423025359
 20
-4.0989244356
 30
0.0
 10
24.2414967344
 20
-4.1361913323
 30
0.0
 10
24.2407079062
 20
-4.1695852075
 30
0.0
 10
24.2399368895
 20
-4.1990914032
 30
0.0
 10
24.239184348
 20
-4.2246952491
 30
0.0
 10
24.2385469472
 20
-4.2435855017
 30
0.0
 10
24.2380378936
 20
-4.2567350269
 30
0.0
 10
24.2376798363
 20
-4.2651219363
 30
0.0
 10
24.2373269115
 20
-4.2725228352
 30
0.0
 10
24.2369793577
 20
-4.2789372419
 30
0.0
 10
24.2366379057
 20
-4.2843645533
 30
0.0
 10
24.23630301
 20
-4.2888064774
 30
0.0
 10
24.2359780252
 20
-4.292259643
 30
0.0
 10
24.235691068
 20
-4.2945253288
 30
0.0
 10
24.2354567389
 20
-4.2958339907
 30
0.0
 10
24.2352912809
 20
-4.2964629887
 30
0.0
 10
24.2351653333
 20
-4.2968370738
 30
0.0
 10
24.2350095219
 20
-4.2970212879
 30
0.0
 10
24.2349421232
 20
-4.2970208713
 30
0.0
  0
SPLINE
  5
21C
100
AcDbEntity
  8
02___PRT_ALL_AXES
100
AcDbSpline
 62
7
  6
CONTINUOUS
 70
0
 71
3
 72
47
 73
43
 74
0
 42
0.0000001
 43
0.0000001
 44
0.0000000001
 40
0.0
 40
0.0
 40
0.0
 40
0.0
 40
0.0926752358
 40
0.1859289284
 40
0.2785934471
 40
0.3696201204
 40
0.4579432154
 40
0.5425228451
 40
0.6223696071
 40
0.6965511935
 40
0.7312421241
 40
0.7641979026
 40
0.7953191508
 40
0.8245160788
 40
0.8517050145
 40
0.8768031257
 40
0.8997379708
 40
0.9204447794
 40
0.9388595754
 40
0.9471902706
 40
0.9549290917
 40
0.9620705589
 40
0.9686091943
 40
0.9745395223
 40
0.9798565446
 40
0.9845570948
 40
0.9886384542
 40
0.9904460924
 40
0.9920979209
 40
0.9935936061
 40
0.9949328178
 40
0.9961152311
 40
0.9971405295
 40
0.9980084415
 40
0.9987189457
 40
0.9992721768
 40
0.9994899003
 40
0.9996684423
 40
0.9998079281
 40
0.9999086279
 40
0.9999713128
 40
1.0
 40
1.0
 40
1.0
 40
1.0
 10
24.2970942205
 20
2.5443106759
 30
0.0
 10
24.2986909393
 20
2.836503297
 30
0.0
 10
24.3017773528
 20
3.4227129816
 30
0.0
 10
24.3060635788
 20
4.3010835301
 30
0.0
 10
24.3099869695
 20
5.1742579492
 30
0.0
 10
24.3135014918
 20
6.0318882355
 30
0.0
 10
24.3165669682
 20
6.8640291246
 30
0.0
 10
24.3191477766
 20
7.6609221944
 30
0.0
 10
24.3212140554
 20
8.4132296573
 30
0.0
 10
24.3225166278
 20
9.0082437986
 30
0.0
 10
24.3232690373
 20
9.4554154935
 30
0.0
 10
24.323679197
 20
9.766822038
 30
0.0
 10
24.3239466536
 20
10.0609066181
 30
0.0
 10
24.324070839
 20
10.3368089385
 30
0.0
 10
24.3240519153
 20
10.5937208598
 30
0.0
 10
24.3238897784
 20
10.8308889254
 30
0.0
 10
24.323585415
 20
11.047619254
 30
0.0
 10
24.323140527
 20
11.2432773812
 30
0.0
 10
24.3226392815
 20
11.3928895726
 30
0.0
 10
24.3221576441
 20
11.5016145624
 30
0.0
 10
24.3217742149
 20
11.574795786
 30
0.0
 10
24.3213568978
 20
11.6423265177
 30
0.0
 10
24.3209060933
 20
11.7041548771
 30
0.0
 10
24.3204222831
 20
11.7602304806
 30
0.0
 10
24.3199060063
 20
11.810510207
 30
0.0
 10
24.319358002
 20
11.8549595736
 30
0.0
 10
24.3188580347
 20
11.8883438194
 30
0.0
 10
24.3184349754
 20
11.9121156415
 30
0.0
 10
24.3181229492
 20
11.9277357036
 30
0.0
 10
24.3178034054
 20
11.9418783723
 30
0.0
 10
24.3174765059
 20
11.9545404029
 30
0.0
 10
24.3171425473
 20
11.9657186209
 30
0.0
 10
24.3168018984
 20
11.975409794
 30
0.0
 10
24.3164553245
 20
11.9836120728
 30
0.0
 10
24.3161036521
 20
11.9903233259
 30
0.0
 10
24.3157884925
 20
11.9949852383
 30
0.0
 10
24.3155228912
 20
11.9979653616
 30
0.0
 10
24.315335956
 20
11.9996483494
 30
0.0
 10
24.3151589039
 20
12.0009462953
 30
0.0
 10
24.3149628901
 20
12.0019070491
 30
0.0
 10
24.3148187953
 20
12.0024470141
 30
0.0
 10
24.314631961
 20
12.0027524094
 30
0.0
 10
24.3145415146
 20
12.0027529684
 30
0.0
  0
SPLINE
  5
21D
100
AcDbEntity
  8
02___PRT_ALL_AXES
100
AcDbSpline
 62
7
  6
CONTINUOUS
 70
0
 71
3
 72
40
 73
36
 74
0
 42
0.0000001
 43
0.0000001
 44
0.0000000001
 40
0.0
 40
0.0
 40
0.0
 40
0.0
 40
0.0000946524
 40
0.0003009753
 40
0.0006323887
 40
0.0010914619
 40
0.0016790854
 40
0.002395665
 40
0.0042164383
 40
0.0065547006
 40
0.0094107934
 40
0.0127848331
 40
0.0166763096
 40
0.021084206
 40
0.0260074625
 40
0.0314450019
 40
0.0373957355
 40
0.0508323906
 40
0.0663086066
 40
0.0838154944
 40
0.1033417985
 40
0.124871153
 40
0.1483865102
 40
0.1738708146
 40
0.2013070054
 40
0.2306776839
 40
0.2619611258
 40
0.3301672672
 40
0.4057270474
 40
0.4884314543
 40
0.5780332454
 40
0.6742763861
 40
0.7768886195
 40
0.885565958
 40
1.0
 40
1.0
 40
1.0
 40
1.0
 10
-12.2506317753
 20
-8.4688981927
 30
0.0
 10
-12.2507686344
 20
-8.4688979285
 30
0.0
 10
-12.2510540356
 20
-8.4684389271
 30
0.0
 10
-12.251272852
 20
-8.467623065
 30
0.0
 10
-12.2515715248
 20
-8.4661740172
 30
0.0
 10
-12.251840901
 20
-8.4642150483
 30
0.0
 10
-12.2521255301
 20
-8.4616752059
 30
0.0
 10
-12.2525298712
 20
-8.4571774779
 30
0.0
 10
-12.2530097752
 20
-8.4501416384
 30
0.0
 10
-12.2535453588
 20
-8.4400131519
 30
0.0
 10
-12.2540733282
 20
-8.4276347626
 30
0.0
 10
-12.2545923823
 20
-8.4130089993
 30
0.0
 10
-12.2551013121
 20
-8.3961378069
 30
0.0
 10
-12.2555996033
 20
-8.3770254652
 30
0.0
 10
-12.256086797
 20
-8.3556767066
 30
0.0
 10
-12.2565626507
 20
-8.3320963904
 30
0.0
 10
-12.2572080238
 20
-8.2962074172
 30
0.0
 10
-12.2579710699
 20
-8.2458032642
 30
0.0
 10
-12.2588079691
 20
-8.1786893735
 30
0.0
 10
-12.259596983
 20
-8.1027692539
 30
0.0
 10
-12.2603370884
 20
-8.0180959563
 30
0.0
 10
-12.2610274424
 20
-7.9247342433
 30
0.0
 10
-12.2616672902
 20
-7.8227572251
 30
0.0
 10
-12.2622559543
 20
-7.7122389839
 30
0.0
 10
-12.2627928147
 20
-7.5932540883
 30
0.0
 10
-12.2632772849
 20
-7.4658838412
 30
0.0
 10
-12.2638699443
 20
-7.2795637054
 30
0.0
 10
-12.264461816
 20
-7.0264577377
 30
0.0
 10
-12.264941426
 20
-6.6990010665
 30
0.0
 10
-12.2652059291
 20
-6.3406078414
 30
0.0
 10
-12.2652548709
 20
-5.9523081339
 30
0.0
 10
-12.2650873303
 20
-5.5352234227
 30
0.0
 10
-12.2647032415
 20
-5.0905572144
 30
0.0
 10
-12.2641040113
 20
-4.6195887153
 30
0.0
 10
-12.2635750135
 20
-4.2969889059
 30
0.0
 10
-12.2632767296
 20
-4.1315272031
 30
0.0
  0
SPLINE
  5
21E
100
AcDbEntity
  8
02___PRT_ALL_AXES
100
AcDbSpline
 62
7
  6
CONTINUOUS
 70
0
 71
3
 72
47
 73
43
 74
0
 42
0.0000001
 43
0.0000001
 44
0.0000000001
 40
0.0
 40
0.0
 40
0.0
 40
0.0
 40
0.0926752358
 40
0.1859289284
 40
0.2785934471
 40
0.3696201204
 40
0.4579432154
 40
0.5425228451
 40
0.6223696071
 40
0.6965511935
 40
0.7312421241
 40
0.7641979026
 40
0.7953191508
 40
0.8245160788
 40
0.8517050145
 40
0.8768031257
 40
0.8997379708
 40
0.9204447794
 40
0.9388595754
 40
0.9471902706
 40
0.9549290917
 40
0.9620705589
 40
0.9686091943
 40
0.9745395223
 40
0.9798565446
 40
0.9845570948
 40
0.9886384542
 40
0.9904460924
 40
0.9920979209
 40
0.9935936061
 40
0.9949328178
 40
0.9961152311
 40
0.9971405295
 40
0.9980084415
 40
0.9987189457
 40
0.9992721768
 40
0.9994899003
 40
0.9996684423
 40
0.9998079281
 40
0.9999086279
 40
0.9999713128
 40
1.0
 40
1.0
 40
1.0
 40
1.0
 10
-14.2022009645
 20
2.7323193879
 30
0.0
 10
-14.2006042456
 20
3.0245120091
 30
0.0
 10
-14.1975178321
 20
3.6107216937
 30
0.0
 10
-14.1932316062
 20
4.4890922422
 30
0.0
 10
-14.1893082155
 20
5.3622666613
 30
0.0
 10
-14.1857936931
 20
6.2198969476
 30
0.0
 10
-14.1827282167
 20
7.0520378366
 30
0.0
 10
-14.1801474083
 20
7.8489309064
 30
0.0
 10
-14.1780811295
 20
8.6012383693
 30
0.0
 10
-14.1767785571
 20
9.1962525107
 30
0.0
 10
-14.1760261476
 20
9.6434242055
 30
0.0
 10
-14.1756159879
 20
9.95483075
 30
0.0
 10
-14.1753485313
 20
10.2489153301
 30
0.0
 10
-14.175224346
 20
10.5248176505
 30
0.0
 10
-14.1752432697
 20
10.7817295718
 30
0.0
 10
-14.1754054065
 20
11.0188976374
 30
0.0
 10
-14.1757097699
 20
11.235627966
 30
0.0
 10
-14.1761546579
 20
11.4312860933
 30
0.0
 10
-14.1766559034
 20
11.5808982846
 30
0.0
 10
-14.1771375408
 20
11.6896232745
 30
0.0
 10
-14.1775209701
 20
11.7628044981
 30
0.0
 10
-14.1779382871
 20
11.8303352297
 30
0.0
 10
-14.1783890917
 20
11.8921635891
 30
0.0
 10
-14.1788729019
 20
11.9482391926
 30
0.0
 10
-14.1793891787
 20
11.998518919
 30
0.0
 10
-14.179937183
 20
12.0429682856
 30
0.0
 10
-14.1804371503
 20
12.0763525314
 30
0.0
 10
-14.1808602095
 20
12.1001243536
 30
0.0
 10
-14.1811722358
 20
12.1157444156
 30
0.0
 10
-14.1814917795
 20
12.1298870843
 30
0.0
 10
-14.181818679
 20
12.1425491149
 30
0.0
 10
-14.1821526376
 20
12.1537273329
 30
0.0
 10
-14.1824932865
 20
12.163418506
 30
0.0
 10
-14.1828398605
 20
12.1716207849
 30
0.0
 10
-14.1831915329
 20
12.1783320379
 30
0.0
 10
-14.1835066924
 20
12.1829939503
 30
0.0
 10
-14.1837722938
 20
12.1859740736
 30
0.0
 10
-14.1839592289
 20
12.1876570614
 30
0.0
 10
-14.184136281
 20
12.1889550073
 30
0.0
 10
-14.1843322949
 20
12.1899157611
 30
0.0
 10
-14.1844763896
 20
12.1904557262
 30
0.0
 10
-14.184663224
 20
12.1907611214
 30
0.0
 10
-14.1847536703
 20
12.1907616805
 30
0.0
  0
SPLINE
  5
21F
100
AcDbEntity
  8
02___PRT_ALL_AXES
100
AcDbSpline
 62
7
  6
CONTINUOUS
 70
0
 71
3
 72
40
 73
36
 74
0
 42
0.0000001
 43
0.0000001
 44
0.0000000001
 40
0.0
 40
0.0
 40
0.0
 40
0.0
 40
0.114434042
 40
0.2231113805
 40
0.3257236139
 40
0.4219667546
 40
0.5115685457
 40
0.5942729526
 40
0.6698327328
 40
0.7380388742
 40
0.7693223161
 40
0.7986929946
 40
0.8261291854
 40
0.8516134898
 40
0.875128847
 40
0.8966582015
 40
0.9161845056
 40
0.9336913934
 40
0.9491676094
 40
0.9626042645
 40
0.9685549981
 40
0.9739925375
 40
0.978915794
 40
0.9833236904
 40
0.9872151669
 40
0.9905892066
 40
0.9934452994
 40
0.9957835617
 40
0.997604335
 40
0.9983209146
 40
0.9989085381
 40
0.9993676113
 40
0.9996990247
 40
0.9999053476
 40
1.0
 40
1.0
 40
1.0
 40
1.0
 10
-12.1159045114
 20
12.1934015176
 30
0.0
 10
-12.1156062276
 20
12.3588632204
 30
0.0
 10
-12.1150772298
 20
12.6814630298
 30
0.0
 10
-12.1144779996
 20
13.1524315289
 30
0.0
 10
-12.1140939107
 20
13.5970977372
 30
0.0
 10
-12.1139263702
 20
14.0141824484
 30
0.0
 10
-12.1139753119
 20
14.4024821559
 30
0.0
 10
-12.1142398151
 20
14.760875381
 30
0.0
 10
-12.1147194251
 20
15.0883320522
 30
0.0
 10
-12.1153112968
 20
15.3414380199
 30
0.0
 10
-12.1159039562
 20
15.5277581557
 30
0.0
 10
-12.1163884263
 20
15.6551284028
 30
0.0
 10
-12.1169252867
 20
15.7741132984
 30
0.0
 10
-12.1175139509
 20
15.8846315396
 30
0.0
 10
-12.1181537986
 20
15.9866085579
 30
0.0
 10
-12.1188441527
 20
16.0799702708
 30
0.0
 10
-12.119584258
 20
16.1646435684
 30
0.0
 10
-12.120373272
 20
16.240563688
 30
0.0
 10
-12.1212101712
 20
16.3076775787
 30
0.0
 10
-12.1219732173
 20
16.3580817317
 30
0.0
 10
-12.1226185904
 20
16.3939707049
 30
0.0
 10
-12.123094444
 20
16.4175510211
 30
0.0
 10
-12.1235816377
 20
16.4388997798
 30
0.0
 10
-12.1240799289
 20
16.4580121214
 30
0.0
 10
-12.1245888588
 20
16.4748833138
 30
0.0
 10
-12.1251079129
 20
16.4895090771
 30
0.0
 10
-12.1256358823
 20
16.5018874664
 30
0.0
 10
-12.1261714658
 20
16.5120159529
 30
0.0
 10
-12.1266513699
 20
16.5190517924
 30
0.0
 10
-12.127055711
 20
16.5235495204
 30
0.0
 10
-12.12734034
 20
16.5260893628
 30
0.0
 10
-12.1276097162
 20
16.5280483317
 30
0.0
 10
-12.127908389
 20
16.5294973796
 30
0.0
 10
-12.1281272054
 20
16.5303132416
 30
0.0
 10
-12.1284126066
 20
16.530772243
 30
0.0
 10
-12.1285494657
 20
16.5307725072
 30
0.0
  0
SPLINE
  5
220
100
AcDbEntity
  8
02___PRT_ALL_AXES
100
AcDbSpline
 62
7
  6
CONTINUOUS
 70
0
 71
3
 72
45
 73
41
 74
0
 42
0.0000001
 43
0.0000001
 44
0.0000000001
 40
0.0
 40
0.0
 40
0.0
 40
0.0
 40
0.1026706006
 40
0.2031327824
 40
0.3005026163
 40
0.3940456205
 40
0.4830573689
 40
0.5668427217
 40
0.6447452414
 40
0.7161634965
 40
0.7492656879
 40
0.7805451997
 40
0.809939039
 40
0.8373885081
 40
0.8628436895
 40
0.88625574
 40
0.9075760993
 40
0.9267633535
 40
0.9437836658
 40
0.9514707626
 40
0.9586035778
 40
0.9651779627
 40
0.9711906802
 40
0.976639538
 40
0.9815224056
 40
0.9858371595
 40
0.9895816882
 40
0.9927538998
 40
0.9941247447
 40
0.9953517458
 40
0.9964346896
 40
0.9973735453
 40
0.9981683629
 40
0.9988192299
 40
0.9993263141
 40
0.9996899901
 40
0.9998183655
 40
0.9999115099
 40
0.9999704467
 40
1.0
 40
1.0
 40
1.0
 40
1.0
 10
-14.2022009645
 20
2.7323193879
 30
0.0
 10
-14.2034805025
 20
2.4981694816
 30
0.0
 10
-14.2060863256
 20
2.034906577
 30
0.0
 10
-14.2101693398
 20
1.3495841756
 30
0.0
 10
-14.2143626998
 20
0.6850794886
 30
0.0
 10
-14.2186321178
 20
0.0466900192
 30
0.0
 10
-14.2229449326
 20
-0.5607172756
 30
0.0
 10
-14.2272669804
 20
-1.1324534299
 30
0.0
 10
-14.2315645853
 20
-1.6640643462
 30
0.0
 10
-14.2351821008
 20
-2.0800875005
 30
0.0
 10
-14.2380518874
 20
-2.3897833406
 30
0.0
 10
-14.2401225219
 20
-2.603640411
 30
0.0
 10
-14.2421623415
 20
-2.8046054007
 30
0.0
 10
-14.2441674931
 20
-2.9922869044
 30
0.0
 10
-14.2461336772
 20
-3.1663257834
 30
0.0
 10
-14.2480568084
 20
-3.3263860018
 30
0.0
 10
-14.2499329784
 20
-3.4721508983
 30
0.0
 10
-14.2517583598
 20
-3.603337999
 30
0.0
 10
-14.2532804774
 20
-3.7034338483
 30
0.0
 10
-14.2544791657
 20
-3.7760396569
 30
0.0
 10
-14.2553324713
 20
-3.8248246271
 30
0.0
 10
-14.2561704495
 20
-3.8697906188
 30
0.0
 10
-14.256992649
 20
-3.9109157236
 30
0.0
 10
-14.2577984506
 20
-3.9481826203
 30
0.0
 10
-14.2585872787
 20
-3.9815764955
 30
0.0
 10
-14.2593582955
 20
-4.0110826911
 30
0.0
 10
-14.260110837
 20
-4.036686537
 30
0.0
 10
-14.2607482378
 20
-4.0555767897
 30
0.0
 10
-14.2612572913
 20
-4.0687263149
 30
0.0
 10
-14.2616153486
 20
-4.0771132243
 30
0.0
 10
-14.2619682734
 20
-4.0845141232
 30
0.0
 10
-14.2623158273
 20
-4.0909285299
 30
0.0
 10
-14.2626572793
 20
-4.0963558412
 30
0.0
 10
-14.2629921749
 20
-4.1007977654
 30
0.0
 10
-14.2633171597
 20
-4.104250931
 30
0.0
 10
-14.2636041169
 20
-4.1065166167
 30
0.0
 10
-14.263838446
 20
-4.1078252787
 30
0.0
 10
-14.264003904
 20
-4.1084542766
 30
0.0
 10
-14.2641298517
 20
-4.1088283618
 30
0.0
 10
-14.264285663
 20
-4.1090125759
 30
0.0
 10
-14.2643530617
 20
-4.1090121593
 30
0.0
  0
SPLINE
  5
221
100
AcDbEntity
  8
02___PRT_ALL_AXES
100
AcDbSpline
 62
7
  6
CONTINUOUS
 70
0
 71
3
 72
45
 73
41
 74
0
 42
0.0000001
 43
0.0000001
 44
0.0000000001
 40
0.0
 40
0.0
 40
0.0
 40
0.0
 40
0.0000295533
 40
0.0000884901
 40
0.0001816345
 40
0.0003100099
 40
0.0006736859
 40
0.0011807701
 40
0.0018316371
 40
0.0026264547
 40
0.0035653104
 40
0.0046482542
 40
0.0058752553
 40
0.0072461002
 40
0.0104183118
 40
0.0141628405
 40
0.0184775944
 40
0.023360462
 40
0.0288093198
 40
0.0348220373
 40
0.0413964222
 40
0.0485292374
 40
0.0562163342
 40
0.0732366465
 40
0.0924239007
 40
0.11374426
 40
0.1371563105
 40
0.1626114919
 40
0.190060961
 40
0.2194548003
 40
0.2507343121
 40
0.2838365035
 40
0.3552547586
 40
0.4331572783
 40
0.5169426311
 40
0.6059543795
 40
0.6994973837
 40
0.7968672176
 40
0.8973293994
 40
1.0
 40
1.0
 40
1.0
 40
1.0
 10
-14.1854861801
 20
12.0407637617
 30
0.0
 10
-14.1855523383
 20
12.0407641706
 30
0.0
 10
-14.185705282
 20
12.040583347
 30
0.0
 10
-14.1858289115
 20
12.0402161469
 30
0.0
 10
-14.1859913243
 20
12.0395987255
 30
0.0
 10
-14.1862213406
 20
12.0383141494
 30
0.0
 10
-14.1865030164
 20
12.0360901634
 30
0.0
 10
-14.1868220198
 20
12.032700553
 30
0.0
 10
-14.1871507518
 20
12.028340382
 30
0.0
 10
-14.1874859194
 20
12.0230129599
 30
0.0
 10
-14.1878270766
 20
12.0167166097
 30
0.0
 10
-14.1881735058
 20
12.0094519237
 30
0.0
 10
-14.1885249731
 20
12.0012193746
 30
0.0
 10
-14.1890246575
 20
11.9883118652
 30
0.0
 10
-14.1896503271
 20
11.9697692859
 30
0.0
 10
-14.1903890181
 20
11.9446366764
 30
0.0
 10
-14.1911458443
 20
11.9156735396
 30
0.0
 10
-14.1919201542
 20
11.8828942756
 30
0.0
 10
-14.192711125
 20
11.8463132727
 30
0.0
 10
-14.193518192
 20
11.8059450717
 30
0.0
 10
-14.1943407473
 20
11.7618066749
 30
0.0
 10
-14.1951783479
 20
11.7139195876
 30
0.0
 10
-14.1963549745
 20
11.6426500822
 30
0.0
 10
-14.1978490777
 20
11.5443964879
 30
0.0
 10
-14.1996408631
 20
11.4156238736
 30
0.0
 10
-14.2014825023
 20
11.2725417666
 30
0.0
 10
-14.2033702384
 20
11.1154274419
 30
0.0
 10
-14.2053002351
 20
10.9445917324
 30
0.0
 10
-14.2072684821
 20
10.7603644895
 30
0.0
 10
-14.2092707591
 20
10.5630982419
 30
0.0
 10
-14.2113032837
 20
10.3531771912
 30
0.0
 10
-14.2141202521
 20
10.0491812745
 30
0.0
 10
-14.2176711875
 20
9.6408149881
 30
0.0
 10
-14.2218896955
 20
9.1189883218
 30
0.0
 10
-14.2261321964
 20
8.5577749188
 30
0.0
 10
-14.2303656342
 20
7.9615468994
 30
0.0
 10
-14.2345564739
 20
7.3349069294
 30
0.0
 10
-14.2386726555
 20
6.68263239
 30
0.0
 10
-14.2426805222
 20
6.0099232844
 30
0.0
 10
-14.2452383855
 20
5.5551866909
 30
0.0
 10
-14.2464943737
 20
5.3253462921
 30
0.0
  0
SPLINE
  5
222
100
AcDbEntity
  8
02___PRT_ALL_AXES
100
AcDbSpline
 62
7
  6
CONTINUOUS
 70
0
 71
3
 72
45
 73
41
 74
0
 42
0.0000001
 43
0.0000001
 44
0.0000000001
 40
0.0
 40
0.0
 40
0.0
 40
0.0
 40
0.1026706006
 40
0.2031327824
 40
0.3005026163
 40
0.3940456205
 40
0.4830573689
 40
0.5668427217
 40
0.6447452414
 40
0.7161634965
 40
0.7492656879
 40
0.7805451997
 40
0.809939039
 40
0.8373885081
 40
0.8628436895
 40
0.88625574
 40
0.9075760993
 40
0.9267633535
 40
0.9437836658
 40
0.9514707626
 40
0.9586035778
 40
0.9651779627
 40
0.9711906802
 40
0.976639538
 40
0.9815224056
 40
0.9858371595
 40
0.9895816882
 40
0.9927538998
 40
0.9941247447
 40
0.9953517458
 40
0.9964346896
 40
0.9973735453
 40
0.9981683629
 40
0.9988192299
 40
0.9993263141
 40
0.9996899901
 40
0.9998183655
 40
0.9999115099
 40
0.9999704467
 40
1.0
 40
1.0
 40
1.0
 40
1.0
 10
-12.167238219
 20
2.7223817846
 30
0.0
 10
-12.168517757
 20
2.4882318783
 30
0.0
 10
-12.1711235801
 20
2.0249689736
 30
0.0
 10
-12.1752065943
 20
1.3396465723
 30
0.0
 10
-12.1793999544
 20
0.6751418853
 30
0.0
 10
-12.1836693723
 20
0.0367524159
 30
0.0
 10
-12.1879821871
 20
-0.5706548789
 30
0.0
 10
-12.1923042349
 20
-1.1423910332
 30
0.0
 10
-12.1966018399
 20
-1.6740019495
 30
0.0
 10
-12.2002193553
 20
-2.0900251038
 30
0.0
 10
-12.2030891419
 20
-2.3997209439
 30
0.0
 10
-12.2051597764
 20
-2.6135780144
 30
0.0
 10
-12.207199596
 20
-2.814543004
 30
0.0
 10
-12.2092047476
 20
-3.0022245077
 30
0.0
 10
-12.2111709317
 20
-3.1762633868
 30
0.0
 10
-12.2130940629
 20
-3.3363236052
 30
0.0
 10
-12.2149702329
 20
-3.4820885016
 30
0.0
 10
-12.2167956143
 20
-3.6132756024
 30
0.0
 10
-12.2183177319
 20
-3.7133714516
 30
0.0
 10
-12.2195164202
 20
-3.7859772602
 30
0.0
 10
-12.2203697258
 20
-3.8347622304
 30
0.0
 10
-12.221207704
 20
-3.8797282221
 30
0.0
 10
-12.2220299035
 20
-3.9208533269
 30
0.0
 10
-12.2228357051
 20
-3.9581202236
 30
0.0
 10
-12.2236245332
 20
-3.9915140988
 30
0.0
 10
-12.22439555
 20
-4.0210202945
 30
0.0
 10
-12.2251480915
 20
-4.0466241404
 30
0.0
 10
-12.2257854923
 20
-4.065514393
 30
0.0
 10
-12.2262945458
 20
-4.0786639182
 30
0.0
 10
-12.2266526031
 20
-4.0870508276
 30
0.0
 10
-12.2270055279
 20
-4.0944517265
 30
0.0
 10
-12.2273530818
 20
-4.1008661333
 30
0.0
 10
-12.2276945338
 20
-4.1062934446
 30
0.0
 10
-12.2280294295
 20
-4.1107353687
 30
0.0
 10
-12.2283544142
 20
-4.1141885343
 30
0.0
 10
-12.2286413715
 20
-4.1164542201
 30
0.0
 10
-12.2288757005
 20
-4.117762882
 30
0.0
 10
-12.2290411586
 20
-4.11839188
 30
0.0
 10
-12.2291671062
 20
-4.1187659651
 30
0.0
 10
-12.2293229175
 20
-4.1189501792
 30
0.0
 10
-12.2293903162
 20
-4.1189497626
 30
0.0
  0
SPLINE
  5
223
100
AcDbEntity
  8
02___PRT_ALL_AXES
100
AcDbSpline
 62
7
  6
CONTINUOUS
 70
0
 71
3
 72
47
 73
43
 74
0
 42
0.0000001
 43
0.0000001
 44
0.0000000001
 40
0.0
 40
0.0
 40
0.0
 40
0.0
 40
0.0000286872
 40
0.0000913721
 40
0.0001920719
 40
0.0003315577
 40
0.0005100997
 40
0.0007278232
 40
0.0012810543
 40
0.0019915585
 40
0.0028594705
 40
0.0038847689
 40
0.0050671822
 40
0.0064063939
 40
0.0079020791
 40
0.0095539076
 40
0.0113615458
 40
0.0154429052
 40
0.0201434554
 40
0.0254604777
 40
0.0313908057
 40
0.0379294411
 40
0.0450709083
 40
0.0528097294
 40
0.0611404246
 40
0.0795552206
 40
0.1002620292
 40
0.1231968743
 40
0.1482949855
 40
0.1754839212
 40
0.2046808492
 40
0.2358020974
 40
0.2687578759
 40
0.3034488065
 40
0.3776303929
 40
0.4574771549
 40
0.5420567846
 40
0.6303798796
 40
0.7214065529
 40
0.8140710716
 40
0.9073247642
 40
1.0
 40
1.0
 40
1.0
 40
1.0
 10
-14.263620552
 20
-3.9590142405
 30
0.0
 10
-14.2637093337
 20
-3.9590136917
 30
0.0
 10
-14.2638927294
 20
-3.9587139172
 30
0.0
 10
-14.264034172
 20
-3.9581838902
 30
0.0
 10
-14.2642265783
 20
-3.957240819
 30
0.0
 10
-14.2644003717
 20
-3.9559667617
 30
0.0
 10
-14.2645838664
 20
-3.9543147491
 30
0.0
 10
-14.2648445794
 20
-3.9513894747
 30
0.0
 10
-14.2651539384
 20
-3.9468133643
 30
0.0
 10
-14.2654991383
 20
-3.9402256313
 30
0.0
 10
-14.2658393336
 20
-3.9321743146
 30
0.0
 10
-14.2661737129
 20
-3.9226615067
 30
0.0
 10
-14.266501525
 20
-3.9116890227
 30
0.0
 10
-14.266822408
 20
-3.8992600357
 30
0.0
 10
-14.2671360705
 20
-3.8853776615
 30
0.0
 10
-14.267442354
 20
-3.8700450852
 30
0.0
 10
-14.2678576269
 20
-3.8467107813
 30
0.0
 10
-14.2683483923
 20
-3.8139409695
 30
0.0
 10
-14.2688863107
 20
-3.7703096894
 30
0.0
 10
-14.2693930854
 20
-3.7209553567
 30
0.0
 10
-14.2698679911
 20
-3.6659118195
 30
0.0
 10
-14.2703104986
 20
-3.6052214054
 30
0.0
 10
-14.270720135
 20
-3.5389335706
 30
0.0
 10
-14.2710965073
 20
-3.4670992407
 30
0.0
 10
-14.2715692802
 20
-3.3603753243
 30
0.0
 10
-14.2720613004
 20
-3.2135167316
 30
0.0
 10
-14.2724980002
 20
-3.0214596742
 30
0.0
 10
-14.2727967619
 20
-2.8087182473
 30
0.0
 10
-14.2729559146
 20
-2.5759152382
 30
0.0
 10
-14.27297449
 20
-2.3237317571
 30
0.0
 10
-14.2728525902
 20
-2.0529073935
 30
0.0
 10
-14.2725900562
 20
-1.764235413
 30
0.0
 10
-14.2721874454
 20
-1.4585602773
 30
0.0
 10
-14.2714488839
 20
-1.0196187364
 30
0.0
 10
-14.2701702853
 20
-0.4355557755
 30
0.0
 10
-14.2681420361
 20
0.3029055377
 30
0.0
 10
-14.2656087273
 20
1.0851318639
 30
0.0
 10
-14.2625996707
 20
1.9019572765
 30
0.0
 10
-14.2591498328
 20
2.7438029563
 30
0.0
 10
-14.2552986517
 20
3.6009066805
 30
0.0
 10
-14.2510913134
 20
4.4631108999
 30
0.0
 10
-14.248061705
 20
5.0385314492
 30
0.0
 10
-14.2464943737
 20
5.3253462921
 30
0.0
  0
SPLINE
  5
224
100
AcDbEntity
  8
02___PRT_ALL_AXES
100
AcDbSpline
 62
7
  6
CONTINUOUS
 70
0
 71
3
 72
47
 73
43
 74
0
 42
0.0000001
 43
0.0000001
 44
0.0000000001
 40
0.0
 40
0.0
 40
0.0
 40
0.0
 40
0.0926752358
 40
0.1859289284
 40
0.2785934471
 40
0.3696201204
 40
0.4579432154
 40
0.5425228451
 40
0.6223696071
 40
0.6965511935
 40
0.7312421241
 40
0.7641979026
 40
0.7953191508
 40
0.8245160788
 40
0.8517050145
 40
0.8768031257
 40
0.8997379708
 40
0.9204447794
 40
0.9388595754
 40
0.9471902706
 40
0.9549290917
 40
0.9620705589
 40
0.9686091943
 40
0.9745395223
 40
0.9798565446
 40
0.9845570948
 40
0.9886384542
 40
0.9904460924
 40
0.9920979209
 40
0.9935936061
 40
0.9949328178
 40
0.9961152311
 40
0.9971405295
 40
0.9980084415
 40
0.9987189457
 40
0.9992721768
 40
0.9994899003
 40
0.9996684423
 40
0.9998079281
 40
0.9999086279
 40
0.9999713128
 40
1.0
 40
1.0
 40
1.0
 40
1.0
 10
-12.167238219
 20
2.7223817846
 30
0.0
 10
-12.1656415001
 20
3.0145744057
 30
0.0
 10
-12.1625550866
 20
3.6007840903
 30
0.0
 10
-12.1582688607
 20
4.4791546388
 30
0.0
 10
-12.15434547
 20
5.3523290579
 30
0.0
 10
-12.1508309476
 20
6.2099593442
 30
0.0
 10
-12.1477654712
 20
7.0421002332
 30
0.0
 10
-12.1451846629
 20
7.8389933031
 30
0.0
 10
-12.143118384
 20
8.591300766
 30
0.0
 10
-12.1418158116
 20
9.1863149073
 30
0.0
 10
-12.1410634021
 20
9.6334866022
 30
0.0
 10
-12.1406532424
 20
9.9448931466
 30
0.0
 10
-12.1403857859
 20
10.2389777268
 30
0.0
 10
-12.1402616005
 20
10.5148800472
 30
0.0
 10
-12.1402805242
 20
10.7717919685
 30
0.0
 10
-12.140442661
 20
11.0089600341
 30
0.0
 10
-12.1407470244
 20
11.2256903627
 30
0.0
 10
-12.1411919124
 20
11.4213484899
 30
0.0
 10
-12.1416931579
 20
11.5709606813
 30
0.0
 10
-12.1421747953
 20
11.6796856711
 30
0.0
 10
-12.1425582246
 20
11.7528668947
 30
0.0
 10
-12.1429755417
 20
11.8203976264
 30
0.0
 10
-12.1434263462
 20
11.8822259857
 30
0.0
 10
-12.1439101564
 20
11.9383015893
 30
0.0
 10
-12.1444264332
 20
11.9885813157
 30
0.0
 10
-12.1449744375
 20
12.0330306823
 30
0.0
 10
-12.1454744048
 20
12.0664149281
 30
0.0
 10
-12.145897464
 20
12.0901867502
 30
0.0
 10
-12.1462094903
 20
12.1058068123
 30
0.0
 10
-12.1465290341
 20
12.119949481
 30
0.0
 10
-12.1468559336
 20
12.1326115115
 30
0.0
 10
-12.1471898921
 20
12.1437897296
 30
0.0
 10
-12.1475305411
 20
12.1534809027
 30
0.0
 10
-12.147877115
 20
12.1616831815
 30
0.0
 10
-12.1482287874
 20
12.1683944345
 30
0.0
 10
-12.1485439469
 20
12.1730563469
 30
0.0
 10
-12.1488095483
 20
12.1760364702
 30
0.0
 10
-12.1489964835
 20
12.1777194581
 30
0.0
 10
-12.1491735355
 20
12.179017404
 30
0.0
 10
-12.1493695494
 20
12.1799781578
 30
0.0
 10
-12.1495136441
 20
12.1805181228
 30
0.0
 10
-12.1497004785
 20
12.1808235181
 30
0.0
 10
-12.1497909248
 20
12.1808240771
 30
0.0
  0
SPLINE
  5
225
100
AcDbEntity
  8
02___PRT_ALL_AXES
100
AcDbSpline
 62
7
  6
CONTINUOUS
 70
0
 71
3
 72
40
 73
36
 74
0
 42
0.0000001
 43
0.0000001
 44
0.0000000001
 40
0.0
 40
0.0
 40
0.0
 40
0.0
 40
0.1144416207
 40
0.2231209849
 40
0.3257329769
 40
0.4219778302
 40
0.5115753393
 40
0.5942759106
 40
0.6698341602
 40
0.7380339855
 40
0.7693151125
 40
0.7986855696
 40
0.8261219194
 40
0.8516044965
 40
0.8751173449
 40
0.8966446704
 40
0.9161706865
 40
0.9336796185
 40
0.9491568011
 40
0.9625929899
 40
0.9685433572
 40
0.9739806573
 40
0.9789039631
 40
0.9833123592
 40
0.9872049474
 40
0.9905808576
 40
0.9934392682
 40
0.9957795103
 40
0.9976017273
 40
0.9983188767
 40
0.9989069958
 40
0.9993665104
 40
0.9996983304
 40
0.9999050389
 40
1.0
 40
1.0
 40
1.0
 40
1.0
 10
-12.1956846602
 20
-4.1389898562
 30
0.0
 10
-12.1970010971
 20
-4.3041854227
 30
0.0
 10
-12.1996200802
 20
-4.6262583705
 30
0.0
 10
-12.2036165494
 20
-5.0964492809
 30
0.0
 10
-12.2075712723
 20
-5.5403718404
 30
0.0
 10
-12.2114728343
 20
-5.9567483588
 30
0.0
 10
-12.2153100379
 20
-6.3443812782
 30
0.0
 10
-12.2190706914
 20
-6.7021515362
 30
0.0
 10
-12.2227440981
 20
-7.0290325566
 30
0.0
 10
-12.2258046215
 20
-7.2816897815
 30
0.0
 10
-12.2282142896
 20
-7.4676760693
 30
0.0
 10
-12.2299407573
 20
-7.5948226252
 30
0.0
 10
-12.2316377207
 20
-7.7135983557
 30
0.0
 10
-12.2333039183
 20
-7.823917949
 30
0.0
 10
-12.2349379149
 20
-7.9257071132
 30
0.0
 10
-12.2365383334
 20
-8.0188971347
 30
0.0
 10
-12.2381037417
 20
-8.1034195286
 30
0.0
 10
-12.2396324429
 20
-8.1792074062
 30
0.0
 10
-12.2411231826
 20
-8.2462032282
 30
0.0
 10
-12.2423772027
 20
-8.2965148261
 30
0.0
 10
-12.2433720374
 20
-8.3323352138
 30
0.0
 10
-12.2440774477
 20
-8.3558701734
 30
0.0
 10
-12.2447724285
 20
-8.37717849
 30
0.0
 10
-12.2454566941
 20
-8.3962560154
 30
0.0
 10
-12.2461297489
 20
-8.4130987083
 30
0.0
 10
-12.2467910041
 20
-8.4277022993
 30
0.0
 10
-12.247439165
 20
-8.4400634898
 30
0.0
 10
-12.2480730402
 20
-8.4501778947
 30
0.0
 10
-12.2486211256
 20
-8.4572028958
 30
0.0
 10
-12.2490690059
 20
-8.4616926837
 30
0.0
 10
-12.2493780708
 20
-8.4642276041
 30
0.0
 10
-12.2496665243
 20
-8.4661825877
 30
0.0
 10
-12.2499786218
 20
-8.4676279812
 30
0.0
 10
-12.2502060971
 20
-8.4684419619
 30
0.0
 10
-12.2504946957
 20
-8.4688984573
 30
0.0
 10
-12.2506317753
 20
-8.4688981927
 30
0.0
  0
ENDSEC
  0
SECTION
  2
OBJECTS
  0
DICTIONARY
  5
C
100
AcDbDictionary
280
0
281
1
  3
ACAD_GROUP
350
D
  3
ACAD_MLINESTYLE
350
17
  3
ACAD_LAYOUT
350
1A
  3
ACAD_PLOTSETTINGS
350
19
  3
ACAD_PLOTSTYLENAME
350
E
  0
DICTIONARY
  5
D
102
{ACAD_REACTORS
330
C
102
}
100
AcDbDictionary
280
0
281
1
  0
ACDBDICTIONARYWDFLT
  5
E
102
{ACAD_REACTORS
330
C
102
}
100
AcDbDictionary
281
1
  3
Normal
350
F
100
AcDbDictionaryWithDefault
340
F
  0
DICTIONARY
  5
17
102
{ACAD_REACTORS
330
C
102
}
100
AcDbDictionary
280
0
281
1
  3
Standard
350
18
  0
DICTIONARY
  5
19
102
{ACAD_REACTORS
330
C
102
}
100
AcDbDictionary
281
1
  0
DICTIONARY
  5
1A
102
{ACAD_REACTORS
330
C
102
}
100
AcDbDictionary
281
1
  3
Model
350
226
  3
Layout1
350
227
  0
ACDBPLACEHOLDER
  5
F
102
{ACAD_REACTORS
330
E
102
}
  0
MLINESTYLE
  5
18
102
{ACAD_REACTORS
330
17
102
}
100
AcDbMlineStyle
  2
STANDARD
 70
0
  3

 62
256
 51
90.0
 52
90.0
 71
2
 49
0.5
 62
256
  6
BYLAYER
 49
-0.5
 62
256
  6
BYLAYER
  0
LAYOUT
  5
226
102
{ACAD_REACTORS
330
1A
102
}
100
AcDbPlotSettings
  1

  2
none_device
  4

  6

 40
0.0
 41
0.0
 42
0.0
 43
0.0
 44
431.8
 45
279.4
 46
0.0
 47
0.0
 48
0.0
 49
0.0
140
0.0
141
0.0
142
1.0
143
1.0
 70
1024
 72
0
 73
0
 74
0
  7

 75
0
147
1.0
148
0.0
149
0.0
100
AcDbLayout
  1
Model
 70
0
 71
0
 10
0.0
 20
0.0
 11
17.0
 21
11.0
 12
0.0
 22
0.0
 32
0.0
 14
0.0
 24
0.0
 34
0.0
 15
0.0
 25
0.0
 35
0.0
146
0.0
 13
0.0
 23
0.0
 33
0.0
 16
1.0
 26
0.0
 36
0.0
 17
0.0
 27
1.0
 37
0.0
 76
0
330
207
345
0
346
0
  0
LAYOUT
  5
227
102
{ACAD_REACTORS
330
1A
102
}
100
AcDbPlotSettings
  1

  2
none_device
  4

  6

 40
0.0
 41
0.0
 42
0.0
 43
0.0
 44
431.8
 45
279.4
 46
0.0
 47
0.0
 48
0.0
 49
0.0
140
0.0
141
0.0
142
1.0
143
1.0
 70
0
 72
0
 73
0
 74
0
  7

 75
0
147
1.0
148
0.0
149
0.0
100
AcDbLayout
  1
Layout1
 70
0
 71
1
 10
0.0
 20
0.0
 11
17.0
 21
11.0
 12
0.0
 22
0.0
 32
0.0
 14
0.0
 24
0.0
 34
0.0
 15
0.0
 25
0.0
 35
0.0
146
0.0
 13
0.0
 23
0.0
 33
0.0
 16
1.0
 26
0.0
 36
0.0
 17
0.0
 27
1.0
 37
0.0
 76
0
330
208
345
0
346
0
  0
ENDSEC
  0
EOF
