999
DXF file: N:\Master\master\M3_ProE_files\Lenexa\MADAM DXF\411287.dxf
999
Pro/ENGINEER 2010280 by Parametric Technology Corporation
  0
SECTION
  2
HEADER
  9
$ACADVER
  1
AC1021
  9
$DWGCODEPAGE
  3
ANSI_1252
  9
$EXTMAX
 10
17.0
 20
11.0
 30
0.0
  9
$EXTMIN
 10
0.0
 20
-0.0
 30
0.0
  9
$LIMMIN
 10
0.0
 20
-0.0
  9
$LIMMAX
 10
17.0
 20
11.0
  9
$VIEWCTR
 10
8.5
 20
5.5
  9
$VIEWSIZE
 40
11.0
  9
$CLAYER
  8
0
  9
$LTSCALE
 40
0.935
  9
$CELTYPE
  6
BYLAYER
  9
$DIMSCALE
 40
1.0
  9
$DIMASZ
 40
0.125
  9
$DIMEXO
 40
0.10625
  9
$DIMDLI
 40
0.646
  9
$DIMEXE
 40
0.306
  9
$DIMCEN
 40
0.153
  9
$DIMLFAC
 40
1.0
  9
$DIMBLK
  1
_FILLED
  9
$DIMTXT
 40
0.125
  9
$DIMTOL
 70
1
  9
$DIMLIM
 70
0
  9
$DIMTFAC
 40
1.0
  9
$DIMTP
 40
0.01
  9
$DIMTM
 40
0.01
  9
$PDMODE
 70
3
  9
$PDSIZE
 40
0.3125
  9
$HANDSEED
  5
228
  9
$TILEMODE
 70
1
  9
$MEASUREMENT
 70
0
  9
$INSUNITS
 70
1
  0
ENDSEC
  0
SECTION
  2
CLASSES
  0
CLASS
  1
ACDBDICTIONARYWDFLT
  2
AcDbDictionaryWithDefault
  3
AutoCAD 2000
 90
0
 91
1
280
0
281
0
  0
CLASS
  1
ACDBPLACEHOLDER
  2
AcDbPlaceHolder
  3
AutoCAD 2000
 90
0
 91
1
280
0
281
0
  0
CLASS
  1
LAYOUT
  2
AcDbLayout
  3
AutoCAD 2000
 90
0
 91
0
280
0
281
0
  0
ENDSEC
  0
SECTION
  2
TABLES
  0
TABLE
  2
VPORT
  5
8
100
AcDbSymbolTable
 70
2
  0
VPORT
  5
1F4
100
AcDbSymbolTableRecord
100
AcDbViewportTableRecord
  2
*ACTIVE
 70
0
 10
0.0
 20
0.0
 11
1.0
 21
1.0
 12
8.5
 22
5.5
 13
0.0
 23
0.0
 14
1.0
 24
1.0
 15
0.0
 25
0.0
 16
0.0
 26
0.0
 36
1.0
 17
0.0
 27
0.0
 37
0.0
 40
11.0
 41
1.5454545455
 42
50.0
 43
0.0
 44
0.0
 50
0.0
 51
0.0
 71
0
 72
100
 73
1
 74
1
 75
0
 76
0
 77
0
 78
0
  0
ENDTAB
  0
TABLE
  2
LTYPE
  5
5
100
AcDbSymbolTable
 70
6
  0
LTYPE
  5
14
100
AcDbSymbolTableRecord
100
AcDbLinetypeTableRecord
  2
BYBLOCK
 70
0
  3

 72
65
 73
0
 40
0.0
  0
LTYPE
  5
15
100
AcDbSymbolTableRecord
100
AcDbLinetypeTableRecord
  2
BYLAYER
 70
0
  3

 72
65
 73
0
 40
0.0
  0
LTYPE
  5
16
100
AcDbSymbolTableRecord
100
AcDbLinetypeTableRecord
  2
CONTINUOUS
 70
64
  3
Solid line
 72
65
 73
0
 40
0.0
  0
LTYPE
  5
1F5
100
AcDbSymbolTableRecord
100
AcDbLinetypeTableRecord
  2
CENTER
 70
64
  3
____ _ ____ _ ____ _ ____ _ ____ _ ____ _ ____
 72
65
 73
4
 40
0.6
 49
0.375
 74
0
 49
-0.075
 74
0
 49
0.075
 74
0
 49
-0.075
 74
0
  0
LTYPE
  5
1F6
100
AcDbSymbolTableRecord
100
AcDbLinetypeTableRecord
  2
HIDDEN
 70
64
  3
- - - - - - - - - - - - - - - - - - - -
 72
65
 73
2
 40
0.2
 49
0.1
 74
0
 49
-0.1
 74
0
  0
LTYPE
  5
1F7
100
AcDbSymbolTableRecord
100
AcDbLinetypeTableRecord
  2
PHANTOM
 70
64
  3
_____ _ _ _____ _ _ _____ _ _ _____
 72
65
 73
6
 40
0.8
 49
0.45
 74
0
 49
-0.05
 74
0
 49
0.1
 74
0
 49
-0.05
 74
0
 49
0.1
 74
0
 49
-0.05
 74
0
  0
LTYPE
  5
1F8
100
AcDbSymbolTableRecord
100
AcDbLinetypeTableRecord
  2
DOT
 70
64
  3
. . . . . . . . . . . . . . . . . . . .
 72
65
 73
2
 40
0.2
 49
0.1
 74
0
 49
-0.1
 74
0
  0
LTYPE
  5
1F9
100
AcDbSymbolTableRecord
100
AcDbLinetypeTableRecord
  2
DASHED
 70
64
  3
- - - - - - - - - - - - - - - - - - - -
 72
65
 73
2
 40
0.2
 49
0.1
 74
0
 49
-0.1
 74
0
  0
ENDTAB
  0
TABLE
  2
LAYER
  5
2
100
AcDbSymbolTable
 70
36
  0
LAYER
  5
10
100
AcDbSymbolTableRecord
100
AcDbLayerTableRecord
  2
0
 70
0
 62
7
  6
CONTINUOUS
370
-3
390
F
  0
LAYER
  5
1FA
100
AcDbSymbolTableRecord
100
AcDbLayerTableRecord
  2
DEFAULT_1
 70
0
 62
7
  6
CENTER
370
-3
390
F
  0
LAYER
  5
1FB
100
AcDbSymbolTableRecord
100
AcDbLayerTableRecord
  2
DEFAULT_2
 70
0
 62
8
  6
HIDDEN
370
-3
390
F
  0
LAYER
  5
1FC
100
AcDbSymbolTableRecord
100
AcDbLayerTableRecord
  2
DEFAULT_3
 70
0
 62
7
  6
PHANTOM
370
-3
390
F
  0
LAYER
  5
1FD
100
AcDbSymbolTableRecord
100
AcDbLayerTableRecord
  2
01___PRT_ALL_DTM_PLN
 70
0
 62
7
  6
CONTINUOUS
370
-3
390
F
  0
LAYER
  5
1FE
100
AcDbSymbolTableRecord
100
AcDbLayerTableRecord
  2
01___PRT_DEF_DTM_PLN
 70
0
 62
7
  6
CONTINUOUS
370
-3
390
F
  0
LAYER
  5
1FF
100
AcDbSymbolTableRecord
100
AcDbLayerTableRecord
  2
02___PRT_ALL_AXES
 70
0
 62
7
  6
CONTINUOUS
370
-3
390
F
  0
LAYER
  5
200
100
AcDbSymbolTableRecord
100
AcDbLayerTableRecord
  2
03___PRT_ALL_CURVES
 70
0
 62
7
  6
CONTINUOUS
370
-3
390
F
  0
LAYER
  5
201
100
AcDbSymbolTableRecord
100
AcDbLayerTableRecord
  2
04___PRT_ALL_DTM_PNT
 70
0
 62
7
  6
CONTINUOUS
370
-3
390
F
  0
LAYER
  5
202
100
AcDbSymbolTableRecord
100
AcDbLayerTableRecord
  2
05___PRT_ALL_DTM_CSYS
 70
0
 62
7
  6
CONTINUOUS
370
-3
390
F
  0
LAYER
  5
203
100
AcDbSymbolTableRecord
100
AcDbLayerTableRecord
  2
05___PRT_DEF_DTM_CSYS
 70
0
 62
7
  6
CONTINUOUS
370
-3
390
F
  0
LAYER
  5
204
100
AcDbSymbolTableRecord
100
AcDbLayerTableRecord
  2
06___PRT_ALL_SURFS
 70
0
 62
7
  6
CONTINUOUS
370
-3
390
F
  0
ENDTAB
  0
TABLE
  2
STYLE
  5
3
100
AcDbSymbolTable
 70
1
  0
STYLE
  5
11
100
AcDbSymbolTableRecord
100
AcDbTextStyleTableRecord
  2
STANDARD
 70
0
 40
0.0
 41
0.8
 50
0.0
 71
0
 42
0.2
  3
txt
  4

  0
STYLE
  5
205
100
AcDbSymbolTableRecord
100
AcDbTextStyleTableRecord
  2
TEXTSTYLE_1
 70
0
 40
0.0
 41
0.8
 50
0.0
 71
0
 42
0.2
  3
gdt
  4

  0
ENDTAB
  0
TABLE
  2
VIEW
  5
6
100
AcDbSymbolTable
 70
0
  0
ENDTAB
  0
TABLE
  2
UCS
  5
7
100
AcDbSymbolTable
 70
0
  0
ENDTAB
  0
TABLE
  2
APPID
  5
9
100
AcDbSymbolTable
 70
1
  0
APPID
  5
206
100
AcDbSymbolTableRecord
100
AcDbRegAppTableRecord
  2
ACAD
 70
0
  0
ENDTAB
  0
TABLE
  2
BLOCK_RECORD
  5
1
100
AcDbSymbolTable
 70
0
  0
BLOCK_RECORD
  5
207
100
AcDbSymbolTableRecord
100
AcDbBlockTableRecord
  2
*Model_Space
  0
BLOCK_RECORD
  5
208
100
AcDbSymbolTableRecord
100
AcDbBlockTableRecord
  2
*Paper_Space
  0
ENDTAB
  0
TABLE
  2
DIMSTYLE
  5
A
100
AcDbSymbolTable
 70
1
100
AcDbDimStyleTable
 71
0
  0
DIMSTYLE
105
209
100
AcDbSymbolTableRecord
100
AcDbDimStyleTableRecord
  2
STANDARD
 70
0
  3

  4

 40
1.0
 41
0.125
 42
0.0625
 43
0.38
 44
0.18
 45
0.0
 46
0.0
 47
0.01
 48
0.01
140
0.125
141
0.09
142
0.0
143
25.4
144
1.0
145
0.0
146
1.0
147
0.09
 71
1.0
 72
0.0
 73
1
 74
1
 75
0
 76
0
 77
0
 78
4
170
0
171
2
172
0
173
0
174
0
175
0
176
0
177
0
178
0
270
2
271
2
272
2
273
2
274
2
275
0
280
0
281
0
282
0
283
1
284
4
285
0
286
0
287
3
288
0
340
11
  0
ENDTAB
  0
ENDSEC
  0
SECTION
  2
BLOCKS
  0
BLOCK
  5
20
100
AcDbEntity
  8
0
100
AcDbBlockBegin
  2
*Model_Space
 70
0
 10
0.0
 20
0.0
 30
0.0
  3
*Model_Space
  1

  0
ENDBLK
  5
21
100
AcDbEntity
  8
0
100
AcDbBlockEnd
  0
BLOCK
  5
1C
100
AcDbEntity
  8
0
100
AcDbBlockBegin
  2
*Paper_Space
 70
0
 10
0.0
 20
0.0
 30
0.0
  3
*Paper_Space
  1

  0
ENDBLK
  5
1D
100
AcDbEntity
  8
0
100
AcDbBlockEnd
  0
ENDSEC
  0
SECTION
  2
ENTITIES
  0
MTEXT
  5
20A
100
AcDbEntity
  8
0
100
AcDbMText
 62
2
  6
CONTINUOUS
  7
STANDARD
 71
1
 72
1
 10
16.8140376319
 20
21.6394751411
 30
0.0
 11
1.0
 21
0.0
 31
0.0
 44
0.9
  1
411287
 40
3.0
 41
14.4
  0
LINE
  5
20B
100
AcDbEntity
  8
02___PRT_ALL_AXES
100
AcDbLine
 62
7
  6
CONTINUOUS
 10
-12.2329549847
 20
-4.8489569599
 11
22.1964147093
 21
-5.0170904652
  0
LINE
  5
20C
100
AcDbEntity
  8
02___PRT_ALL_AXES
100
AcDbLine
 62
7
  6
CONTINUOUS
 10
-14.2545861182
 20
-2.1090519084
 11
-12.2196233727
 21
-2.1189895117
  0
LINE
  5
20D
100
AcDbEntity
  8
02___PRT_ALL_AXES
100
AcDbLine
 62
7
  6
CONTINUOUS
 10
22.2325653718
 20
-2.2872344523
 11
24.2447090667
 21
-2.2970606204
  0
LINE
  5
20E
100
AcDbEntity
  8
02___PRT_ALL_AXES
100
AcDbLine
 62
7
  6
CONTINUOUS
 10
-14.1945206138
 20
10.1908014296
 11
-12.1595578683
 21
10.1808638262
  0
LINE
  5
20F
100
AcDbEntity
  8
02___PRT_ALL_AXES
100
AcDbLine
 62
7
  6
CONTINUOUS
 10
22.2926514824
 20
10.012618785
 11
24.3047745711
 21
10.0027927176
  0
LINE
  5
210
100
AcDbEntity
  8
02___PRT_ALL_AXES
100
AcDbLine
 62
7
  6
CONTINUOUS
 10
-12.1462262564
 20
12.9108312744
 11
22.2831434376
 21
12.7426977691
  0
ARC
  5
211
100
AcDbEntity
  8
02___PRT_ALL_AXES
100
AcDbCircle
 62
7
  6
CONTINUOUS
 10
-2048.9500198834
 20
14.1160106444
 40
2036.8172392043
100
AcDbArc
 50
359.6761978211
 51
359.8894891918
  0
ARC
  5
212
100
AcDbEntity
  8
02___PRT_ALL_AXES
100
AcDbCircle
 62
7
  6
CONTINUOUS
 10
-2014.5206501879
 20
13.9478771619
 40
2036.8172392024
100
AcDbArc
 50
359.6761978205
 51
359.8894891912
  0
ARC
  5
213
100
AcDbEntity
  8
02___PRT_ALL_AXES
100
AcDbCircle
 62
7
  6
CONTINUOUS
 10
-1563.2253857919
 20
10.6433074022
 40
1585.5107141723
100
AcDbArc
 50
359.5323761742
 51
359.7034478822
  0
ARC
  5
214
100
AcDbEntity
  8
02___PRT_ALL_AXES
100
AcDbCircle
 62
7
  6
CONTINUOUS
 10
-1597.654755473
 20
10.8114411944
 40
1585.5107141619
100
AcDbArc
 50
359.5323761638
 51
359.7034478719
  0
CIRCLE
  5
215
100
AcDbEntity
  8
02___PRT_ALL_AXES
100
AcDbCircle
 62
7
  6
CONTINUOUS
 10
44.6671253626
 20
3.521760334
 40
8.88
  0
CIRCLE
  5
216
100
AcDbEntity
  8
02___PRT_ALL_AXES
100
AcDbCircle
 62
7
  6
CONTINUOUS
 10
44.6671253626
 20
3.521760334
 40
6.15
  0
CIRCLE
  5
217
100
AcDbEntity
  8
02___PRT_ALL_AXES
100
AcDbCircle
 62
7
  6
CONTINUOUS
 10
44.6671253626
 20
3.521760334
 40
6.0
  0
SPLINE
  5
218
100
AcDbEntity
  8
02___PRT_ALL_AXES
100
AcDbSpline
 62
7
  6
CONTINUOUS
 70
0
 71
3
 72
39
 73
35
 74
0
 42
0.0000001
 43
0.0000001
 44
0.0000000001
 40
0.0
 40
0.0
 40
0.0
 40
0.0
 40
0.1152655713
 40
0.2245196692
 40
0.3274930268
 40
0.4239177367
 40
0.5135486099
 40
0.5961686707
 40
0.6715629539
 40
0.7395364046
 40
0.7999284311
 40
0.8272323071
 40
0.8525819552
 40
0.8759606708
 40
0.8973562025
 40
0.9167566884
 40
0.9341502792
 40
0.9495251458
 40
0.9628694916
 40
0.9687768168
 40
0.9741732917
 40
0.9790584707
 40
0.9834319209
 40
0.9872932291
 40
0.9906420137
 40
0.9934779474
 40
0.995800806
 40
0.9976105849
 40
0.998323231
 40
0.99890793
 40
0.9993650901
 40
0.999695663
 40
0.9999024685
 40
1.0
 40
1.0
 40
1.0
 40
1.0
 10
22.2325536592
 20
-2.2968144689
 30
0.0
 10
22.2316835112
 20
-2.4013477594
 30
0.0
 10
22.229954302
 20
-2.6049623072
 30
0.0
 10
22.2273186259
 20
-2.9019613352
 30
0.0
 10
22.224715342
 20
-3.1818727578
 30
0.0
 10
22.2221509613
 20
-3.4439870046
 30
0.0
 10
22.2196320414
 20
-3.6876419204
 30
0.0
 10
22.2171655802
 20
-3.912223354
 30
0.0
 10
22.2147581121
 20
-4.1171625997
 30
0.0
 10
22.2124157726
 20
-4.301942045
 30
0.0
 10
22.2104643583
 20
-4.443108606
 30
0.0
 10
22.2089290891
 20
-4.5456206465
 30
0.0
 10
22.2078366334
 20
-4.6145673326
 30
0.0
 10
22.2067648094
 20
-4.6781552342
 30
0.0
 10
22.2057144619
 20
-4.7363472662
 30
0.0
 10
22.204686428
 20
-4.7891107243
 30
0.0
 10
22.2036817127
 20
-4.8364132629
 30
0.0
 10
22.2027012217
 20
-4.8782225324
 30
0.0
 10
22.2018755936
 20
-4.909615324
 30
0.0
 10
22.2012198947
 20
-4.9319596741
 30
0.0
 10
22.2007547396
 20
-4.9466344647
 30
0.0
 10
22.2002961685
 20
-4.959917615
 30
0.0
 10
22.1998443549
 20
-4.97180782
 30
0.0
 10
22.1993996098
 20
-4.9823038374
 30
0.0
 10
22.1989623082
 20
-4.9914043033
 30
0.0
 10
22.1985332813
 20
-4.9991083576
 30
0.0
 10
22.1981133562
 20
-5.0054140248
 30
0.0
 10
22.197749992
 20
-5.0097946962
 30
0.0
 10
22.1974528276
 20
-5.0125955531
 30
0.0
 10
22.1972476355
 20
-5.0141768543
 30
0.0
 10
22.1970559363
 20
-5.0153984656
 30
0.0
 10
22.1968484293
 20
-5.0162978045
 30
0.0
 10
22.1966963963
 20
-5.0168133588
 30
0.0
 10
22.1965026611
 20
-5.0170909386
 30
0.0
 10
22.1964142098
 20
-5.017090312
 30
0.0
  0
SPLINE
  5
219
100
AcDbEntity
  8
02___PRT_ALL_AXES
100
AcDbSpline
 62
7
  6
CONTINUOUS
 70
0
 71
3
 72
39
 73
35
 74
0
 42
0.0000001
 43
0.0000001
 44
0.0000000001
 40
0.0
 40
0.0
 40
0.0
 40
0.0
 40
0.115254328
 40
0.2245007504
 40
0.3274680969
 40
0.4238870796
 40
0.513516006
 40
0.5961358395
 40
0.6715291155
 40
0.7395043751
 40
0.7998996216
 40
0.8272046222
 40
0.8525548491
 40
0.8759350376
 40
0.8973328384
 40
0.9167359627
 40
0.9341321345
 40
0.9495090975
 40
0.9628547208
 40
0.9687628168
 40
0.9741603298
 40
0.97904676
 40
0.9834216205
 40
0.9872844437
 40
0.9906347938
 40
0.9934722891
 40
0.9957966509
 40
0.9976078192
 40
0.9983210996
 40
0.9989063828
 40
0.9993640687
 40
0.9996950986
 40
0.999902273
 40
1.0
 40
1.0
 40
1.0
 40
1.0
 10
22.2927085663
 20
10.0193125678
 30
0.0
 10
22.2928598664
 20
10.1239500279
 30
0.0
 10
22.2931202439
 20
10.3277705241
 30
0.0
 10
22.2933866403
 20
10.6250734843
 30
0.0
 10
22.2935184008
 20
10.9052762247
 30
0.0
 10
22.293515031
 20
11.1676685856
 30
0.0
 10
22.2933767606
 20
11.4115877271
 30
0.0
 10
22.2931045428
 20
11.6364178422
 30
0.0
 10
22.2926992329
 20
11.8415887093
 30
0.0
 10
22.2921620825
 20
12.0265818524
 30
0.0
 10
22.2915897317
 20
12.1679160546
 30
0.0
 10
22.2910558278
 20
12.270551402
 30
0.0
 10
22.2906367945
 20
12.3395814841
 30
0.0
 10
22.2901860537
 20
12.4032481921
 30
0.0
 10
22.2897040668
 20
12.4615152265
 30
0.0
 10
22.2891913464
 20
12.5143489777
 30
0.0
 10
22.2886485717
 20
12.5617158947
 30
0.0
 10
22.2880763414
 20
12.603582508
 30
0.0
 10
22.2875571645
 20
12.6350189354
 30
0.0
 10
22.2871195754
 20
12.6573951352
 30
0.0
 10
22.286797655
 20
12.67209212
 30
0.0
 10
22.286468721
 20
12.6853965722
 30
0.0
 10
22.2861329339
 20
12.6973070366
 30
0.0
 10
22.2857905922
 20
12.7078221193
 30
0.0
 10
22.2854420559
 20
12.716940304
 30
0.0
 10
22.2850881497
 20
12.7246605743
 30
0.0
 10
22.2847296733
 20
12.7309807954
 30
0.0
 10
22.284408984
 20
12.735372683
 30
0.0
 10
22.2841390617
 20
12.7381816723
 30
0.0
 10
22.2839492666
 20
12.739768199
 30
0.0
 10
22.2837693329
 20
12.7409943458
 30
0.0
 10
22.2835707047
 20
12.7418979685
 30
0.0
 10
22.2834232877
 20
12.7424163733
 30
0.0
 10
22.2832326596
 20
12.7426969874
 30
0.0
 10
22.283143937
 20
12.7426976159
 30
0.0
  0
SPLINE
  5
21A
100
AcDbEntity
  8
02___PRT_ALL_AXES
100
AcDbSpline
 62
7
  6
CONTINUOUS
 70
0
 71
3
 72
39
 73
35
 74
0
 42
0.0000001
 43
0.0000001
 44
0.0000000001
 40
0.0
 40
0.0
 40
0.0
 40
0.0
 40
0.0000975315
 40
0.000304337
 40
0.0006349099
 40
0.00109207
 40
0.001676769
 40
0.0023894151
 40
0.004199194
 40
0.0065220526
 40
0.0093579863
 40
0.0127067709
 40
0.0165680791
 40
0.0209415293
 40
0.0258267083
 40
0.0312231832
 40
0.0371305084
 40
0.0504748542
 40
0.0658497208
 40
0.0832433116
 40
0.1026437975
 40
0.1240393292
 40
0.1474180448
 40
0.1727676929
 40
0.2000715689
 40
0.2604635954
 40
0.3284370461
 40
0.4038313293
 40
0.4864513901
 40
0.5760822633
 40
0.6725069732
 40
0.7754803308
 40
0.8847344287
 40
1.0
 40
1.0
 40
1.0
 40
1.0
 10
-12.1462257569
 20
12.9108311212
 30
0.0
 10
-12.1463142082
 20
12.9108317478
 30
0.0
 10
-12.1465079434
 20
12.910554168
 30
0.0
 10
-12.1466599764
 20
12.9100386136
 30
0.0
 10
-12.1468674834
 20
12.9091392748
 30
0.0
 10
-12.1470591826
 20
12.9079176635
 30
0.0
 10
-12.1472643747
 20
12.9063363623
 30
0.0
 10
-12.147561539
 20
12.9035355054
 30
0.0
 10
-12.1479249033
 20
12.8991548339
 30
0.0
 10
-12.1483448284
 20
12.8928491668
 30
0.0
 10
-12.1487738553
 20
12.8851451125
 30
0.0
 10
-12.1492111569
 20
12.8760446466
 30
0.0
 10
-12.1496559019
 20
12.8655486292
 30
0.0
 10
-12.1501077156
 20
12.8536584242
 30
0.0
 10
-12.1505662867
 20
12.8403752739
 30
0.0
 10
-12.1510314418
 20
12.8257004833
 30
0.0
 10
-12.1516871407
 20
12.8033561332
 30
0.0
 10
-12.1525127688
 20
12.7719633416
 30
0.0
 10
-12.1534932598
 20
12.7301540721
 30
0.0
 10
-12.1544979751
 20
12.6828515335
 30
0.0
 10
-12.155526009
 20
12.6300880753
 30
0.0
 10
-12.1565763565
 20
12.5718960433
 30
0.0
 10
-12.1576481805
 20
12.5083081418
 30
0.0
 10
-12.1587406362
 20
12.4393614557
 30
0.0
 10
-12.1602759054
 20
12.3368494152
 30
0.0
 10
-12.1622273197
 20
12.1956828542
 30
0.0
 10
-12.1645696592
 20
12.0109034089
 30
0.0
 10
-12.1669771273
 20
11.8059641632
 30
0.0
 10
-12.1694435885
 20
11.5813827296
 30
0.0
 10
-12.1719625083
 20
11.3377278138
 30
0.0
 10
-12.1745268891
 20
11.075613567
 30
0.0
 10
-12.177130173
 20
10.7957021444
 30
0.0
 10
-12.1797658491
 20
10.4987031164
 30
0.0
 10
-12.1814950583
 20
10.2950885686
 30
0.0
 10
-12.1823652063
 20
10.1905552781
 30
0.0
  0
SPLINE
  5
21B
100
AcDbEntity
  8
02___PRT_ALL_AXES
100
AcDbSpline
 62
7
  6
CONTINUOUS
 70
0
 71
3
 72
45
 73
41
 74
0
 42
0.0000001
 43
0.0000001
 44
0.0000000001
 40
0.0
 40
0.0
 40
0.0
 40
0.0
 40
0.1026583834
 40
0.2031209516
 40
0.300491896
 40
0.3940303436
 40
0.4830356944
 40
0.5668204383
 40
0.6447202608
 40
0.7161393652
 40
0.7492402667
 40
0.7805179514
 40
0.8099127643
 40
0.8373650685
 40
0.862819459
 40
0.8862302984
 40
0.9075533264
 40
0.9267443191
 40
0.9437640183
 40
0.9514505089
 40
0.9585834853
 40
0.9651594939
 40
0.971175083
 40
0.9766268044
 40
0.9815112675
 40
0.9858261697
 40
0.9895702301
 40
0.9927422263
 40
0.99411333
 40
0.9953409789
 40
0.996425038
 40
0.9973653841
 40
0.9981619134
 40
0.9988145598
 40
0.9993233367
 40
0.9996884631
 40
0.9998174228
 40
0.9999110297
 40
0.9999702942
 40
1.0
 40
1.0
 40
1.0
 40
1.0
 10
24.2916089686
 20
2.8654285587
 30
0.0
 10
24.2906435407
 20
2.6887594406
 30
0.0
 10
24.288677259
 20
2.3392003783
 30
0.0
 10
24.2855963811
 20
1.8220727163
 30
0.0
 10
24.2824320956
 20
1.3206409739
 30
0.0
 10
24.2792105891
 20
0.8389275187
 30
0.0
 10
24.275956172
 20
0.3805962551
 30
0.0
 10
24.2726950699
 20
-0.050820673
 30
0.0
 10
24.26945203
 20
-0.4519714587
 30
0.0
 10
24.2667225089
 20
-0.7658982417
 30
0.0
 10
24.2645570219
 20
-0.9995916459
 30
0.0
 10
24.2629945036
 20
-1.1609650721
 30
0.0
 10
24.2614552889
 20
-1.3126171996
 30
0.0
 10
24.2599423831
 20
-1.4542473583
 30
0.0
 10
24.2584586755
 20
-1.585578994
 30
0.0
 10
24.2570073979
 20
-1.706362008
 30
0.0
 10
24.2555916914
 20
-1.8163655311
 30
0.0
 10
24.254214473
 20
-1.9153696426
 30
0.0
 10
24.2530657858
 20
-1.9909065717
 30
0.0
 10
24.2521612465
 20
-2.045693287
 30
0.0
 10
24.251517319
 20
-2.082508584
 30
0.0
 10
24.2508849624
 20
-2.1164480559
 30
0.0
 10
24.2502645444
 20
-2.1474938368
 30
0.0
 10
24.2496565206
 20
-2.175628156
 30
0.0
 10
24.2490612885
 20
-2.2008351951
 30
0.0
 10
24.2484794582
 20
-2.2231028444
 30
0.0
 10
24.2479115681
 20
-2.2424226526
 30
0.0
 10
24.2474305627
 20
-2.2566765551
 30
0.0
 10
24.2470464472
 20
-2.2666004128
 30
0.0
 10
24.246776229
 20
-2.2729326783
 30
0.0
 10
24.2465098883
 20
-2.2785230201
 30
0.0
 10
24.2462476
 20
-2.2833707889
 30
0.0
 10
24.2459899042
 20
-2.2874748366
 30
0.0
 10
24.2457371709
 20
-2.290835677
 30
0.0
 10
24.2454918731
 20
-2.2934499232
 30
0.0
 10
24.2452753979
 20
-2.2951661338
 30
0.0
 10
24.2450984997
 20
-2.2961579372
 30
0.0
 10
24.2449737922
 20
-2.2966351633
 30
0.0
 10
24.2448784566
 20
-2.2969188706
 30
0.0
 10
24.2447613561
 20
-2.2970593135
 30
0.0
 10
24.2447102335
 20
-2.2970594402
 30
0.0
  0
SPLINE
  5
21C
100
AcDbEntity
  8
02___PRT_ALL_AXES
100
AcDbSpline
 62
7
  6
CONTINUOUS
 70
0
 71
3
 72
46
 73
42
 74
0
 42
0.0000001
 43
0.0000001
 44
0.0000000001
 40
0.0
 40
0.0
 40
0.0
 40
0.0
 40
0.0926731265
 40
0.185935787
 40
0.2786047008
 40
0.3696315061
 40
0.4579581519
 40
0.5425394806
 40
0.6223877881
 40
0.6965710786
 40
0.7312617319
 40
0.7642161636
 40
0.795338958
 40
0.8245355615
 40
0.8517218755
 40
0.8768207927
 40
0.8997556099
 40
0.9204586553
 40
0.9388731351
 40
0.9472046199
 40
0.9549429447
 40
0.9620823095
 40
0.9686184181
 40
0.9745470737
 40
0.9798640828
 40
0.984565257
 40
0.9886464167
 40
0.9921038302
 40
0.9935980515
 40
0.9949357539
 40
0.9961167976
 40
0.997141051
 40
0.9980083972
 40
0.9987187461
 40
0.9992720661
 40
0.9994898736
 40
0.9996684979
 40
0.9998080438
 40
0.9999087609
 40
0.9999714024
 40
1.0
 40
1.0
 40
1.0
 40
1.0
 10
24.2916089686
 20
2.8654285587
 30
0.0
 10
24.292813829
 20
3.0859127952
 30
0.0
 10
24.2951428801
 20
3.5282843513
 30
0.0
 10
24.2983774695
 20
4.1911316543
 30
0.0
 10
24.3013381848
 20
4.8500632786
 30
0.0
 10
24.3039902282
 20
5.497252375
 30
0.0
 10
24.3063035607
 20
6.1252006958
 30
0.0
 10
24.3082509258
 20
6.7265542911
 30
0.0
 10
24.3098101697
 20
7.2942590859
 30
0.0
 10
24.3107930574
 20
7.7432652602
 30
0.0
 10
24.3113607786
 20
8.0807022873
 30
0.0
 10
24.3116700744
 20
8.3156902296
 30
0.0
 10
24.3118719835
 20
8.5376068635
 30
0.0
 10
24.3119656662
 20
8.7458000874
 30
0.0
 10
24.3119510928
 20
8.9396613493
 30
0.0
 10
24.3118287813
 20
9.1186245557
 30
0.0
 10
24.3115991738
 20
9.2821626812
 30
0.0
 10
24.3112630669
 20
9.4297970018
 30
0.0
 10
24.3108847753
 20
9.5426868939
 30
0.0
 10
24.3105214297
 20
9.6247309788
 30
0.0
 10
24.3102320749
 20
9.6799494016
 30
0.0
 10
24.3099170295
 20
9.7308960585
 30
0.0
 10
24.3095766788
 20
9.7775368927
 30
0.0
 10
24.3092114595
 20
9.819841655
 30
0.0
 10
24.3088218403
 20
9.8577803293
 30
0.0
 10
24.3084085246
 20
9.8913229151
 30
0.0
 10
24.3079720746
 20
9.9204404395
 30
0.0
 10
24.3075734225
 20
9.9419276087
 30
0.0
 10
24.3072351421
 20
9.9568873728
 30
0.0
 10
24.3069883568
 20
9.9664318331
 30
0.0
 10
24.3067362724
 20
9.9748576014
 30
0.0
 10
24.3064791322
 20
9.9821634851
 30
0.0
 10
24.3062175604
 20
9.9883487377
 30
0.0
 10
24.3059521847
 20
9.9934115555
 30
0.0
 10
24.3057143634
 20
9.9969294949
 30
0.0
 10
24.3055139862
 20
9.9991789034
 30
0.0
 10
24.305372872
 20
10.0004494555
 30
0.0
 10
24.3052394276
 20
10.0014292136
 30
0.0
 10
24.305091204
 20
10.0021544201
 30
0.0
 10
24.3049831377
 20
10.0025613995
 30
0.0
 10
24.3048414435
 20
10.0027917059
 30
0.0
 10
24.3047734044
 20
10.0027915373
 30
0.0
  0
SPLINE
  5
21D
100
AcDbEntity
  8
02___PRT_ALL_AXES
100
AcDbSpline
 62
7
  6
CONTINUOUS
 70
0
 71
3
 72
39
 73
35
 74
0
 42
0.0000001
 43
0.0000001
 44
0.0000000001
 40
0.0
 40
0.0
 40
0.0
 40
0.0
 40
0.000097727
 40
0.0003049014
 40
0.0006359313
 40
0.0010936172
 40
0.0016789004
 40
0.0023921808
 40
0.0042033491
 40
0.0065277109
 40
0.0093652062
 40
0.0127155563
 40
0.0165783795
 40
0.02095324
 40
0.0258396702
 40
0.0312371832
 40
0.0371452792
 40
0.0504909025
 40
0.0658678655
 40
0.0832640373
 40
0.1026671616
 40
0.1240649624
 40
0.1474451509
 40
0.1727953778
 40
0.2001003784
 40
0.2604956249
 40
0.3284708845
 40
0.4038641605
 40
0.486483994
 40
0.5761129204
 40
0.6725319031
 40
0.7754992496
 40
0.884745672
 40
1.0
 40
1.0
 40
1.0
 40
1.0
 10
-12.2329554841
 20
-4.8489568067
 30
0.0
 10
-12.2330442067
 20
-4.8489561782
 30
0.0
 10
-12.2332348348
 20
-4.8486755642
 30
0.0
 10
-12.2333822518
 20
-4.8481571594
 30
0.0
 10
-12.23358088
 20
-4.8472535367
 30
0.0
 10
-12.2337608137
 20
-4.8460273898
 30
0.0
 10
-12.2339506088
 20
-4.8444408631
 30
0.0
 10
-12.2342205311
 20
-4.8416318738
 30
0.0
 10
-12.2345412204
 20
-4.8372399862
 30
0.0
 10
-12.2348996968
 20
-4.8309197651
 30
0.0
 10
-12.235253603
 20
-4.8231994948
 30
0.0
 10
-12.2356021393
 20
-4.8140813102
 30
0.0
 10
-12.235944481
 20
-4.8035662275
 30
0.0
 10
-12.2362802681
 20
-4.791655763
 30
0.0
 10
-12.2366092021
 20
-4.7783513108
 30
0.0
 10
-12.2369311225
 20
-4.763654326
 30
0.0
 10
-12.2373687116
 20
-4.7412781262
 30
0.0
 10
-12.2378878885
 20
-4.7098416988
 30
0.0
 10
-12.2384601188
 20
-4.6679750856
 30
0.0
 10
-12.2390028935
 20
-4.6206081685
 30
0.0
 10
-12.2395156139
 20
-4.5677744174
 30
0.0
 10
-12.2399976008
 20
-4.509507383
 30
0.0
 10
-12.2404483416
 20
-4.4458406749
 30
0.0
 10
-12.2408673749
 20
-4.3768105929
 30
0.0
 10
-12.2414012787
 20
-4.2741752454
 30
0.0
 10
-12.2419736296
 20
-4.1328410432
 30
0.0
 10
-12.24251078
 20
-3.9478479001
 30
0.0
 10
-12.2429160899
 20
-3.742677033
 30
0.0
 10
-12.2431883077
 20
-3.517846918
 30
0.0
 10
-12.2433265781
 20
-3.2739277764
 30
0.0
 10
-12.2433299479
 20
-3.0115354155
 30
0.0
 10
-12.2431981874
 20
-2.7313326751
 30
0.0
 10
-12.242931791
 20
-2.4340297149
 30
0.0
 10
-12.2426714135
 20
-2.2302092187
 30
0.0
 10
-12.2425201134
 20
-2.1255717586
 30
0.0
  0
SPLINE
  5
21E
100
AcDbEntity
  8
02___PRT_ALL_AXES
100
AcDbSpline
 62
7
  6
CONTINUOUS
 70
0
 71
3
 72
46
 73
42
 74
0
 42
0.0000001
 43
0.0000001
 44
0.0000000001
 40
0.0
 40
0.0
 40
0.0
 40
0.0
 40
0.0926731265
 40
0.185935787
 40
0.2786047008
 40
0.3696315061
 40
0.4579581519
 40
0.5425394806
 40
0.6223877881
 40
0.6965710786
 40
0.7312617319
 40
0.7642161636
 40
0.795338958
 40
0.8245355615
 40
0.8517218755
 40
0.8768207927
 40
0.8997556099
 40
0.9204586553
 40
0.9388731351
 40
0.9472046199
 40
0.9549429447
 40
0.9620823095
 40
0.9686184181
 40
0.9745470737
 40
0.9798640828
 40
0.984565257
 40
0.9886464167
 40
0.9921038302
 40
0.9935980515
 40
0.9949357539
 40
0.9961167976
 40
0.997141051
 40
0.9980083972
 40
0.9987187461
 40
0.9992720661
 40
0.9994898736
 40
0.9996684979
 40
0.9998080438
 40
0.9999087609
 40
0.9999714024
 40
1.0
 40
1.0
 40
1.0
 40
1.0
 10
-14.2076862164
 20
3.0534372708
 30
0.0
 10
-14.2064813559
 20
3.2739215072
 30
0.0
 10
-14.2041523049
 20
3.7162930634
 30
0.0
 10
-14.2009177155
 20
4.3791403663
 30
0.0
 10
-14.1979570001
 20
5.0380719906
 30
0.0
 10
-14.1953049568
 20
5.6852610871
 30
0.0
 10
-14.1929916242
 20
6.3132094078
 30
0.0
 10
-14.1910442592
 20
6.9145630031
 30
0.0
 10
-14.1894850153
 20
7.482267798
 30
0.0
 10
-14.1885021275
 20
7.9312739723
 30
0.0
 10
-14.1879344064
 20
8.2687109993
 30
0.0
 10
-14.1876251106
 20
8.5036989417
 30
0.0
 10
-14.1874232015
 20
8.7256155756
 30
0.0
 10
-14.1873295188
 20
8.9338087994
 30
0.0
 10
-14.1873440922
 20
9.1276700613
 30
0.0
 10
-14.1874664037
 20
9.3066332677
 30
0.0
 10
-14.1876960111
 20
9.4701713932
 30
0.0
 10
-14.188032118
 20
9.6178057138
 30
0.0
 10
-14.1884104096
 20
9.7306956059
 30
0.0
 10
-14.1887737552
 20
9.8127396908
 30
0.0
 10
-14.18906311
 20
9.8679581136
 30
0.0
 10
-14.1893781555
 20
9.9189047705
 30
0.0
 10
-14.1897185061
 20
9.9655456047
 30
0.0
 10
-14.1900837254
 20
10.0078503671
 30
0.0
 10
-14.1904733447
 20
10.0457890413
 30
0.0
 10
-14.1908866604
 20
10.0793316272
 30
0.0
 10
-14.1913231103
 20
10.1084491516
 30
0.0
 10
-14.1917217624
 20
10.1299363207
 30
0.0
 10
-14.1920600428
 20
10.1448960849
 30
0.0
 10
-14.1923068281
 20
10.1544405452
 30
0.0
 10
-14.1925589125
 20
10.1628663134
 30
0.0
 10
-14.1928160527
 20
10.1701721972
 30
0.0
 10
-14.1930776245
 20
10.1763574497
 30
0.0
 10
-14.1933430002
 20
10.1814202675
 30
0.0
 10
-14.1935808215
 20
10.1849382069
 30
0.0
 10
-14.1937811987
 20
10.1871876154
 30
0.0
 10
-14.1939223129
 20
10.1884581675
 30
0.0
 10
-14.1940557573
 20
10.1894379257
 30
0.0
 10
-14.1942039809
 20
10.1901631322
 30
0.0
 10
-14.1943120472
 20
10.1905701116
 30
0.0
 10
-14.1944537414
 20
10.190800418
 30
0.0
 10
-14.1945217806
 20
10.1908002494
 30
0.0
  0
SPLINE
  5
21F
100
AcDbEntity
  8
02___PRT_ALL_AXES
100
AcDbSpline
 62
7
  6
CONTINUOUS
 70
0
 71
3
 72
39
 73
35
 74
0
 42
0.0000001
 43
0.0000001
 44
0.0000000001
 40
0.0
 40
0.0
 40
0.0
 40
0.0
 40
0.115254328
 40
0.2245007504
 40
0.3274680969
 40
0.4238870796
 40
0.513516006
 40
0.5961358395
 40
0.6715291155
 40
0.7395043751
 40
0.7998996216
 40
0.8272046222
 40
0.8525548491
 40
0.8759350376
 40
0.8973328384
 40
0.9167359627
 40
0.9341321345
 40
0.9495090975
 40
0.9628547208
 40
0.9687628168
 40
0.9741603298
 40
0.97904676
 40
0.9834216205
 40
0.9872844437
 40
0.9906347938
 40
0.9934722891
 40
0.9957966509
 40
0.9976078192
 40
0.9983210996
 40
0.9989063828
 40
0.9993640687
 40
0.9996950986
 40
0.999902273
 40
1.0
 40
1.0
 40
1.0
 40
1.0
 10
-12.1366611277
 20
10.1874460731
 30
0.0
 10
-12.1365098275
 20
10.2920835333
 30
0.0
 10
-12.1362494501
 20
10.4959040294
 30
0.0
 10
-12.1359830537
 20
10.7932069896
 30
0.0
 10
-12.1358512931
 20
11.07340973
 30
0.0
 10
-12.135854663
 20
11.3358020909
 30
0.0
 10
-12.1359929334
 20
11.5797212325
 30
0.0
 10
-12.1362651512
 20
11.8045513475
 30
0.0
 10
-12.1366704611
 20
12.0097222146
 30
0.0
 10
-12.1372076114
 20
12.1947153577
 30
0.0
 10
-12.1377799623
 20
12.3360495599
 30
0.0
 10
-12.1383138662
 20
12.4386849074
 30
0.0
 10
-12.1387328994
 20
12.5077149894
 30
0.0
 10
-12.1391836403
 20
12.5713816975
 30
0.0
 10
-12.1396656271
 20
12.6296487319
 30
0.0
 10
-12.1401783476
 20
12.6824824831
 30
0.0
 10
-12.1407211223
 20
12.7298494001
 30
0.0
 10
-12.1412933525
 20
12.7717160133
 30
0.0
 10
-12.1418125295
 20
12.8031524408
 30
0.0
 10
-12.1422501186
 20
12.8255286405
 30
0.0
 10
-12.1425720389
 20
12.8402256253
 30
0.0
 10
-12.142900973
 20
12.8535300776
 30
0.0
 10
-12.1432367601
 20
12.865440542
 30
0.0
 10
-12.1435791018
 20
12.8759556247
 30
0.0
 10
-12.1439276381
 20
12.8850738093
 30
0.0
 10
-12.1442815442
 20
12.8927940797
 30
0.0
 10
-12.1446400207
 20
12.8991143007
 30
0.0
 10
-12.1449607099
 20
12.9035061883
 30
0.0
 10
-12.1452306322
 20
12.9063151776
 30
0.0
 10
-12.1454204273
 20
12.9079017043
 30
0.0
 10
-12.1456003611
 20
12.9091278512
 30
0.0
 10
-12.1457989892
 20
12.9100314739
 30
0.0
 10
-12.1459464063
 20
12.9105498787
 30
0.0
 10
-12.1461370344
 20
12.9108304927
 30
0.0
 10
-12.1462257569
 20
12.9108311212
 30
0.0
  0
SPLINE
  5
220
100
AcDbEntity
  8
02___PRT_ALL_AXES
100
AcDbSpline
 62
7
  6
CONTINUOUS
 70
0
 71
3
 72
45
 73
41
 74
0
 42
0.0000001
 43
0.0000001
 44
0.0000000001
 40
0.0
 40
0.0
 40
0.0
 40
0.0
 40
0.1026583834
 40
0.2031209516
 40
0.300491896
 40
0.3940303436
 40
0.4830356944
 40
0.5668204383
 40
0.6447202608
 40
0.7161393652
 40
0.7492402667
 40
0.7805179514
 40
0.8099127643
 40
0.8373650685
 40
0.862819459
 40
0.8862302984
 40
0.9075533264
 40
0.9267443191
 40
0.9437640183
 40
0.9514505089
 40
0.9585834853
 40
0.9651594939
 40
0.971175083
 40
0.9766268044
 40
0.9815112675
 40
0.9858261697
 40
0.9895702301
 40
0.9927422263
 40
0.99411333
 40
0.9953409789
 40
0.996425038
 40
0.9973653841
 40
0.9981619134
 40
0.9988145598
 40
0.9993233367
 40
0.9996884631
 40
0.9998174228
 40
0.9999110297
 40
0.9999702942
 40
1.0
 40
1.0
 40
1.0
 40
1.0
 10
-14.2076862164
 20
3.0534372708
 30
0.0
 10
-14.2086516443
 20
2.8767681526
 30
0.0
 10
-14.2106179259
 20
2.5272090903
 30
0.0
 10
-14.2136988039
 20
2.0100814284
 30
0.0
 10
-14.2168630893
 20
1.508649686
 30
0.0
 10
-14.2200845959
 20
1.0269362307
 30
0.0
 10
-14.2233390129
 20
0.5686049671
 30
0.0
 10
-14.226600115
 20
0.1371880391
 30
0.0
 10
-14.2298431549
 20
-0.2639627467
 30
0.0
 10
-14.2325726761
 20
-0.5778895297
 30
0.0
 10
-14.2347381631
 20
-0.8115829338
 30
0.0
 10
-14.2363006813
 20
-0.9729563601
 30
0.0
 10
-14.237839896
 20
-1.1246084876
 30
0.0
 10
-14.2393528018
 20
-1.2662386463
 30
0.0
 10
-14.2408365094
 20
-1.3975702819
 30
0.0
 10
-14.242287787
 20
-1.518353296
 30
0.0
 10
-14.2437034936
 20
-1.6283568191
 30
0.0
 10
-14.2450807119
 20
-1.7273609305
 30
0.0
 10
-14.2462293991
 20
-1.8028978596
 30
0.0
 10
-14.2471339384
 20
-1.857684575
 30
0.0
 10
-14.2477778659
 20
-1.894499872
 30
0.0
 10
-14.2484102226
 20
-1.9284393439
 30
0.0
 10
-14.2490306405
 20
-1.9594851248
 30
0.0
 10
-14.2496386643
 20
-1.987619444
 30
0.0
 10
-14.2502338964
 20
-2.0128264831
 30
0.0
 10
-14.2508157268
 20
-2.0350941324
 30
0.0
 10
-14.2513836169
 20
-2.0544139406
 30
0.0
 10
-14.2518646223
 20
-2.0686678431
 30
0.0
 10
-14.2522487377
 20
-2.0785917007
 30
0.0
 10
-14.252518956
 20
-2.0849239663
 30
0.0
 10
-14.2527852966
 20
-2.0905143081
 30
0.0
 10
-14.2530475849
 20
-2.0953620769
 30
0.0
 10
-14.2533052807
 20
-2.0994661246
 30
0.0
 10
-14.2535580141
 20
-2.1028269649
 30
0.0
 10
-14.2538033118
 20
-2.1054412112
 30
0.0
 10
-14.254019787
 20
-2.1071574217
 30
0.0
 10
-14.2541966853
 20
-2.1081492251
 30
0.0
 10
-14.2543213928
 20
-2.1086264512
 30
0.0
 10
-14.2544167283
 20
-2.1089101585
 30
0.0
 10
-14.2545338288
 20
-2.1090506015
 30
0.0
 10
-14.2545849515
 20
-2.1090507281
 30
0.0
  0
SPLINE
  5
221
100
AcDbEntity
  8
02___PRT_ALL_AXES
100
AcDbSpline
 62
7
  6
CONTINUOUS
 70
0
 71
3
 72
45
 73
41
 74
0
 42
0.0000001
 43
0.0000001
 44
0.0000000001
 40
0.0
 40
0.0
 40
0.0
 40
0.0
 40
0.0000297058
 40
0.0000889703
 40
0.0001825772
 40
0.0003115369
 40
0.0006766633
 40
0.0011854402
 40
0.0018380866
 40
0.0026346159
 40
0.003574962
 40
0.0046590211
 40
0.00588667
 40
0.0072577737
 40
0.0104297699
 40
0.0141738303
 40
0.0184887325
 40
0.0233731956
 40
0.028824917
 40
0.0348405061
 40
0.0414165147
 40
0.0485494911
 40
0.0562359817
 40
0.0732556809
 40
0.0924466736
 40
0.1137697016
 40
0.137180541
 40
0.1626349315
 40
0.1900872357
 40
0.2194820486
 40
0.2507597333
 40
0.2838606348
 40
0.3552797392
 40
0.4331795617
 40
0.5169643056
 40
0.6059696564
 40
0.699508104
 40
0.7968790484
 40
0.8973416166
 40
1.0
 40
1.0
 40
1.0
 40
1.0
 10
-14.1952542583
 20
10.0408020667
 30
0.0
 10
-14.195304134
 20
10.0408019431
 30
0.0
 10
-14.1954183784
 20
10.0406649256
 30
0.0
 10
-14.1955113887
 20
10.040388138
 30
0.0
 10
-14.1956330546
 20
10.0399225516
 30
0.0
 10
-14.1958056382
 20
10.0389549385
 30
0.0
 10
-14.1960168335
 20
10.0372805867
 30
0.0
 10
-14.1962561484
 20
10.0347301026
 30
0.0
 10
-14.1965027175
 20
10.031451234
 30
0.0
 10
-14.1967541281
 20
10.027447285
 30
0.0
 10
-14.1970100191
 20
10.0227177544
 30
0.0
 10
-14.1972698636
 20
10.0172637625
 30
0.0
 10
-14.1975334912
 20
10.0110859424
 30
0.0
 10
-14.197908238
 20
10.00140413
 30
0.0
 10
-14.1983775115
 20
9.9874978837
 30
0.0
 10
-14.1989315506
 20
9.9686492904
 30
0.0
 10
-14.19949919
 20
9.9469247544
 30
0.0
 10
-14.2000799043
 20
9.9223325212
 30
0.0
 10
-14.2006730982
 20
9.8948844049
 30
0.0
 10
-14.201278384
 20
9.8645958382
 30
0.0
 10
-14.2018953173
 20
9.8314841582
 30
0.0
 10
-14.2025235393
 20
9.7955667953
 30
0.0
 10
-14.2034060167
 20
9.7421163413
 30
0.0
 10
-14.2045266871
 20
9.6684217763
 30
0.0
 10
-14.2058703147
 20
9.5718323993
 30
0.0
 10
-14.2072514919
 20
9.464511889
 30
0.0
 10
-14.2086673725
 20
9.3466748021
 30
0.0
 10
-14.2101148921
 20
9.2185463771
 30
0.0
 10
-14.2115908977
 20
9.0803706125
 30
0.0
 10
-14.2130925706
 20
8.9324173174
 30
0.0
 10
-14.2146169786
 20
8.7749798284
 30
0.0
 10
-14.2167296489
 20
8.5469862633
 30
0.0
 10
-14.2193925963
 20
8.2407162311
 30
0.0
 10
-14.2225565377
 20
7.8493496109
 30
0.0
 10
-14.2257381008
 20
7.428455047
 30
0.0
 10
-14.2289131418
 20
6.9813025946
 30
0.0
 10
-14.232056075
 20
6.5113382481
 30
0.0
 10
-14.2351431827
 20
6.0221365482
 30
0.0
 10
-14.2381489173
 20
5.517621756
 30
0.0
 10
-14.2400672409
 20
5.1765885245
 30
0.0
 10
-14.2410091218
 20
5.0042284092
 30
0.0
  0
SPLINE
  5
222
100
AcDbEntity
  8
02___PRT_ALL_AXES
100
AcDbSpline
 62
7
  6
CONTINUOUS
 70
0
 71
3
 72
45
 73
41
 74
0
 42
0.0000001
 43
0.0000001
 44
0.0000000001
 40
0.0
 40
0.0
 40
0.0
 40
0.0
 40
0.1026583834
 40
0.2031209516
 40
0.300491896
 40
0.3940303436
 40
0.4830356944
 40
0.5668204383
 40
0.6447202608
 40
0.7161393652
 40
0.7492402667
 40
0.7805179514
 40
0.8099127643
 40
0.8373650685
 40
0.862819459
 40
0.8862302984
 40
0.9075533264
 40
0.9267443191
 40
0.9437640183
 40
0.9514505089
 40
0.9585834853
 40
0.9651594939
 40
0.971175083
 40
0.9766268044
 40
0.9815112675
 40
0.9858261697
 40
0.9895702301
 40
0.9927422263
 40
0.99411333
 40
0.9953409789
 40
0.996425038
 40
0.9973653841
 40
0.9981619134
 40
0.9988145598
 40
0.9993233367
 40
0.9996884631
 40
0.9998174228
 40
0.9999110297
 40
0.9999702942
 40
1.0
 40
1.0
 40
1.0
 40
1.0
 10
-12.1727234709
 20
3.0434996674
 30
0.0
 10
-12.1736888988
 20
2.8668305493
 30
0.0
 10
-12.1756551804
 20
2.517271487
 30
0.0
 10
-12.1787360584
 20
2.000143825
 30
0.0
 10
-12.1819003438
 20
1.4987120826
 30
0.0
 10
-12.1851218504
 20
1.0169986274
 30
0.0
 10
-12.1883762674
 20
0.5586673637
 30
0.0
 10
-12.1916373695
 20
0.1272504357
 30
0.0
 10
-12.1948804094
 20
-0.27390035
 30
0.0
 10
-12.1976099306
 20
-0.587827133
 30
0.0
 10
-12.1997754176
 20
-0.8215205372
 30
0.0
 10
-12.2013379358
 20
-0.9828939634
 30
0.0
 10
-12.2028771505
 20
-1.1345460909
 30
0.0
 10
-12.2043900563
 20
-1.2761762497
 30
0.0
 10
-12.2058737639
 20
-1.4075078853
 30
0.0
 10
-12.2073250415
 20
-1.5282908993
 30
0.0
 10
-12.2087407481
 20
-1.6382944224
 30
0.0
 10
-12.2101179664
 20
-1.7372985339
 30
0.0
 10
-12.2112666536
 20
-1.812835463
 30
0.0
 10
-12.2121711929
 20
-1.8676221784
 30
0.0
 10
-12.2128151205
 20
-1.9044374753
 30
0.0
 10
-12.2134474771
 20
-1.9383769473
 30
0.0
 10
-12.214067895
 20
-1.9694227281
 30
0.0
 10
-12.2146759188
 20
-1.9975570474
 30
0.0
 10
-12.2152711509
 20
-2.0227640864
 30
0.0
 10
-12.2158529813
 20
-2.0450317358
 30
0.0
 10
-12.2164208714
 20
-2.0643515439
 30
0.0
 10
-12.2169018768
 20
-2.0786054464
 30
0.0
 10
-12.2172859922
 20
-2.0885293041
 30
0.0
 10
-12.2175562105
 20
-2.0948615696
 30
0.0
 10
-12.2178225511
 20
-2.1004519114
 30
0.0
 10
-12.2180848394
 20
-2.1052996802
 30
0.0
 10
-12.2183425352
 20
-2.1094037279
 30
0.0
 10
-12.2185952686
 20
-2.1127645683
 30
0.0
 10
-12.2188405664
 20
-2.1153788145
 30
0.0
 10
-12.2190570416
 20
-2.1170950251
 30
0.0
 10
-12.2192339398
 20
-2.1180868285
 30
0.0
 10
-12.2193586473
 20
-2.1185640546
 30
0.0
 10
-12.2194539828
 20
-2.1188477619
 30
0.0
 10
-12.2195710833
 20
-2.1189882048
 30
0.0
 10
-12.219622206
 20
-2.1189883315
 30
0.0
  0
SPLINE
  5
223
100
AcDbEntity
  8
02___PRT_ALL_AXES
100
AcDbSpline
 62
7
  6
CONTINUOUS
 70
0
 71
3
 72
46
 73
42
 74
0
 42
0.0000001
 43
0.0000001
 44
0.0000000001
 40
0.0
 40
0.0
 40
0.0
 40
0.0
 40
0.0000285976
 40
0.0000912391
 40
0.0001919562
 40
0.0003315021
 40
0.0005101264
 40
0.0007279339
 40
0.0012812539
 40
0.0019916028
 40
0.002858949
 40
0.0038832024
 40
0.0050642461
 40
0.0064019485
 40
0.0078961698
 40
0.0113535833
 40
0.015434743
 40
0.0201359172
 40
0.0254529263
 40
0.0313815819
 40
0.0379176905
 40
0.0450570553
 40
0.0527953801
 40
0.0611268649
 40
0.0795413447
 40
0.1002443901
 40
0.1231792073
 40
0.1482781245
 40
0.1754644385
 40
0.204661042
 40
0.2357838364
 40
0.2687382681
 40
0.3034289214
 40
0.3776122119
 40
0.4574605194
 40
0.5420418481
 40
0.6303684939
 40
0.7213952992
 40
0.814064213
 40
0.9073268735
 40
1.0
 40
1.0
 40
1.0
 40
1.0
 10
-14.2538524738
 20
-1.9590525455
 30
0.0
 10
-14.2539188534
 20
-1.95905271
 30
0.0
 10
-14.2540570916
 20
-1.9588280208
 30
0.0
 10
-14.2541625222
 20
-1.9584309677
 30
0.0
 10
-14.2543071306
 20
-1.9577234492
 30
0.0
 10
-14.2544373203
 20
-1.9567675876
 30
0.0
 10
-14.2545749927
 20
-1.9555280246
 30
0.0
 10
-14.2547704826
 20
-1.9533334797
 30
0.0
 10
-14.2550025034
 20
-1.9499013437
 30
0.0
 10
-14.2552614065
 20
-1.9449620093
 30
0.0
 10
-14.2555165985
 20
-1.9389276165
 30
0.0
 10
-14.255767467
 20
-1.9317999251
 30
0.0
 10
-14.256013403
 20
-1.9235796634
 30
0.0
 10
-14.2562541691
 20
-1.9142679948
 30
0.0
 10
-14.2565841988
 20
-1.8996731029
 30
0.0
 10
-14.2569731277
 20
-1.8787100111
 30
0.0
 10
-14.2573989325
 20
-1.8503026702
 30
0.0
 10
-14.2578021673
 20
-1.8175781962
 30
0.0
 10
-14.2581822837
 20
-1.7805648555
 30
0.0
 10
-14.2585385952
 20
-1.7392919166
 30
0.0
 10
-14.2588706446
 20
-1.6937886637
 30
0.0
 10
-14.259178006
 20
-1.6440846082
 30
0.0
 10
-14.2594603034
 20
-1.5902129762
 30
0.0
 10
-14.2598147869
 20
-1.5101699665
 30
0.0
 10
-14.2601838518
 20
-1.4000334865
 30
0.0
 10
-14.260511761
 20
-1.2560000029
 30
0.0
 10
-14.2607357683
 20
-1.0964506122
 30
0.0
 10
-14.2608550966
 20
-0.921852362
 30
0.0
 10
-14.2608693145
 20
-0.7327194236
 30
0.0
 10
-14.2607779168
 20
-0.5296040833
 30
0.0
 10
-14.2605809323
 20
-0.3131000502
 30
0.0
 10
-14.2602791803
 20
-0.0838435211
 30
0.0
 10
-14.259725306
 20
0.2453633346
 30
0.0
 10
-14.2587663911
 20
0.6834181388
 30
0.0
 10
-14.2572451776
 20
1.2372764752
 30
0.0
 10
-14.2553453092
 20
1.8239629097
 30
0.0
 10
-14.2530883994
 20
2.4365954177
 30
0.0
 10
-14.25050104
 20
3.0679994142
 30
0.0
 10
-14.2476125373
 20
3.7108595355
 30
0.0
 10
-14.2444568403
 20
4.3575398311
 30
0.0
 10
-14.2421845954
 20
4.7891218371
 30
0.0
 10
-14.2410091218
 20
5.0042284092
 30
0.0
  0
SPLINE
  5
224
100
AcDbEntity
  8
02___PRT_ALL_AXES
100
AcDbSpline
 62
7
  6
CONTINUOUS
 70
0
 71
3
 72
46
 73
42
 74
0
 42
0.0000001
 43
0.0000001
 44
0.0000000001
 40
0.0
 40
0.0
 40
0.0
 40
0.0
 40
0.0926731265
 40
0.185935787
 40
0.2786047008
 40
0.3696315061
 40
0.4579581519
 40
0.5425394806
 40
0.6223877881
 40
0.6965710786
 40
0.7312617319
 40
0.7642161636
 40
0.795338958
 40
0.8245355615
 40
0.8517218755
 40
0.8768207927
 40
0.8997556099
 40
0.9204586553
 40
0.9388731351
 40
0.9472046199
 40
0.9549429447
 40
0.9620823095
 40
0.9686184181
 40
0.9745470737
 40
0.9798640828
 40
0.984565257
 40
0.9886464167
 40
0.9921038302
 40
0.9935980515
 40
0.9949357539
 40
0.9961167976
 40
0.997141051
 40
0.9980083972
 40
0.9987187461
 40
0.9992720661
 40
0.9994898736
 40
0.9996684979
 40
0.9998080438
 40
0.9999087609
 40
0.9999714024
 40
1.0
 40
1.0
 40
1.0
 40
1.0
 10
-12.1727234709
 20
3.0434996674
 30
0.0
 10
-12.1715186104
 20
3.2639839038
 30
0.0
 10
-12.1691895594
 20
3.70635546
 30
0.0
 10
-12.16595497
 20
4.369202763
 30
0.0
 10
-12.1629942546
 20
5.0281343873
 30
0.0
 10
-12.1603422113
 20
5.6753234837
 30
0.0
 10
-12.1580288787
 20
6.3032718045
 30
0.0
 10
-12.1560815137
 20
6.9046253998
 30
0.0
 10
-12.1545222698
 20
7.4723301946
 30
0.0
 10
-12.153539382
 20
7.9213363689
 30
0.0
 10
-12.1529716609
 20
8.258773396
 30
0.0
 10
-12.1526623651
 20
8.4937613383
 30
0.0
 10
-12.152460456
 20
8.7156779722
 30
0.0
 10
-12.1523667733
 20
8.9238711961
 30
0.0
 10
-12.1523813467
 20
9.117732458
 30
0.0
 10
-12.1525036582
 20
9.2966956644
 30
0.0
 10
-12.1527332656
 20
9.4602337899
 30
0.0
 10
-12.1530693726
 20
9.6078681105
 30
0.0
 10
-12.1534476641
 20
9.7207580026
 30
0.0
 10
-12.1538110097
 20
9.8028020875
 30
0.0
 10
-12.1541003645
 20
9.8580205103
 30
0.0
 10
-12.15441541
 20
9.9089671672
 30
0.0
 10
-12.1547557607
 20
9.9556080014
 30
0.0
 10
-12.1551209799
 20
9.9979127637
 30
0.0
 10
-12.1555105992
 20
10.035851438
 30
0.0
 10
-12.1559239149
 20
10.0693940238
 30
0.0
 10
-12.1563603648
 20
10.0985115482
 30
0.0
 10
-12.1567590169
 20
10.1199987173
 30
0.0
 10
-12.1570972973
 20
10.1349584815
 30
0.0
 10
-12.1573440826
 20
10.1445029418
 30
0.0
 10
-12.157596167
 20
10.1529287101
 30
0.0
 10
-12.1578533072
 20
10.1602345938
 30
0.0
 10
-12.1581148791
 20
10.1664198464
 30
0.0
 10
-12.1583802547
 20
10.1714826642
 30
0.0
 10
-12.158618076
 20
10.1750006036
 30
0.0
 10
-12.1588184532
 20
10.1772500121
 30
0.0
 10
-12.1589595674
 20
10.1785205642
 30
0.0
 10
-12.1590930119
 20
10.1795003223
 30
0.0
 10
-12.1592412355
 20
10.1802255288
 30
0.0
 10
-12.1593493018
 20
10.1806325082
 30
0.0
 10
-12.1594909959
 20
10.1808628146
 30
0.0
 10
-12.1595590351
 20
10.180862646
 30
0.0
  0
SPLINE
  5
225
100
AcDbEntity
  8
02___PRT_ALL_AXES
100
AcDbSpline
 62
7
  6
CONTINUOUS
 70
0
 71
3
 72
39
 73
35
 74
0
 42
0.0000001
 43
0.0000001
 44
0.0000000001
 40
0.0
 40
0.0
 40
0.0
 40
0.0
 40
0.1152655713
 40
0.2245196692
 40
0.3274930268
 40
0.4239177367
 40
0.5135486099
 40
0.5961686707
 40
0.6715629539
 40
0.7395364046
 40
0.7999284311
 40
0.8272323071
 40
0.8525819552
 40
0.8759606708
 40
0.8973562025
 40
0.9167566884
 40
0.9341502792
 40
0.9495251458
 40
0.9628694916
 40
0.9687768168
 40
0.9741732917
 40
0.9790584707
 40
0.9834319209
 40
0.9872932291
 40
0.9906420137
 40
0.9934779474
 40
0.995800806
 40
0.9976105849
 40
0.998323231
 40
0.99890793
 40
0.9993650901
 40
0.999695663
 40
0.9999024685
 40
1.0
 40
1.0
 40
1.0
 40
1.0
 10
-12.1968160347
 20
-2.1286809636
 30
0.0
 10
-12.1976861828
 20
-2.2332142541
 30
0.0
 10
-12.199415392
 20
-2.4368288019
 30
0.0
 10
-12.2020510681
 20
-2.7338278299
 30
0.0
 10
-12.204654352
 20
-3.0137392525
 30
0.0
 10
-12.2072187327
 20
-3.2758534993
 30
0.0
 10
-12.2097376526
 20
-3.5195084151
 30
0.0
 10
-12.2122041138
 20
-3.7440898487
 30
0.0
 10
-12.2146115818
 20
-3.9490290944
 30
0.0
 10
-12.2169539213
 20
-4.1338085397
 30
0.0
 10
-12.2189053356
 20
-4.2749751007
 30
0.0
 10
-12.2204406049
 20
-4.3774871412
 30
0.0
 10
-12.2215330605
 20
-4.4464338273
 30
0.0
 10
-12.2226048845
 20
-4.5100217288
 30
0.0
 10
-12.223655232
 20
-4.5682137608
 30
0.0
 10
-12.224683266
 20
-4.620977219
 30
0.0
 10
-12.2256879813
 20
-4.6682797575
 30
0.0
 10
-12.2266684722
 20
-4.7100890271
 30
0.0
 10
-12.2274941004
 20
-4.7414818187
 30
0.0
 10
-12.2281497993
 20
-4.7638261688
 30
0.0
 10
-12.2286149544
 20
-4.7785009594
 30
0.0
 10
-12.2290735255
 20
-4.7917841097
 30
0.0
 10
-12.2295253391
 20
-4.8036743147
 30
0.0
 10
-12.2299700841
 20
-4.8141703321
 30
0.0
 10
-12.2304073858
 20
-4.823270798
 30
0.0
 10
-12.2308364127
 20
-4.8309748523
 30
0.0
 10
-12.2312563377
 20
-4.8372805194
 30
0.0
 10
-12.231619702
 20
-4.8416611909
 30
0.0
 10
-12.2319168664
 20
-4.8444620478
 30
0.0
 10
-12.2321220584
 20
-4.846043349
 30
0.0
 10
-12.2323137576
 20
-4.8472649603
 30
0.0
 10
-12.2325212647
 20
-4.8481642991
 30
0.0
 10
-12.2326732977
 20
-4.8486798534
 30
0.0
 10
-12.2328670329
 20
-4.8489574333
 30
0.0
 10
-12.2329554841
 20
-4.8489568067
 30
0.0
  0
ENDSEC
  0
SECTION
  2
OBJECTS
  0
DICTIONARY
  5
C
100
AcDbDictionary
280
0
281
1
  3
ACAD_GROUP
350
D
  3
ACAD_MLINESTYLE
350
17
  3
ACAD_LAYOUT
350
1A
  3
ACAD_PLOTSETTINGS
350
19
  3
ACAD_PLOTSTYLENAME
350
E
  0
DICTIONARY
  5
D
102
{ACAD_REACTORS
330
C
102
}
100
AcDbDictionary
280
0
281
1
  0
ACDBDICTIONARYWDFLT
  5
E
102
{ACAD_REACTORS
330
C
102
}
100
AcDbDictionary
281
1
  3
Normal
350
F
100
AcDbDictionaryWithDefault
340
F
  0
DICTIONARY
  5
17
102
{ACAD_REACTORS
330
C
102
}
100
AcDbDictionary
280
0
281
1
  3
Standard
350
18
  0
DICTIONARY
  5
19
102
{ACAD_REACTORS
330
C
102
}
100
AcDbDictionary
281
1
  0
DICTIONARY
  5
1A
102
{ACAD_REACTORS
330
C
102
}
100
AcDbDictionary
281
1
  3
Model
350
226
  3
Layout1
350
227
  0
ACDBPLACEHOLDER
  5
F
102
{ACAD_REACTORS
330
E
102
}
  0
MLINESTYLE
  5
18
102
{ACAD_REACTORS
330
17
102
}
100
AcDbMlineStyle
  2
STANDARD
 70
0
  3

 62
256
 51
90.0
 52
90.0
 71
2
 49
0.5
 62
256
  6
BYLAYER
 49
-0.5
 62
256
  6
BYLAYER
  0
LAYOUT
  5
226
102
{ACAD_REACTORS
330
1A
102
}
100
AcDbPlotSettings
  1

  2
none_device
  4

  6

 40
0.0
 41
0.0
 42
0.0
 43
0.0
 44
431.8
 45
279.4
 46
0.0
 47
0.0
 48
0.0
 49
0.0
140
0.0
141
0.0
142
1.0
143
1.0
 70
1024
 72
0
 73
0
 74
0
  7

 75
0
147
1.0
148
0.0
149
0.0
100
AcDbLayout
  1
Model
 70
0
 71
0
 10
0.0
 20
0.0
 11
17.0
 21
11.0
 12
0.0
 22
0.0
 32
0.0
 14
0.0
 24
0.0
 34
0.0
 15
0.0
 25
0.0
 35
0.0
146
0.0
 13
0.0
 23
0.0
 33
0.0
 16
1.0
 26
0.0
 36
0.0
 17
0.0
 27
1.0
 37
0.0
 76
0
330
207
345
0
346
0
  0
LAYOUT
  5
227
102
{ACAD_REACTORS
330
1A
102
}
100
AcDbPlotSettings
  1

  2
none_device
  4

  6

 40
0.0
 41
0.0
 42
0.0
 43
0.0
 44
431.8
 45
279.4
 46
0.0
 47
0.0
 48
0.0
 49
0.0
140
0.0
141
0.0
142
1.0
143
1.0
 70
0
 72
0
 73
0
 74
0
  7

 75
0
147
1.0
148
0.0
149
0.0
100
AcDbLayout
  1
Layout1
 70
0
 71
1
 10
0.0
 20
0.0
 11
17.0
 21
11.0
 12
0.0
 22
0.0
 32
0.0
 14
0.0
 24
0.0
 34
0.0
 15
0.0
 25
0.0
 35
0.0
146
0.0
 13
0.0
 23
0.0
 33
0.0
 16
1.0
 26
0.0
 36
0.0
 17
0.0
 27
1.0
 37
0.0
 76
0
330
208
345
0
346
0
  0
ENDSEC
  0
EOF
