999
DXF file: N:\Master\master\M3_ProE_files\Lenexa\MADAM DXF\411286.dxf
999
Pro/ENGINEER 2010280 by Parametric Technology Corporation
  0
SECTION
  2
HEADER
  9
$ACADVER
  1
AC1021
  9
$DWGCODEPAGE
  3
ANSI_1252
  9
$EXTMAX
 10
17.0
 20
11.0
 30
0.0
  9
$EXTMIN
 10
0.0
 20
-0.0
 30
0.0
  9
$LIMMIN
 10
0.0
 20
-0.0
  9
$LIMMAX
 10
17.0
 20
11.0
  9
$VIEWCTR
 10
8.5
 20
5.5
  9
$VIEWSIZE
 40
11.0
  9
$CLAYER
  8
0
  9
$LTSCALE
 40
0.935
  9
$CELTYPE
  6
BYLAYER
  9
$DIMSCALE
 40
1.0
  9
$DIMASZ
 40
0.125
  9
$DIMEXO
 40
0.10625
  9
$DIMDLI
 40
0.646
  9
$DIMEXE
 40
0.306
  9
$DIMCEN
 40
0.153
  9
$DIMLFAC
 40
1.0
  9
$DIMBLK
  1
_FILLED
  9
$DIMTXT
 40
0.125
  9
$DIMTOL
 70
1
  9
$DIMLIM
 70
0
  9
$DIMTFAC
 40
1.0
  9
$DIMTP
 40
0.01
  9
$DIMTM
 40
0.01
  9
$PDMODE
 70
3
  9
$PDSIZE
 40
0.3125
  9
$HANDSEED
  5
22D
  9
$TILEMODE
 70
1
  9
$MEASUREMENT
 70
0
  9
$INSUNITS
 70
1
  0
ENDSEC
  0
SECTION
  2
CLASSES
  0
CLASS
  1
ACDBDICTIONARYWDFLT
  2
AcDbDictionaryWithDefault
  3
AutoCAD 2000
 90
0
 91
1
280
0
281
0
  0
CLASS
  1
ACDBPLACEHOLDER
  2
AcDbPlaceHolder
  3
AutoCAD 2000
 90
0
 91
1
280
0
281
0
  0
CLASS
  1
LAYOUT
  2
AcDbLayout
  3
AutoCAD 2000
 90
0
 91
0
280
0
281
0
  0
ENDSEC
  0
SECTION
  2
TABLES
  0
TABLE
  2
VPORT
  5
8
100
AcDbSymbolTable
 70
2
  0
VPORT
  5
1F4
100
AcDbSymbolTableRecord
100
AcDbViewportTableRecord
  2
*ACTIVE
 70
0
 10
0.0
 20
0.0
 11
1.0
 21
1.0
 12
8.5
 22
5.5
 13
0.0
 23
0.0
 14
1.0
 24
1.0
 15
0.0
 25
0.0
 16
0.0
 26
0.0
 36
1.0
 17
0.0
 27
0.0
 37
0.0
 40
11.0
 41
1.5454545455
 42
50.0
 43
0.0
 44
0.0
 50
0.0
 51
0.0
 71
0
 72
100
 73
1
 74
1
 75
0
 76
0
 77
0
 78
0
  0
ENDTAB
  0
TABLE
  2
LTYPE
  5
5
100
AcDbSymbolTable
 70
6
  0
LTYPE
  5
14
100
AcDbSymbolTableRecord
100
AcDbLinetypeTableRecord
  2
BYBLOCK
 70
0
  3

 72
65
 73
0
 40
0.0
  0
LTYPE
  5
15
100
AcDbSymbolTableRecord
100
AcDbLinetypeTableRecord
  2
BYLAYER
 70
0
  3

 72
65
 73
0
 40
0.0
  0
LTYPE
  5
16
100
AcDbSymbolTableRecord
100
AcDbLinetypeTableRecord
  2
CONTINUOUS
 70
64
  3
Solid line
 72
65
 73
0
 40
0.0
  0
LTYPE
  5
1F5
100
AcDbSymbolTableRecord
100
AcDbLinetypeTableRecord
  2
CENTER
 70
64
  3
____ _ ____ _ ____ _ ____ _ ____ _ ____ _ ____
 72
65
 73
4
 40
0.6
 49
0.375
 74
0
 49
-0.075
 74
0
 49
0.075
 74
0
 49
-0.075
 74
0
  0
LTYPE
  5
1F6
100
AcDbSymbolTableRecord
100
AcDbLinetypeTableRecord
  2
HIDDEN
 70
64
  3
- - - - - - - - - - - - - - - - - - - -
 72
65
 73
2
 40
0.2
 49
0.1
 74
0
 49
-0.1
 74
0
  0
LTYPE
  5
1F7
100
AcDbSymbolTableRecord
100
AcDbLinetypeTableRecord
  2
PHANTOM
 70
64
  3
_____ _ _ _____ _ _ _____ _ _ _____
 72
65
 73
6
 40
0.8
 49
0.45
 74
0
 49
-0.05
 74
0
 49
0.1
 74
0
 49
-0.05
 74
0
 49
0.1
 74
0
 49
-0.05
 74
0
  0
LTYPE
  5
1F8
100
AcDbSymbolTableRecord
100
AcDbLinetypeTableRecord
  2
DOT
 70
64
  3
. . . . . . . . . . . . . . . . . . . .
 72
65
 73
2
 40
0.2
 49
0.1
 74
0
 49
-0.1
 74
0
  0
LTYPE
  5
1F9
100
AcDbSymbolTableRecord
100
AcDbLinetypeTableRecord
  2
DASHED
 70
64
  3
- - - - - - - - - - - - - - - - - - - -
 72
65
 73
2
 40
0.2
 49
0.1
 74
0
 49
-0.1
 74
0
  0
ENDTAB
  0
TABLE
  2
LAYER
  5
2
100
AcDbSymbolTable
 70
36
  0
LAYER
  5
10
100
AcDbSymbolTableRecord
100
AcDbLayerTableRecord
  2
0
 70
0
 62
7
  6
CONTINUOUS
370
-3
390
F
  0
LAYER
  5
1FA
100
AcDbSymbolTableRecord
100
AcDbLayerTableRecord
  2
DEFAULT_1
 70
0
 62
7
  6
CENTER
370
-3
390
F
  0
LAYER
  5
1FB
100
AcDbSymbolTableRecord
100
AcDbLayerTableRecord
  2
DEFAULT_2
 70
0
 62
8
  6
HIDDEN
370
-3
390
F
  0
LAYER
  5
1FC
100
AcDbSymbolTableRecord
100
AcDbLayerTableRecord
  2
DEFAULT_3
 70
0
 62
7
  6
PHANTOM
370
-3
390
F
  0
LAYER
  5
1FD
100
AcDbSymbolTableRecord
100
AcDbLayerTableRecord
  2
01___PRT_ALL_DTM_PLN
 70
0
 62
7
  6
CONTINUOUS
370
-3
390
F
  0
LAYER
  5
1FE
100
AcDbSymbolTableRecord
100
AcDbLayerTableRecord
  2
01___PRT_DEF_DTM_PLN
 70
0
 62
7
  6
CONTINUOUS
370
-3
390
F
  0
LAYER
  5
1FF
100
AcDbSymbolTableRecord
100
AcDbLayerTableRecord
  2
02___PRT_ALL_AXES
 70
0
 62
7
  6
CONTINUOUS
370
-3
390
F
  0
LAYER
  5
200
100
AcDbSymbolTableRecord
100
AcDbLayerTableRecord
  2
03___PRT_ALL_CURVES
 70
0
 62
7
  6
CONTINUOUS
370
-3
390
F
  0
LAYER
  5
201
100
AcDbSymbolTableRecord
100
AcDbLayerTableRecord
  2
04___PRT_ALL_DTM_PNT
 70
0
 62
7
  6
CONTINUOUS
370
-3
390
F
  0
LAYER
  5
202
100
AcDbSymbolTableRecord
100
AcDbLayerTableRecord
  2
05___PRT_ALL_DTM_CSYS
 70
0
 62
7
  6
CONTINUOUS
370
-3
390
F
  0
LAYER
  5
203
100
AcDbSymbolTableRecord
100
AcDbLayerTableRecord
  2
05___PRT_DEF_DTM_CSYS
 70
0
 62
7
  6
CONTINUOUS
370
-3
390
F
  0
LAYER
  5
204
100
AcDbSymbolTableRecord
100
AcDbLayerTableRecord
  2
06___PRT_ALL_SURFS
 70
0
 62
7
  6
CONTINUOUS
370
-3
390
F
  0
ENDTAB
  0
TABLE
  2
STYLE
  5
3
100
AcDbSymbolTable
 70
1
  0
STYLE
  5
11
100
AcDbSymbolTableRecord
100
AcDbTextStyleTableRecord
  2
STANDARD
 70
0
 40
0.0
 41
0.8
 50
0.0
 71
0
 42
0.2
  3
txt
  4

  0
STYLE
  5
205
100
AcDbSymbolTableRecord
100
AcDbTextStyleTableRecord
  2
TEXTSTYLE_1
 70
0
 40
0.0
 41
0.8
 50
0.0
 71
0
 42
0.2
  3
gdt
  4

  0
ENDTAB
  0
TABLE
  2
VIEW
  5
6
100
AcDbSymbolTable
 70
0
  0
ENDTAB
  0
TABLE
  2
UCS
  5
7
100
AcDbSymbolTable
 70
0
  0
ENDTAB
  0
TABLE
  2
APPID
  5
9
100
AcDbSymbolTable
 70
1
  0
APPID
  5
206
100
AcDbSymbolTableRecord
100
AcDbRegAppTableRecord
  2
ACAD
 70
0
  0
ENDTAB
  0
TABLE
  2
BLOCK_RECORD
  5
1
100
AcDbSymbolTable
 70
0
  0
BLOCK_RECORD
  5
207
100
AcDbSymbolTableRecord
100
AcDbBlockTableRecord
  2
*Model_Space
  0
BLOCK_RECORD
  5
208
100
AcDbSymbolTableRecord
100
AcDbBlockTableRecord
  2
*Paper_Space
  0
ENDTAB
  0
TABLE
  2
DIMSTYLE
  5
A
100
AcDbSymbolTable
 70
1
100
AcDbDimStyleTable
 71
0
  0
DIMSTYLE
105
209
100
AcDbSymbolTableRecord
100
AcDbDimStyleTableRecord
  2
STANDARD
 70
0
  3

  4

 40
1.0
 41
0.125
 42
0.0625
 43
0.38
 44
0.18
 45
0.0
 46
0.0
 47
0.01
 48
0.01
140
0.125
141
0.09
142
0.0
143
25.4
144
1.0
145
0.0
146
1.0
147
0.09
 71
1.0
 72
0.0
 73
1
 74
1
 75
0
 76
0
 77
0
 78
4
170
0
171
2
172
0
173
0
174
0
175
0
176
0
177
0
178
0
270
2
271
2
272
2
273
2
274
2
275
0
280
0
281
0
282
0
283
1
284
4
285
0
286
0
287
3
288
0
340
11
  0
ENDTAB
  0
ENDSEC
  0
SECTION
  2
BLOCKS
  0
BLOCK
  5
20
100
AcDbEntity
  8
0
100
AcDbBlockBegin
  2
*Model_Space
 70
0
 10
0.0
 20
0.0
 30
0.0
  3
*Model_Space
  1

  0
ENDBLK
  5
21
100
AcDbEntity
  8
0
100
AcDbBlockEnd
  0
BLOCK
  5
1C
100
AcDbEntity
  8
0
100
AcDbBlockBegin
  2
*Paper_Space
 70
0
 10
0.0
 20
0.0
 30
0.0
  3
*Paper_Space
  1

  0
ENDBLK
  5
1D
100
AcDbEntity
  8
0
100
AcDbBlockEnd
  0
ENDSEC
  0
SECTION
  2
ENTITIES
  0
MTEXT
  5
20A
100
AcDbEntity
  8
0
100
AcDbMText
 62
2
  6
CONTINUOUS
  7
STANDARD
 71
1
 72
1
 10
14.1698496211
 20
19.9648227343
 30
0.0
 11
1.0
 21
0.0
 31
0.0
 44
0.9
  1
411286
 40
3.0
 41
14.4
  0
LINE
  5
20B
100
AcDbEntity
  8
02___PRT_ALL_AXES
100
AcDbLine
 62
7
  6
CONTINUOUS
 10
-12.2237742409
 20
-2.9689793765
 11
22.205595453
 21
-3.1371128819
  0
LINE
  5
20C
100
AcDbEntity
  8
02___PRT_ALL_AXES
100
AcDbLine
 62
7
  6
CONTINUOUS
 10
-14.2497027439
 20
-1.1090638321
 11
-12.2147399984
 21
-1.1190014355
  0
LINE
  5
20D
100
AcDbEntity
  8
02___PRT_ALL_AXES
100
AcDbLine
 62
7
  6
CONTINUOUS
 10
22.2315559398
 20
-1.287217599
 11
24.2495924411
 21
-1.2970725441
  0
LINE
  5
20E
100
AcDbEntity
  8
02___PRT_ALL_AXES
100
AcDbLine
 62
7
  6
CONTINUOUS
 10
-14.1994039882
 20
9.1908133533
 11
-12.1644412427
 21
9.18087575
  0
LINE
  5
20F
100
AcDbEntity
  8
02___PRT_ALL_AXES
100
AcDbLine
 62
7
  6
CONTINUOUS
 10
22.2818567226
 20
9.0126595766
 11
24.2998911968
 21
9.0028046413
  0
LINE
  5
210
100
AcDbEntity
  8
02___PRT_ALL_AXES
100
AcDbLine
 62
7
  6
CONTINUOUS
 10
-12.1554070001
 20
11.030853691
 11
22.2739626938
 21
10.8627201857
  0
ARC
  5
211
100
AcDbEntity
  8
02___PRT_ALL_AXES
100
AcDbCircle
 62
7
  6
CONTINUOUS
 10
-1520.7978831446
 20
11.5486507948
 40
1543.0819313067
100
AcDbArc
 50
359.6728853098
 51
359.9058972571
  0
ARC
  5
212
100
AcDbEntity
  8
02___PRT_ALL_AXES
100
AcDbCircle
 62
7
  6
CONTINUOUS
 10
-1555.2272528371
 20
11.7167843002
 40
1543.0819313053
100
AcDbArc
 50
359.6728853098
 51
359.9058972571
  0
ARC
  5
213
100
AcDbEntity
  8
02___PRT_ALL_AXES
100
AcDbCircle
 62
7
  6
CONTINUOUS
 10
-1147.6721551637
 20
8.6855900617
 40
1169.9461983239
100
AcDbArc
 50
359.51254781
 51
359.7087710456
  0
ARC
  5
214
100
AcDbEntity
  8
02___PRT_ALL_AXES
100
AcDbCircle
 62
7
  6
CONTINUOUS
 10
-1182.1015248529
 20
8.8537235704
 40
1169.9461983191
100
AcDbArc
 50
359.5125478098
 51
359.7087710455
  0
CIRCLE
  5
215
100
AcDbEntity
  8
02___PRT_ALL_AXES
100
AcDbCircle
 62
7
  6
CONTINUOUS
 10
44.6671253626
 20
3.521760334
 40
7.0
  0
CIRCLE
  5
216
100
AcDbEntity
  8
02___PRT_ALL_AXES
100
AcDbCircle
 62
7
  6
CONTINUOUS
 10
44.6671253626
 20
3.521760334
 40
5.15
  0
CIRCLE
  5
217
100
AcDbEntity
  8
02___PRT_ALL_AXES
100
AcDbCircle
 62
7
  6
CONTINUOUS
 10
44.6671253626
 20
3.521760334
 40
5.0
  0
LINE
  5
218
100
AcDbEntity
  8
02___PRT_ALL_AXES
100
AcDbLine
 62
7
  6
CONTINUOUS
 10
22.2317393645
 20
-1.267777874
 11
22.2315522285
 21
-1.2891634678
  0
SPLINE
  5
219
100
AcDbEntity
  8
02___PRT_ALL_AXES
100
AcDbSpline
 62
7
  6
CONTINUOUS
 70
0
 71
3
 72
37
 73
33
 74
0
 42
0.0000001
 43
0.0000001
 44
0.0000000001
 40
0.0
 40
0.0
 40
0.0
 40
0.0
 40
0.1161131186
 40
0.2259587246
 40
0.3293014085
 40
0.4259071501
 40
0.5155685874
 40
0.5981024103
 40
0.673326181
 40
0.7410665312
 40
0.8011883354
 40
0.8283532192
 40
0.8535665943
 40
0.8768128457
 40
0.898077143
 40
0.9173495826
 40
0.9346221921
 40
0.9498870262
 40
0.9631361763
 40
0.9743617979
 40
0.9792133712
 40
0.9835561835
 40
0.9873893287
 40
0.9907123872
 40
0.9935254899
 40
0.9958289118
 40
0.9976231834
 40
0.9989094938
 40
0.9993631678
 40
0.9996918341
 40
0.9998987854
 40
1.0
 40
1.0
 40
1.0
 40
1.0
 10
22.2315522285
 20
-1.2891634678
 30
0.0
 10
22.2309250012
 20
-1.360698526
 30
0.0
 10
22.2296798821
 20
-1.4999071353
 30
0.0
 10
22.2277840103
 20
-1.7027823429
 30
0.0
 10
22.2259146787
 20
-1.8936386744
 30
0.0
 10
22.2240758447
 20
-2.0720591304
 30
0.0
 10
22.2222716163
 20
-2.237658804
 30
0.0
 10
22.2205062752
 20
-2.3900845589
 30
0.0
 10
22.2187839939
 20
-2.529004187
 30
0.0
 10
22.2171083991
 20
-2.65411513
 30
0.0
 10
22.2157117149
 20
-2.7496178009
 30
0.0
 10
22.2146123279
 20
-2.818920878
 30
0.0
 10
22.2138298575
 20
-2.8655069116
 30
0.0
 10
22.2130618004
 20
-2.9084572738
 30
0.0
 10
22.2123085647
 20
-2.9477470494
 30
0.0
 10
22.2115707487
 20
-2.983356019
 30
0.0
 10
22.2108489446
 20
-3.0152681785
 30
0.0
 10
22.2101439479
 20
-3.0434687284
 30
0.0
 10
22.2094564
 20
-3.0679428609
 30
0.0
 10
22.208874579
 20
-3.0860016756
 30
0.0
 10
22.2084102974
 20
-3.0985739811
 30
0.0
 10
22.2080838936
 20
-3.1065936965
 30
0.0
 10
22.207762362
 20
-3.1136709871
 30
0.0
 10
22.2074458919
 20
-3.1198051261
 30
0.0
 10
22.2071351932
 20
-3.1249952497
 30
0.0
 10
22.2068306006
 20
-3.129243169
 30
0.0
 10
22.2065353937
 20
-3.1325450098
 30
0.0
 10
22.2062745716
 20
-3.1347123285
 30
0.0
 10
22.2060622425
 20
-3.1359630606
 30
0.0
 10
22.2059117061
 20
-3.1365657871
 30
0.0
 10
22.2057990787
 20
-3.1369191992
 30
0.0
 10
22.2056576433
 20
-3.1370996095
 30
0.0
 10
22.2055952857
 20
-3.137099224
 30
0.0
  0
LINE
  5
21A
100
AcDbEntity
  8
02___PRT_ALL_AXES
100
AcDbLine
 62
7
  6
CONTINUOUS
 10
22.2818696748
 20
9.0142901666
 11
22.2818872613
 21
9.03214799
  0
SPLINE
  5
21B
100
AcDbEntity
  8
02___PRT_ALL_AXES
100
AcDbSpline
 62
7
  6
CONTINUOUS
 70
0
 71
3
 72
37
 73
33
 74
0
 42
0.0000001
 43
0.0000001
 44
0.0000000001
 40
0.0
 40
0.0
 40
0.0
 40
0.0
 40
0.1161608435
 40
0.2260376482
 40
0.3293990843
 40
0.4260144963
 40
0.5156758643
 40
0.5982027284
 40
0.6734163063
 40
0.7411436884
 40
0.8012490228
 40
0.8284054888
 40
0.8536109336
 40
0.8768501993
 40
0.8981083433
 40
0.9173742904
 40
0.9346403834
 40
0.9498991043
 40
0.9631429727
 40
0.974364572
 40
0.9792147406
 40
0.9835566242
 40
0.9873893538
 40
0.9907121793
 40
0.9935250267
 40
0.9958282212
 40
0.9976223467
 40
0.9989086519
 40
0.9993623998
 40
0.9996912093
 40
0.9998984005
 40
1.0
 40
1.0
 40
1.0
 40
1.0
 10
22.2818872613
 20
9.03214799
 30
0.0
 10
22.2819560201
 20
9.1030359083
 30
0.0
 10
22.2820654378
 20
9.2409768942
 30
0.0
 10
22.2821440557
 20
9.4419949355
 30
0.0
 10
22.2821327313
 20
9.6310852597
 30
0.0
 10
22.2820314057
 20
9.8078389478
 30
0.0
 10
22.2818403618
 20
9.9718781155
 30
0.0
 10
22.2815604544
 20
10.1228565215
 30
0.0
 10
22.2811926533
 20
10.2604493356
 30
0.0
 10
22.2807376234
 20
10.3843589168
 30
0.0
 10
22.2802732463
 20
10.4789410253
 30
0.0
 10
22.2798508741
 20
10.5475736417
 30
0.0
 10
22.2795237386
 20
10.5937086263
 30
0.0
 10
22.2791757404
 20
10.6362438578
 30
0.0
 10
22.2788070581
 20
10.6751541498
 30
0.0
 10
22.278418035
 20
10.7104188779
 30
0.0
 10
22.2780091254
 20
10.7420219223
 30
0.0
 10
22.2775809758
 20
10.7699493299
 30
0.0
 10
22.277134082
 20
10.7941872095
 30
0.0
 10
22.2767302205
 20
10.8120728118
 30
0.0
 10
22.2763901494
 20
10.8245257585
 30
0.0
 10
22.2761431266
 20
10.8324704167
 30
0.0
 10
22.2758918368
 20
10.8394823027
 30
0.0
 10
22.2756364439
 20
10.8455603864
 30
0.0
 10
22.2753776262
 20
10.8507035123
 30
0.0
 10
22.2751157628
 20
10.8549133867
 30
0.0
 10
22.2748540285
 20
10.8581862852
 30
0.0
 10
22.2746155831
 20
10.8603352322
 30
0.0
 10
22.2744163814
 20
10.8615761499
 30
0.0
 10
22.2742725533
 20
10.8621745942
 30
0.0
 10
22.2741636423
 20
10.8625262521
 30
0.0
 10
22.2740248618
 20
10.8627061446
 30
0.0
 10
22.2739628611
 20
10.8627065279
 30
0.0
  0
SPLINE
  5
21C
100
AcDbEntity
  8
02___PRT_ALL_AXES
100
AcDbSpline
 62
7
  6
CONTINUOUS
 70
0
 71
3
 72
37
 73
33
 74
0
 42
0.0000001
 43
0.0000001
 44
0.0000000001
 40
0.0
 40
0.0
 40
0.0
 40
0.0
 40
0.0001012146
 40
0.0003081659
 40
0.0006368322
 40
0.0010905062
 40
0.0023768166
 40
0.0041710882
 40
0.0064745101
 40
0.0092876128
 40
0.0126106713
 40
0.0164438165
 40
0.0207866288
 40
0.0256382021
 40
0.0368638237
 40
0.0501129738
 40
0.0653778079
 40
0.0826504174
 40
0.101922857
 40
0.1231871543
 40
0.1464334057
 40
0.1716467808
 40
0.1988116646
 40
0.2589334688
 40
0.326673819
 40
0.4018975897
 40
0.4844314126
 40
0.5740928499
 40
0.6706985915
 40
0.7740412754
 40
0.8838868814
 40
1.0
 40
1.0
 40
1.0
 40
1.0
 10
-12.1554068328
 20
11.0308400332
 30
0.0
 10
-12.1554691904
 20
11.0308404187
 30
0.0
 10
-12.1556106258
 20
11.0306600083
 30
0.0
 10
-12.1557232532
 20
11.0303065963
 30
0.0
 10
-12.1558737896
 20
11.0297038697
 30
0.0
 10
-12.1560861187
 20
11.0284531377
 30
0.0
 10
-12.1563469408
 20
11.0262858189
 30
0.0
 10
-12.1566421477
 20
11.0229839782
 30
0.0
 10
-12.1569467403
 20
11.0187360588
 30
0.0
 10
-12.157257439
 20
11.0135459353
 30
0.0
 10
-12.157573909
 20
11.0074117963
 30
0.0
 10
-12.1578954407
 20
11.0003345057
 30
0.0
 10
-12.1582218445
 20
10.9923147902
 30
0.0
 10
-12.1586861261
 20
10.9797424847
 30
0.0
 10
-12.1592679471
 20
10.96168367
 30
0.0
 10
-12.1599554949
 20
10.9372095375
 30
0.0
 10
-12.1606604917
 20
10.9090089876
 30
0.0
 10
-12.1613822958
 20
10.8770968282
 30
0.0
 10
-12.1621201118
 20
10.8414878585
 30
0.0
 10
-12.1628733475
 20
10.802198083
 30
0.0
 10
-12.1636414046
 20
10.7592477208
 30
0.0
 10
-12.164423875
 20
10.7126616872
 30
0.0
 10
-12.165523262
 20
10.6433586101
 30
0.0
 10
-12.1669199462
 20
10.5478559392
 30
0.0
 10
-12.168595541
 20
10.4227449962
 30
0.0
 10
-12.1703178223
 20
10.2838253681
 30
0.0
 10
-12.1720831634
 20
10.1313996132
 30
0.0
 10
-12.1738873918
 20
9.9657999396
 30
0.0
 10
-12.1757262258
 20
9.7873794836
 30
0.0
 10
-12.1775955574
 20
9.5965231521
 30
0.0
 10
-12.1794914292
 20
9.3936479445
 30
0.0
 10
-12.1807365483
 20
9.2544393352
 30
0.0
 10
-12.1813637756
 20
9.1829042769
 30
0.0
  0
SPLINE
  5
21D
100
AcDbEntity
  8
02___PRT_ALL_AXES
100
AcDbSpline
 62
7
  6
CONTINUOUS
 70
0
 71
3
 72
45
 73
41
 74
0
 42
0.0000001
 43
0.0000001
 44
0.0000000001
 40
0.0
 40
0.0
 40
0.0
 40
0.0
 40
0.1026576869
 40
0.2031329884
 40
0.3005188734
 40
0.3940639628
 40
0.4830711933
 40
0.5668602746
 40
0.6447649276
 40
0.7161854375
 40
0.7492887533
 40
0.7805649046
 40
0.8099569633
 40
0.8374091365
 40
0.862865633
 40
0.8862736644
 40
0.9075916098
 40
0.9267804488
 40
0.9438011683
 40
0.9514864021
 40
0.9586164725
 40
0.9651887349
 40
0.9712005622
 40
0.9766493301
 40
0.9815324193
 40
0.9858472175
 40
0.9895911243
 40
0.9927615668
 40
0.9941311065
 40
0.995356779
 40
0.9964385719
 40
0.9973764843
 40
0.9981705354
 40
0.9988207818
 40
0.9993273609
 40
0.999690617
 40
0.9998188055
 40
0.9999117752
 40
0.9999705516
 40
1.0
 40
1.0
 40
1.0
 40
1.0
 10
24.2888663426
 20
3.0259875002
 30
0.0
 10
24.2880579025
 20
2.8780464647
 30
0.0
 10
24.2864112111
 20
2.585309706
 30
0.0
 10
24.2838310787
 20
2.1522301161
 30
0.0
 10
24.281180997
 20
1.7322836536
 30
0.0
 10
24.2784830565
 20
1.3288648501
 30
0.0
 10
24.2757575994
 20
0.9450414847
 30
0.0
 10
24.2730265268
 20
0.583758691
 30
0.0
 10
24.2703106987
 20
0.2478213308
 30
0.0
 10
24.2680246502
 20
-0.015072212
 30
0.0
 10
24.2662113173
 20
-0.2107694641
 30
0.0
 10
24.2649027502
 20
-0.345900249
 30
0.0
 10
24.2636136851
 20
-0.4728867873
 30
0.0
 10
24.2623466807
 20
-0.5914862128
 30
0.0
 10
24.2611043236
 20
-0.7014616192
 30
0.0
 10
24.2598889375
 20
-0.8025965118
 30
0.0
 10
24.2587032932
 20
-0.8946985602
 30
0.0
 10
24.2575499115
 20
-0.9775952614
 30
0.0
 10
24.2565881402
 20
-1.0408461522
 30
0.0
 10
24.2558306302
 20
-1.0867198065
 30
0.0
 10
24.2552914005
 20
-1.1175373947
 30
0.0
 10
24.254761871
 20
-1.1459431673
 30
0.0
 10
24.254242333
 20
-1.1719257052
 30
0.0
 10
24.2537331466
 20
-1.1954736147
 30
0.0
 10
24.2532346873
 20
-1.2165755038
 30
0.0
 10
24.2527474951
 20
-1.2352199963
 30
0.0
 10
24.2522720073
 20
-1.2513957195
 30
0.0
 10
24.2518692397
 20
-1.2633271669
 30
0.0
 10
24.2515475305
 20
-1.2716300186
 30
0.0
 10
24.2513212739
 20
-1.2769242588
 30
0.0
 10
24.2510982717
 20
-1.2815959592
 30
0.0
 10
24.2508786636
 20
-1.2856451031
 30
0.0
 10
24.2506629135
 20
-1.2890712656
 30
0.0
 10
24.2504512914
 20
-1.2918753861
 30
0.0
 10
24.2502459721
 20
-1.2940552195
 30
0.0
 10
24.2500645954
 20
-1.2954852762
 30
0.0
 10
24.2499165996
 20
-1.2963111075
 30
0.0
 10
24.2498119258
 20
-1.2967077462
 30
0.0
 10
24.2497326037
 20
-1.2969435826
 30
0.0
 10
24.2496337864
 20
-1.2970593462
 30
0.0
 10
24.2495913513
 20
-1.2970587683
 30
0.0
  0
SPLINE
  5
21E
100
AcDbEntity
  8
02___PRT_ALL_AXES
100
AcDbSpline
 62
7
  6
CONTINUOUS
 70
0
 71
3
 72
46
 73
42
 74
0
 42
0.0000001
 43
0.0000001
 44
0.0000000001
 40
0.0
 40
0.0
 40
0.0
 40
0.0
 40
0.092660433
 40
0.1859236198
 40
0.2785894778
 40
0.3696077313
 40
0.4579298243
 40
0.5425073784
 40
0.6223539935
 40
0.6965334698
 40
0.7312259575
 40
0.7641795215
 40
0.7953008301
 40
0.82450016
 40
0.8516882533
 40
0.8767858315
 40
0.8997232429
 40
0.9204312344
 40
0.9388456096
 40
0.9471771557
 40
0.9549172127
 40
0.9620599864
 40
0.9685996841
 40
0.9745305413
 40
0.9798480031
 40
0.9845492151
 40
0.9886314582
 40
0.9920920277
 40
0.993588348
 40
0.99492825
 40
0.9961114085
 40
0.9971375068
 40
0.9980062428
 40
0.998717425
 40
0.9992711793
 40
0.9994891192
 40
0.9996678542
 40
0.9998075146
 40
0.9999083746
 40
0.999971207
 40
1.0
 40
1.0
 40
1.0
 40
1.0
 10
24.2888663426
 20
3.0259875002
 30
0.0
 10
24.2898751503
 20
3.2105949346
 30
0.0
 10
24.2918253156
 20
3.5810110786
 30
0.0
 10
24.29453391
 20
4.1360467483
 30
0.0
 10
24.297013108
 20
4.6878116946
 30
0.0
 10
24.2992338295
 20
5.22973337
 30
0.0
 10
24.3011709778
 20
5.7555414551
 30
0.0
 10
24.3028016227
 20
6.259092877
 30
0.0
 10
24.3041075892
 20
6.7344683826
 30
0.0
 10
24.3049304738
 20
7.110457257
 30
0.0
 10
24.3054061986
 20
7.3930201626
 30
0.0
 10
24.3056652525
 20
7.5897972044
 30
0.0
 10
24.3058342779
 20
7.7756301557
 30
0.0
 10
24.3059129742
 20
7.9499764451
 30
0.0
 10
24.3059009905
 20
8.1123214931
 30
0.0
 10
24.305798487
 20
8.2621906981
 30
0.0
 10
24.3056063626
 20
8.399149304
 30
0.0
 10
24.3053253561
 20
8.52279258
 30
0.0
 10
24.3050085386
 20
8.6173359464
 30
0.0
 10
24.304704279
 20
8.6860427393
 30
0.0
 10
24.3044620542
 20
8.7322928179
 30
0.0
 10
24.3041984218
 20
8.7749727641
 30
0.0
 10
24.3039136236
 20
8.814047965
 30
0.0
 10
24.303607936
 20
8.8494862647
 30
0.0
 10
24.3032816801
 20
8.8812613409
 30
0.0
 10
24.3029355435
 20
8.90935292
 30
0.0
 10
24.3025700261
 20
8.9337443542
 30
0.0
 10
24.3022363502
 20
8.9517502668
 30
0.0
 10
24.3019532504
 20
8.9642923804
 30
0.0
 10
24.3017466881
 20
8.9722976622
 30
0.0
 10
24.3015356919
 20
8.9793656503
 30
0.0
 10
24.301320459
 20
8.9854942399
 30
0.0
 10
24.3011015167
 20
8.9906818638
 30
0.0
 10
24.3008793197
 20
8.9949267562
 30
0.0
 10
24.3006801976
 20
8.9978754559
 30
0.0
 10
24.3005123584
 20
8.9997604675
 30
0.0
 10
24.3003942811
 20
9.0008251193
 30
0.0
 10
24.3002822946
 20
9.001646357
 30
0.0
 10
24.300158668
 20
9.0022544357
 30
0.0
 10
24.3000671531
 20
9.0025964623
 30
0.0
 10
24.2999496464
 20
9.0027900844
 30
0.0
 10
24.2998922866
 20
9.0027908655
 30
0.0
  0
SPLINE
  5
21F
100
AcDbEntity
  8
02___PRT_ALL_AXES
100
AcDbSpline
 62
7
  6
CONTINUOUS
 70
0
 71
3
 72
37
 73
33
 74
0
 42
0.0000001
 43
0.0000001
 44
0.0000000001
 40
0.0
 40
0.0
 40
0.0
 40
0.0
 40
0.0001015995
 40
0.0003087907
 40
0.0006376002
 40
0.0010913481
 40
0.0023776533
 40
0.0041717788
 40
0.0064749733
 40
0.0092878207
 40
0.0126106462
 40
0.0164433758
 40
0.0207852594
 40
0.025635428
 40
0.0368570273
 40
0.0501008957
 40
0.0653596166
 40
0.0826257096
 40
0.1018916567
 40
0.1231498007
 40
0.1463890664
 40
0.1715945112
 40
0.1987509772
 40
0.2588563116
 40
0.3265836937
 40
0.4017972716
 40
0.4843241357
 40
0.5739855037
 40
0.6706009157
 40
0.7739623518
 40
0.8838391565
 40
1.0
 40
1.0
 40
1.0
 40
1.0
 10
-12.2237744082
 20
-2.9689657187
 30
0.0
 10
-12.2238364088
 20
-2.9689653355
 30
0.0
 10
-12.2239751894
 20
-2.9687854429
 30
0.0
 10
-12.2240841004
 20
-2.968433785
 30
0.0
 10
-12.2242279285
 20
-2.9678353408
 30
0.0
 10
-12.2244271302
 20
-2.966594423
 30
0.0
 10
-12.2246655756
 20
-2.964445476
 30
0.0
 10
-12.2249273099
 20
-2.9611725775
 30
0.0
 10
-12.2251891733
 20
-2.9569627031
 30
0.0
 10
-12.225447991
 20
-2.9518195772
 30
0.0
 10
-12.2257033839
 20
-2.9457414936
 30
0.0
 10
-12.2259546737
 20
-2.9387296075
 30
0.0
 10
-12.2262016965
 20
-2.9307849493
 30
0.0
 10
-12.2265417676
 20
-2.9183320027
 30
0.0
 10
-12.2269456291
 20
-2.9004464003
 30
0.0
 10
-12.2273925228
 20
-2.8762085207
 30
0.0
 10
-12.2278206725
 20
-2.8482811131
 30
0.0
 10
-12.2282295821
 20
-2.8166780688
 30
0.0
 10
-12.2286186052
 20
-2.7814133407
 30
0.0
 10
-12.2289872875
 20
-2.7425030486
 30
0.0
 10
-12.2293352856
 20
-2.6999678171
 30
0.0
 10
-12.2296624212
 20
-2.6538328325
 30
0.0
 10
-12.2300847934
 20
-2.5852002161
 30
0.0
 10
-12.2305491705
 20
-2.4906181077
 30
0.0
 10
-12.2310042004
 20
-2.3667085265
 30
0.0
 10
-12.2313720015
 20
-2.2291157123
 30
0.0
 10
-12.2316519089
 20
-2.0781373063
 30
0.0
 10
-12.2318429528
 20
-1.9140981386
 30
0.0
 10
-12.2319442784
 20
-1.7373444505
 30
0.0
 10
-12.2319556028
 20
-1.5482541264
 30
0.0
 10
-12.2318769849
 20
-1.3472360851
 30
0.0
 10
-12.2317675672
 20
-1.2092950991
 30
0.0
 10
-12.2316988084
 20
-1.1384071809
 30
0.0
  0
LINE
  5
220
100
AcDbEntity
  8
02___PRT_ALL_AXES
100
AcDbLine
 62
7
  6
CONTINUOUS
 10
-12.2316988084
 20
-1.1384071809
 11
-12.2316812219
 21
-1.1205493574
  0
SPLINE
  5
221
100
AcDbEntity
  8
02___PRT_ALL_AXES
100
AcDbSpline
 62
7
  6
CONTINUOUS
 70
0
 71
3
 72
46
 73
42
 74
0
 42
0.0000001
 43
0.0000001
 44
0.0000000001
 40
0.0
 40
0.0
 40
0.0
 40
0.0
 40
0.092660433
 40
0.1859236198
 40
0.2785894778
 40
0.3696077313
 40
0.4579298243
 40
0.5425073784
 40
0.6223539935
 40
0.6965334698
 40
0.7312259575
 40
0.7641795215
 40
0.7953008301
 40
0.82450016
 40
0.8516882533
 40
0.8767858315
 40
0.8997232429
 40
0.9204312344
 40
0.9388456096
 40
0.9471771557
 40
0.9549172127
 40
0.9620599864
 40
0.9685996841
 40
0.9745305413
 40
0.9798480031
 40
0.9845492151
 40
0.9886314582
 40
0.9920920277
 40
0.993588348
 40
0.99492825
 40
0.9961114085
 40
0.9971375068
 40
0.9980062428
 40
0.998717425
 40
0.9992711793
 40
0.9994891192
 40
0.9996678542
 40
0.9998075146
 40
0.9999083746
 40
0.999971207
 40
1.0
 40
1.0
 40
1.0
 40
1.0
 10
-14.2104288423
 20
3.2139962122
 30
0.0
 10
-14.2094200346
 20
3.3986036467
 30
0.0
 10
-14.2074698693
 20
3.7690197906
 30
0.0
 10
-14.204761275
 20
4.3240554604
 30
0.0
 10
-14.2022820769
 20
4.8758204067
 30
0.0
 10
-14.2000613554
 20
5.417742082
 30
0.0
 10
-14.1981242071
 20
5.9435501671
 30
0.0
 10
-14.1964935623
 20
6.4471015891
 30
0.0
 10
-14.1951875957
 20
6.9224770947
 30
0.0
 10
-14.1943647111
 20
7.2984659691
 30
0.0
 10
-14.1938889863
 20
7.5810288746
 30
0.0
 10
-14.1936299325
 20
7.7778059164
 30
0.0
 10
-14.193460907
 20
7.9636388677
 30
0.0
 10
-14.1933822108
 20
8.1379851571
 30
0.0
 10
-14.1933941945
 20
8.3003302051
 30
0.0
 10
-14.1934966979
 20
8.4501994101
 30
0.0
 10
-14.1936888224
 20
8.5871580161
 30
0.0
 10
-14.1939698288
 20
8.710801292
 30
0.0
 10
-14.1942866463
 20
8.8053446584
 30
0.0
 10
-14.1945909059
 20
8.8740514514
 30
0.0
 10
-14.1948331307
 20
8.9203015299
 30
0.0
 10
-14.1950967632
 20
8.9629814762
 30
0.0
 10
-14.1953815614
 20
9.002056677
 30
0.0
 10
-14.195687249
 20
9.0374949767
 30
0.0
 10
-14.1960135048
 20
9.069270053
 30
0.0
 10
-14.1963596414
 20
9.097361632
 30
0.0
 10
-14.1967251589
 20
9.1217530662
 30
0.0
 10
-14.1970588347
 20
9.1397589788
 30
0.0
 10
-14.1973419346
 20
9.1523010924
 30
0.0
 10
-14.1975484968
 20
9.1603063742
 30
0.0
 10
-14.1977594931
 20
9.1673743623
 30
0.0
 10
-14.1979747259
 20
9.1735029519
 30
0.0
 10
-14.1981936682
 20
9.1786905758
 30
0.0
 10
-14.1984158653
 20
9.1829354682
 30
0.0
 10
-14.1986149873
 20
9.1858841679
 30
0.0
 10
-14.1987828265
 20
9.1877691796
 30
0.0
 10
-14.1989009038
 20
9.1888338313
 30
0.0
 10
-14.1990128903
 20
9.1896550691
 30
0.0
 10
-14.1991365169
 20
9.1902631477
 30
0.0
 10
-14.1992280319
 20
9.1906051743
 30
0.0
 10
-14.1993455386
 20
9.1907987965
 30
0.0
 10
-14.1994028984
 20
9.1907995775
 30
0.0
  0
LINE
  5
222
100
AcDbEntity
  8
02___PRT_ALL_AXES
100
AcDbLine
 62
7
  6
CONTINUOUS
 10
-12.1475000192
 20
9.1824236719
 11
-12.1474824327
 21
9.2002814954
  0
SPLINE
  5
223
100
AcDbEntity
  8
02___PRT_ALL_AXES
100
AcDbSpline
 62
7
  6
CONTINUOUS
 70
0
 71
3
 72
37
 73
33
 74
0
 42
0.0000001
 43
0.0000001
 44
0.0000000001
 40
0.0
 40
0.0
 40
0.0
 40
0.0
 40
0.1161608435
 40
0.2260376482
 40
0.3293990843
 40
0.4260144963
 40
0.5156758643
 40
0.5982027284
 40
0.6734163063
 40
0.7411436884
 40
0.8012490228
 40
0.8284054888
 40
0.8536109336
 40
0.8768501993
 40
0.8981083433
 40
0.9173742904
 40
0.9346403834
 40
0.9498991043
 40
0.9631429727
 40
0.974364572
 40
0.9792147406
 40
0.9835566242
 40
0.9873893538
 40
0.9907121793
 40
0.9935250267
 40
0.9958282212
 40
0.9976223467
 40
0.9989086519
 40
0.9993623998
 40
0.9996912093
 40
0.9998984005
 40
1.0
 40
1.0
 40
1.0
 40
1.0
 10
-12.1474824327
 20
9.2002814954
 30
0.0
 10
-12.1474136738
 20
9.2711694136
 30
0.0
 10
-12.1473042561
 20
9.4091103996
 30
0.0
 10
-12.1472256382
 20
9.6101284409
 30
0.0
 10
-12.1472369626
 20
9.799218765
 30
0.0
 10
-12.1473382882
 20
9.9759724531
 30
0.0
 10
-12.1475293322
 20
10.1400116208
 30
0.0
 10
-12.1478092396
 20
10.2909900269
 30
0.0
 10
-12.1481770406
 20
10.428582841
 30
0.0
 10
-12.1486320705
 20
10.5524924222
 30
0.0
 10
-12.1490964477
 20
10.6470745306
 30
0.0
 10
-12.1495188199
 20
10.715707147
 30
0.0
 10
-12.1498459554
 20
10.7618421316
 30
0.0
 10
-12.1501939536
 20
10.8043773631
 30
0.0
 10
-12.1505626359
 20
10.8432876552
 30
0.0
 10
-12.1509516589
 20
10.8785523833
 30
0.0
 10
-12.1513605686
 20
10.9101554276
 30
0.0
 10
-12.1517887182
 20
10.9380828352
 30
0.0
 10
-12.1522356119
 20
10.9623207149
 30
0.0
 10
-12.1526394735
 20
10.9802063172
 30
0.0
 10
-12.1529795446
 20
10.9926592638
 30
0.0
 10
-12.1532265674
 20
11.000603922
 30
0.0
 10
-12.1534778572
 20
11.0076158081
 30
0.0
 10
-12.15373325
 20
11.0136938917
 30
0.0
 10
-12.1539920678
 20
11.0188370176
 30
0.0
 10
-12.1542539312
 20
11.023046892
 30
0.0
 10
-12.1545156655
 20
11.0263197905
 30
0.0
 10
-12.1547541108
 20
11.0284687375
 30
0.0
 10
-12.1549533125
 20
11.0297096553
 30
0.0
 10
-12.1550971407
 20
11.0303080995
 30
0.0
 10
-12.1552060517
 20
11.0306597575
 30
0.0
 10
-12.1553448322
 20
11.03083965
 30
0.0
 10
-12.1554068328
 20
11.0308400332
 30
0.0
  0
SPLINE
  5
224
100
AcDbEntity
  8
02___PRT_ALL_AXES
100
AcDbSpline
 62
7
  6
CONTINUOUS
 70
0
 71
3
 72
45
 73
41
 74
0
 42
0.0000001
 43
0.0000001
 44
0.0000000001
 40
0.0
 40
0.0
 40
0.0
 40
0.0
 40
0.1026576869
 40
0.2031329884
 40
0.3005188734
 40
0.3940639628
 40
0.4830711933
 40
0.5668602746
 40
0.6447649276
 40
0.7161854375
 40
0.7492887533
 40
0.7805649046
 40
0.8099569633
 40
0.8374091365
 40
0.862865633
 40
0.8862736644
 40
0.9075916098
 40
0.9267804488
 40
0.9438011683
 40
0.9514864021
 40
0.9586164725
 40
0.9651887349
 40
0.9712005622
 40
0.9766493301
 40
0.9815324193
 40
0.9858472175
 40
0.9895911243
 40
0.9927615668
 40
0.9941311065
 40
0.995356779
 40
0.9964385719
 40
0.9973764843
 40
0.9981705354
 40
0.9988207818
 40
0.9993273609
 40
0.999690617
 40
0.9998188055
 40
0.9999117752
 40
0.9999705516
 40
1.0
 40
1.0
 40
1.0
 40
1.0
 10
-14.2104288423
 20
3.2139962122
 30
0.0
 10
-14.2112372824
 20
3.0660551767
 30
0.0
 10
-14.2128839739
 20
2.7733184181
 30
0.0
 10
-14.2154641063
 20
2.3402388281
 30
0.0
 10
-14.2181141879
 20
1.9202923656
 30
0.0
 10
-14.2208121285
 20
1.5168735621
 30
0.0
 10
-14.2235375855
 20
1.1330501967
 30
0.0
 10
-14.2262686581
 20
0.771767403
 30
0.0
 10
-14.2289844862
 20
0.4358300428
 30
0.0
 10
-14.2312705348
 20
0.1729365
 30
0.0
 10
-14.2330838676
 20
-0.0227607521
 30
0.0
 10
-14.2343924347
 20
-0.157891537
 30
0.0
 10
-14.2356814998
 20
-0.2848780752
 30
0.0
 10
-14.2369485043
 20
-0.4034775008
 30
0.0
 10
-14.2381908613
 20
-0.5134529071
 30
0.0
 10
-14.2394062474
 20
-0.6145877998
 30
0.0
 10
-14.2405918917
 20
-0.7066898482
 30
0.0
 10
-14.2417452734
 20
-0.7895865493
 30
0.0
 10
-14.2427070448
 20
-0.8528374401
 30
0.0
 10
-14.2434645547
 20
-0.8987110944
 30
0.0
 10
-14.2440037844
 20
-0.9295286827
 30
0.0
 10
-14.244533314
 20
-0.9579344552
 30
0.0
 10
-14.2450528519
 20
-0.9839169932
 30
0.0
 10
-14.2455620384
 20
-1.0074649027
 30
0.0
 10
-14.2460604976
 20
-1.0285667918
 30
0.0
 10
-14.2465476898
 20
-1.0472112843
 30
0.0
 10
-14.2470231777
 20
-1.0633870075
 30
0.0
 10
-14.2474259452
 20
-1.0753184549
 30
0.0
 10
-14.2477476545
 20
-1.0836213066
 30
0.0
 10
-14.247973911
 20
-1.0889155468
 30
0.0
 10
-14.2481969132
 20
-1.0935872472
 30
0.0
 10
-14.2484165214
 20
-1.097636391
 30
0.0
 10
-14.2486322714
 20
-1.1010625535
 30
0.0
 10
-14.2488438935
 20
-1.1038666741
 30
0.0
 10
-14.2490492129
 20
-1.1060465075
 30
0.0
 10
-14.2492305895
 20
-1.1074765642
 30
0.0
 10
-14.2493785854
 20
-1.1083023954
 30
0.0
 10
-14.2494832591
 20
-1.1086990342
 30
0.0
 10
-14.2495625813
 20
-1.1089348706
 30
0.0
 10
-14.2496613985
 20
-1.1090506341
 30
0.0
 10
-14.2497038337
 20
-1.1090500563
 30
0.0
  0
SPLINE
  5
225
100
AcDbEntity
  8
02___PRT_ALL_AXES
100
AcDbSpline
 62
7
  6
CONTINUOUS
 70
0
 71
3
 72
44
 73
40
 74
0
 42
0.0000001
 43
0.0000001
 44
0.0000000001
 40
0.0
 40
0.0
 40
0.0
 40
0.0
 40
0.0000294484
 40
0.0000882248
 40
0.0001811945
 40
0.000309383
 40
0.0006726391
 40
0.0011792182
 40
0.0018294647
 40
0.0026235157
 40
0.0035614281
 40
0.004643221
 40
0.0058688935
 40
0.0072384332
 40
0.0104088757
 40
0.0141527825
 40
0.0184675807
 40
0.0233506699
 40
0.0287994379
 40
0.0348112651
 40
0.0413835276
 40
0.05619883
 40
0.0732195496
 40
0.0924083886
 40
0.113726334
 40
0.1371343654
 40
0.1625908619
 40
0.1900430352
 40
0.219435094
 40
0.2507112454
 40
0.2838145612
 40
0.3552350713
 40
0.4331397244
 40
0.5169288058
 40
0.6059360365
 40
0.6994811261
 40
0.7968670113
 40
0.8973423129
 40
1.0
 40
1.0
 40
1.0
 40
1.0
 10
-14.2001354363
 20
9.0408017673
 30
0.0
 10
-14.2001766354
 20
9.0408023283
 30
0.0
 10
-14.2002725745
 20
9.0406899365
 30
0.0
 10
-14.2003495863
 20
9.0404609691
 30
0.0
 10
-14.2004512113
 20
9.040075883
 30
0.0
 10
-14.2005948966
 20
9.0392741051
 30
0.0
 10
-14.2007709904
 20
9.0378857005
 30
0.0
 10
-14.2009703296
 20
9.0357693574
 30
0.0
 10
-14.201175788
 20
9.0330469102
 30
0.0
 10
-14.201385254
 20
9.0297205389
 30
0.0
 10
-14.2015984658
 20
9.0257893313
 30
0.0
 10
-14.2018149728
 20
9.0212536998
 30
0.0
 10
-14.2020346394
 20
9.0161136608
 30
0.0
 10
-14.2023469784
 20
9.0080526397
 30
0.0
 10
-14.2027380149
 20
8.9964687102
 30
0.0
 10
-14.2031996536
 20
8.9807641246
 30
0.0
 10
-14.2036726556
 20
8.9626626755
 30
0.0
 10
-14.2041565976
 20
8.9421754046
 30
0.0
 10
-14.2046509489
 20
8.9193133564
 30
0.0
 10
-14.2051553739
 20
8.8940875917
 30
0.0
 10
-14.2058697817
 20
8.8557581893
 30
0.0
 10
-14.2067765318
 20
8.802026581
 30
0.0
 10
-14.2078622673
 20
8.7306430258
 30
0.0
 10
-14.2089819587
 20
8.6501607876
 30
0.0
 10
-14.2101330999
 20
8.5607413244
 30
0.0
 10
-14.2113130771
 20
8.4625521078
 30
0.0
 10
-14.2125192519
 20
8.3557798687
 30
0.0
 10
-14.2137493525
 20
8.2406347954
 30
0.0
 10
-14.2150008722
 20
8.1173468942
 30
0.0
 10
-14.2162713256
 20
7.9861519574
 30
0.0
 10
-14.218031843
 20
7.7961546252
 30
0.0
 10
-14.2202513075
 20
7.540918176
 30
0.0
 10
-14.2228880339
 20
7.2147653991
 30
0.0
 10
-14.2255395607
 20
6.8640054051
 30
0.0
 10
-14.2281856355
 20
6.4913613611
 30
0.0
 10
-14.2308049953
 20
6.0996926198
 30
0.0
 10
-14.23337789
 20
5.6919776077
 30
0.0
 10
-14.235882873
 20
5.2715119864
 30
0.0
 10
-14.2374816025
 20
4.9873015411
 30
0.0
 10
-14.2382664958
 20
4.8436694678
 30
0.0
  0
SPLINE
  5
226
100
AcDbEntity
  8
02___PRT_ALL_AXES
100
AcDbSpline
 62
7
  6
CONTINUOUS
 70
0
 71
3
 72
45
 73
41
 74
0
 42
0.0000001
 43
0.0000001
 44
0.0000000001
 40
0.0
 40
0.0
 40
0.0
 40
0.0
 40
0.1026576869
 40
0.2031329884
 40
0.3005188734
 40
0.3940639628
 40
0.4830711933
 40
0.5668602746
 40
0.6447649276
 40
0.7161854375
 40
0.7492887533
 40
0.7805649046
 40
0.8099569633
 40
0.8374091365
 40
0.862865633
 40
0.8862736644
 40
0.9075916098
 40
0.9267804488
 40
0.9438011683
 40
0.9514864021
 40
0.9586164725
 40
0.9651887349
 40
0.9712005622
 40
0.9766493301
 40
0.9815324193
 40
0.9858472175
 40
0.9895911243
 40
0.9927615668
 40
0.9941311065
 40
0.995356779
 40
0.9964385719
 40
0.9973764843
 40
0.9981705354
 40
0.9988207818
 40
0.9993273609
 40
0.999690617
 40
0.9998188055
 40
0.9999117752
 40
0.9999705516
 40
1.0
 40
1.0
 40
1.0
 40
1.0
 10
-12.1754660968
 20
3.2040586089
 30
0.0
 10
-12.176274537
 20
3.0561175734
 30
0.0
 10
-12.1779212284
 20
2.7633808147
 30
0.0
 10
-12.1805013608
 20
2.3303012247
 30
0.0
 10
-12.1831514424
 20
1.9103547622
 30
0.0
 10
-12.185849383
 20
1.5069359588
 30
0.0
 10
-12.18857484
 20
1.1231125934
 30
0.0
 10
-12.1913059126
 20
0.7618297996
 30
0.0
 10
-12.1940217407
 20
0.4258924394
 30
0.0
 10
-12.1963077893
 20
0.1629988967
 30
0.0
 10
-12.1981211221
 20
-0.0326983554
 30
0.0
 10
-12.1994296892
 20
-0.1678291403
 30
0.0
 10
-12.2007187543
 20
-0.2948156786
 30
0.0
 10
-12.2019857588
 20
-0.4134151041
 30
0.0
 10
-12.2032281158
 20
-0.5233905105
 30
0.0
 10
-12.204443502
 20
-0.6245254032
 30
0.0
 10
-12.2056291462
 20
-0.7166274515
 30
0.0
 10
-12.206782528
 20
-0.7995241527
 30
0.0
 10
-12.2077442993
 20
-0.8627750435
 30
0.0
 10
-12.2085018092
 20
-0.9086486978
 30
0.0
 10
-12.2090410389
 20
-0.939466286
 30
0.0
 10
-12.2095705685
 20
-0.9678720586
 30
0.0
 10
-12.2100901065
 20
-0.9938545965
 30
0.0
 10
-12.2105992929
 20
-1.017402506
 30
0.0
 10
-12.2110977521
 20
-1.0385043951
 30
0.0
 10
-12.2115849443
 20
-1.0571488877
 30
0.0
 10
-12.2120604322
 20
-1.0733246108
 30
0.0
 10
-12.2124631997
 20
-1.0852560582
 30
0.0
 10
-12.212784909
 20
-1.0935589099
 30
0.0
 10
-12.2130111655
 20
-1.0988531501
 30
0.0
 10
-12.2132341677
 20
-1.1035248505
 30
0.0
 10
-12.2134537759
 20
-1.1075739944
 30
0.0
 10
-12.2136695259
 20
-1.1110001569
 30
0.0
 10
-12.213881148
 20
-1.1138042775
 30
0.0
 10
-12.2140864674
 20
-1.1159841108
 30
0.0
 10
-12.214267844
 20
-1.1174141675
 30
0.0
 10
-12.2144158399
 20
-1.1182399988
 30
0.0
 10
-12.2145205136
 20
-1.1186366375
 30
0.0
 10
-12.2145998358
 20
-1.118872474
 30
0.0
 10
-12.214698653
 20
-1.1189882375
 30
0.0
 10
-12.2147410882
 20
-1.1189876597
 30
0.0
  0
SPLINE
  5
227
100
AcDbEntity
  8
02___PRT_ALL_AXES
100
AcDbSpline
 62
7
  6
CONTINUOUS
 70
0
 71
3
 72
46
 73
42
 74
0
 42
0.0000001
 43
0.0000001
 44
0.0000000001
 40
0.0
 40
0.0
 40
0.0
 40
0.0
 40
0.000028793
 40
0.0000916254
 40
0.0001924854
 40
0.0003321458
 40
0.0005108808
 40
0.0007288207
 40
0.001282575
 40
0.0019937572
 40
0.0028624932
 40
0.0038885915
 40
0.00507175
 40
0.006411652
 40
0.0079079723
 40
0.0113685418
 40
0.0154507849
 40
0.0201519969
 40
0.0254694587
 40
0.0314003159
 40
0.0379400136
 40
0.0450827873
 40
0.0528228443
 40
0.0611543904
 40
0.0795687656
 40
0.1002767571
 40
0.1232141685
 40
0.1483117467
 40
0.17549984
 40
0.2046991699
 40
0.2358204785
 40
0.2687740425
 40
0.3034665302
 40
0.3776460065
 40
0.4574926216
 40
0.5420701757
 40
0.6303922687
 40
0.7214105222
 40
0.8140763802
 40
0.907339567
 40
1.0
 40
1.0
 40
1.0
 40
1.0
 10
-14.2489712958
 20
-0.9590522461
 30
0.0
 10
-14.2490269849
 20
-0.9590514878
 30
0.0
 10
-14.2491410691
 20
-0.9588635051
 30
0.0
 10
-14.2492299185
 20
-0.9585314405
 30
0.0
 10
-14.2493499444
 20
-0.9579410729
 30
0.0
 10
-14.2494586691
 20
-0.9571437546
 30
0.0
 10
-14.2495733073
 20
-0.9561101122
 30
0.0
 10
-14.2497362579
 20
-0.9542800037
 30
0.0
 10
-14.2499295803
 20
-0.9514171885
 30
0.0
 10
-14.2501453056
 20
-0.9472959338
 30
0.0
 10
-14.250357871
 20
-0.9422594057
 30
0.0
 10
-14.2505668349
 20
-0.9363093187
 30
0.0
 10
-14.2507716856
 20
-0.9294471943
 30
0.0
 10
-14.2509722315
 20
-0.9216750761
 30
0.0
 10
-14.2512470857
 20
-0.9094982668
 30
0.0
 10
-14.2515710429
 20
-0.8920167983
 30
0.0
 10
-14.2519259142
 20
-0.8683357942
 30
0.0
 10
-14.2522619691
 20
-0.8410624165
 30
0.0
 10
-14.2525787224
 20
-0.8102128279
 30
0.0
 10
-14.2528755064
 20
-0.7758067117
 30
0.0
 10
-14.2531520096
 20
-0.7378696234
 30
0.0
 10
-14.2534079634
 20
-0.6964327824
 30
0.0
 10
-14.2536431331
 20
-0.6515297935
 30
0.0
 10
-14.2539385308
 20
-0.5848241693
 30
0.0
 10
-14.2542461206
 20
-0.4930344932
 30
0.0
 10
-14.2545189424
 20
-0.3729924777
 30
0.0
 10
-14.2547054709
 20
-0.2400229573
 30
0.0
 10
-14.2548049889
 20
-0.0945188749
 30
0.0
 10
-14.2548166235
 20
0.0630976766
 30
0.0
 10
-14.2547402194
 20
0.2323659187
 30
0.0
 10
-14.254576117
 20
0.4127862598
 30
0.0
 10
-14.2543246084
 20
0.6038319315
 30
0.0
 10
-14.2538627397
 20
0.8781648495
 30
0.0
 10
-14.2530638226
 20
1.2432025916
 30
0.0
 10
-14.2517958939
 20
1.7047322087
 30
0.0
 10
-14.2502127436
 20
2.1936170844
 30
0.0
 10
-14.2483320171
 20
2.7041103709
 30
0.0
 10
-14.2461759768
 20
3.2302479198
 30
0.0
 10
-14.2437689884
 20
3.7659420424
 30
0.0
 10
-14.2411392851
 20
4.3048116246
 30
0.0
 10
-14.2392459208
 20
4.6644389489
 30
0.0
 10
-14.2382664958
 20
4.8436694678
 30
0.0
  0
SPLINE
  5
228
100
AcDbEntity
  8
02___PRT_ALL_AXES
100
AcDbSpline
 62
7
  6
CONTINUOUS
 70
0
 71
3
 72
46
 73
42
 74
0
 42
0.0000001
 43
0.0000001
 44
0.0000000001
 40
0.0
 40
0.0
 40
0.0
 40
0.0
 40
0.092660433
 40
0.1859236198
 40
0.2785894778
 40
0.3696077313
 40
0.4579298243
 40
0.5425073784
 40
0.6223539935
 40
0.6965334698
 40
0.7312259575
 40
0.7641795215
 40
0.7953008301
 40
0.82450016
 40
0.8516882533
 40
0.8767858315
 40
0.8997232429
 40
0.9204312344
 40
0.9388456096
 40
0.9471771557
 40
0.9549172127
 40
0.9620599864
 40
0.9685996841
 40
0.9745305413
 40
0.9798480031
 40
0.9845492151
 40
0.9886314582
 40
0.9920920277
 40
0.993588348
 40
0.99492825
 40
0.9961114085
 40
0.9971375068
 40
0.9980062428
 40
0.998717425
 40
0.9992711793
 40
0.9994891192
 40
0.9996678542
 40
0.9998075146
 40
0.9999083746
 40
0.999971207
 40
1.0
 40
1.0
 40
1.0
 40
1.0
 10
-12.1754660968
 20
3.2040586089
 30
0.0
 10
-12.1744572891
 20
3.3886660433
 30
0.0
 10
-12.1725071238
 20
3.7590821873
 30
0.0
 10
-12.1697985295
 20
4.314117857
 30
0.0
 10
-12.1673193314
 20
4.8658828033
 30
0.0
 10
-12.1650986099
 20
5.4078044786
 30
0.0
 10
-12.1631614616
 20
5.9336125638
 30
0.0
 10
-12.1615308168
 20
6.4371639857
 30
0.0
 10
-12.1602248502
 20
6.9125394913
 30
0.0
 10
-12.1594019656
 20
7.2885283657
 30
0.0
 10
-12.1589262408
 20
7.5710912712
 30
0.0
 10
-12.158667187
 20
7.767868313
 30
0.0
 10
-12.1584981616
 20
7.9537012644
 30
0.0
 10
-12.1584194653
 20
8.1280475538
 30
0.0
 10
-12.158431449
 20
8.2903926018
 30
0.0
 10
-12.1585339525
 20
8.4402618067
 30
0.0
 10
-12.1587260769
 20
8.5772204127
 30
0.0
 10
-12.1590070833
 20
8.7008636886
 30
0.0
 10
-12.1593239008
 20
8.7954070551
 30
0.0
 10
-12.1596281604
 20
8.864113848
 30
0.0
 10
-12.1598703852
 20
8.9103639266
 30
0.0
 10
-12.1601340177
 20
8.9530438728
 30
0.0
 10
-12.1604188159
 20
8.9921190737
 30
0.0
 10
-12.1607245035
 20
9.0275573734
 30
0.0
 10
-12.1610507593
 20
9.0593324496
 30
0.0
 10
-12.1613968959
 20
9.0874240287
 30
0.0
 10
-12.1617624134
 20
9.1118154629
 30
0.0
 10
-12.1620960892
 20
9.1298213755
 30
0.0
 10
-12.1623791891
 20
9.1423634891
 30
0.0
 10
-12.1625857513
 20
9.1503687709
 30
0.0
 10
-12.1627967476
 20
9.1574367589
 30
0.0
 10
-12.1630119804
 20
9.1635653486
 30
0.0
 10
-12.1632309227
 20
9.1687529725
 30
0.0
 10
-12.1634531198
 20
9.1729978649
 30
0.0
 10
-12.1636522418
 20
9.1759465645
 30
0.0
 10
-12.163820081
 20
9.1778315762
 30
0.0
 10
-12.1639381583
 20
9.178896228
 30
0.0
 10
-12.1640501448
 20
9.1797174657
 30
0.0
 10
-12.1641737715
 20
9.1803255444
 30
0.0
 10
-12.1642652864
 20
9.1806675709
 30
0.0
 10
-12.1643827931
 20
9.1808611931
 30
0.0
 10
-12.1644401529
 20
9.1808619742
 30
0.0
  0
LINE
  5
229
100
AcDbEntity
  8
02___PRT_ALL_AXES
100
AcDbLine
 62
7
  6
CONTINUOUS
 10
-12.1976303294
 20
-1.0996443687
 11
-12.1978174655
 21
-1.1210299624
  0
SPLINE
  5
22A
100
AcDbEntity
  8
02___PRT_ALL_AXES
100
AcDbSpline
 62
7
  6
CONTINUOUS
 70
0
 71
3
 72
37
 73
33
 74
0
 42
0.0000001
 43
0.0000001
 44
0.0000000001
 40
0.0
 40
0.0
 40
0.0
 40
0.0
 40
0.1161131186
 40
0.2259587246
 40
0.3293014085
 40
0.4259071501
 40
0.5155685874
 40
0.5981024103
 40
0.673326181
 40
0.7410665312
 40
0.8011883354
 40
0.8283532192
 40
0.8535665943
 40
0.8768128457
 40
0.898077143
 40
0.9173495826
 40
0.9346221921
 40
0.9498870262
 40
0.9631361763
 40
0.9743617979
 40
0.9792133712
 40
0.9835561835
 40
0.9873893287
 40
0.9907123872
 40
0.9935254899
 40
0.9958289118
 40
0.9976231834
 40
0.9989094938
 40
0.9993631678
 40
0.9996918341
 40
0.9998987854
 40
1.0
 40
1.0
 40
1.0
 40
1.0
 10
-12.1978174655
 20
-1.1210299624
 30
0.0
 10
-12.1984446927
 20
-1.1925650207
 30
0.0
 10
-12.1996898118
 20
-1.33177363
 30
0.0
 10
-12.2015856836
 20
-1.5346488376
 30
0.0
 10
-12.2034550153
 20
-1.7255051691
 30
0.0
 10
-12.2052938493
 20
-1.9039256251
 30
0.0
 10
-12.2070980777
 20
-2.0695252987
 30
0.0
 10
-12.2088634188
 20
-2.2219510536
 30
0.0
 10
-12.2105857001
 20
-2.3608706817
 30
0.0
 10
-12.2122612948
 20
-2.4859816247
 30
0.0
 10
-12.2136579791
 20
-2.5814842956
 30
0.0
 10
-12.214757366
 20
-2.6507873727
 30
0.0
 10
-12.2155398364
 20
-2.6973734063
 30
0.0
 10
-12.2163078936
 20
-2.7403237685
 30
0.0
 10
-12.2170611293
 20
-2.779613544
 30
0.0
 10
-12.2177989452
 20
-2.8152225136
 30
0.0
 10
-12.2185207494
 20
-2.8471346731
 30
0.0
 10
-12.2192257461
 20
-2.875335223
 30
0.0
 10
-12.2199132939
 20
-2.8998093555
 30
0.0
 10
-12.2204951149
 20
-2.9178681702
 30
0.0
 10
-12.2209593965
 20
-2.9304404757
 30
0.0
 10
-12.2212858003
 20
-2.9384601911
 30
0.0
 10
-12.221607332
 20
-2.9455374818
 30
0.0
 10
-12.2219238021
 20
-2.9516716208
 30
0.0
 10
-12.2222345008
 20
-2.9568617443
 30
0.0
 10
-12.2225390934
 20
-2.9611096637
 30
0.0
 10
-12.2228343003
 20
-2.9644115044
 30
0.0
 10
-12.2230951224
 20
-2.9665788232
 30
0.0
 10
-12.2233074515
 20
-2.9678295552
 30
0.0
 10
-12.2234579879
 20
-2.9684322818
 30
0.0
 10
-12.2235706152
 20
-2.9687856938
 30
0.0
 10
-12.2237120507
 20
-2.9689661042
 30
0.0
 10
-12.2237744082
 20
-2.9689657187
 30
0.0
  0
ENDSEC
  0
SECTION
  2
OBJECTS
  0
DICTIONARY
  5
C
100
AcDbDictionary
280
0
281
1
  3
ACAD_GROUP
350
D
  3
ACAD_MLINESTYLE
350
17
  3
ACAD_LAYOUT
350
1A
  3
ACAD_PLOTSETTINGS
350
19
  3
ACAD_PLOTSTYLENAME
350
E
  0
DICTIONARY
  5
D
102
{ACAD_REACTORS
330
C
102
}
100
AcDbDictionary
280
0
281
1
  0
ACDBDICTIONARYWDFLT
  5
E
102
{ACAD_REACTORS
330
C
102
}
100
AcDbDictionary
281
1
  3
Normal
350
F
100
AcDbDictionaryWithDefault
340
F
  0
DICTIONARY
  5
17
102
{ACAD_REACTORS
330
C
102
}
100
AcDbDictionary
280
0
281
1
  3
Standard
350
18
  0
DICTIONARY
  5
19
102
{ACAD_REACTORS
330
C
102
}
100
AcDbDictionary
281
1
  0
DICTIONARY
  5
1A
102
{ACAD_REACTORS
330
C
102
}
100
AcDbDictionary
281
1
  3
Model
350
22B
  3
Layout1
350
22C
  0
ACDBPLACEHOLDER
  5
F
102
{ACAD_REACTORS
330
E
102
}
  0
MLINESTYLE
  5
18
102
{ACAD_REACTORS
330
17
102
}
100
AcDbMlineStyle
  2
STANDARD
 70
0
  3

 62
256
 51
90.0
 52
90.0
 71
2
 49
0.5
 62
256
  6
BYLAYER
 49
-0.5
 62
256
  6
BYLAYER
  0
LAYOUT
  5
22B
102
{ACAD_REACTORS
330
1A
102
}
100
AcDbPlotSettings
  1

  2
none_device
  4

  6

 40
0.0
 41
0.0
 42
0.0
 43
0.0
 44
431.8
 45
279.4
 46
0.0
 47
0.0
 48
0.0
 49
0.0
140
0.0
141
0.0
142
1.0
143
1.0
 70
1024
 72
0
 73
0
 74
0
  7

 75
0
147
1.0
148
0.0
149
0.0
100
AcDbLayout
  1
Model
 70
0
 71
0
 10
0.0
 20
0.0
 11
17.0
 21
11.0
 12
0.0
 22
0.0
 32
0.0
 14
0.0
 24
0.0
 34
0.0
 15
0.0
 25
0.0
 35
0.0
146
0.0
 13
0.0
 23
0.0
 33
0.0
 16
1.0
 26
0.0
 36
0.0
 17
0.0
 27
1.0
 37
0.0
 76
0
330
207
345
0
346
0
  0
LAYOUT
  5
22C
102
{ACAD_REACTORS
330
1A
102
}
100
AcDbPlotSettings
  1

  2
none_device
  4

  6

 40
0.0
 41
0.0
 42
0.0
 43
0.0
 44
431.8
 45
279.4
 46
0.0
 47
0.0
 48
0.0
 49
0.0
140
0.0
141
0.0
142
1.0
143
1.0
 70
0
 72
0
 73
0
 74
0
  7

 75
0
147
1.0
148
0.0
149
0.0
100
AcDbLayout
  1
Layout1
 70
0
 71
1
 10
0.0
 20
0.0
 11
17.0
 21
11.0
 12
0.0
 22
0.0
 32
0.0
 14
0.0
 24
0.0
 34
0.0
 15
0.0
 25
0.0
 35
0.0
146
0.0
 13
0.0
 23
0.0
 33
0.0
 16
1.0
 26
0.0
 36
0.0
 17
0.0
 27
1.0
 37
0.0
 76
0
330
208
345
0
346
0
  0
ENDSEC
  0
EOF
