999
DXF file: N:\Master\master\M3_ProE_files\Lenexa\MADAM DXF\411284.dxf
999
Pro/ENGINEER 2010280 by Parametric Technology Corporation
  0
SECTION
  2
HEADER
  9
$ACADVER
  1
AC1021
  9
$DWGCODEPAGE
  3
ANSI_1252
  9
$EXTMAX
 10
17.0
 20
11.0
 30
0.0
  9
$EXTMIN
 10
0.0
 20
-0.0
 30
0.0
  9
$LIMMIN
 10
0.0
 20
-0.0
  9
$LIMMAX
 10
17.0
 20
11.0
  9
$VIEWCTR
 10
8.5
 20
5.5
  9
$VIEWSIZE
 40
11.0
  9
$CLAYER
  8
0
  9
$LTSCALE
 40
0.935
  9
$CELTYPE
  6
BYLAYER
  9
$DIMSCALE
 40
1.0
  9
$DIMASZ
 40
0.125
  9
$DIMEXO
 40
0.10625
  9
$DIMDLI
 40
0.646
  9
$DIMEXE
 40
0.306
  9
$DIMCEN
 40
0.153
  9
$DIMLFAC
 40
1.0
  9
$DIMBLK
  1
_FILLED
  9
$DIMTXT
 40
0.125
  9
$DIMTOL
 70
1
  9
$DIMLIM
 70
0
  9
$DIMTFAC
 40
1.0
  9
$DIMTP
 40
0.01
  9
$DIMTM
 40
0.01
  9
$PDMODE
 70
3
  9
$PDSIZE
 40
0.3125
  9
$HANDSEED
  5
22D
  9
$TILEMODE
 70
1
  9
$MEASUREMENT
 70
0
  9
$INSUNITS
 70
1
  0
ENDSEC
  0
SECTION
  2
CLASSES
  0
CLASS
  1
ACDBDICTIONARYWDFLT
  2
AcDbDictionaryWithDefault
  3
AutoCAD 2000
 90
0
 91
1
280
0
281
0
  0
CLASS
  1
ACDBPLACEHOLDER
  2
AcDbPlaceHolder
  3
AutoCAD 2000
 90
0
 91
1
280
0
281
0
  0
CLASS
  1
LAYOUT
  2
AcDbLayout
  3
AutoCAD 2000
 90
0
 91
0
280
0
281
0
  0
ENDSEC
  0
SECTION
  2
TABLES
  0
TABLE
  2
VPORT
  5
8
100
AcDbSymbolTable
 70
2
  0
VPORT
  5
1F4
100
AcDbSymbolTableRecord
100
AcDbViewportTableRecord
  2
*ACTIVE
 70
0
 10
0.0
 20
0.0
 11
1.0
 21
1.0
 12
8.5
 22
5.5
 13
0.0
 23
0.0
 14
1.0
 24
1.0
 15
0.0
 25
0.0
 16
0.0
 26
0.0
 36
1.0
 17
0.0
 27
0.0
 37
0.0
 40
11.0
 41
1.5454545455
 42
50.0
 43
0.0
 44
0.0
 50
0.0
 51
0.0
 71
0
 72
100
 73
1
 74
1
 75
0
 76
0
 77
0
 78
0
  0
ENDTAB
  0
TABLE
  2
LTYPE
  5
5
100
AcDbSymbolTable
 70
6
  0
LTYPE
  5
14
100
AcDbSymbolTableRecord
100
AcDbLinetypeTableRecord
  2
BYBLOCK
 70
0
  3

 72
65
 73
0
 40
0.0
  0
LTYPE
  5
15
100
AcDbSymbolTableRecord
100
AcDbLinetypeTableRecord
  2
BYLAYER
 70
0
  3

 72
65
 73
0
 40
0.0
  0
LTYPE
  5
16
100
AcDbSymbolTableRecord
100
AcDbLinetypeTableRecord
  2
CONTINUOUS
 70
64
  3
Solid line
 72
65
 73
0
 40
0.0
  0
LTYPE
  5
1F5
100
AcDbSymbolTableRecord
100
AcDbLinetypeTableRecord
  2
CENTER
 70
64
  3
____ _ ____ _ ____ _ ____ _ ____ _ ____ _ ____
 72
65
 73
4
 40
0.6
 49
0.375
 74
0
 49
-0.075
 74
0
 49
0.075
 74
0
 49
-0.075
 74
0
  0
LTYPE
  5
1F6
100
AcDbSymbolTableRecord
100
AcDbLinetypeTableRecord
  2
HIDDEN
 70
64
  3
- - - - - - - - - - - - - - - - - - - -
 72
65
 73
2
 40
0.2
 49
0.1
 74
0
 49
-0.1
 74
0
  0
LTYPE
  5
1F7
100
AcDbSymbolTableRecord
100
AcDbLinetypeTableRecord
  2
PHANTOM
 70
64
  3
_____ _ _ _____ _ _ _____ _ _ _____
 72
65
 73
6
 40
0.8
 49
0.45
 74
0
 49
-0.05
 74
0
 49
0.1
 74
0
 49
-0.05
 74
0
 49
0.1
 74
0
 49
-0.05
 74
0
  0
LTYPE
  5
1F8
100
AcDbSymbolTableRecord
100
AcDbLinetypeTableRecord
  2
DOT
 70
64
  3
. . . . . . . . . . . . . . . . . . . .
 72
65
 73
2
 40
0.2
 49
0.1
 74
0
 49
-0.1
 74
0
  0
LTYPE
  5
1F9
100
AcDbSymbolTableRecord
100
AcDbLinetypeTableRecord
  2
DASHED
 70
64
  3
- - - - - - - - - - - - - - - - - - - -
 72
65
 73
2
 40
0.2
 49
0.1
 74
0
 49
-0.1
 74
0
  0
ENDTAB
  0
TABLE
  2
LAYER
  5
2
100
AcDbSymbolTable
 70
36
  0
LAYER
  5
10
100
AcDbSymbolTableRecord
100
AcDbLayerTableRecord
  2
0
 70
0
 62
7
  6
CONTINUOUS
370
-3
390
F
  0
LAYER
  5
1FA
100
AcDbSymbolTableRecord
100
AcDbLayerTableRecord
  2
DEFAULT_1
 70
0
 62
7
  6
CENTER
370
-3
390
F
  0
LAYER
  5
1FB
100
AcDbSymbolTableRecord
100
AcDbLayerTableRecord
  2
DEFAULT_2
 70
0
 62
8
  6
HIDDEN
370
-3
390
F
  0
LAYER
  5
1FC
100
AcDbSymbolTableRecord
100
AcDbLayerTableRecord
  2
DEFAULT_3
 70
0
 62
7
  6
PHANTOM
370
-3
390
F
  0
LAYER
  5
1FD
100
AcDbSymbolTableRecord
100
AcDbLayerTableRecord
  2
01___PRT_ALL_DTM_PLN
 70
0
 62
7
  6
CONTINUOUS
370
-3
390
F
  0
LAYER
  5
1FE
100
AcDbSymbolTableRecord
100
AcDbLayerTableRecord
  2
01___PRT_DEF_DTM_PLN
 70
0
 62
7
  6
CONTINUOUS
370
-3
390
F
  0
LAYER
  5
1FF
100
AcDbSymbolTableRecord
100
AcDbLayerTableRecord
  2
02___PRT_ALL_AXES
 70
0
 62
7
  6
CONTINUOUS
370
-3
390
F
  0
LAYER
  5
200
100
AcDbSymbolTableRecord
100
AcDbLayerTableRecord
  2
03___PRT_ALL_CURVES
 70
0
 62
7
  6
CONTINUOUS
370
-3
390
F
  0
LAYER
  5
201
100
AcDbSymbolTableRecord
100
AcDbLayerTableRecord
  2
04___PRT_ALL_DTM_PNT
 70
0
 62
7
  6
CONTINUOUS
370
-3
390
F
  0
LAYER
  5
202
100
AcDbSymbolTableRecord
100
AcDbLayerTableRecord
  2
05___PRT_ALL_DTM_CSYS
 70
0
 62
7
  6
CONTINUOUS
370
-3
390
F
  0
LAYER
  5
203
100
AcDbSymbolTableRecord
100
AcDbLayerTableRecord
  2
05___PRT_DEF_DTM_CSYS
 70
0
 62
7
  6
CONTINUOUS
370
-3
390
F
  0
LAYER
  5
204
100
AcDbSymbolTableRecord
100
AcDbLayerTableRecord
  2
06___PRT_ALL_SURFS
 70
0
 62
7
  6
CONTINUOUS
370
-3
390
F
  0
ENDTAB
  0
TABLE
  2
STYLE
  5
3
100
AcDbSymbolTable
 70
1
  0
STYLE
  5
11
100
AcDbSymbolTableRecord
100
AcDbTextStyleTableRecord
  2
STANDARD
 70
0
 40
0.0
 41
0.8
 50
0.0
 71
0
 42
0.2
  3
txt
  4

  0
STYLE
  5
205
100
AcDbSymbolTableRecord
100
AcDbTextStyleTableRecord
  2
TEXTSTYLE_1
 70
0
 40
0.0
 41
0.8
 50
0.0
 71
0
 42
0.2
  3
gdt
  4

  0
ENDTAB
  0
TABLE
  2
VIEW
  5
6
100
AcDbSymbolTable
 70
0
  0
ENDTAB
  0
TABLE
  2
UCS
  5
7
100
AcDbSymbolTable
 70
0
  0
ENDTAB
  0
TABLE
  2
APPID
  5
9
100
AcDbSymbolTable
 70
1
  0
APPID
  5
206
100
AcDbSymbolTableRecord
100
AcDbRegAppTableRecord
  2
ACAD
 70
0
  0
ENDTAB
  0
TABLE
  2
BLOCK_RECORD
  5
1
100
AcDbSymbolTable
 70
0
  0
BLOCK_RECORD
  5
207
100
AcDbSymbolTableRecord
100
AcDbBlockTableRecord
  2
*Model_Space
  0
BLOCK_RECORD
  5
208
100
AcDbSymbolTableRecord
100
AcDbBlockTableRecord
  2
*Paper_Space
  0
ENDTAB
  0
TABLE
  2
DIMSTYLE
  5
A
100
AcDbSymbolTable
 70
1
100
AcDbDimStyleTable
 71
0
  0
DIMSTYLE
105
209
100
AcDbSymbolTableRecord
100
AcDbDimStyleTableRecord
  2
STANDARD
 70
0
  3

  4

 40
1.0
 41
0.125
 42
0.0625
 43
0.38
 44
0.18
 45
0.0
 46
0.0
 47
0.01
 48
0.01
140
0.125
141
0.09
142
0.0
143
25.4
144
1.0
145
0.0
146
1.0
147
0.09
 71
1.0
 72
0.0
 73
1
 74
1
 75
0
 76
0
 77
0
 78
4
170
0
171
2
172
0
173
0
174
0
175
0
176
0
177
0
178
0
270
2
271
2
272
2
273
2
274
2
275
0
280
0
281
0
282
0
283
1
284
4
285
0
286
0
287
3
288
0
340
11
  0
ENDTAB
  0
ENDSEC
  0
SECTION
  2
BLOCKS
  0
BLOCK
  5
20
100
AcDbEntity
  8
0
100
AcDbBlockBegin
  2
*Model_Space
 70
0
 10
0.0
 20
0.0
 30
0.0
  3
*Model_Space
  1

  0
ENDBLK
  5
21
100
AcDbEntity
  8
0
100
AcDbBlockEnd
  0
BLOCK
  5
1C
100
AcDbEntity
  8
0
100
AcDbBlockBegin
  2
*Paper_Space
 70
0
 10
0.0
 20
0.0
 30
0.0
  3
*Paper_Space
  1

  0
ENDBLK
  5
1D
100
AcDbEntity
  8
0
100
AcDbBlockEnd
  0
ENDSEC
  0
SECTION
  2
ENTITIES
  0
MTEXT
  5
20A
100
AcDbEntity
  8
0
100
AcDbMText
 62
2
  6
CONTINUOUS
  7
STANDARD
 71
1
 72
1
 10
11.5208414759
 20
19.798872393
 30
0.0
 11
1.0
 21
0.0
 31
0.0
 44
0.9
  1
411284
 40
3.0
 41
14.4
  0
LINE
  5
20B
100
AcDbEntity
  8
02___PRT_ALL_AXES
100
AcDbLine
 62
7
  6
CONTINUOUS
 10
-6.27470224
 20
-1.1180088516
 11
16.2748849397
 21
-1.2281282401
  0
LINE
  5
20C
100
AcDbEntity
  8
02___PRT_ALL_AXES
100
AcDbLine
 62
7
  6
CONTINUOUS
 10
-8.3000447381
 20
0.861905262
 11
-6.2650819926
 21
0.8519676586
  0
LINE
  5
20D
100
AcDbEntity
  8
02___PRT_ALL_AXES
100
AcDbLine
 62
7
  6
CONTINUOUS
 10
16.2989161445
 20
0.7417778952
 11
18.3194679326
 21
0.7319106668
  0
LINE
  5
20E
100
AcDbEntity
  8
02___PRT_ALL_AXES
100
AcDbLine
 62
7
  6
CONTINUOUS
 10
-8.2692794797
 20
7.1618301424
 11
-6.2343167342
 21
7.151892539
  0
LINE
  5
20F
100
AcDbEntity
  8
02___PRT_ALL_AXES
100
AcDbLine
 62
7
  6
CONTINUOUS
 10
16.3296870922
 20
7.0417027478
 11
18.350233191
 21
7.0318355472
  0
LINE
  5
210
100
AcDbEntity
  8
02___PRT_ALL_AXES
100
AcDbLine
 62
7
  6
CONTINUOUS
 10
-6.2246964868
 20
9.1218690493
 11
16.324890693
 21
9.0117496608
  0
ARC
  5
211
100
AcDbEntity
  8
02___PRT_ALL_AXES
100
AcDbCircle
 62
7
  6
CONTINUOUS
 10
-1228.246058808
 20
10.011029847
 40
1244.5793233618
100
AcDbArc
 50
359.6804477238
 51
359.8633358581
  0
ARC
  5
212
100
AcDbEntity
  8
02___PRT_ALL_AXES
100
AcDbCircle
 62
7
  6
CONTINUOUS
 10
-1250.7956459858
 20
10.1211492502
 40
1244.5793233596
100
AcDbArc
 50
359.6804477231
 51
359.8633358575
  0
ARC
  5
213
100
AcDbEntity
  8
02___PRT_ALL_AXES
100
AcDbCircle
 62
7
  6
CONTINUOUS
 10
-1092.5603888012
 20
9.015397396
 40
1086.3404052437
100
AcDbArc
 50
359.5705886982
 51
359.6922209708
  0
ARC
  5
214
100
AcDbEntity
  8
02___PRT_ALL_AXES
100
AcDbCircle
 62
7
  6
CONTINUOUS
 10
-1070.0108016161
 20
8.9052780075
 40
1086.3404052384
100
AcDbArc
 50
359.5705886982
 51
359.6922209708
  0
CIRCLE
  5
215
100
AcDbEntity
  8
02___PRT_ALL_AXES
100
AcDbCircle
 62
7
  6
CONTINUOUS
 10
32.4157209125
 20
3.3454811333
 40
5.12
  0
CIRCLE
  5
216
100
AcDbEntity
  8
02___PRT_ALL_AXES
100
AcDbCircle
 62
7
  6
CONTINUOUS
 10
32.4157209125
 20
3.3454811333
 40
3.15
  0
CIRCLE
  5
217
100
AcDbEntity
  8
02___PRT_ALL_AXES
100
AcDbCircle
 62
7
  6
CONTINUOUS
 10
32.4157209125
 20
3.3454811333
 40
3.0
  0
LINE
  5
218
100
AcDbEntity
  8
02___PRT_ALL_AXES
100
AcDbLine
 62
7
  6
CONTINUOUS
 10
16.2990940878
 20
0.7636228195
 11
16.2989153127
 21
0.7402764524
  0
SPLINE
  5
219
100
AcDbEntity
  8
02___PRT_ALL_AXES
100
AcDbSpline
 62
7
  6
CONTINUOUS
 70
0
 71
3
 72
39
 73
35
 74
0
 42
0.0000001
 43
0.0000001
 44
0.0000000001
 40
0.0
 40
0.0
 40
0.0
 40
0.0
 40
0.1136472097
 40
0.2217795103
 40
0.3240474832
 40
0.4201169452
 40
0.5096889332
 40
0.5924696746
 40
0.6681872392
 40
0.7366095346
 40
0.7975092702
 40
0.8250735096
 40
0.850686919
 40
0.8743299827
 40
0.89598319
 40
0.9156270372
 40
0.933243142
 40
0.9488193657
 40
0.9623457639
 40
0.9683371853
 40
0.9738124442
 40
0.9787703168
 40
0.9832095895
 40
0.9871290645
 40
0.9905275695
 40
0.9934042606
 40
0.9957591738
 40
0.9975926604
 40
0.9983141092
 40
0.9989055933
 40
0.9993674851
 40
0.9997005966
 40
0.9999072698
 40
1.0
 40
1.0
 40
1.0
 40
1.0
 10
16.2989153127
 20
0.7402764524
 30
0.0
 10
16.2983430043
 20
0.6656999783
 30
0.0
 10
16.2972029861
 20
0.5201661469
 30
0.0
 10
16.2954614535
 20
0.3075237031
 30
0.0
 10
16.2937347451
 20
0.1064165788
 30
0.0
 10
16.2920282841
 20
-0.0825104251
 30
0.0
 10
16.2903479981
 20
-0.2586490234
 30
0.0
 10
16.2886993739
 20
-0.4214317711
 30
0.0
 10
16.287087788
 20
-0.5703350947
 30
0.0
 10
16.2855190562
 20
-0.7048790313
 30
0.0
 10
16.2842124311
 20
-0.8078241915
 30
0.0
 10
16.2831848311
 20
-0.8826781079
 30
0.0
 10
16.2824537286
 20
-0.9330848424
 30
0.0
 10
16.281736993
 20
-0.9796123651
 30
0.0
 10
16.2810352758
 20
-1.0222222288
 30
0.0
 10
16.2803492842
 20
-1.0608767172
 30
0.0
 10
16.2796797002
 20
-1.0955429355
 30
0.0
 10
16.2790272739
 20
-1.1261942287
 30
0.0
 10
16.2784789613
 20
-1.1492174924
 30
0.0
 10
16.2780443112
 20
-1.1656129411
 30
0.0
 10
16.2777362587
 20
-1.1763868256
 30
0.0
 10
16.2774329367
 20
-1.186141838
 30
0.0
 10
16.2771344785
 20
-1.194875512
 30
0.0
 10
16.2768411082
 20
-1.2025854336
 30
0.0
 10
16.2765530872
 20
-1.2092692567
 30
0.0
 10
16.2762709352
 20
-1.21492578
 30
0.0
 10
16.275995235
 20
-1.2195535479
 30
0.0
 10
16.2757570439
 20
-1.2227679235
 30
0.0
 10
16.2755625482
 20
-1.2248221569
 30
0.0
 10
16.2754283769
 20
-1.2259822708
 30
0.0
 10
16.2753033211
 20
-1.2268755801
 30
0.0
 10
16.2751679436
 20
-1.2275385005
 30
0.0
 10
16.2750699452
 20
-1.2279056266
 30
0.0
 10
16.2749456685
 20
-1.2281186265
 30
0.0
 10
16.2748848173
 20
-1.2281182504
 30
0.0
  0
LINE
  5
21A
100
AcDbEntity
  8
02___PRT_ALL_AXES
100
AcDbLine
 62
7
  6
CONTINUOUS
 10
16.3296935788
 20
7.0424132895
 11
16.3297157368
 21
7.0530334465
  0
SPLINE
  5
21B
100
AcDbEntity
  8
02___PRT_ALL_AXES
100
AcDbSpline
 62
7
  6
CONTINUOUS
 70
0
 71
3
 72
39
 73
35
 74
0
 42
0.0000001
 43
0.0000001
 44
0.0000000001
 40
0.0
 40
0.0
 40
0.0
 40
0.0
 40
0.1136843752
 40
0.221842901
 40
0.324128308
 40
0.4202053406
 40
0.5097768537
 40
0.5925532884
 40
0.6682618299
 40
0.7366720432
 40
0.7975602639
 40
0.8251181235
 40
0.8507246887
 40
0.8743609686
 40
0.8960079774
 40
0.9156467363
 40
0.9332586569
 40
0.948830394
 40
0.96235243
 40
0.9683418765
 40
0.9738153831
 40
0.9787717899
 40
0.9832099472
 40
0.987128721
 40
0.990527003
 40
0.9934037634
 40
0.9957586793
 40
0.9975921467
 40
0.9983135978
 40
0.9989051033
 40
0.9993670448
 40
0.9997002448
 40
0.9999070599
 40
1.0
 40
1.0
 40
1.0
 40
1.0
 10
16.3297157368
 20
7.0530334465
 30
0.0
 10
16.3298700466
 20
7.1272638612
 30
0.0
 10
16.3301480704
 20
7.2721166269
 30
0.0
 10
16.3304787098
 20
7.4837569852
 30
0.0
 10
16.3307120415
 20
7.6839006964
 30
0.0
 10
16.330847158
 20
7.8719080471
 30
0.0
 10
16.3308840426
 20
8.0471769984
 30
0.0
 10
16.3308227283
 20
8.2091462728
 30
0.0
 10
16.3306634206
 20
8.3572981391
 30
0.0
 10
16.3304072341
 20
8.4911578691
 30
0.0
 10
16.3301052729
 20
8.5935772684
 30
0.0
 10
16.3298084023
 20
8.6680477212
 30
0.0
 10
16.3295694841
 20
8.7181944229
 30
0.0
 10
16.3293071775
 20
8.7644814431
 30
0.0
 10
16.3290217603
 20
8.8068715497
 30
0.0
 10
16.3287135802
 20
8.8453277606
 30
0.0
 10
16.3283830117
 20
8.8798167602
 30
0.0
 10
16.3280304816
 20
8.9103113759
 30
0.0
 10
16.3277075916
 20
8.9332168399
 30
0.0
 10
16.3274335964
 20
8.9495285768
 30
0.0
 10
16.3272311782
 20
8.9602477479
 30
0.0
 10
16.3270235695
 20
8.9699536961
 30
0.0
 10
16.3268108799
 20
8.9786440912
 30
0.0
 10
16.3265933079
 20
8.9863166537
 30
0.0
 10
16.3263710997
 20
8.9929690092
 30
0.0
 10
16.3261447716
 20
8.9985996415
 30
0.0
 10
16.3259148479
 20
9.0032067716
 30
0.0
 10
16.3257085861
 20
9.0064072131
 30
0.0
 10
16.3255346029
 20
9.0084529594
 30
0.0
 10
16.3254121012
 20
9.0096085275
 30
0.0
 10
16.3252960372
 20
9.0104986686
 30
0.0
 10
16.3251675605
 20
9.0111595822
 30
0.0
 10
16.3250732188
 20
9.0115262268
 30
0.0
 10
16.3249514997
 20
9.0117392959
 30
0.0
 10
16.3248908153
 20
9.0117396711
 30
0.0
  0
SPLINE
  5
21C
100
AcDbEntity
  8
02___PRT_ALL_AXES
100
AcDbSpline
 62
7
  6
CONTINUOUS
 70
0
 71
3
 72
39
 73
35
 74
0
 42
0.0000001
 43
0.0000001
 44
0.0000000001
 40
0.0
 40
0.0
 40
0.0
 40
0.0
 40
0.0000927302
 40
0.0002994034
 40
0.0006325149
 40
0.0010944067
 40
0.0016858908
 40
0.0024073396
 40
0.0042408262
 40
0.0065957394
 40
0.0094724305
 40
0.0128709355
 40
0.0167904105
 40
0.0212296832
 40
0.0261875558
 40
0.0316628147
 40
0.0376542361
 40
0.0511806343
 40
0.066756858
 40
0.0843729628
 40
0.10401681
 40
0.1256700173
 40
0.149313081
 40
0.1749264904
 40
0.2024907298
 40
0.2633904654
 40
0.3318127608
 40
0.4075303254
 40
0.4903110668
 40
0.5798830548
 40
0.6759525168
 40
0.7782204897
 40
0.8863527903
 40
1.0
 40
1.0
 40
1.0
 40
1.0
 10
-6.2246963644
 20
9.1218590595
 30
0.0
 10
-6.2247572156
 20
9.1218594357
 30
0.0
 10
-6.2248814923
 20
9.1216464358
 30
0.0
 10
-6.2249794907
 20
9.1212793097
 30
0.0
 10
-6.2251148682
 20
9.1206163893
 30
0.0
 10
-6.225239924
 20
9.11972308
 30
0.0
 10
-6.2253740953
 20
9.1185629661
 30
0.0
 10
-6.225568591
 20
9.1165087327
 30
0.0
 10
-6.2258067821
 20
9.113294357
 30
0.0
 10
-6.2260824823
 20
9.1086665892
 30
0.0
 10
-6.2263646343
 20
9.1030100659
 30
0.0
 10
-6.2266526553
 20
9.0963262427
 30
0.0
 10
-6.2269460256
 20
9.0886163212
 30
0.0
 10
-6.2272444838
 20
9.0798826471
 30
0.0
 10
-6.2275478058
 20
9.0701276347
 30
0.0
 10
-6.2278558583
 20
9.0593537503
 30
0.0
 10
-6.2282905084
 20
9.0429583015
 30
0.0
 10
-6.228838821
 20
9.0199350379
 30
0.0
 10
-6.2294912473
 20
8.9892837447
 30
0.0
 10
-6.2301608313
 20
8.9546175264
 30
0.0
 10
-6.2308468229
 20
8.915963038
 30
0.0
 10
-6.2315485401
 20
8.8733531743
 30
0.0
 10
-6.2322652757
 20
8.8268256515
 30
0.0
 10
-6.2329963782
 20
8.7764189171
 30
0.0
 10
-6.2340239782
 20
8.7015650006
 30
0.0
 10
-6.2353306033
 20
8.5986198405
 30
0.0
 10
-6.2368993351
 20
8.4640759039
 30
0.0
 10
-6.238510921
 20
8.3151725803
 30
0.0
 10
-6.2401595452
 20
8.1523898325
 30
0.0
 10
-6.2418398312
 20
7.9762512343
 30
0.0
 10
-6.2435462922
 20
7.7873242304
 30
0.0
 10
-6.2452730006
 20
7.5862171061
 30
0.0
 10
-6.2470145332
 20
7.3735746623
 30
0.0
 10
-6.2481545514
 20
7.2280408309
 30
0.0
 10
-6.2487268598
 20
7.1534643568
 30
0.0
  0
SPLINE
  5
21D
100
AcDbEntity
  8
02___PRT_ALL_AXES
100
AcDbSpline
 62
7
  6
CONTINUOUS
 70
0
 71
3
 72
43
 73
39
 74
0
 42
0.0000001
 43
0.0000001
 44
0.0000000001
 40
0.0
 40
0.0
 40
0.0
 40
0.0
 40
0.102657701
 40
0.2031330163
 40
0.3005189147
 40
0.394064017
 40
0.4830712598
 40
0.5668603525
 40
0.6447650162
 40
0.716185536
 40
0.7492888563
 40
0.7805650119
 40
0.8099570747
 40
0.8374092517
 40
0.8628657517
 40
0.8862737863
 40
0.9075917346
 40
0.9267805762
 40
0.9438012981
 40
0.9586166025
 40
0.9651888659
 40
0.9712006939
 40
0.9766494626
 40
0.9815325525
 40
0.9858473513
 40
0.9895912586
 40
0.9927617015
 40
0.9941312415
 40
0.9953569141
 40
0.9964387072
 40
0.9973766197
 40
0.9981706708
 40
0.9988209174
 40
0.9993274965
 40
0.9996907526
 40
0.9999117752
 40
0.9999705516
 40
1.0
 40
1.0
 40
1.0
 40
1.0
 10
18.3434898336
 20
3.3761124415
 30
0.0
 10
18.3429953508
 20
3.2856242353
 30
0.0
 10
18.3419881512
 20
3.1065716548
 30
0.0
 10
18.3404100119
 20
2.8416783133
 30
0.0
 10
18.3387890882
 20
2.5848178557
 30
0.0
 10
18.3371388916
 20
2.3380665487
 30
0.0
 10
18.3354718645
 20
2.1033008009
 30
0.0
 10
18.3338014026
 20
1.8823220048
 30
0.0
 10
18.332140265
 20
1.6768457553
 30
0.0
 10
18.3307420023
 20
1.5160467923
 30
0.0
 10
18.3296328764
 20
1.396348473
 30
0.0
 10
18.3288324907
 20
1.3136956628
 30
0.0
 10
18.3280440333
 20
1.2360242851
 30
0.0
 10
18.3272690699
 20
1.1634828889
 30
0.0
 10
18.3265091798
 20
1.0962163782
 30
0.0
 10
18.3257657942
 20
1.0343571718
 30
0.0
 10
18.3250405752
 20
0.97802291
 30
0.0
 10
18.3243351696
 20
0.9273190999
 30
0.0
 10
18.3236511563
 20
0.8823474602
 30
0.0
 10
18.3230799037
 20
0.8484965469
 30
0.0
 10
18.3226298268
 20
0.8243490234
 30
0.0
 10
18.322312039
 20
0.8084567916
 30
0.0
 10
18.3220005977
 20
0.7940537013
 30
0.0
 10
18.3216957142
 20
0.7811467205
 30
0.0
 10
18.3213977232
 20
0.7697428081
 30
0.0
 10
18.3211068899
 20
0.7598489174
 30
0.0
 10
18.3208605392
 20
0.7525510463
 30
0.0
 10
18.3206637618
 20
0.7474725954
 30
0.0
 10
18.3205253813
 20
0.7442343898
 30
0.0
 10
18.3203889526
 20
0.7413768828
 30
0.0
 10
18.3202547175
 20
0.7389004004
 30
0.0
 10
18.3201224969
 20
0.7368042676
 30
0.0
 10
18.3199937694
 20
0.7350905619
 30
0.0
 10
18.3198663573
 20
0.7337535743
 30
0.0
 10
18.3197492601
 20
0.7328059186
 30
0.0
 10
18.3196371264
 20
0.7322370156
 30
0.0
 10
18.3195536233
 20
0.7319894688
 30
0.0
 10
18.3194932216
 20
0.7319187394
 30
0.0
 10
18.3194672661
 20
0.7319190928
 30
0.0
  0
SPLINE
  5
21E
100
AcDbEntity
  8
02___PRT_ALL_AXES
100
AcDbSpline
 62
7
  6
CONTINUOUS
 70
0
 71
3
 72
46
 73
42
 74
0
 42
0.0000001
 43
0.0000001
 44
0.0000000001
 40
0.0
 40
0.0
 40
0.0
 40
0.0
 40
0.092660433
 40
0.1859236198
 40
0.2785894778
 40
0.3696077313
 40
0.4579298243
 40
0.5425073784
 40
0.6223539935
 40
0.6965334698
 40
0.7312259575
 40
0.7641795215
 40
0.7953008301
 40
0.82450016
 40
0.8516882533
 40
0.8767858315
 40
0.8997232429
 40
0.9204312344
 40
0.9388456096
 40
0.9471771557
 40
0.9549172127
 40
0.9620599864
 40
0.9685996841
 40
0.9745305413
 40
0.9798480031
 40
0.9845492151
 40
0.9886314582
 40
0.9920920277
 40
0.993588348
 40
0.99492825
 40
0.9961114085
 40
0.9971375068
 40
0.9980062428
 40
0.998717425
 40
0.9992711793
 40
0.9994891192
 40
0.9996678542
 40
0.9998075146
 40
0.9999083746
 40
0.999971207
 40
1.0
 40
1.0
 40
1.0
 40
1.0
 10
18.3434898336
 20
3.3761124415
 30
0.0
 10
18.3441068713
 20
3.4890276684
 30
0.0
 10
18.3452996909
 20
3.7155928827
 30
0.0
 10
18.3469564039
 20
4.0550807195
 30
0.0
 10
18.3484728066
 20
4.3925680167
 30
0.0
 10
18.349831112
 20
4.7240346725
 30
0.0
 10
18.3510159697
 20
5.045645443
 30
0.0
 10
18.3520133544
 20
5.3536429147
 30
0.0
 10
18.3528121495
 20
5.6444065735
 30
0.0
 10
18.3533154672
 20
5.874380351
 30
0.0
 10
18.3536064445
 20
6.0472100893
 30
0.0
 10
18.353764895
 20
6.1675688625
 30
0.0
 10
18.3538682794
 20
6.2812336774
 30
0.0
 10
18.3539164141
 20
6.3878726699
 30
0.0
 10
18.3539090842
 20
6.4871710973
 30
0.0
 10
18.3538463879
 20
6.5788386693
 30
0.0
 10
18.3537288749
 20
6.6626094671
 30
0.0
 10
18.3535569972
 20
6.7382359369
 30
0.0
 10
18.3533632156
 20
6.7960634329
 30
0.0
 10
18.3531771151
 20
6.8380879761
 30
0.0
 10
18.3530289582
 20
6.8663768591
 30
0.0
 10
18.3528677072
 20
6.892482069
 30
0.0
 10
18.3526935103
 20
6.9163824345
 30
0.0
 10
18.3525065363
 20
6.9380582877
 30
0.0
 10
18.3523069818
 20
6.9574935285
 30
0.0
 10
18.3520952671
 20
6.9746757565
 30
0.0
 10
18.3518716982
 20
6.9895947891
 30
0.0
 10
18.3516676052
 20
7.0006081143
 30
0.0
 10
18.3514944471
 20
7.0082795041
 30
0.0
 10
18.3513681032
 20
7.0131759386
 30
0.0
 10
18.3512390472
 20
7.017499077
 30
0.0
 10
18.3511073999
 20
7.0212476318
 30
0.0
 10
18.3509734838
 20
7.0244206445
 30
0.0
 10
18.3508375768
 20
7.027017035
 30
0.0
 10
18.3507157837
 20
7.0288206085
 30
0.0
 10
18.3506131248
 20
7.0299735769
 30
0.0
 10
18.3505409028
 20
7.0306247716
 30
0.0
 10
18.3504724062
 20
7.0311270821
 30
0.0
 10
18.3503967899
 20
7.0314990137
 30
0.0
 10
18.3503408147
 20
7.0317082144
 30
0.0
 10
18.3502689417
 20
7.0318266435
 30
0.0
 10
18.3502338576
 20
7.0318271212
 30
0.0
  0
SPLINE
  5
21F
100
AcDbEntity
  8
02___PRT_ALL_AXES
100
AcDbSpline
 62
7
  6
CONTINUOUS
 70
0
 71
3
 72
39
 73
35
 74
0
 42
0.0000001
 43
0.0000001
 44
0.0000000001
 40
0.0
 40
0.0
 40
0.0
 40
0.0
 40
0.0000929401
 40
0.0002997552
 40
0.0006329552
 40
0.0010948967
 40
0.0016864022
 40
0.0024078533
 40
0.0042413207
 40
0.0065962366
 40
0.009472997
 40
0.012871279
 40
0.0167900528
 40
0.0212282101
 40
0.0261846169
 40
0.0316581235
 40
0.03764757
 40
0.051169606
 40
0.0667413431
 40
0.0843532637
 40
0.1039920226
 40
0.1256390314
 40
0.1492753113
 40
0.1748818765
 40
0.2024397361
 40
0.2633279568
 40
0.3317381701
 40
0.4074467116
 40
0.4902231463
 40
0.5797946594
 40
0.675871692
 40
0.778157099
 40
0.8863156248
 40
1.0
 40
1.0
 40
1.0
 40
1.0
 10
-6.2747023624
 20
-1.1179988619
 30
0.0
 10
-6.2747630468
 20
-1.1179984868
 30
0.0
 10
-6.2748847659
 20
-1.1177854176
 30
0.0
 10
-6.2749791076
 20
-1.117418773
 30
0.0
 10
-6.2751075843
 20
-1.1167578594
 30
0.0
 10
-6.2752236483
 20
-1.1158677183
 30
0.0
 10
-6.27534615
 20
-1.1147121503
 30
0.0
 10
-6.2755201331
 20
-1.1126664039
 30
0.0
 10
-6.275726395
 20
-1.1094659624
 30
0.0
 10
-6.2759563187
 20
-1.1048588323
 30
0.0
 10
-6.2761826468
 20
-1.0992282
 30
0.0
 10
-6.276404855
 20
-1.0925758445
 30
0.0
 10
-6.276622427
 20
-1.084903282
 30
0.0
 10
-6.2768351166
 20
-1.0762128869
 30
0.0
 10
-6.2770427253
 20
-1.0665069387
 30
0.0
 10
-6.2772451435
 20
-1.0557877676
 30
0.0
 10
-6.2775191387
 20
-1.0394760307
 30
0.0
 10
-6.2778420287
 20
-1.0165705667
 30
0.0
 10
-6.2781945588
 20
-0.986075951
 30
0.0
 10
-6.2785251273
 20
-0.9515869514
 30
0.0
 10
-6.2788333074
 20
-0.9131307406
 30
0.0
 10
-6.2791187246
 20
-0.8707406339
 30
0.0
 10
-6.2793810312
 20
-0.8244536137
 30
0.0
 10
-6.2796199494
 20
-0.7743069121
 30
0.0
 10
-6.27991682
 20
-0.6998364593
 30
0.0
 10
-6.2802187812
 20
-0.5974170599
 30
0.0
 10
-6.2804749677
 20
-0.4635573299
 30
0.0
 10
-6.2806342754
 20
-0.3154054636
 30
0.0
 10
-6.2806955897
 20
-0.1534361892
 30
0.0
 10
-6.2806587051
 20
0.0218327621
 30
0.0
 10
-6.2805235886
 20
0.2098401127
 30
0.0
 10
-6.2802902569
 20
0.409983824
 30
0.0
 10
-6.2799596175
 20
0.6216241822
 30
0.0
 10
-6.2796815937
 20
0.766476948
 30
0.0
 10
-6.2795272839
 20
0.8407073627
 30
0.0
  0
LINE
  5
220
100
AcDbEntity
  8
02___PRT_ALL_AXES
100
AcDbLine
 62
7
  6
CONTINUOUS
 10
-6.2795272839
 20
0.8407073627
 11
-6.2795051259
 21
0.8513275197
  0
SPLINE
  5
221
100
AcDbEntity
  8
02___PRT_ALL_AXES
100
AcDbSpline
 62
7
  6
CONTINUOUS
 70
0
 71
3
 72
46
 73
42
 74
0
 42
0.0000001
 43
0.0000001
 44
0.0000000001
 40
0.0
 40
0.0
 40
0.0
 40
0.0
 40
0.092660433
 40
0.1859236198
 40
0.2785894778
 40
0.3696077313
 40
0.4579298243
 40
0.5425073784
 40
0.6223539935
 40
0.6965334698
 40
0.7312259575
 40
0.7641795215
 40
0.7953008301
 40
0.82450016
 40
0.8516882533
 40
0.8767858315
 40
0.8997232429
 40
0.9204312344
 40
0.9388456096
 40
0.9471771557
 40
0.9549172127
 40
0.9620599864
 40
0.9685996841
 40
0.9745305413
 40
0.9798480031
 40
0.9845492151
 40
0.9886314582
 40
0.9920920277
 40
0.993588348
 40
0.99492825
 40
0.9961114085
 40
0.9971375068
 40
0.9980062428
 40
0.998717425
 40
0.9992711793
 40
0.9994891192
 40
0.9996678542
 40
0.9998075146
 40
0.9999083746
 40
0.999971207
 40
1.0
 40
1.0
 40
1.0
 40
1.0
 10
-8.2760228371
 20
3.5061070367
 30
0.0
 10
-8.2754057994
 20
3.6190222635
 30
0.0
 10
-8.2742129799
 20
3.8455874778
 30
0.0
 10
-8.2725562668
 20
4.1850753146
 30
0.0
 10
-8.2710398641
 20
4.5225626119
 30
0.0
 10
-8.2696815587
 20
4.8540292677
 30
0.0
 10
-8.268496701
 20
5.1756400382
 30
0.0
 10
-8.2674993163
 20
5.4836375099
 30
0.0
 10
-8.2667005212
 20
5.7744011686
 30
0.0
 10
-8.2661972035
 20
6.0043749462
 30
0.0
 10
-8.2659062262
 20
6.1772046845
 30
0.0
 10
-8.2657477758
 20
6.2975634577
 30
0.0
 10
-8.2656443913
 20
6.4112282726
 30
0.0
 10
-8.2655962567
 20
6.5178672651
 30
0.0
 10
-8.2656035865
 20
6.6171656925
 30
0.0
 10
-8.2656662828
 20
6.7088332645
 30
0.0
 10
-8.2657837958
 20
6.7926040623
 30
0.0
 10
-8.2659556735
 20
6.868230532
 30
0.0
 10
-8.2661494551
 20
6.926058028
 30
0.0
 10
-8.2663355557
 20
6.9680825713
 30
0.0
 10
-8.2664837126
 20
6.9963714543
 30
0.0
 10
-8.2666449635
 20
7.0224766641
 30
0.0
 10
-8.2668191604
 20
7.0463770297
 30
0.0
 10
-8.2670061344
 20
7.0680528829
 30
0.0
 10
-8.267205689
 20
7.0874881237
 30
0.0
 10
-8.2674174036
 20
7.1046703517
 30
0.0
 10
-8.2676409725
 20
7.1195893843
 30
0.0
 10
-8.2678450655
 20
7.1306027094
 30
0.0
 10
-8.2680182237
 20
7.1382740993
 30
0.0
 10
-8.2681445676
 20
7.1431705338
 30
0.0
 10
-8.2682736235
 20
7.1474936721
 30
0.0
 10
-8.2684052708
 20
7.151242227
 30
0.0
 10
-8.2685391869
 20
7.1544152396
 30
0.0
 10
-8.2686750939
 20
7.1570116301
 30
0.0
 10
-8.268796887
 20
7.1588152037
 30
0.0
 10
-8.2688995459
 20
7.159968172
 30
0.0
 10
-8.268971768
 20
7.1606193668
 30
0.0
 10
-8.2690402646
 20
7.1611216773
 30
0.0
 10
-8.2691158808
 20
7.1614936089
 30
0.0
 10
-8.269171856
 20
7.1617028096
 30
0.0
 10
-8.269243729
 20
7.1618212387
 30
0.0
 10
-8.2692788132
 20
7.1618217164
 30
0.0
  0
LINE
  5
222
100
AcDbEntity
  8
02___PRT_ALL_AXES
100
AcDbLine
 62
7
  6
CONTINUOUS
 10
-6.2198936009
 20
7.152532678
 11
-6.2198714429
 21
7.1631528349
  0
SPLINE
  5
223
100
AcDbEntity
  8
02___PRT_ALL_AXES
100
AcDbSpline
 62
7
  6
CONTINUOUS
 70
0
 71
3
 72
39
 73
35
 74
0
 42
0.0000001
 43
0.0000001
 44
0.0000000001
 40
0.0
 40
0.0
 40
0.0
 40
0.0
 40
0.1136843752
 40
0.221842901
 40
0.324128308
 40
0.4202053406
 40
0.5097768537
 40
0.5925532884
 40
0.6682618299
 40
0.7366720432
 40
0.7975602639
 40
0.8251181235
 40
0.8507246887
 40
0.8743609686
 40
0.8960079774
 40
0.9156467363
 40
0.9332586569
 40
0.948830394
 40
0.96235243
 40
0.9683418765
 40
0.9738153831
 40
0.9787717899
 40
0.9832099472
 40
0.987128721
 40
0.990527003
 40
0.9934037634
 40
0.9957586793
 40
0.9975921467
 40
0.9983135978
 40
0.9989051033
 40
0.9993670448
 40
0.9997002448
 40
0.9999070599
 40
1.0
 40
1.0
 40
1.0
 40
1.0
 10
-6.2198714429
 20
7.1631528349
 30
0.0
 10
-6.2197171332
 20
7.2373832497
 30
0.0
 10
-6.2194391093
 20
7.3822360154
 30
0.0
 10
-6.2191084699
 20
7.5938763737
 30
0.0
 10
-6.2188751383
 20
7.7940200849
 30
0.0
 10
-6.2187400218
 20
7.9820274355
 30
0.0
 10
-6.2187031371
 20
8.1572963868
 30
0.0
 10
-6.2187644515
 20
8.3192656613
 30
0.0
 10
-6.2189237591
 20
8.4674175276
 30
0.0
 10
-6.2191799456
 20
8.6012772576
 30
0.0
 10
-6.2194819069
 20
8.7036966569
 30
0.0
 10
-6.2197787775
 20
8.7781671097
 30
0.0
 10
-6.2200176956
 20
8.8283138114
 30
0.0
 10
-6.2202800023
 20
8.8746008315
 30
0.0
 10
-6.2205654194
 20
8.9169909382
 30
0.0
 10
-6.2208735995
 20
8.955447149
 30
0.0
 10
-6.221204168
 20
8.9899361487
 30
0.0
 10
-6.2215566981
 20
9.0204307643
 30
0.0
 10
-6.2218795881
 20
9.0433362284
 30
0.0
 10
-6.2221535833
 20
9.0596479653
 30
0.0
 10
-6.2223560016
 20
9.0703671363
 30
0.0
 10
-6.2225636102
 20
9.0800730845
 30
0.0
 10
-6.2227762998
 20
9.0887634797
 30
0.0
 10
-6.2229938718
 20
9.0964360421
 30
0.0
 10
-6.2232160801
 20
9.1030883977
 30
0.0
 10
-6.2234424082
 20
9.1087190299
 30
0.0
 10
-6.2236723319
 20
9.11332616
 30
0.0
 10
-6.2238785937
 20
9.1165266016
 30
0.0
 10
-6.2240525768
 20
9.1185723479
 30
0.0
 10
-6.2241750786
 20
9.119727916
 30
0.0
 10
-6.2242911426
 20
9.1206180571
 30
0.0
 10
-6.2244196192
 20
9.1212789707
 30
0.0
 10
-6.224513961
 20
9.1216456152
 30
0.0
 10
-6.2246356801
 20
9.1218586844
 30
0.0
 10
-6.2246963644
 20
9.1218590595
 30
0.0
  0
SPLINE
  5
224
100
AcDbEntity
  8
02___PRT_ALL_AXES
100
AcDbSpline
 62
7
  6
CONTINUOUS
 70
0
 71
3
 72
43
 73
39
 74
0
 42
0.0000001
 43
0.0000001
 44
0.0000000001
 40
0.0
 40
0.0
 40
0.0
 40
0.0
 40
0.102657701
 40
0.2031330163
 40
0.3005189147
 40
0.394064017
 40
0.4830712598
 40
0.5668603525
 40
0.6447650162
 40
0.716185536
 40
0.7492888563
 40
0.7805650119
 40
0.8099570747
 40
0.8374092517
 40
0.8628657517
 40
0.8862737863
 40
0.9075917346
 40
0.9267805762
 40
0.9438012981
 40
0.9586166025
 40
0.9651888659
 40
0.9712006939
 40
0.9766494626
 40
0.9815325525
 40
0.9858473513
 40
0.9895912586
 40
0.9927617015
 40
0.9941312415
 40
0.9953569141
 40
0.9964387072
 40
0.9973766197
 40
0.9981706708
 40
0.9988209174
 40
0.9993274965
 40
0.9996907526
 40
0.9999117752
 40
0.9999705516
 40
1.0
 40
1.0
 40
1.0
 40
1.0
 10
-8.2760228371
 20
3.5061070367
 30
0.0
 10
-8.2765173199
 20
3.4156188305
 30
0.0
 10
-8.2775245195
 20
3.2365662499
 30
0.0
 10
-8.2791026588
 20
2.9716729085
 30
0.0
 10
-8.2807235825
 20
2.7148124509
 30
0.0
 10
-8.2823737791
 20
2.4680611439
 30
0.0
 10
-8.2840408063
 20
2.2332953961
 30
0.0
 10
-8.2857112682
 20
2.0123166
 30
0.0
 10
-8.2873724057
 20
1.8068403505
 30
0.0
 10
-8.2887706684
 20
1.6460413875
 30
0.0
 10
-8.2898797943
 20
1.5263430682
 30
0.0
 10
-8.29068018
 20
1.443690258
 30
0.0
 10
-8.2914686375
 20
1.3660188803
 30
0.0
 10
-8.2922436008
 20
1.293477484
 30
0.0
 10
-8.2930034909
 20
1.2262109734
 30
0.0
 10
-8.2937468765
 20
1.164351767
 30
0.0
 10
-8.2944720955
 20
1.1080175052
 30
0.0
 10
-8.2951775011
 20
1.0573136951
 30
0.0
 10
-8.2958615144
 20
1.0123420553
 30
0.0
 10
-8.2964327671
 20
0.9784911421
 30
0.0
 10
-8.2968828439
 20
0.9543436186
 30
0.0
 10
-8.2972006317
 20
0.9384513868
 30
0.0
 10
-8.297512073
 20
0.9240482965
 30
0.0
 10
-8.2978169566
 20
0.9111413156
 30
0.0
 10
-8.2981149475
 20
0.8997374033
 30
0.0
 10
-8.2984057808
 20
0.8898435126
 30
0.0
 10
-8.2986521315
 20
0.8825456415
 30
0.0
 10
-8.2988489089
 20
0.8774671906
 30
0.0
 10
-8.2989872895
 20
0.874228985
 30
0.0
 10
-8.2991237181
 20
0.871371478
 30
0.0
 10
-8.2992579533
 20
0.8688949955
 30
0.0
 10
-8.2993901738
 20
0.8667988628
 30
0.0
 10
-8.2995189013
 20
0.8650851571
 30
0.0
 10
-8.2996463134
 20
0.8637481695
 30
0.0
 10
-8.2997634106
 20
0.8628005138
 30
0.0
 10
-8.2998755443
 20
0.8622316108
 30
0.0
 10
-8.2999590474
 20
0.8619840639
 30
0.0
 10
-8.3000194492
 20
0.8619133345
 30
0.0
 10
-8.3000454047
 20
0.861913688
 30
0.0
  0
SPLINE
  5
225
100
AcDbEntity
  8
02___PRT_ALL_AXES
100
AcDbSpline
 62
7
  6
CONTINUOUS
 70
0
 71
3
 72
43
 73
39
 74
0
 42
0.0000001
 43
0.0000001
 44
0.0000000001
 40
0.0
 40
0.0
 40
0.0
 40
0.0
 40
0.0000294484
 40
0.0000882248
 40
0.0003092474
 40
0.0006725035
 40
0.0011790826
 40
0.0018293292
 40
0.0026233803
 40
0.0035612928
 40
0.0046430859
 40
0.0058687585
 40
0.0072382985
 40
0.0104087414
 40
0.0141526487
 40
0.0184674475
 40
0.0233505374
 40
0.0287993061
 40
0.0348111341
 40
0.0413833975
 40
0.0561987019
 40
0.0732194238
 40
0.0924082654
 40
0.1137262137
 40
0.1371342483
 40
0.1625907483
 40
0.1900429253
 40
0.2194349881
 40
0.2507111437
 40
0.283814464
 40
0.3552349838
 40
0.4331396475
 40
0.5169287402
 40
0.605935983
 40
0.6994810853
 40
0.7968669837
 40
0.897342299
 40
1.0
 40
1.0
 40
1.0
 40
1.0
 10
-8.2700113511
 20
7.0118239062
 30
0.0
 10
-8.2700360706
 20
7.0118242428
 30
0.0
 10
-8.270093596
 20
7.0117568814
 30
0.0
 10
-8.2701731228
 20
7.0115211225
 30
0.0
 10
-8.2702799168
 20
7.0109793101
 30
0.0
 10
-8.270391438
 20
7.0100767809
 30
0.0
 10
-8.2705127828
 20
7.0088034594
 30
0.0
 10
-8.2706353804
 20
7.0071713587
 30
0.0
 10
-8.2707613048
 20
7.0051750418
 30
0.0
 10
-8.2708891477
 20
7.0028164871
 30
0.0
 10
-8.2710190798
 20
7.0000950519
 30
0.0
 10
-8.2711508708
 20
6.9970110466
 30
0.0
 10
-8.2713382779
 20
6.9921744266
 30
0.0
 10
-8.2715728976
 20
6.9852240732
 30
0.0
 10
-8.2718498817
 20
6.9758013201
 30
0.0
 10
-8.2721336826
 20
6.9649404513
 30
0.0
 10
-8.2724240479
 20
6.9526480885
 30
0.0
 10
-8.2727206586
 20
6.9389308597
 30
0.0
 10
-8.2730233137
 20
6.9237954009
 30
0.0
 10
-8.2734519583
 20
6.9007977594
 30
0.0
 10
-8.2739960084
 20
6.8685587944
 30
0.0
 10
-8.2746474497
 20
6.8257286613
 30
0.0
 10
-8.2753192645
 20
6.7774393184
 30
0.0
 10
-8.2760099493
 20
6.7237876405
 30
0.0
 10
-8.2767179356
 20
6.6648741105
 30
0.0
 10
-8.2774416404
 20
6.6008107671
 30
0.0
 10
-8.2781797008
 20
6.531723723
 30
0.0
 10
-8.2789306126
 20
6.4577509823
 30
0.0
 10
-8.2796928847
 20
6.3790340202
 30
0.0
 10
-8.2807491951
 20
6.265035621
 30
0.0
 10
-8.2820808738
 20
6.1118937514
 30
0.0
 10
-8.2836629096
 20
5.9162020852
 30
0.0
 10
-8.2852538257
 20
5.7057460889
 30
0.0
 10
-8.2868414706
 20
5.4821596625
 30
0.0
 10
-8.2884130865
 20
5.2471584177
 30
0.0
 10
-8.2899568233
 20
5.0025294104
 30
0.0
 10
-8.2914598131
 20
4.7502500376
 30
0.0
 10
-8.2924190508
 20
4.5797237704
 30
0.0
 10
-8.2928899868
 20
4.4935445265
 30
0.0
  0
SPLINE
  5
226
100
AcDbEntity
  8
02___PRT_ALL_AXES
100
AcDbSpline
 62
7
  6
CONTINUOUS
 70
0
 71
3
 72
43
 73
39
 74
0
 42
0.0000001
 43
0.0000001
 44
0.0000000001
 40
0.0
 40
0.0
 40
0.0
 40
0.0
 40
0.102657701
 40
0.2031330163
 40
0.3005189147
 40
0.394064017
 40
0.4830712598
 40
0.5668603525
 40
0.6447650162
 40
0.716185536
 40
0.7492888563
 40
0.7805650119
 40
0.8099570747
 40
0.8374092517
 40
0.8628657517
 40
0.8862737863
 40
0.9075917346
 40
0.9267805762
 40
0.9438012981
 40
0.9586166025
 40
0.9651888659
 40
0.9712006939
 40
0.9766494626
 40
0.9815325525
 40
0.9858473513
 40
0.9895912586
 40
0.9927617015
 40
0.9941312415
 40
0.9953569141
 40
0.9964387072
 40
0.9973766197
 40
0.9981706708
 40
0.9988209174
 40
0.9993274965
 40
0.9996907526
 40
0.9999117752
 40
0.9999705516
 40
1.0
 40
1.0
 40
1.0
 40
1.0
 10
-6.2410600917
 20
3.4961694333
 30
0.0
 10
-6.2415545744
 20
3.4056812271
 30
0.0
 10
-6.242561774
 20
3.2266286466
 30
0.0
 10
-6.2441399133
 20
2.9617353052
 30
0.0
 10
-6.245760837
 20
2.7048748475
 30
0.0
 10
-6.2474110337
 20
2.4581235405
 30
0.0
 10
-6.2490780608
 20
2.2233577928
 30
0.0
 10
-6.2507485227
 20
2.0023789966
 30
0.0
 10
-6.2524096603
 20
1.7969027471
 30
0.0
 10
-6.2538079229
 20
1.6361037841
 30
0.0
 10
-6.2549170489
 20
1.5164054649
 30
0.0
 10
-6.2557174345
 20
1.4337526547
 30
0.0
 10
-6.256505892
 20
1.3560812769
 30
0.0
 10
-6.2572808553
 20
1.2835398807
 30
0.0
 10
-6.2580407454
 20
1.2162733701
 30
0.0
 10
-6.258784131
 20
1.1544141636
 30
0.0
 10
-6.25950935
 20
1.0980799018
 30
0.0
 10
-6.2602147556
 20
1.0473760917
 30
0.0
 10
-6.2608987689
 20
1.002404452
 30
0.0
 10
-6.2614700216
 20
0.9685535388
 30
0.0
 10
-6.2619200984
 20
0.9444060152
 30
0.0
 10
-6.2622378862
 20
0.9285137834
 30
0.0
 10
-6.2625493275
 20
0.9141106932
 30
0.0
 10
-6.2628542111
 20
0.9012037123
 30
0.0
 10
-6.263152202
 20
0.8897998
 30
0.0
 10
-6.2634430353
 20
0.8799059093
 30
0.0
 10
-6.263689386
 20
0.8726080382
 30
0.0
 10
-6.2638861634
 20
0.8675295872
 30
0.0
 10
-6.264024544
 20
0.8642913816
 30
0.0
 10
-6.2641609727
 20
0.8614338747
 30
0.0
 10
-6.2642952078
 20
0.8589573922
 30
0.0
 10
-6.2644274283
 20
0.8568612595
 30
0.0
 10
-6.2645561559
 20
0.8551475537
 30
0.0
 10
-6.2646835679
 20
0.8538105661
 30
0.0
 10
-6.2648006651
 20
0.8528629105
 30
0.0
 10
-6.2649127988
 20
0.8522940074
 30
0.0
 10
-6.2649963019
 20
0.8520464606
 30
0.0
 10
-6.2650567037
 20
0.8519757312
 30
0.0
 10
-6.2650826592
 20
0.8519760846
 30
0.0
  0
SPLINE
  5
227
100
AcDbEntity
  8
02___PRT_ALL_AXES
100
AcDbSpline
 62
7
  6
CONTINUOUS
 70
0
 71
3
 72
46
 73
42
 74
0
 42
0.0000001
 43
0.0000001
 44
0.0000000001
 40
0.0
 40
0.0
 40
0.0
 40
0.0
 40
0.000028793
 40
0.0000916254
 40
0.0001924854
 40
0.0003321458
 40
0.0005108808
 40
0.0007288207
 40
0.001282575
 40
0.0019937572
 40
0.0028624932
 40
0.0038885915
 40
0.00507175
 40
0.006411652
 40
0.0079079723
 40
0.0113685418
 40
0.0154507849
 40
0.0201519969
 40
0.0254694587
 40
0.0314003159
 40
0.0379400136
 40
0.0450827873
 40
0.0528228443
 40
0.0611543904
 40
0.0795687656
 40
0.1002767571
 40
0.1232141685
 40
0.1483117467
 40
0.17549984
 40
0.2046991699
 40
0.2358204785
 40
0.2687740425
 40
0.3034665302
 40
0.3776460065
 40
0.4574926216
 40
0.5420701757
 40
0.6303922687
 40
0.7214105222
 40
0.8140763802
 40
0.907339567
 40
1.0
 40
1.0
 40
1.0
 40
1.0
 10
-8.2993128668
 20
1.0119114982
 30
0.0
 10
-8.2993462802
 20
1.0119119531
 30
0.0
 10
-8.2994147307
 20
1.0120247427
 30
0.0
 10
-8.2994680404
 20
1.0122239815
 30
0.0
 10
-8.2995400559
 20
1.0125782021
 30
0.0
 10
-8.2996052908
 20
1.013056593
 30
0.0
 10
-8.2996740737
 20
1.0136767785
 30
0.0
 10
-8.2997718441
 20
1.0147748436
 30
0.0
 10
-8.2998878375
 20
1.0164925327
 30
0.0
 10
-8.3000172727
 20
1.0189652855
 30
0.0
 10
-8.3001448119
 20
1.0219872024
 30
0.0
 10
-8.3002701902
 20
1.0255572546
 30
0.0
 10
-8.3003931007
 20
1.0296745292
 30
0.0
 10
-8.3005134282
 20
1.0343378002
 30
0.0
 10
-8.3006783407
 20
1.0416438857
 30
0.0
 10
-8.300872715
 20
1.0521327669
 30
0.0
 10
-8.3010856378
 20
1.0663413693
 30
0.0
 10
-8.3012872708
 20
1.0827053959
 30
0.0
 10
-8.3014773227
 20
1.1012151491
 30
0.0
 10
-8.3016553932
 20
1.1218588188
 30
0.0
 10
-8.301821295
 20
1.1446210717
 30
0.0
 10
-8.3019748673
 20
1.1694831764
 30
0.0
 10
-8.3021159692
 20
1.1964249697
 30
0.0
 10
-8.3022932078
 20
1.2364483442
 30
0.0
 10
-8.3024777616
 20
1.2915221499
 30
0.0
 10
-8.3026414547
 20
1.3635473592
 30
0.0
 10
-8.3027533719
 20
1.4433290714
 30
0.0
 10
-8.3028130826
 20
1.5306315209
 30
0.0
 10
-8.3028200634
 20
1.6252014518
 30
0.0
 10
-8.3027742209
 20
1.7267623971
 30
0.0
 10
-8.3026757595
 20
1.8350146017
 30
0.0
 10
-8.3025248544
 20
1.9496420047
 30
0.0
 10
-8.3022477331
 20
2.1142417555
 30
0.0
 10
-8.3017683829
 20
2.3332644008
 30
0.0
 10
-8.3010076257
 20
2.610182171
 30
0.0
 10
-8.3000577354
 20
2.9035130964
 30
0.0
 10
-8.2989292995
 20
3.2098090684
 30
0.0
 10
-8.2976356754
 20
3.5254915977
 30
0.0
 10
-8.2961914823
 20
3.8469080713
 30
0.0
 10
-8.2946136604
 20
4.1702298206
 30
0.0
 10
-8.2934776418
 20
4.3860062152
 30
0.0
 10
-8.2928899868
 20
4.4935445265
 30
0.0
  0
SPLINE
  5
228
100
AcDbEntity
  8
02___PRT_ALL_AXES
100
AcDbSpline
 62
7
  6
CONTINUOUS
 70
0
 71
3
 72
46
 73
42
 74
0
 42
0.0000001
 43
0.0000001
 44
0.0000000001
 40
0.0
 40
0.0
 40
0.0
 40
0.0
 40
0.092660433
 40
0.1859236198
 40
0.2785894778
 40
0.3696077313
 40
0.4579298243
 40
0.5425073784
 40
0.6223539935
 40
0.6965334698
 40
0.7312259575
 40
0.7641795215
 40
0.7953008301
 40
0.82450016
 40
0.8516882533
 40
0.8767858315
 40
0.8997232429
 40
0.9204312344
 40
0.9388456096
 40
0.9471771557
 40
0.9549172127
 40
0.9620599864
 40
0.9685996841
 40
0.9745305413
 40
0.9798480031
 40
0.9845492151
 40
0.9886314582
 40
0.9920920277
 40
0.993588348
 40
0.99492825
 40
0.9961114085
 40
0.9971375068
 40
0.9980062428
 40
0.998717425
 40
0.9992711793
 40
0.9994891192
 40
0.9996678542
 40
0.9998075146
 40
0.9999083746
 40
0.999971207
 40
1.0
 40
1.0
 40
1.0
 40
1.0
 10
-6.2410600917
 20
3.4961694333
 30
0.0
 10
-6.2404430539
 20
3.6090846602
 30
0.0
 10
-6.2392502344
 20
3.8356498745
 30
0.0
 10
-6.2375935213
 20
4.1751377113
 30
0.0
 10
-6.2360771186
 20
4.5126250085
 30
0.0
 10
-6.2347188133
 20
4.8440916643
 30
0.0
 10
-6.2335339556
 20
5.1657024349
 30
0.0
 10
-6.2325365708
 20
5.4736999065
 30
0.0
 10
-6.2317377758
 20
5.7644635653
 30
0.0
 10
-6.231234458
 20
5.9944373428
 30
0.0
 10
-6.2309434807
 20
6.1672670812
 30
0.0
 10
-6.2307850303
 20
6.2876258543
 30
0.0
 10
-6.2306816458
 20
6.4012906692
 30
0.0
 10
-6.2306335112
 20
6.5079296618
 30
0.0
 10
-6.230640841
 20
6.6072280892
 30
0.0
 10
-6.2307035373
 20
6.6988956611
 30
0.0
 10
-6.2308210503
 20
6.782666459
 30
0.0
 10
-6.2309929281
 20
6.8582929287
 30
0.0
 10
-6.2311867096
 20
6.9161204247
 30
0.0
 10
-6.2313728102
 20
6.9581449679
 30
0.0
 10
-6.2315209671
 20
6.9864338509
 30
0.0
 10
-6.231682218
 20
7.0125390608
 30
0.0
 10
-6.2318564149
 20
7.0364394264
 30
0.0
 10
-6.2320433889
 20
7.0581152796
 30
0.0
 10
-6.2322429435
 20
7.0775505204
 30
0.0
 10
-6.2324546581
 20
7.0947327483
 30
0.0
 10
-6.232678227
 20
7.1096517809
 30
0.0
 10
-6.23288232
 20
7.1206651061
 30
0.0
 10
-6.2330554782
 20
7.1283364959
 30
0.0
 10
-6.2331818221
 20
7.1332329304
 30
0.0
 10
-6.233310878
 20
7.1375560688
 30
0.0
 10
-6.2334425253
 20
7.1413046236
 30
0.0
 10
-6.2335764415
 20
7.1444776363
 30
0.0
 10
-6.2337123484
 20
7.1470740268
 30
0.0
 10
-6.2338341415
 20
7.1488776004
 30
0.0
 10
-6.2339368004
 20
7.1500305687
 30
0.0
 10
-6.2340090225
 20
7.1506817634
 30
0.0
 10
-6.2340775191
 20
7.1511840739
 30
0.0
 10
-6.2341531353
 20
7.1515560055
 30
0.0
 10
-6.2342091105
 20
7.1517652062
 30
0.0
 10
-6.2342809835
 20
7.1518836353
 30
0.0
 10
-6.2343160677
 20
7.1518841131
 30
0.0
  0
LINE
  5
229
100
AcDbEntity
  8
02___PRT_ALL_AXES
100
AcDbLine
 62
7
  6
CONTINUOUS
 10
-6.2504930919
 20
0.873742208
 11
-6.250671867
 21
0.8503958409
  0
SPLINE
  5
22A
100
AcDbEntity
  8
02___PRT_ALL_AXES
100
AcDbSpline
 62
7
  6
CONTINUOUS
 70
0
 71
3
 72
39
 73
35
 74
0
 42
0.0000001
 43
0.0000001
 44
0.0000000001
 40
0.0
 40
0.0
 40
0.0
 40
0.0
 40
0.1136472097
 40
0.2217795103
 40
0.3240474832
 40
0.4201169452
 40
0.5096889332
 40
0.5924696746
 40
0.6681872392
 40
0.7366095346
 40
0.7975092702
 40
0.8250735096
 40
0.850686919
 40
0.8743299827
 40
0.89598319
 40
0.9156270372
 40
0.933243142
 40
0.9488193657
 40
0.9623457639
 40
0.9683371853
 40
0.9738124442
 40
0.9787703168
 40
0.9832095895
 40
0.9871290645
 40
0.9905275695
 40
0.9934042606
 40
0.9957591738
 40
0.9975926604
 40
0.9983141092
 40
0.9989055933
 40
0.9993674851
 40
0.9997005966
 40
0.9999072698
 40
1.0
 40
1.0
 40
1.0
 40
1.0
 10
-6.250671867
 20
0.8503958409
 30
0.0
 10
-6.2512441754
 20
0.7758193668
 30
0.0
 10
-6.2523841936
 20
0.6302855354
 30
0.0
 10
-6.2541257263
 20
0.4176430916
 30
0.0
 10
-6.2558524347
 20
0.2165359672
 30
0.0
 10
-6.2575588957
 20
0.0276089634
 30
0.0
 10
-6.2592391817
 20
-0.1485296349
 30
0.0
 10
-6.2608878059
 20
-0.3113123827
 30
0.0
 10
-6.2624993917
 20
-0.4602157062
 30
0.0
 10
-6.2640681236
 20
-0.5947596429
 30
0.0
 10
-6.2653747487
 20
-0.697704803
 30
0.0
 10
-6.2664023486
 20
-0.7725587194
 30
0.0
 10
-6.2671334511
 20
-0.8229654539
 30
0.0
 10
-6.2678501867
 20
-0.8694929766
 30
0.0
 10
-6.2685519039
 20
-0.9121028403
 30
0.0
 10
-6.2692378956
 20
-0.9507573287
 30
0.0
 10
-6.2699074795
 20
-0.985423547
 30
0.0
 10
-6.2705599059
 20
-1.0160748402
 30
0.0
 10
-6.2711082184
 20
-1.0390981039
 30
0.0
 10
-6.2715428685
 20
-1.0554935527
 30
0.0
 10
-6.271850921
 20
-1.0662674371
 30
0.0
 10
-6.2721542431
 20
-1.0760224495
 30
0.0
 10
-6.2724527012
 20
-1.0847561235
 30
0.0
 10
-6.2727460716
 20
-1.0924660451
 30
0.0
 10
-6.2730340926
 20
-1.0991498682
 30
0.0
 10
-6.2733162445
 20
-1.1048063915
 30
0.0
 10
-6.2735919447
 20
-1.1094341594
 30
0.0
 10
-6.2738301358
 20
-1.112648535
 30
0.0
 10
-6.2740246316
 20
-1.1147027685
 30
0.0
 10
-6.2741588028
 20
-1.1158628824
 30
0.0
 10
-6.2742838586
 20
-1.1167561917
 30
0.0
 10
-6.2744192361
 20
-1.117419112
 30
0.0
 10
-6.2745172346
 20
-1.1177862382
 30
0.0
 10
-6.2746415113
 20
-1.117999238
 30
0.0
 10
-6.2747023624
 20
-1.1179988619
 30
0.0
  0
ENDSEC
  0
SECTION
  2
OBJECTS
  0
DICTIONARY
  5
C
100
AcDbDictionary
280
0
281
1
  3
ACAD_GROUP
350
D
  3
ACAD_MLINESTYLE
350
17
  3
ACAD_LAYOUT
350
1A
  3
ACAD_PLOTSETTINGS
350
19
  3
ACAD_PLOTSTYLENAME
350
E
  0
DICTIONARY
  5
D
102
{ACAD_REACTORS
330
C
102
}
100
AcDbDictionary
280
0
281
1
  0
ACDBDICTIONARYWDFLT
  5
E
102
{ACAD_REACTORS
330
C
102
}
100
AcDbDictionary
281
1
  3
Normal
350
F
100
AcDbDictionaryWithDefault
340
F
  0
DICTIONARY
  5
17
102
{ACAD_REACTORS
330
C
102
}
100
AcDbDictionary
280
0
281
1
  3
Standard
350
18
  0
DICTIONARY
  5
19
102
{ACAD_REACTORS
330
C
102
}
100
AcDbDictionary
281
1
  0
DICTIONARY
  5
1A
102
{ACAD_REACTORS
330
C
102
}
100
AcDbDictionary
281
1
  3
Model
350
22B
  3
Layout1
350
22C
  0
ACDBPLACEHOLDER
  5
F
102
{ACAD_REACTORS
330
E
102
}
  0
MLINESTYLE
  5
18
102
{ACAD_REACTORS
330
17
102
}
100
AcDbMlineStyle
  2
STANDARD
 70
0
  3

 62
256
 51
90.0
 52
90.0
 71
2
 49
0.5
 62
256
  6
BYLAYER
 49
-0.5
 62
256
  6
BYLAYER
  0
LAYOUT
  5
22B
102
{ACAD_REACTORS
330
1A
102
}
100
AcDbPlotSettings
  1

  2
none_device
  4

  6

 40
0.0
 41
0.0
 42
0.0
 43
0.0
 44
431.8
 45
279.4
 46
0.0
 47
0.0
 48
0.0
 49
0.0
140
0.0
141
0.0
142
1.0
143
1.0
 70
1024
 72
0
 73
0
 74
0
  7

 75
0
147
1.0
148
0.0
149
0.0
100
AcDbLayout
  1
Model
 70
0
 71
0
 10
0.0
 20
0.0
 11
17.0
 21
11.0
 12
0.0
 22
0.0
 32
0.0
 14
0.0
 24
0.0
 34
0.0
 15
0.0
 25
0.0
 35
0.0
146
0.0
 13
0.0
 23
0.0
 33
0.0
 16
1.0
 26
0.0
 36
0.0
 17
0.0
 27
1.0
 37
0.0
 76
0
330
207
345
0
346
0
  0
LAYOUT
  5
22C
102
{ACAD_REACTORS
330
1A
102
}
100
AcDbPlotSettings
  1

  2
none_device
  4

  6

 40
0.0
 41
0.0
 42
0.0
 43
0.0
 44
431.8
 45
279.4
 46
0.0
 47
0.0
 48
0.0
 49
0.0
140
0.0
141
0.0
142
1.0
143
1.0
 70
0
 72
0
 73
0
 74
0
  7

 75
0
147
1.0
148
0.0
149
0.0
100
AcDbLayout
  1
Layout1
 70
0
 71
1
 10
0.0
 20
0.0
 11
17.0
 21
11.0
 12
0.0
 22
0.0
 32
0.0
 14
0.0
 24
0.0
 34
0.0
 15
0.0
 25
0.0
 35
0.0
146
0.0
 13
0.0
 23
0.0
 33
0.0
 16
1.0
 26
0.0
 36
0.0
 17
0.0
 27
1.0
 37
0.0
 76
0
330
208
345
0
346
0
  0
ENDSEC
  0
EOF
