999
DXF file: N:\Master\master\M3_ProE_files\Lenexa\MADAM DXF\411283.dxf
999
Pro/ENGINEER 2010280 by Parametric Technology Corporation
  0
SECTION
  2
HEADER
  9
$ACADVER
  1
AC1021
  9
$DWGCODEPAGE
  3
ANSI_1252
  9
$EXTMAX
 10
17.0
 20
11.0
 30
0.0
  9
$EXTMIN
 10
0.0
 20
-0.0
 30
0.0
  9
$LIMMIN
 10
0.0
 20
-0.0
  9
$LIMMAX
 10
17.0
 20
11.0
  9
$VIEWCTR
 10
8.5
 20
5.5
  9
$VIEWSIZE
 40
11.0
  9
$CLAYER
  8
0
  9
$LTSCALE
 40
0.935
  9
$CELTYPE
  6
BYLAYER
  9
$DIMSCALE
 40
1.0
  9
$DIMASZ
 40
0.125
  9
$DIMEXO
 40
0.10625
  9
$DIMDLI
 40
0.646
  9
$DIMEXE
 40
0.306
  9
$DIMCEN
 40
0.153
  9
$DIMLFAC
 40
1.0
  9
$DIMBLK
  1
_FILLED
  9
$DIMTXT
 40
0.125
  9
$DIMTOL
 70
1
  9
$DIMLIM
 70
0
  9
$DIMTFAC
 40
1.0
  9
$DIMTP
 40
0.01
  9
$DIMTM
 40
0.01
  9
$PDMODE
 70
3
  9
$PDSIZE
 40
0.3125
  9
$HANDSEED
  5
228
  9
$TILEMODE
 70
1
  9
$MEASUREMENT
 70
0
  9
$INSUNITS
 70
1
  0
ENDSEC
  0
SECTION
  2
CLASSES
  0
CLASS
  1
ACDBDICTIONARYWDFLT
  2
AcDbDictionaryWithDefault
  3
AutoCAD 2000
 90
0
 91
1
280
0
281
0
  0
CLASS
  1
ACDBPLACEHOLDER
  2
AcDbPlaceHolder
  3
AutoCAD 2000
 90
0
 91
1
280
0
281
0
  0
CLASS
  1
LAYOUT
  2
AcDbLayout
  3
AutoCAD 2000
 90
0
 91
0
280
0
281
0
  0
ENDSEC
  0
SECTION
  2
TABLES
  0
TABLE
  2
VPORT
  5
8
100
AcDbSymbolTable
 70
2
  0
VPORT
  5
1F4
100
AcDbSymbolTableRecord
100
AcDbViewportTableRecord
  2
*ACTIVE
 70
0
 10
0.0
 20
0.0
 11
1.0
 21
1.0
 12
8.5
 22
5.5
 13
0.0
 23
0.0
 14
1.0
 24
1.0
 15
0.0
 25
0.0
 16
0.0
 26
0.0
 36
1.0
 17
0.0
 27
0.0
 37
0.0
 40
11.0
 41
1.5454545455
 42
50.0
 43
0.0
 44
0.0
 50
0.0
 51
0.0
 71
0
 72
100
 73
1
 74
1
 75
0
 76
0
 77
0
 78
0
  0
ENDTAB
  0
TABLE
  2
LTYPE
  5
5
100
AcDbSymbolTable
 70
6
  0
LTYPE
  5
14
100
AcDbSymbolTableRecord
100
AcDbLinetypeTableRecord
  2
BYBLOCK
 70
0
  3

 72
65
 73
0
 40
0.0
  0
LTYPE
  5
15
100
AcDbSymbolTableRecord
100
AcDbLinetypeTableRecord
  2
BYLAYER
 70
0
  3

 72
65
 73
0
 40
0.0
  0
LTYPE
  5
16
100
AcDbSymbolTableRecord
100
AcDbLinetypeTableRecord
  2
CONTINUOUS
 70
64
  3
Solid line
 72
65
 73
0
 40
0.0
  0
LTYPE
  5
1F5
100
AcDbSymbolTableRecord
100
AcDbLinetypeTableRecord
  2
CENTER
 70
64
  3
____ _ ____ _ ____ _ ____ _ ____ _ ____ _ ____
 72
65
 73
4
 40
0.6
 49
0.375
 74
0
 49
-0.075
 74
0
 49
0.075
 74
0
 49
-0.075
 74
0
  0
LTYPE
  5
1F6
100
AcDbSymbolTableRecord
100
AcDbLinetypeTableRecord
  2
HIDDEN
 70
64
  3
- - - - - - - - - - - - - - - - - - - -
 72
65
 73
2
 40
0.2
 49
0.1
 74
0
 49
-0.1
 74
0
  0
LTYPE
  5
1F7
100
AcDbSymbolTableRecord
100
AcDbLinetypeTableRecord
  2
PHANTOM
 70
64
  3
_____ _ _ _____ _ _ _____ _ _ _____
 72
65
 73
6
 40
0.8
 49
0.45
 74
0
 49
-0.05
 74
0
 49
0.1
 74
0
 49
-0.05
 74
0
 49
0.1
 74
0
 49
-0.05
 74
0
  0
LTYPE
  5
1F8
100
AcDbSymbolTableRecord
100
AcDbLinetypeTableRecord
  2
DOT
 70
64
  3
. . . . . . . . . . . . . . . . . . . .
 72
65
 73
2
 40
0.2
 49
0.1
 74
0
 49
-0.1
 74
0
  0
LTYPE
  5
1F9
100
AcDbSymbolTableRecord
100
AcDbLinetypeTableRecord
  2
DASHED
 70
64
  3
- - - - - - - - - - - - - - - - - - - -
 72
65
 73
2
 40
0.2
 49
0.1
 74
0
 49
-0.1
 74
0
  0
ENDTAB
  0
TABLE
  2
LAYER
  5
2
100
AcDbSymbolTable
 70
36
  0
LAYER
  5
10
100
AcDbSymbolTableRecord
100
AcDbLayerTableRecord
  2
0
 70
0
 62
7
  6
CONTINUOUS
370
-3
390
F
  0
LAYER
  5
1FA
100
AcDbSymbolTableRecord
100
AcDbLayerTableRecord
  2
DEFAULT_1
 70
0
 62
7
  6
CENTER
370
-3
390
F
  0
LAYER
  5
1FB
100
AcDbSymbolTableRecord
100
AcDbLayerTableRecord
  2
DEFAULT_2
 70
0
 62
8
  6
HIDDEN
370
-3
390
F
  0
LAYER
  5
1FC
100
AcDbSymbolTableRecord
100
AcDbLayerTableRecord
  2
DEFAULT_3
 70
0
 62
7
  6
PHANTOM
370
-3
390
F
  0
LAYER
  5
1FD
100
AcDbSymbolTableRecord
100
AcDbLayerTableRecord
  2
01___PRT_ALL_DTM_PLN
 70
0
 62
7
  6
CONTINUOUS
370
-3
390
F
  0
LAYER
  5
1FE
100
AcDbSymbolTableRecord
100
AcDbLayerTableRecord
  2
01___PRT_DEF_DTM_PLN
 70
0
 62
7
  6
CONTINUOUS
370
-3
390
F
  0
LAYER
  5
1FF
100
AcDbSymbolTableRecord
100
AcDbLayerTableRecord
  2
02___PRT_ALL_AXES
 70
0
 62
7
  6
CONTINUOUS
370
-3
390
F
  0
LAYER
  5
200
100
AcDbSymbolTableRecord
100
AcDbLayerTableRecord
  2
03___PRT_ALL_CURVES
 70
0
 62
7
  6
CONTINUOUS
370
-3
390
F
  0
LAYER
  5
201
100
AcDbSymbolTableRecord
100
AcDbLayerTableRecord
  2
04___PRT_ALL_DTM_PNT
 70
0
 62
7
  6
CONTINUOUS
370
-3
390
F
  0
LAYER
  5
202
100
AcDbSymbolTableRecord
100
AcDbLayerTableRecord
  2
05___PRT_ALL_DTM_CSYS
 70
0
 62
7
  6
CONTINUOUS
370
-3
390
F
  0
LAYER
  5
203
100
AcDbSymbolTableRecord
100
AcDbLayerTableRecord
  2
05___PRT_DEF_DTM_CSYS
 70
0
 62
7
  6
CONTINUOUS
370
-3
390
F
  0
LAYER
  5
204
100
AcDbSymbolTableRecord
100
AcDbLayerTableRecord
  2
06___PRT_ALL_SURFS
 70
0
 62
7
  6
CONTINUOUS
370
-3
390
F
  0
ENDTAB
  0
TABLE
  2
STYLE
  5
3
100
AcDbSymbolTable
 70
1
  0
STYLE
  5
11
100
AcDbSymbolTableRecord
100
AcDbTextStyleTableRecord
  2
STANDARD
 70
0
 40
0.0
 41
0.8
 50
0.0
 71
0
 42
0.2
  3
txt
  4

  0
STYLE
  5
205
100
AcDbSymbolTableRecord
100
AcDbTextStyleTableRecord
  2
TEXTSTYLE_1
 70
0
 40
0.0
 41
0.8
 50
0.0
 71
0
 42
0.2
  3
gdt
  4

  0
ENDTAB
  0
TABLE
  2
VIEW
  5
6
100
AcDbSymbolTable
 70
0
  0
ENDTAB
  0
TABLE
  2
UCS
  5
7
100
AcDbSymbolTable
 70
0
  0
ENDTAB
  0
TABLE
  2
APPID
  5
9
100
AcDbSymbolTable
 70
1
  0
APPID
  5
206
100
AcDbSymbolTableRecord
100
AcDbRegAppTableRecord
  2
ACAD
 70
0
  0
ENDTAB
  0
TABLE
  2
BLOCK_RECORD
  5
1
100
AcDbSymbolTable
 70
0
  0
BLOCK_RECORD
  5
207
100
AcDbSymbolTableRecord
100
AcDbBlockTableRecord
  2
*Model_Space
  0
BLOCK_RECORD
  5
208
100
AcDbSymbolTableRecord
100
AcDbBlockTableRecord
  2
*Paper_Space
  0
ENDTAB
  0
TABLE
  2
DIMSTYLE
  5
A
100
AcDbSymbolTable
 70
1
100
AcDbDimStyleTable
 71
0
  0
DIMSTYLE
105
209
100
AcDbSymbolTableRecord
100
AcDbDimStyleTableRecord
  2
STANDARD
 70
0
  3

  4

 40
1.0
 41
0.125
 42
0.0625
 43
0.38
 44
0.18
 45
0.0
 46
0.0
 47
0.01
 48
0.01
140
0.125
141
0.09
142
0.0
143
25.4
144
1.0
145
0.0
146
1.0
147
0.09
 71
1.0
 72
0.0
 73
1
 74
1
 75
0
 76
0
 77
0
 78
4
170
0
171
2
172
0
173
0
174
0
175
0
176
0
177
0
178
0
270
2
271
2
272
2
273
2
274
2
275
0
280
0
281
0
282
0
283
1
284
4
285
0
286
0
287
3
288
0
340
11
  0
ENDTAB
  0
ENDSEC
  0
SECTION
  2
BLOCKS
  0
BLOCK
  5
20
100
AcDbEntity
  8
0
100
AcDbBlockBegin
  2
*Model_Space
 70
0
 10
0.0
 20
0.0
 30
0.0
  3
*Model_Space
  1

  0
ENDBLK
  5
21
100
AcDbEntity
  8
0
100
AcDbBlockEnd
  0
BLOCK
  5
1C
100
AcDbEntity
  8
0
100
AcDbBlockBegin
  2
*Paper_Space
 70
0
 10
0.0
 20
0.0
 30
0.0
  3
*Paper_Space
  1

  0
ENDBLK
  5
1D
100
AcDbEntity
  8
0
100
AcDbBlockEnd
  0
ENDSEC
  0
SECTION
  2
ENTITIES
  0
MTEXT
  5
20A
100
AcDbEntity
  8
0
100
AcDbMText
 62
2
  6
CONTINUOUS
  7
STANDARD
 71
1
 72
1
 10
11.5208414759
 20
19.798872393
 30
0.0
 11
1.0
 21
0.0
 31
0.0
 44
0.9
  1
411283
 40
3.0
 41
14.4
  0
LINE
  5
20B
100
AcDbEntity
  8
02___PRT_ALL_AXES
100
AcDbLine
 62
7
  6
CONTINUOUS
 10
-6.271674548
 20
-0.4980162443
 11
16.2779126318
 21
-0.6081356328
  0
LINE
  5
20C
100
AcDbEntity
  8
02___PRT_ALL_AXES
100
AcDbLine
 62
7
  6
CONTINUOUS
 10
-8.2976030509
 20
1.3618993001
 11
-6.2626403054
 21
1.3519616967
  0
LINE
  5
20D
100
AcDbEntity
  8
02___PRT_ALL_AXES
100
AcDbLine
 62
7
  6
CONTINUOUS
 10
16.2998776382
 20
1.2417791618
 11
18.3219096198
 21
1.2319047049
  0
LINE
  5
20E
100
AcDbEntity
  8
02___PRT_ALL_AXES
100
AcDbLine
 62
7
  6
CONTINUOUS
 10
-8.2717211669
 20
6.6618361043
 11
-6.2367584214
 21
6.6518985009
  0
LINE
  5
20F
100
AcDbEntity
  8
02___PRT_ALL_AXES
100
AcDbLine
 62
7
  6
CONTINUOUS
 10
16.3257484089
 20
6.5417160202
 11
18.3477915038
 21
6.5318415091
  0
LINE
  5
210
100
AcDbEntity
  8
02___PRT_ALL_AXES
100
AcDbLine
 62
7
  6
CONTINUOUS
 10
-6.2277241789
 20
8.501876442
 11
16.3218630009
 21
8.3917570535
  0
ARC
  5
211
100
AcDbEntity
  8
02___PRT_ALL_AXES
100
AcDbCircle
 62
7
  6
CONTINUOUS
 10
-1028.4970943697
 20
9.0688568881
 40
1044.825955594
100
AcDbArc
 50
359.6764803205
 51
359.8619689646
  0
ARC
  5
212
100
AcDbEntity
  8
02___PRT_ALL_AXES
100
AcDbCircle
 62
7
  6
CONTINUOUS
 10
-1051.0466815459
 20
9.1789762019
 40
1044.8259555903
100
AcDbArc
 50
359.6764803246
 51
359.8619689686
  0
ARC
  5
213
100
AcDbEntity
  8
02___PRT_ALL_AXES
100
AcDbCircle
 62
7
  6
CONTINUOUS
 10
-978.4314634876
 20
8.5139538461
 40
972.2081978798
100
AcDbArc
 50
359.5774052142
 51
359.6915080111
  0
ARC
  5
214
100
AcDbEntity
  8
02___PRT_ALL_AXES
100
AcDbCircle
 62
7
  6
CONTINUOUS
 10
-955.8818763067
 20
8.4038344576
 40
972.2081978787
100
AcDbArc
 50
359.5774052142
 51
359.6915080111
  0
CIRCLE
  5
215
100
AcDbEntity
  8
02___PRT_ALL_AXES
100
AcDbCircle
 62
7
  6
CONTINUOUS
 10
32.4157209125
 20
3.3454811333
 40
4.5
  0
CIRCLE
  5
216
100
AcDbEntity
  8
02___PRT_ALL_AXES
100
AcDbCircle
 62
7
  6
CONTINUOUS
 10
32.4157209125
 20
3.3454811333
 40
2.65
  0
CIRCLE
  5
217
100
AcDbEntity
  8
02___PRT_ALL_AXES
100
AcDbCircle
 62
7
  6
CONTINUOUS
 10
32.4157209125
 20
3.3454811333
 40
2.5
  0
SPLINE
  5
218
100
AcDbEntity
  8
02___PRT_ALL_AXES
100
AcDbSpline
 62
7
  6
CONTINUOUS
 70
0
 71
3
 72
39
 73
35
 74
0
 42
0.0000001
 43
0.0000001
 44
0.0000000001
 40
0.0
 40
0.0
 40
0.0
 40
0.0
 40
0.113121082
 40
0.2208769306
 40
0.3229076971
 40
0.4188611538
 40
0.5083999683
 40
0.5912279298
 40
0.6670559129
 40
0.7356135546
 40
0.7966786699
 40
0.8243344882
 40
0.8500367995
 40
0.8737627045
 40
0.8954949857
 40
0.9152168907
 40
0.9329116762
 40
0.9485626142
 40
0.9621531145
 40
0.9681715703
 40
0.9736710287
 40
0.9786507418
 40
0.9831099714
 40
0.9870479938
 40
0.9904641092
 40
0.9933576583
 40
0.9957280588
 40
0.9975748926
 40
0.9983019634
 40
0.9988982291
 40
0.9993639446
 40
0.9996997759
 40
0.9999078398
 40
1.0
 40
1.0
 40
1.0
 40
1.0
 10
16.299877379
 20
1.2332122313
 30
0.0
 10
16.299356611
 20
1.1637726316
 30
0.0
 10
16.2983185202
 20
1.0281870494
 30
0.0
 10
16.2967310936
 20
0.8299702995
 30
0.0
 10
16.2951551221
 20
0.642292486
 30
0.0
 10
16.2935960897
 20
0.4657978172
 30
0.0
 10
16.2920592164
 20
0.3010914426
 30
0.0
 10
16.2905502466
 20
0.148739778
 30
0.0
 10
16.2890746353
 20
0.0092681395
 30
0.0
 10
16.2876373474
 20
-0.1168435751
 30
0.0
 10
16.2864402926
 20
-0.2133846576
 30
0.0
 10
16.2854990481
 20
-0.2836192664
 30
0.0
 10
16.2848292998
 20
-0.3309340492
 30
0.0
 10
16.2841727734
 20
-0.3746123623
 30
0.0
 10
16.2835301446
 20
-0.4146192627
 30
0.0
 10
16.2829020689
 20
-0.4509235753
 30
0.0
 10
16.282289298
 20
-0.4834944125
 30
0.0
 10
16.2816925392
 20
-0.512300955
 30
0.0
 10
16.2811912342
 20
-0.5339401485
 30
0.0
 10
16.2807939872
 20
-0.5493483203
 30
0.0
 10
16.2805125619
 20
-0.5594718029
 30
0.0
 10
16.2802355523
 20
-0.5686378556
 30
0.0
 10
16.2799630782
 20
-0.5768450502
 30
0.0
 10
16.2796953408
 20
-0.584092009
 30
0.0
 10
16.2794325778
 20
-0.5903772347
 30
0.0
 10
16.279175303
 20
-0.5956996588
 30
0.0
 10
16.2789240161
 20
-0.6000571501
 30
0.0
 10
16.2787070764
 20
-0.6030857223
 30
0.0
 10
16.2785299772
 20
-0.6050223349
 30
0.0
 10
16.278407915
 20
-0.6061169584
 30
0.0
 10
16.2782939459
 20
-0.6069594573
 30
0.0
 10
16.2781712443
 20
-0.6075865615
 30
0.0
 10
16.2780815503
 20
-0.6079305564
 30
0.0
 10
16.2779700596
 20
-0.608134629
 30
0.0
 10
16.2779134855
 20
-0.6081347692
 30
0.0
  0
SPLINE
  5
219
100
AcDbEntity
  8
02___PRT_ALL_AXES
100
AcDbSpline
 62
7
  6
CONTINUOUS
 70
0
 71
3
 72
39
 73
35
 74
0
 42
0.0000001
 43
0.0000001
 44
0.0000000001
 40
0.0
 40
0.0
 40
0.0
 40
0.0
 40
0.1131376152
 40
0.2209104649
 40
0.3229521282
 40
0.418917721
 40
0.5084662077
 40
0.5912951164
 40
0.6671261358
 40
0.7356856675
 40
0.7967445591
 40
0.8243977927
 40
0.8500997688
 40
0.8738253113
 40
0.8955538071
 40
0.9152698168
 40
0.9329581892
 40
0.948603788
 40
0.9621915009
 40
0.9682089407
 40
0.9737064848
 40
0.9786833691
 40
0.9831390599
 40
0.9870730383
 40
0.9904848089
 40
0.9933739176
 40
0.9957399872
 40
0.9975828059
 40
0.9983080527
 40
0.9989026522
 40
0.9993668869
 40
0.9997014544
 40
0.9999085032
 40
1.0
 40
1.0
 40
1.0
 40
1.0
 10
16.3258463103
 20
6.5517732112
 30
0.0
 10
16.3260034826
 20
6.6211685457
 30
0.0
 10
16.3262891515
 20
6.7566686724
 30
0.0
 10
16.3266370567
 20
6.9547583558
 30
0.0
 10
16.3268934204
 20
7.1423153224
 30
0.0
 10
16.3270576445
 20
7.3186940641
 30
0.0
 10
16.3271290072
 20
7.4832882912
 30
0.0
 10
16.3271075011
 20
7.6355325384
 30
0.0
 10
16.3269937264
 20
7.7749026945
 30
0.0
 10
16.3267879272
 20
7.9009195994
 30
0.0
 10
16.3265334747
 20
7.9973854123
 30
0.0
 10
16.3262780353
 20
8.0675634269
 30
0.0
 10
16.3260703538
 20
8.1148421968
 30
0.0
 10
16.3258404237
 20
8.1584867467
 30
0.0
 10
16.3255884749
 20
8.1984594827
 30
0.0
 10
16.3253149125
 20
8.2347289486
 30
0.0
 10
16.3250202007
 20
8.2672670346
 30
0.0
 10
16.3247047503
 20
8.2960457999
 30
0.0
 10
16.3244148357
 20
8.3176657361
 30
0.0
 10
16.3241681494
 20
8.3330610747
 30
0.0
 10
16.3239856271
 20
8.3431750955
 30
0.0
 10
16.3237981629
 20
8.3523309154
 30
0.0
 10
16.3236058671
 20
8.3605273465
 30
0.0
 10
16.3234089286
 20
8.3677633869
 30
0.0
 10
16.3232075751
 20
8.3740379141
 30
0.0
 10
16.3230023051
 20
8.3793502334
 30
0.0
 10
16.3227936201
 20
8.3836985835
 30
0.0
 10
16.3226062587
 20
8.3867204248
 30
0.0
 10
16.3224481296
 20
8.3886524733
 30
0.0
 10
16.3223366995
 20
8.3897442876
 30
0.0
 10
16.3222312152
 20
8.3905844257
 30
0.0
 10
16.3221141818
 20
8.3912098668
 30
0.0
 10
16.322028829
 20
8.3915525755
 30
0.0
 10
16.3219182686
 20
8.391756329
 30
0.0
 10
16.3218621471
 20
8.3917561899
 30
0.0
  0
SPLINE
  5
21A
100
AcDbEntity
  8
02___PRT_ALL_AXES
100
AcDbSpline
 62
7
  6
CONTINUOUS
 70
0
 71
3
 72
39
 73
35
 74
0
 42
0.0000001
 43
0.0000001
 44
0.0000000001
 40
0.0
 40
0.0
 40
0.0
 40
0.0
 40
0.0000921602
 40
0.0003002241
 40
0.0006360554
 40
0.0011017709
 40
0.0016980366
 40
0.0024251074
 40
0.0042719412
 40
0.0066423417
 40
0.0095358908
 40
0.0129520062
 40
0.0168900286
 40
0.0213492582
 40
0.0263289713
 40
0.0318284297
 40
0.0378468855
 40
0.0514373858
 40
0.0670883238
 40
0.0847831093
 40
0.1045050143
 40
0.1262372955
 40
0.1499632005
 40
0.1756655118
 40
0.2033213301
 40
0.2643864454
 40
0.3329440871
 40
0.4087720702
 40
0.4916000317
 40
0.5811388462
 40
0.6770923029
 40
0.7791230694
 40
0.886878918
 40
1.0
 40
1.0
 40
1.0
 40
1.0
 10
-6.2277250326
 20
8.5018755784
 30
0.0
 10
-6.2277816067
 20
8.5018754382
 30
0.0
 10
-6.2278930974
 20
8.5016713656
 30
0.0
 10
-6.2279827914
 20
8.5013273707
 30
0.0
 10
-6.228105493
 20
8.5007002665
 30
0.0
 10
-6.2282194621
 20
8.4998577675
 30
0.0
 10
-6.2283415243
 20
8.4987631441
 30
0.0
 10
-6.2285186235
 20
8.4968265315
 30
0.0
 10
-6.2287355632
 20
8.4937979593
 30
0.0
 10
-6.2289868501
 20
8.489440468
 30
0.0
 10
-6.2292441249
 20
8.4841180438
 30
0.0
 10
-6.2295068879
 20
8.4778328181
 30
0.0
 10
-6.2297746253
 20
8.4705858594
 30
0.0
 10
-6.2300470994
 20
8.4623786648
 30
0.0
 10
-6.230324109
 20
8.4532126121
 30
0.0
 10
-6.2306055343
 20
8.4430891295
 30
0.0
 10
-6.2310027813
 20
8.4276809576
 30
0.0
 10
-6.2315040863
 20
8.4060417641
 30
0.0
 10
-6.2321008451
 20
8.3772352217
 30
0.0
 10
-6.232713616
 20
8.3446643844
 30
0.0
 10
-6.2333416917
 20
8.3083600719
 30
0.0
 10
-6.2339843205
 20
8.2683531715
 30
0.0
 10
-6.2346408469
 20
8.2246748584
 30
0.0
 10
-6.2353105952
 20
8.1773600756
 30
0.0
 10
-6.2362518397
 20
8.1071254667
 30
0.0
 10
-6.2374488945
 20
8.0105843843
 30
0.0
 10
-6.2388861824
 20
7.8844726697
 30
0.0
 10
-6.2403617937
 20
7.7450010312
 30
0.0
 10
-6.2418707635
 20
7.5926493666
 30
0.0
 10
-6.2434076368
 20
7.427942992
 30
0.0
 10
-6.2449666692
 20
7.2514483232
 30
0.0
 10
-6.2465426407
 20
7.0637705097
 30
0.0
 10
-6.2481300673
 20
6.8655537597
 30
0.0
 10
-6.2491681581
 20
6.7299681776
 30
0.0
 10
-6.2496889261
 20
6.6605285779
 30
0.0
  0
SPLINE
  5
21B
100
AcDbEntity
  8
02___PRT_ALL_AXES
100
AcDbSpline
 62
7
  6
CONTINUOUS
 70
0
 71
3
 72
43
 73
39
 74
0
 42
0.0000001
 43
0.0000001
 44
0.0000000001
 40
0.0
 40
0.0
 40
0.0
 40
0.0
 40
0.1026328877
 40
0.2030996419
 40
0.3004841915
 40
0.3940201949
 40
0.4830149755
 40
0.5667937191
 40
0.644697811
 40
0.716112847
 40
0.7492168814
 40
0.7804958811
 40
0.8098869574
 40
0.8373373272
 40
0.8627957217
 40
0.8862108747
 40
0.907532616
 40
0.9267216685
 40
0.9437450093
 40
0.9585697014
 40
0.9651472679
 40
0.9711628832
 40
0.9766136613
 40
0.9814978765
 40
0.9858138596
 40
0.9895599526
 40
0.9927345176
 40
0.9941069769
 40
0.9953359595
 40
0.9964212787
 40
0.9973627589
 40
0.9981602448
 40
0.998813618
 40
0.9993228407
 40
0.9996881643
 40
0.9999107734
 40
0.9999701751
 40
1.0
 40
1.0
 40
1.0
 40
1.0
 10
18.3421185206
 20
3.4563919122
 30
0.0
 10
18.3417026272
 20
3.3802852237
 30
0.0
 10
18.340855424
 20
3.2296782588
 30
0.0
 10
18.3395279548
 20
3.0068569652
 30
0.0
 10
18.3381644722
 20
2.7907818493
 30
0.0
 10
18.3367763294
 20
2.5832141601
 30
0.0
 10
18.3353741703
 20
2.3857362457
 30
0.0
 10
18.3339689423
 20
2.1998505695
 30
0.0
 10
18.3325717996
 20
2.0270015566
 30
0.0
 10
18.3313954955
 20
1.8917300401
 30
0.0
 10
18.3304625331
 20
1.7910327623
 30
0.0
 10
18.3297893241
 20
1.7214974555
 30
0.0
 10
18.3291260592
 20
1.656154753
 30
0.0
 10
18.3284741316
 20
1.5951284586
 30
0.0
 10
18.3278348638
 20
1.5385337614
 30
0.0
 10
18.327209605
 20
1.4864839167
 30
0.0
 10
18.3265995455
 20
1.4390832963
 30
0.0
 10
18.3260060842
 20
1.3964227484
 30
0.0
 10
18.3254305719
 20
1.3585803598
 30
0.0
 10
18.324950068
 20
1.3300897348
 30
0.0
 10
18.3245714739
 20
1.3097614218
 30
0.0
 10
18.3243041351
 20
1.2963835178
 30
0.0
 10
18.3240421231
 20
1.2842614839
 30
0.0
 10
18.3237856301
 20
1.2734000137
 30
0.0
 10
18.323534925
 20
1.2638029007
 30
0.0
 10
18.3232902168
 20
1.255473902
 30
0.0
 10
18.3230829566
 20
1.2493275705
 30
0.0
 10
18.3229174405
 20
1.2450475349
 30
0.0
 10
18.3228010049
 20
1.2423160875
 30
0.0
 10
18.3226862127
 20
1.2399044268
 30
0.0
 10
18.3225732558
 20
1.2378132194
 30
0.0
 10
18.3224620252
 20
1.2360422715
 30
0.0
 10
18.3223536561
 20
1.2345937599
 30
0.0
 10
18.3222466096
 20
1.2334630956
 30
0.0
 10
18.3221477129
 20
1.2326613006
 30
0.0
 10
18.3220539239
 20
1.232179225
 30
0.0
 10
18.3219830772
 20
1.2319692602
 30
0.0
 10
18.3219328808
 20
1.2319085166
 30
0.0
 10
18.3219107656
 20
1.231908258
 30
0.0
  0
SPLINE
  5
21C
100
AcDbEntity
  8
02___PRT_ALL_AXES
100
AcDbSpline
 62
7
  6
CONTINUOUS
 70
0
 71
3
 72
45
 73
41
 74
0
 42
0.0000001
 43
0.0000001
 44
0.0000000001
 40
0.0
 40
0.0
 40
0.0
 40
0.0
 40
0.0926616025
 40
0.1859416217
 40
0.2786214057
 40
0.369645093
 40
0.4579729266
 40
0.5425585877
 40
0.6224101147
 40
0.6965910913
 40
0.7312835959
 40
0.7642402432
 40
0.7953603373
 40
0.8245560293
 40
0.8517442843
 40
0.876842127
 40
0.899773549
 40
0.9204766132
 40
0.938891082
 40
0.9472212771
 40
0.9549576717
 40
0.9620956312
 40
0.9686307743
 40
0.9745587221
 40
0.9798750989
 40
0.9845755346
 40
0.9886556672
 40
0.9921116408
 40
0.9936050209
 40
0.9949418321
 40
0.9961219578
 40
0.9971452897
 40
0.998011734
 40
0.998721224
 40
0.9992737515
 40
0.9996694594
 40
0.9998086963
 40
0.999909138
 40
0.9999715461
 40
1.0
 40
1.0
 40
1.0
 40
1.0
 10
18.3421185206
 20
3.4563919122
 30
0.0
 10
18.3426376231
 20
3.5513854147
 30
0.0
 10
18.3436411671
 20
3.7420066096
 30
0.0
 10
18.3450351117
 20
4.027640606
 30
0.0
 10
18.3463109248
 20
4.3115959786
 30
0.0
 10
18.3474537345
 20
4.590474989
 30
0.0
 10
18.3484504568
 20
4.8610565643
 30
0.0
 10
18.3492895975
 20
5.1201851309
 30
0.0
 10
18.3499615198
 20
5.3648110441
 30
0.0
 10
18.350384896
 20
5.5582879004
 30
0.0
 10
18.3506295293
 20
5.7036892602
 30
0.0
 10
18.3507628737
 20
5.8049455363
 30
0.0
 10
18.3508497509
 20
5.900566633
 30
0.0
 10
18.3508900534
 20
5.990274114
 30
0.0
 10
18.3508838282
 20
6.0738077066
 30
0.0
 10
18.3508310938
 20
6.1509192714
 30
0.0
 10
18.3507320057
 20
6.2213822918
 30
0.0
 10
18.3505871814
 20
6.2849935499
 30
0.0
 10
18.3504241906
 20
6.3336358037
 30
0.0
 10
18.3502675744
 20
6.3689847885
 30
0.0
 10
18.3501428296
 20
6.3927733291
 30
0.0
 10
18.3500070436
 20
6.4147215242
 30
0.0
 10
18.3498603612
 20
6.4348156195
 30
0.0
 10
18.3497029696
 20
6.4530421203
 30
0.0
 10
18.3495350675
 20
6.4693875329
 30
0.0
 10
18.3493569556
 20
6.4838383708
 30
0.0
 10
18.3491688743
 20
6.496381647
 30
0.0
 10
18.3489970655
 20
6.5056369477
 30
0.0
 10
18.34885127
 20
6.5120797608
 30
0.0
 10
18.3487449115
 20
6.5161897036
 30
0.0
 10
18.3486362754
 20
6.5198174792
 30
0.0
 10
18.3485254432
 20
6.5229628344
 30
0.0
 10
18.348412755
 20
6.5256249574
 30
0.0
 10
18.3482982825
 20
6.5278047354
 30
0.0
 10
18.3481837185
 20
6.5294987069
 30
0.0
 10
18.3480786193
 20
6.5306124288
 30
0.0
 10
18.3479912431
 20
6.5312533155
 30
0.0
 10
18.347927224
 20
6.5315648607
 30
0.0
 10
18.3478809561
 20
6.5317396158
 30
0.0
 10
18.3478195264
 20
6.531838297
 30
0.0
 10
18.347790358
 20
6.531837956
 30
0.0
  0
SPLINE
  5
21D
100
AcDbEntity
  8
02___PRT_ALL_AXES
100
AcDbSpline
 62
7
  6
CONTINUOUS
 70
0
 71
3
 72
39
 73
35
 74
0
 42
0.0000001
 43
0.0000001
 44
0.0000000001
 40
0.0
 40
0.0
 40
0.0
 40
0.0
 40
0.0000914968
 40
0.0002985456
 40
0.0006331131
 40
0.0010973478
 40
0.0016919473
 40
0.0024171941
 40
0.0042600128
 40
0.0066260824
 40
0.0095151911
 40
0.0129269617
 40
0.0168609401
 40
0.0213166309
 40
0.0262935152
 40
0.0317910593
 40
0.0378084991
 40
0.051396212
 40
0.0670418108
 40
0.0847301832
 40
0.1044461929
 40
0.1261746887
 40
0.1499002312
 40
0.1756022073
 40
0.2032554409
 40
0.2643143325
 40
0.3328738642
 40
0.4087048836
 40
0.4915337923
 40
0.581082279
 40
0.6770478718
 40
0.7790895351
 40
0.8868623848
 40
1.0
 40
1.0
 40
1.0
 40
1.0
 10
-6.2716736942
 20
-0.4980153807
 30
0.0
 10
-6.2717298157
 20
-0.4980155198
 30
0.0
 10
-6.2718403761
 20
-0.4978117663
 30
0.0
 10
-6.2719257289
 20
-0.4974690577
 30
0.0
 10
-6.2720427623
 20
-0.4968436165
 30
0.0
 10
-6.2721482466
 20
-0.4960034785
 30
0.0
 10
-6.2722596767
 20
-0.4949116642
 30
0.0
 10
-6.2724178058
 20
-0.4929796156
 30
0.0
 10
-6.2726051672
 20
-0.4899577743
 30
0.0
 10
-6.2728138522
 20
-0.4856094242
 30
0.0
 10
-6.2730191222
 20
-0.4802971049
 30
0.0
 10
-6.2732204757
 20
-0.4740225777
 30
0.0
 10
-6.2734174142
 20
-0.4667865373
 30
0.0
 10
-6.27360971
 20
-0.4585901062
 30
0.0
 10
-6.2737971742
 20
-0.4494342864
 30
0.0
 10
-6.2739796965
 20
-0.4393202655
 30
0.0
 10
-6.2742263828
 20
-0.4239249269
 30
0.0
 10
-6.2745162974
 20
-0.4023049907
 30
0.0
 10
-6.2748317478
 20
-0.3735262254
 30
0.0
 10
-6.2751264596
 20
-0.3409881394
 30
0.0
 10
-6.275400022
 20
-0.3047186735
 30
0.0
 10
-6.2756519707
 20
-0.2647459376
 30
0.0
 10
-6.2758819009
 20
-0.2211013876
 30
0.0
 10
-6.2760895824
 20
-0.1738226177
 30
0.0
 10
-6.2763450217
 20
-0.1036446031
 30
0.0
 10
-6.2765994743
 20
-0.0071787902
 30
0.0
 10
-6.2768052735
 20
0.1188381147
 30
0.0
 10
-6.2769190482
 20
0.2582082708
 30
0.0
 10
-6.2769405543
 20
0.410452518
 30
0.0
 10
-6.2768691916
 20
0.5750467451
 30
0.0
 10
-6.2767049675
 20
0.7514254867
 30
0.0
 10
-6.2764486038
 20
0.9389824534
 30
0.0
 10
-6.2761006986
 20
1.1370721368
 30
0.0
 10
-6.2758150297
 20
1.2725722634
 30
0.0
 10
-6.2756578574
 20
1.3419675979
 30
0.0
  0
SPLINE
  5
21E
100
AcDbEntity
  8
02___PRT_ALL_AXES
100
AcDbSpline
 62
7
  6
CONTINUOUS
 70
0
 71
3
 72
45
 73
41
 74
0
 42
0.0000001
 43
0.0000001
 44
0.0000000001
 40
0.0
 40
0.0
 40
0.0
 40
0.0
 40
0.0926616025
 40
0.1859416217
 40
0.2786214057
 40
0.369645093
 40
0.4579729266
 40
0.5425585877
 40
0.6224101147
 40
0.6965910913
 40
0.7312835959
 40
0.7642402432
 40
0.7953603373
 40
0.8245560293
 40
0.8517442843
 40
0.876842127
 40
0.899773549
 40
0.9204766132
 40
0.938891082
 40
0.9472212771
 40
0.9549576717
 40
0.9620956312
 40
0.9686307743
 40
0.9745587221
 40
0.9798750989
 40
0.9845755346
 40
0.9886556672
 40
0.9921116408
 40
0.9936050209
 40
0.9949418321
 40
0.9961219578
 40
0.9971452897
 40
0.998011734
 40
0.998721224
 40
0.9992737515
 40
0.9996694594
 40
0.9998086963
 40
0.999909138
 40
0.9999715461
 40
1.0
 40
1.0
 40
1.0
 40
1.0
 10
-8.2773941501
 20
3.5863865074
 30
0.0
 10
-8.2768750476
 20
3.6813800099
 30
0.0
 10
-8.2758715036
 20
3.8720012048
 30
0.0
 10
-8.274477559
 20
4.1576352012
 30
0.0
 10
-8.2732017459
 20
4.4415905737
 30
0.0
 10
-8.2720589363
 20
4.7204695842
 30
0.0
 10
-8.2710622139
 20
4.9910511595
 30
0.0
 10
-8.2702230733
 20
5.250179726
 30
0.0
 10
-8.269551151
 20
5.4948056393
 30
0.0
 10
-8.2691277747
 20
5.6882824955
 30
0.0
 10
-8.2688831414
 20
5.8336838554
 30
0.0
 10
-8.268749797
 20
5.9349401315
 30
0.0
 10
-8.2686629198
 20
6.0305612282
 30
0.0
 10
-8.2686226173
 20
6.1202687092
 30
0.0
 10
-8.2686288426
 20
6.2038023017
 30
0.0
 10
-8.2686815769
 20
6.2809138666
 30
0.0
 10
-8.268780665
 20
6.351376887
 30
0.0
 10
-8.2689254894
 20
6.4149881451
 30
0.0
 10
-8.2690884801
 20
6.4636303989
 30
0.0
 10
-8.2692450963
 20
6.4989793837
 30
0.0
 10
-8.2693698411
 20
6.5227679243
 30
0.0
 10
-8.2695056272
 20
6.5447161194
 30
0.0
 10
-8.2696523096
 20
6.5648102146
 30
0.0
 10
-8.2698097011
 20
6.5830367155
 30
0.0
 10
-8.2699776032
 20
6.599382128
 30
0.0
 10
-8.2701557151
 20
6.613832966
 30
0.0
 10
-8.2703437965
 20
6.6263762422
 30
0.0
 10
-8.2705156052
 20
6.6356315429
 30
0.0
 10
-8.2706614007
 20
6.642074356
 30
0.0
 10
-8.2707677592
 20
6.6461842988
 30
0.0
 10
-8.2708763953
 20
6.6498120744
 30
0.0
 10
-8.2709872275
 20
6.6529574295
 30
0.0
 10
-8.2710999157
 20
6.6556195526
 30
0.0
 10
-8.2712143882
 20
6.6577993305
 30
0.0
 10
-8.2713289522
 20
6.6594933021
 30
0.0
 10
-8.2714340514
 20
6.660607024
 30
0.0
 10
-8.2715214276
 20
6.6612479107
 30
0.0
 10
-8.2715854468
 20
6.6615594559
 30
0.0
 10
-8.2716317146
 20
6.661734211
 30
0.0
 10
-8.2716931443
 20
6.6618328922
 30
0.0
 10
-8.2717223127
 20
6.6618325511
 30
0.0
  0
SPLINE
  5
21F
100
AcDbEntity
  8
02___PRT_ALL_AXES
100
AcDbSpline
 62
7
  6
CONTINUOUS
 70
0
 71
3
 72
39
 73
35
 74
0
 42
0.0000001
 43
0.0000001
 44
0.0000000001
 40
0.0
 40
0.0
 40
0.0
 40
0.0
 40
0.1131376152
 40
0.2209104649
 40
0.3229521282
 40
0.418917721
 40
0.5084662077
 40
0.5912951164
 40
0.6671261358
 40
0.7356856675
 40
0.7967445591
 40
0.8243977927
 40
0.8500997688
 40
0.8738253113
 40
0.8955538071
 40
0.9152698168
 40
0.9329581892
 40
0.948603788
 40
0.9621915009
 40
0.9682089407
 40
0.9737064848
 40
0.9786833691
 40
0.9831390599
 40
0.9870730383
 40
0.9904848089
 40
0.9933739176
 40
0.9957399872
 40
0.9975828059
 40
0.9983080527
 40
0.9989026522
 40
0.9993668869
 40
0.9997014544
 40
0.9999085032
 40
1.0
 40
1.0
 40
1.0
 40
1.0
 10
-6.2237408695
 20
6.6618925997
 30
0.0
 10
-6.2235836972
 20
6.7312879342
 30
0.0
 10
-6.2232980282
 20
6.8667880609
 30
0.0
 10
-6.222950123
 20
7.0648777442
 30
0.0
 10
-6.2226937594
 20
7.2524347109
 30
0.0
 10
-6.2225295353
 20
7.4288134526
 30
0.0
 10
-6.2224581726
 20
7.5934076797
 30
0.0
 10
-6.2224796786
 20
7.7456519269
 30
0.0
 10
-6.2225934534
 20
7.885022083
 30
0.0
 10
-6.2227992526
 20
8.0110389878
 30
0.0
 10
-6.2230537051
 20
8.1075048008
 30
0.0
 10
-6.2233091444
 20
8.1776828153
 30
0.0
 10
-6.2235168259
 20
8.2249615853
 30
0.0
 10
-6.2237467561
 20
8.2686061352
 30
0.0
 10
-6.2239987048
 20
8.3085788712
 30
0.0
 10
-6.2242722672
 20
8.3448483371
 30
0.0
 10
-6.224566979
 20
8.3773864231
 30
0.0
 10
-6.2248824295
 20
8.4061651884
 30
0.0
 10
-6.2251723441
 20
8.4277851246
 30
0.0
 10
-6.2254190303
 20
8.4431804632
 30
0.0
 10
-6.2256015526
 20
8.453294484
 30
0.0
 10
-6.2257890169
 20
8.4624503038
 30
0.0
 10
-6.2259813127
 20
8.470646735
 30
0.0
 10
-6.2261782511
 20
8.4778827754
 30
0.0
 10
-6.2263796046
 20
8.4841573026
 30
0.0
 10
-6.2265848746
 20
8.4894696219
 30
0.0
 10
-6.2267935596
 20
8.4938179719
 30
0.0
 10
-6.2269809211
 20
8.4968398133
 30
0.0
 10
-6.2271390501
 20
8.4987718618
 30
0.0
 10
-6.2272504802
 20
8.4998636761
 30
0.0
 10
-6.2273559645
 20
8.5007038142
 30
0.0
 10
-6.227472998
 20
8.5013292553
 30
0.0
 10
-6.2275583507
 20
8.501671964
 30
0.0
 10
-6.2276689112
 20
8.5018757175
 30
0.0
 10
-6.2277250326
 20
8.5018755784
 30
0.0
  0
SPLINE
  5
220
100
AcDbEntity
  8
02___PRT_ALL_AXES
100
AcDbSpline
 62
7
  6
CONTINUOUS
 70
0
 71
3
 72
43
 73
39
 74
0
 42
0.0000001
 43
0.0000001
 44
0.0000000001
 40
0.0
 40
0.0
 40
0.0
 40
0.0
 40
0.1026328877
 40
0.2030996419
 40
0.3004841915
 40
0.3940201949
 40
0.4830149755
 40
0.5667937191
 40
0.644697811
 40
0.716112847
 40
0.7492168814
 40
0.7804958811
 40
0.8098869574
 40
0.8373373272
 40
0.8627957217
 40
0.8862108747
 40
0.907532616
 40
0.9267216685
 40
0.9437450093
 40
0.9585697014
 40
0.9651472679
 40
0.9711628832
 40
0.9766136613
 40
0.9814978765
 40
0.9858138596
 40
0.9895599526
 40
0.9927345176
 40
0.9941069769
 40
0.9953359595
 40
0.9964212787
 40
0.9973627589
 40
0.9981602448
 40
0.998813618
 40
0.9993228407
 40
0.9996881643
 40
0.9999107734
 40
0.9999701751
 40
1.0
 40
1.0
 40
1.0
 40
1.0
 10
-8.2773941501
 20
3.5863865074
 30
0.0
 10
-8.2778100435
 20
3.5102798189
 30
0.0
 10
-8.2786572467
 20
3.3596728539
 30
0.0
 10
-8.279984716
 20
3.1368515604
 30
0.0
 10
-8.2813481986
 20
2.9207764445
 30
0.0
 10
-8.2827363413
 20
2.7132087553
 30
0.0
 10
-8.2841385004
 20
2.5157308409
 30
0.0
 10
-8.2855437285
 20
2.3298451647
 30
0.0
 10
-8.2869408711
 20
2.1569961518
 30
0.0
 10
-8.2881171753
 20
2.0217246353
 30
0.0
 10
-8.2890501377
 20
1.9210273575
 30
0.0
 10
-8.2897233466
 20
1.8514920506
 30
0.0
 10
-8.2903866115
 20
1.7861493482
 30
0.0
 10
-8.2910385391
 20
1.7251230538
 30
0.0
 10
-8.2916778069
 20
1.6685283566
 30
0.0
 10
-8.2923030657
 20
1.6164785118
 30
0.0
 10
-8.2929131253
 20
1.5690778915
 30
0.0
 10
-8.2935065866
 20
1.5264173436
 30
0.0
 10
-8.2940820988
 20
1.488574955
 30
0.0
 10
-8.2945626028
 20
1.46008433
 30
0.0
 10
-8.2949411969
 20
1.439756017
 30
0.0
 10
-8.2952085357
 20
1.426378113
 30
0.0
 10
-8.2954705476
 20
1.414256079
 30
0.0
 10
-8.2957270407
 20
1.4033946089
 30
0.0
 10
-8.2959777457
 20
1.3937974959
 30
0.0
 10
-8.2962224539
 20
1.3854684972
 30
0.0
 10
-8.2964297142
 20
1.3793221657
 30
0.0
 10
-8.2965952302
 20
1.3750421301
 30
0.0
 10
-8.2967116658
 20
1.3723106827
 30
0.0
 10
-8.2968264581
 20
1.369899022
 30
0.0
 10
-8.2969394149
 20
1.3678078146
 30
0.0
 10
-8.2970506456
 20
1.3660368667
 30
0.0
 10
-8.2971590146
 20
1.364588355
 30
0.0
 10
-8.2972660611
 20
1.3634576908
 30
0.0
 10
-8.2973649579
 20
1.3626558958
 30
0.0
 10
-8.2974587468
 20
1.3621738201
 30
0.0
 10
-8.2975295935
 20
1.3619638554
 30
0.0
 10
-8.2975797899
 20
1.3619031118
 30
0.0
 10
-8.2976019051
 20
1.3619028532
 30
0.0
  0
SPLINE
  5
221
100
AcDbEntity
  8
02___PRT_ALL_AXES
100
AcDbSpline
 62
7
  6
CONTINUOUS
 70
0
 71
3
 72
42
 73
38
 74
0
 42
0.0000001
 43
0.0000001
 44
0.0000000001
 40
0.0
 40
0.0
 40
0.0
 40
0.0
 40
0.0000298249
 40
0.0000892266
 40
0.0003118357
 40
0.0006771593
 40
0.001186382
 40
0.0018397552
 40
0.0026372411
 40
0.0035787214
 40
0.0046640405
 40
0.0072654772
 40
0.0104400423
 40
0.0141861353
 40
0.0185021183
 40
0.0233863336
 40
0.0288371117
 40
0.0348527271
 40
0.0414302936
 40
0.0562549858
 40
0.0732783267
 40
0.0924673793
 40
0.1137891207
 40
0.1372042738
 40
0.1626626685
 40
0.1901130384
 40
0.2195041148
 40
0.2507831147
 40
0.2838871492
 40
0.3553021857
 40
0.4332062779
 40
0.516985022
 40
0.605979803
 40
0.6995158069
 40
0.7969003571
 40
0.8973671118
 40
1.0
 40
1.0
 40
1.0
 40
1.0
 10
-8.272454754
 20
6.5118345408
 30
0.0
 10
-8.2724756174
 20
6.5118342969
 30
0.0
 10
-8.2725229725
 20
6.5117769916
 30
0.0
 10
-8.272589809
 20
6.5115789116
 30
0.0
 10
-8.2726782891
 20
6.5111241233
 30
0.0
 10
-8.272771588
 20
6.5103677129
 30
0.0
 10
-8.2728725751
 20
6.5093010485
 30
0.0
 10
-8.2729748107
 20
6.5079345281
 30
0.0
 10
-8.2730797424
 20
6.5062638226
 30
0.0
 10
-8.2731863192
 20
6.5042909853
 30
0.0
 10
-8.2733401742
 20
6.5010567592
 30
0.0
 10
-8.27353142
 20
6.4962605033
 30
0.0
 10
-8.2737561919
 20
6.4896028036
 30
0.0
 10
-8.2739869569
 20
6.4817452545
 30
0.0
 10
-8.2742235015
 20
6.4726913753
 30
0.0
 10
-8.2744654663
 20
6.4624447051
 30
0.0
 10
-8.2747126505
 20
6.4510088241
 30
0.0
 10
-8.2749648559
 20
6.4383881599
 30
0.0
 10
-8.2753220205
 20
6.4192105062
 30
0.0
 10
-8.2757753259
 20
6.392332558
 30
0.0
 10
-8.2763182621
 20
6.3566321914
 30
0.0
 10
-8.2768781312
 20
6.3163863915
 30
0.0
 10
-8.2774536591
 20
6.2716688251
 30
0.0
 10
-8.2780435259
 20
6.222565198
 30
0.0
 10
-8.2786466087
 20
6.1691739742
 30
0.0
 10
-8.2792616347
 20
6.1116019984
 30
0.0
 10
-8.2798873564
 20
6.0499579395
 30
0.0
 10
-8.2805224591
 20
5.9843585934
 30
0.0
 10
-8.2814026124
 20
5.8893611615
 30
0.0
 10
-8.2825123333
 20
5.7617465233
 30
0.0
 10
-8.2838303923
 20
5.5986814168
 30
0.0
 10
-8.2851560792
 20
5.4233175713
 30
0.0
 10
-8.2864788708
 20
5.2370176521
 30
0.0
 10
-8.2877884394
 20
5.0411990774
 30
0.0
 10
-8.2890747438
 20
4.8373546284
 30
0.0
 10
-8.2903270732
 20
4.6271458609
 30
0.0
 10
-8.2911263215
 20
4.4850638185
 30
0.0
 10
-8.2915186738
 20
4.4132650558
 30
0.0
  0
SPLINE
  5
222
100
AcDbEntity
  8
02___PRT_ALL_AXES
100
AcDbSpline
 62
7
  6
CONTINUOUS
 70
0
 71
3
 72
43
 73
39
 74
0
 42
0.0000001
 43
0.0000001
 44
0.0000000001
 40
0.0
 40
0.0
 40
0.0
 40
0.0
 40
0.1026328877
 40
0.2030996419
 40
0.3004841915
 40
0.3940201949
 40
0.4830149755
 40
0.5667937191
 40
0.644697811
 40
0.716112847
 40
0.7492168814
 40
0.7804958811
 40
0.8098869574
 40
0.8373373272
 40
0.8627957217
 40
0.8862108747
 40
0.907532616
 40
0.9267216685
 40
0.9437450093
 40
0.9585697014
 40
0.9651472679
 40
0.9711628832
 40
0.9766136613
 40
0.9814978765
 40
0.9858138596
 40
0.9895599526
 40
0.9927345176
 40
0.9941069769
 40
0.9953359595
 40
0.9964212787
 40
0.9973627589
 40
0.9981602448
 40
0.998813618
 40
0.9993228407
 40
0.9996881643
 40
0.9999107734
 40
0.9999701751
 40
1.0
 40
1.0
 40
1.0
 40
1.0
 10
-6.2424314046
 20
3.576448904
 30
0.0
 10
-6.242847298
 20
3.5003422156
 30
0.0
 10
-6.2436945013
 20
3.3497352506
 30
0.0
 10
-6.2450219705
 20
3.126913957
 30
0.0
 10
-6.2463854531
 20
2.9108388411
 30
0.0
 10
-6.2477735958
 20
2.7032711519
 30
0.0
 10
-6.249175755
 20
2.5057932375
 30
0.0
 10
-6.250580983
 20
2.3199075613
 30
0.0
 10
-6.2519781256
 20
2.1470585485
 30
0.0
 10
-6.2531544298
 20
2.0117870319
 30
0.0
 10
-6.2540873922
 20
1.9110897541
 30
0.0
 10
-6.2547606011
 20
1.8415544473
 30
0.0
 10
-6.255423866
 20
1.7762117448
 30
0.0
 10
-6.2560757937
 20
1.7151854505
 30
0.0
 10
-6.2567150614
 20
1.6585907532
 30
0.0
 10
-6.2573403202
 20
1.6065409085
 30
0.0
 10
-6.2579503798
 20
1.5591402881
 30
0.0
 10
-6.2585438411
 20
1.5164797403
 30
0.0
 10
-6.2591193533
 20
1.4786373516
 30
0.0
 10
-6.2595998573
 20
1.4501467266
 30
0.0
 10
-6.2599784514
 20
1.4298184136
 30
0.0
 10
-6.2602457902
 20
1.4164405096
 30
0.0
 10
-6.2605078021
 20
1.4043184757
 30
0.0
 10
-6.2607642952
 20
1.3934570056
 30
0.0
 10
-6.2610150002
 20
1.3838598925
 30
0.0
 10
-6.2612597085
 20
1.3755308939
 30
0.0
 10
-6.2614669687
 20
1.3693845623
 30
0.0
 10
-6.2616324847
 20
1.3651045268
 30
0.0
 10
-6.2617489204
 20
1.3623730793
 30
0.0
 10
-6.2618637126
 20
1.3599614186
 30
0.0
 10
-6.2619766694
 20
1.3578702112
 30
0.0
 10
-6.2620879001
 20
1.3560992634
 30
0.0
 10
-6.2621962691
 20
1.3546507517
 30
0.0
 10
-6.2623033156
 20
1.3535200875
 30
0.0
 10
-6.2624022124
 20
1.3527182925
 30
0.0
 10
-6.2624960013
 20
1.3522362168
 30
0.0
 10
-6.262566848
 20
1.352026252
 30
0.0
 10
-6.2626170444
 20
1.3519655084
 30
0.0
 10
-6.2626391596
 20
1.3519652499
 30
0.0
  0
SPLINE
  5
223
100
AcDbEntity
  8
02___PRT_ALL_AXES
100
AcDbSpline
 62
7
  6
CONTINUOUS
 70
0
 71
3
 72
45
 73
41
 74
0
 42
0.0000001
 43
0.0000001
 44
0.0000000001
 40
0.0
 40
0.0
 40
0.0
 40
0.0
 40
0.0000284539
 40
0.000090862
 40
0.0001913037
 40
0.0003305406
 40
0.0007262485
 40
0.001278776
 40
0.001988266
 40
0.0028547103
 40
0.0038780422
 40
0.0050581679
 40
0.0063949791
 40
0.0078883592
 40
0.0113443328
 40
0.0154244654
 40
0.0201249011
 40
0.0254412779
 40
0.0313692257
 40
0.0379043688
 40
0.0450423283
 40
0.0527787229
 40
0.061108918
 40
0.0795233868
 40
0.100226451
 40
0.123157873
 40
0.1482557157
 40
0.1754439707
 40
0.2046396627
 40
0.2357597568
 40
0.2687164041
 40
0.3034089087
 40
0.3775898853
 40
0.4574414123
 40
0.5420270734
 40
0.630354907
 40
0.7213785943
 40
0.8140583783
 40
0.9073383975
 40
1.0
 40
1.0
 40
1.0
 40
1.0
 10
-8.2968694638
 20
1.5119008635
 30
0.0
 10
-8.2968969812
 20
1.5119005418
 30
0.0
 10
-8.2969549337
 20
1.5119936372
 30
0.0
 10
-8.2969985826
 20
1.5121585005
 30
0.0
 10
-8.297058978
 20
1.5124524111
 30
0.0
 10
-8.2971414084
 20
1.5130570212
 30
0.0
 10
-8.2972405586
 20
1.5141077023
 30
0.0
 10
-8.2973486379
 20
1.5157057886
 30
0.0
 10
-8.2974566308
 20
1.5177621829
 30
0.0
 10
-8.2975629405
 20
1.5202736198
 30
0.0
 10
-8.2976674991
 20
1.523240936
 30
0.0
 10
-8.297769986
 20
1.5266633657
 30
0.0
 10
-8.2978703242
 20
1.5305406703
 30
0.0
 10
-8.2980078671
 20
1.5366187958
 30
0.0
 10
-8.2981699508
 20
1.5453502116
 30
0.0
 10
-8.2983473861
 20
1.5571834911
 30
0.0
 10
-8.2985154162
 20
1.570816357
 30
0.0
 10
-8.2986738144
 20
1.5862365575
 30
0.0
 10
-8.298822297
 20
1.6034313697
 30
0.0
 10
-8.2989606766
 20
1.6223880633
 30
0.0
 10
-8.2990887767
 20
1.6430939077
 30
0.0
 10
-8.2992064604
 20
1.6655359272
 30
0.0
 10
-8.2993542115
 20
1.6988840261
 30
0.0
 10
-8.2995079764
 20
1.7447729447
 30
0.0
 10
-8.2996446031
 20
1.8047835655
 30
0.0
 10
-8.2997380825
 20
1.8712581131
 30
0.0
 10
-8.2997878319
 20
1.9440048724
 30
0.0
 10
-8.2997937048
 20
2.0228101484
 30
0.0
 10
-8.2997556835
 20
2.1074398475
 30
0.0
 10
-8.2996737239
 20
2.1976484293
 30
0.0
 10
-8.2995479273
 20
2.293173218
 30
0.0
 10
-8.2993171412
 20
2.4303443122
 30
0.0
 10
-8.2989177296
 20
2.6128696483
 30
0.0
 10
-8.2982838407
 20
2.8436488117
 30
0.0
 10
-8.2974921985
 20
3.0881097236
 30
0.0
 10
-8.2965518944
 20
3.3433753607
 30
0.0
 10
-8.2954737721
 20
3.6064687668
 30
0.0
 10
-8.2942701748
 20
3.8743511937
 30
0.0
 10
-8.2929551328
 20
4.143817228
 30
0.0
 10
-8.2920083931
 20
4.3236485439
 30
0.0
 10
-8.2915186738
 20
4.4132650558
 30
0.0
  0
SPLINE
  5
224
100
AcDbEntity
  8
02___PRT_ALL_AXES
100
AcDbSpline
 62
7
  6
CONTINUOUS
 70
0
 71
3
 72
45
 73
41
 74
0
 42
0.0000001
 43
0.0000001
 44
0.0000000001
 40
0.0
 40
0.0
 40
0.0
 40
0.0
 40
0.0926616025
 40
0.1859416217
 40
0.2786214057
 40
0.369645093
 40
0.4579729266
 40
0.5425585877
 40
0.6224101147
 40
0.6965910913
 40
0.7312835959
 40
0.7642402432
 40
0.7953603373
 40
0.8245560293
 40
0.8517442843
 40
0.876842127
 40
0.899773549
 40
0.9204766132
 40
0.938891082
 40
0.9472212771
 40
0.9549576717
 40
0.9620956312
 40
0.9686307743
 40
0.9745587221
 40
0.9798750989
 40
0.9845755346
 40
0.9886556672
 40
0.9921116408
 40
0.9936050209
 40
0.9949418321
 40
0.9961219578
 40
0.9971452897
 40
0.998011734
 40
0.998721224
 40
0.9992737515
 40
0.9996694594
 40
0.9998086963
 40
0.999909138
 40
0.9999715461
 40
1.0
 40
1.0
 40
1.0
 40
1.0
 10
-6.2424314046
 20
3.576448904
 30
0.0
 10
-6.2419123022
 20
3.6714424066
 30
0.0
 10
-6.2409087581
 20
3.8620636015
 30
0.0
 10
-6.2395148135
 20
4.1476975978
 30
0.0
 10
-6.2382390004
 20
4.4316529704
 30
0.0
 10
-6.2370961908
 20
4.7105319808
 30
0.0
 10
-6.2360994684
 20
4.9811135561
 30
0.0
 10
-6.2352603278
 20
5.2402421227
 30
0.0
 10
-6.2345884055
 20
5.484868036
 30
0.0
 10
-6.2341650292
 20
5.6783448922
 30
0.0
 10
-6.233920396
 20
5.8237462521
 30
0.0
 10
-6.2337870515
 20
5.9250025281
 30
0.0
 10
-6.2337001743
 20
6.0206236248
 30
0.0
 10
-6.2336598718
 20
6.1103311058
 30
0.0
 10
-6.2336660971
 20
6.1938646984
 30
0.0
 10
-6.2337188314
 20
6.2709762632
 30
0.0
 10
-6.2338179195
 20
6.3414392837
 30
0.0
 10
-6.2339627439
 20
6.4050505417
 30
0.0
 10
-6.2341257346
 20
6.4536927955
 30
0.0
 10
-6.2342823508
 20
6.4890417803
 30
0.0
 10
-6.2344070956
 20
6.5128303209
 30
0.0
 10
-6.2345428817
 20
6.534778516
 30
0.0
 10
-6.2346895641
 20
6.5548726113
 30
0.0
 10
-6.2348469556
 20
6.5730991122
 30
0.0
 10
-6.2350148577
 20
6.5894445247
 30
0.0
 10
-6.2351929697
 20
6.6038953626
 30
0.0
 10
-6.235381051
 20
6.6164386389
 30
0.0
 10
-6.2355528597
 20
6.6256939395
 30
0.0
 10
-6.2356986552
 20
6.6321367526
 30
0.0
 10
-6.2358050137
 20
6.6362466955
 30
0.0
 10
-6.2359136498
 20
6.639874471
 30
0.0
 10
-6.236024482
 20
6.6430198262
 30
0.0
 10
-6.2361371702
 20
6.6456819492
 30
0.0
 10
-6.2362516427
 20
6.6478617272
 30
0.0
 10
-6.2363662067
 20
6.6495556987
 30
0.0
 10
-6.2364713059
 20
6.6506694206
 30
0.0
 10
-6.2365586822
 20
6.6513103073
 30
0.0
 10
-6.2366227013
 20
6.6516218526
 30
0.0
 10
-6.2366689691
 20
6.6517966077
 30
0.0
 10
-6.2367303988
 20
6.6518952888
 30
0.0
 10
-6.2367595672
 20
6.6518949478
 30
0.0
  0
SPLINE
  5
225
100
AcDbEntity
  8
02___PRT_ALL_AXES
100
AcDbSpline
 62
7
  6
CONTINUOUS
 70
0
 71
3
 72
39
 73
35
 74
0
 42
0.0000001
 43
0.0000001
 44
0.0000000001
 40
0.0
 40
0.0
 40
0.0
 40
0.0
 40
0.113121082
 40
0.2208769306
 40
0.3229076971
 40
0.4188611538
 40
0.5083999683
 40
0.5912279298
 40
0.6670559129
 40
0.7356135546
 40
0.7966786699
 40
0.8243344882
 40
0.8500367995
 40
0.8737627045
 40
0.8954949857
 40
0.9152168907
 40
0.9329116762
 40
0.9485626142
 40
0.9621531145
 40
0.9681715703
 40
0.9736710287
 40
0.9786507418
 40
0.9831099714
 40
0.9870479938
 40
0.9904641092
 40
0.9933576583
 40
0.9957280588
 40
0.9975748926
 40
0.9983019634
 40
0.9988982291
 40
0.9993639446
 40
0.9996997759
 40
0.9999078398
 40
1.0
 40
1.0
 40
1.0
 40
1.0
 10
-6.2497098007
 20
1.3433316198
 30
0.0
 10
-6.2502305687
 20
1.2738920201
 30
0.0
 10
-6.2512686595
 20
1.1383064379
 30
0.0
 10
-6.2528560862
 20
0.940089688
 30
0.0
 10
-6.2544320577
 20
0.7524118745
 30
0.0
 10
-6.25599109
 20
0.5759172056
 30
0.0
 10
-6.2575279634
 20
0.4112108311
 30
0.0
 10
-6.2590369332
 20
0.2588591665
 30
0.0
 10
-6.2605125444
 20
0.1193875279
 30
0.0
 10
-6.2619498324
 20
-0.0067241867
 30
0.0
 10
-6.2631468872
 20
-0.1032652691
 30
0.0
 10
-6.2640881316
 20
-0.1734998779
 30
0.0
 10
-6.2647578799
 20
-0.2208146608
 30
0.0
 10
-6.2654144064
 20
-0.2644929738
 30
0.0
 10
-6.2660570352
 20
-0.3044998743
 30
0.0
 10
-6.2666851109
 20
-0.3408041868
 30
0.0
 10
-6.2672978817
 20
-0.373375024
 30
0.0
 10
-6.2678946405
 20
-0.4021815665
 30
0.0
 10
-6.2683959456
 20
-0.42382076
 30
0.0
 10
-6.2687931925
 20
-0.4392289319
 30
0.0
 10
-6.2690746179
 20
-0.4493524144
 30
0.0
 10
-6.2693516275
 20
-0.4585184671
 30
0.0
 10
-6.2696241016
 20
-0.4667256617
 30
0.0
 10
-6.269891839
 20
-0.4739726205
 30
0.0
 10
-6.2701546019
 20
-0.4802578462
 30
0.0
 10
-6.2704118768
 20
-0.4855802703
 30
0.0
 10
-6.2706631637
 20
-0.4899377616
 30
0.0
 10
-6.2708801034
 20
-0.4929663338
 30
0.0
 10
-6.2710572025
 20
-0.4949029464
 30
0.0
 10
-6.2711792648
 20
-0.4959975699
 30
0.0
 10
-6.2712932339
 20
-0.4968400688
 30
0.0
 10
-6.2714159354
 20
-0.497467173
 30
0.0
 10
-6.2715056294
 20
-0.497811168
 30
0.0
 10
-6.2716171201
 20
-0.4980152405
 30
0.0
 10
-6.2716736942
 20
-0.4980153807
 30
0.0
  0
ENDSEC
  0
SECTION
  2
OBJECTS
  0
DICTIONARY
  5
C
100
AcDbDictionary
280
0
281
1
  3
ACAD_GROUP
350
D
  3
ACAD_MLINESTYLE
350
17
  3
ACAD_LAYOUT
350
1A
  3
ACAD_PLOTSETTINGS
350
19
  3
ACAD_PLOTSTYLENAME
350
E
  0
DICTIONARY
  5
D
102
{ACAD_REACTORS
330
C
102
}
100
AcDbDictionary
280
0
281
1
  0
ACDBDICTIONARYWDFLT
  5
E
102
{ACAD_REACTORS
330
C
102
}
100
AcDbDictionary
281
1
  3
Normal
350
F
100
AcDbDictionaryWithDefault
340
F
  0
DICTIONARY
  5
17
102
{ACAD_REACTORS
330
C
102
}
100
AcDbDictionary
280
0
281
1
  3
Standard
350
18
  0
DICTIONARY
  5
19
102
{ACAD_REACTORS
330
C
102
}
100
AcDbDictionary
281
1
  0
DICTIONARY
  5
1A
102
{ACAD_REACTORS
330
C
102
}
100
AcDbDictionary
281
1
  3
Model
350
226
  3
Layout1
350
227
  0
ACDBPLACEHOLDER
  5
F
102
{ACAD_REACTORS
330
E
102
}
  0
MLINESTYLE
  5
18
102
{ACAD_REACTORS
330
17
102
}
100
AcDbMlineStyle
  2
STANDARD
 70
0
  3

 62
256
 51
90.0
 52
90.0
 71
2
 49
0.5
 62
256
  6
BYLAYER
 49
-0.5
 62
256
  6
BYLAYER
  0
LAYOUT
  5
226
102
{ACAD_REACTORS
330
1A
102
}
100
AcDbPlotSettings
  1

  2
none_device
  4

  6

 40
0.0
 41
0.0
 42
0.0
 43
0.0
 44
431.8
 45
279.4
 46
0.0
 47
0.0
 48
0.0
 49
0.0
140
0.0
141
0.0
142
1.0
143
1.0
 70
1024
 72
0
 73
0
 74
0
  7

 75
0
147
1.0
148
0.0
149
0.0
100
AcDbLayout
  1
Model
 70
0
 71
0
 10
0.0
 20
0.0
 11
17.0
 21
11.0
 12
0.0
 22
0.0
 32
0.0
 14
0.0
 24
0.0
 34
0.0
 15
0.0
 25
0.0
 35
0.0
146
0.0
 13
0.0
 23
0.0
 33
0.0
 16
1.0
 26
0.0
 36
0.0
 17
0.0
 27
1.0
 37
0.0
 76
0
330
207
345
0
346
0
  0
LAYOUT
  5
227
102
{ACAD_REACTORS
330
1A
102
}
100
AcDbPlotSettings
  1

  2
none_device
  4

  6

 40
0.0
 41
0.0
 42
0.0
 43
0.0
 44
431.8
 45
279.4
 46
0.0
 47
0.0
 48
0.0
 49
0.0
140
0.0
141
0.0
142
1.0
143
1.0
 70
0
 72
0
 73
0
 74
0
  7

 75
0
147
1.0
148
0.0
149
0.0
100
AcDbLayout
  1
Layout1
 70
0
 71
1
 10
0.0
 20
0.0
 11
17.0
 21
11.0
 12
0.0
 22
0.0
 32
0.0
 14
0.0
 24
0.0
 34
0.0
 15
0.0
 25
0.0
 35
0.0
146
0.0
 13
0.0
 23
0.0
 33
0.0
 16
1.0
 26
0.0
 36
0.0
 17
0.0
 27
1.0
 37
0.0
 76
0
330
208
345
0
346
0
  0
ENDSEC
  0
EOF
