999
DXF file: N:\Master\master\M3_ProE_files\Lenexa\MADAM DXF\411282.dxf
999
Pro/ENGINEER 2010280 by Parametric Technology Corporation
  0
SECTION
  2
HEADER
  9
$ACADVER
  1
AC1021
  9
$DWGCODEPAGE
  3
ANSI_1252
  9
$EXTMAX
 10
17.0
 20
11.0
 30
0.0
  9
$EXTMIN
 10
0.0
 20
-0.0
 30
0.0
  9
$LIMMIN
 10
0.0
 20
-0.0
  9
$LIMMAX
 10
17.0
 20
11.0
  9
$VIEWCTR
 10
8.5
 20
5.5
  9
$VIEWSIZE
 40
11.0
  9
$CLAYER
  8
0
  9
$LTSCALE
 40
0.935
  9
$CELTYPE
  6
BYLAYER
  9
$DIMSCALE
 40
1.0
  9
$DIMASZ
 40
0.125
  9
$DIMEXO
 40
0.10625
  9
$DIMDLI
 40
0.646
  9
$DIMEXE
 40
0.306
  9
$DIMCEN
 40
0.153
  9
$DIMLFAC
 40
1.0
  9
$DIMBLK
  1
_FILLED
  9
$DIMTXT
 40
0.125
  9
$DIMTOL
 70
1
  9
$DIMLIM
 70
0
  9
$DIMTFAC
 40
1.0
  9
$DIMTP
 40
0.01
  9
$DIMTM
 40
0.01
  9
$PDMODE
 70
3
  9
$PDSIZE
 40
0.3125
  9
$HANDSEED
  5
228
  9
$TILEMODE
 70
1
  9
$MEASUREMENT
 70
0
  9
$INSUNITS
 70
1
  0
ENDSEC
  0
SECTION
  2
CLASSES
  0
CLASS
  1
ACDBDICTIONARYWDFLT
  2
AcDbDictionaryWithDefault
  3
AutoCAD 2000
 90
0
 91
1
280
0
281
0
  0
CLASS
  1
ACDBPLACEHOLDER
  2
AcDbPlaceHolder
  3
AutoCAD 2000
 90
0
 91
1
280
0
281
0
  0
CLASS
  1
LAYOUT
  2
AcDbLayout
  3
AutoCAD 2000
 90
0
 91
0
280
0
281
0
  0
ENDSEC
  0
SECTION
  2
TABLES
  0
TABLE
  2
VPORT
  5
8
100
AcDbSymbolTable
 70
2
  0
VPORT
  5
1F4
100
AcDbSymbolTableRecord
100
AcDbViewportTableRecord
  2
*ACTIVE
 70
0
 10
0.0
 20
0.0
 11
1.0
 21
1.0
 12
8.5
 22
5.5
 13
0.0
 23
0.0
 14
1.0
 24
1.0
 15
0.0
 25
0.0
 16
0.0
 26
0.0
 36
1.0
 17
0.0
 27
0.0
 37
0.0
 40
11.0
 41
1.5454545455
 42
50.0
 43
0.0
 44
0.0
 50
0.0
 51
0.0
 71
0
 72
100
 73
1
 74
1
 75
0
 76
0
 77
0
 78
0
  0
ENDTAB
  0
TABLE
  2
LTYPE
  5
5
100
AcDbSymbolTable
 70
6
  0
LTYPE
  5
14
100
AcDbSymbolTableRecord
100
AcDbLinetypeTableRecord
  2
BYBLOCK
 70
0
  3

 72
65
 73
0
 40
0.0
  0
LTYPE
  5
15
100
AcDbSymbolTableRecord
100
AcDbLinetypeTableRecord
  2
BYLAYER
 70
0
  3

 72
65
 73
0
 40
0.0
  0
LTYPE
  5
16
100
AcDbSymbolTableRecord
100
AcDbLinetypeTableRecord
  2
CONTINUOUS
 70
64
  3
Solid line
 72
65
 73
0
 40
0.0
  0
LTYPE
  5
1F5
100
AcDbSymbolTableRecord
100
AcDbLinetypeTableRecord
  2
CENTER
 70
64
  3
____ _ ____ _ ____ _ ____ _ ____ _ ____ _ ____
 72
65
 73
4
 40
0.6
 49
0.375
 74
0
 49
-0.075
 74
0
 49
0.075
 74
0
 49
-0.075
 74
0
  0
LTYPE
  5
1F6
100
AcDbSymbolTableRecord
100
AcDbLinetypeTableRecord
  2
HIDDEN
 70
64
  3
- - - - - - - - - - - - - - - - - - - -
 72
65
 73
2
 40
0.2
 49
0.1
 74
0
 49
-0.1
 74
0
  0
LTYPE
  5
1F7
100
AcDbSymbolTableRecord
100
AcDbLinetypeTableRecord
  2
PHANTOM
 70
64
  3
_____ _ _ _____ _ _ _____ _ _ _____
 72
65
 73
6
 40
0.8
 49
0.45
 74
0
 49
-0.05
 74
0
 49
0.1
 74
0
 49
-0.05
 74
0
 49
0.1
 74
0
 49
-0.05
 74
0
  0
LTYPE
  5
1F8
100
AcDbSymbolTableRecord
100
AcDbLinetypeTableRecord
  2
DOT
 70
64
  3
. . . . . . . . . . . . . . . . . . . .
 72
65
 73
2
 40
0.2
 49
0.1
 74
0
 49
-0.1
 74
0
  0
LTYPE
  5
1F9
100
AcDbSymbolTableRecord
100
AcDbLinetypeTableRecord
  2
DASHED
 70
64
  3
- - - - - - - - - - - - - - - - - - - -
 72
65
 73
2
 40
0.2
 49
0.1
 74
0
 49
-0.1
 74
0
  0
ENDTAB
  0
TABLE
  2
LAYER
  5
2
100
AcDbSymbolTable
 70
36
  0
LAYER
  5
10
100
AcDbSymbolTableRecord
100
AcDbLayerTableRecord
  2
0
 70
0
 62
7
  6
CONTINUOUS
370
-3
390
F
  0
LAYER
  5
1FA
100
AcDbSymbolTableRecord
100
AcDbLayerTableRecord
  2
DEFAULT_1
 70
0
 62
7
  6
CENTER
370
-3
390
F
  0
LAYER
  5
1FB
100
AcDbSymbolTableRecord
100
AcDbLayerTableRecord
  2
DEFAULT_2
 70
0
 62
8
  6
HIDDEN
370
-3
390
F
  0
LAYER
  5
1FC
100
AcDbSymbolTableRecord
100
AcDbLayerTableRecord
  2
DEFAULT_3
 70
0
 62
7
  6
PHANTOM
370
-3
390
F
  0
LAYER
  5
1FD
100
AcDbSymbolTableRecord
100
AcDbLayerTableRecord
  2
01___PRT_ALL_DTM_PLN
 70
0
 62
7
  6
CONTINUOUS
370
-3
390
F
  0
LAYER
  5
1FE
100
AcDbSymbolTableRecord
100
AcDbLayerTableRecord
  2
01___PRT_DEF_DTM_PLN
 70
0
 62
7
  6
CONTINUOUS
370
-3
390
F
  0
LAYER
  5
1FF
100
AcDbSymbolTableRecord
100
AcDbLayerTableRecord
  2
02___PRT_ALL_AXES
 70
0
 62
7
  6
CONTINUOUS
370
-3
390
F
  0
LAYER
  5
200
100
AcDbSymbolTableRecord
100
AcDbLayerTableRecord
  2
03___PRT_ALL_CURVES
 70
0
 62
7
  6
CONTINUOUS
370
-3
390
F
  0
LAYER
  5
201
100
AcDbSymbolTableRecord
100
AcDbLayerTableRecord
  2
04___PRT_ALL_DTM_PNT
 70
0
 62
7
  6
CONTINUOUS
370
-3
390
F
  0
LAYER
  5
202
100
AcDbSymbolTableRecord
100
AcDbLayerTableRecord
  2
05___PRT_ALL_DTM_CSYS
 70
0
 62
7
  6
CONTINUOUS
370
-3
390
F
  0
LAYER
  5
203
100
AcDbSymbolTableRecord
100
AcDbLayerTableRecord
  2
05___PRT_DEF_DTM_CSYS
 70
0
 62
7
  6
CONTINUOUS
370
-3
390
F
  0
LAYER
  5
204
100
AcDbSymbolTableRecord
100
AcDbLayerTableRecord
  2
06___PRT_ALL_SURFS
 70
0
 62
7
  6
CONTINUOUS
370
-3
390
F
  0
ENDTAB
  0
TABLE
  2
STYLE
  5
3
100
AcDbSymbolTable
 70
1
  0
STYLE
  5
11
100
AcDbSymbolTableRecord
100
AcDbTextStyleTableRecord
  2
STANDARD
 70
0
 40
0.0
 41
0.8
 50
0.0
 71
0
 42
0.2
  3
txt
  4

  0
STYLE
  5
205
100
AcDbSymbolTableRecord
100
AcDbTextStyleTableRecord
  2
TEXTSTYLE_1
 70
0
 40
0.0
 41
0.8
 50
0.0
 71
0
 42
0.2
  3
gdt
  4

  0
ENDTAB
  0
TABLE
  2
VIEW
  5
6
100
AcDbSymbolTable
 70
0
  0
ENDTAB
  0
TABLE
  2
UCS
  5
7
100
AcDbSymbolTable
 70
0
  0
ENDTAB
  0
TABLE
  2
APPID
  5
9
100
AcDbSymbolTable
 70
1
  0
APPID
  5
206
100
AcDbSymbolTableRecord
100
AcDbRegAppTableRecord
  2
ACAD
 70
0
  0
ENDTAB
  0
TABLE
  2
BLOCK_RECORD
  5
1
100
AcDbSymbolTable
 70
0
  0
BLOCK_RECORD
  5
207
100
AcDbSymbolTableRecord
100
AcDbBlockTableRecord
  2
*Model_Space
  0
BLOCK_RECORD
  5
208
100
AcDbSymbolTableRecord
100
AcDbBlockTableRecord
  2
*Paper_Space
  0
ENDTAB
  0
TABLE
  2
DIMSTYLE
  5
A
100
AcDbSymbolTable
 70
1
100
AcDbDimStyleTable
 71
0
  0
DIMSTYLE
105
209
100
AcDbSymbolTableRecord
100
AcDbDimStyleTableRecord
  2
STANDARD
 70
0
  3

  4

 40
1.0
 41
0.125
 42
0.0625
 43
0.38
 44
0.18
 45
0.0
 46
0.0
 47
0.01
 48
0.01
140
0.125
141
0.09
142
0.0
143
25.4
144
1.0
145
0.0
146
1.0
147
0.09
 71
1.0
 72
0.0
 73
1
 74
1
 75
0
 76
0
 77
0
 78
4
170
0
171
2
172
0
173
0
174
0
175
0
176
0
177
0
178
0
270
2
271
2
272
2
273
2
274
2
275
0
280
0
281
0
282
0
283
1
284
4
285
0
286
0
287
3
288
0
340
11
  0
ENDTAB
  0
ENDSEC
  0
SECTION
  2
BLOCKS
  0
BLOCK
  5
20
100
AcDbEntity
  8
0
100
AcDbBlockBegin
  2
*Model_Space
 70
0
 10
0.0
 20
0.0
 30
0.0
  3
*Model_Space
  1

  0
ENDBLK
  5
21
100
AcDbEntity
  8
0
100
AcDbBlockEnd
  0
BLOCK
  5
1C
100
AcDbEntity
  8
0
100
AcDbBlockBegin
  2
*Paper_Space
 70
0
 10
0.0
 20
0.0
 30
0.0
  3
*Paper_Space
  1

  0
ENDBLK
  5
1D
100
AcDbEntity
  8
0
100
AcDbBlockEnd
  0
ENDSEC
  0
SECTION
  2
ENTITIES
  0
MTEXT
  5
20A
100
AcDbEntity
  8
0
100
AcDbMText
 62
2
  6
CONTINUOUS
  7
STANDARD
 71
1
 72
1
 10
11.5208414759
 20
19.798872393
 30
0.0
 11
1.0
 21
0.0
 31
0.0
 44
0.9
  1
411282
 40
3.0
 41
14.4
  0
LINE
  5
20B
100
AcDbEntity
  8
02___PRT_ALL_AXES
100
AcDbLine
 62
7
  6
CONTINUOUS
 10
-6.2692328608
 20
0.0019777938
 11
16.280354319
 21
-0.1081415947
  0
LINE
  5
20C
100
AcDbEntity
  8
02___PRT_ALL_AXES
100
AcDbLine
 62
7
  6
CONTINUOUS
 10
-8.2951613637
 20
1.8618933382
 11
-6.2601986183
 21
1.8519557349
  0
LINE
  5
20D
100
AcDbEntity
  8
02___PRT_ALL_AXES
100
AcDbLine
 62
7
  6
CONTINUOUS
 10
16.3013824217
 20
1.7417777752
 11
18.324351307
 21
1.7318987431
  0
LINE
  5
20E
100
AcDbEntity
  8
02___PRT_ALL_AXES
100
AcDbLine
 62
7
  6
CONTINUOUS
 10
-8.2741628541
 20
6.1618420661
 11
-6.2392001086
 21
6.1519044628
  0
LINE
  5
20F
100
AcDbEntity
  8
02___PRT_ALL_AXES
100
AcDbLine
 62
7
  6
CONTINUOUS
 10
16.3224001532
 20
6.0417264092
 11
18.3453498166
 21
6.031847471
  0
LINE
  5
210
100
AcDbEntity
  8
02___PRT_ALL_AXES
100
AcDbLine
 62
7
  6
CONTINUOUS
 10
-6.2301658661
 20
8.0018824039
 11
16.3194213137
 21
7.8917630154
  0
ARC
  5
211
100
AcDbEntity
  8
02___PRT_ALL_AXES
100
AcDbCircle
 62
7
  6
CONTINUOUS
 10
-1021.4937173063
 20
8.9662987213
 40
1015.270469175
100
AcDbArc
 50
359.6835952474
 51
359.8414484254
  0
ARC
  5
212
100
AcDbEntity
  8
02___PRT_ALL_AXES
100
AcDbCircle
 62
7
  6
CONTINUOUS
 10
-998.9441301241
 20
8.8561793328
 40
1015.2704691724
100
AcDbArc
 50
359.6835952474
 51
359.8414484254
  0
CIRCLE
  5
213
100
AcDbEntity
  8
02___PRT_ALL_AXES
100
AcDbCircle
 62
7
  6
CONTINUOUS
 10
32.4157209125
 20
3.3454811333
 40
4.0
  0
CIRCLE
  5
214
100
AcDbEntity
  8
02___PRT_ALL_AXES
100
AcDbCircle
 62
7
  6
CONTINUOUS
 10
32.4157209125
 20
3.3454811333
 40
2.15
  0
CIRCLE
  5
215
100
AcDbEntity
  8
02___PRT_ALL_AXES
100
AcDbCircle
 62
7
  6
CONTINUOUS
 10
32.4157209125
 20
3.3454811333
 40
2.0
  0
SPLINE
  5
216
100
AcDbEntity
  8
02___PRT_ALL_AXES
100
AcDbSpline
 62
7
  6
CONTINUOUS
 70
0
 71
3
 72
9
 73
5
 74
0
 42
0.0000001
 43
0.0000001
 44
0.0000000001
 40
0.0
 40
0.0
 40
0.0
 40
0.0
 40
0.5196262948
 40
1.0
 40
1.0
 40
1.0
 40
1.0
 10
16.3108583202
 20
3.2495749446
 30
0.0
 10
16.3094241557
 20
2.9871290605
 30
0.0
 10
16.306481569
 20
2.482063443
 30
0.0
 10
16.3031274308
 20
1.9770003605
 30
0.0
 10
16.3013873249
 20
1.7343822658
 30
0.0
  0
SPLINE
  5
217
100
AcDbEntity
  8
02___PRT_ALL_AXES
100
AcDbSpline
 62
7
  6
CONTINUOUS
 70
0
 71
3
 72
40
 73
36
 74
0
 42
0.0000001
 43
0.0000001
 44
0.0000000001
 40
0.0
 40
0.0
 40
0.0
 40
0.0
 40
0.1120022279
 40
0.2189876471
 40
0.3205266878
 40
0.4162331417
 40
0.5057280525
 40
0.5886592802
 40
0.6647124207
 40
0.7335785298
 40
0.7949910595
 40
0.8228296215
 40
0.8487178565
 40
0.8726272295
 40
0.894534925
 40
0.9144227555
 40
0.9322726742
 40
0.9480666474
 40
0.961786663
 40
0.9678635603
 40
0.9734166637
 40
0.9784451624
 40
0.9829482542
 40
0.9869251497
 40
0.9903750805
 40
0.9932973146
 40
0.9956911881
 40
0.9966898259
 40
0.9975562035
 40
0.9982903187
 40
0.9988922366
 40
0.9993621661
 40
0.9997006834
 40
0.9999096644
 40
1.0
 40
1.0
 40
1.0
 40
1.0
 10
16.3013873249
 20
1.7343822658
 30
0.0
 10
16.3008939064
 20
1.6655863084
 30
0.0
 10
16.2999085059
 20
1.5310760522
 30
0.0
 10
16.2983989247
 20
1.3341972921
 30
0.0
 10
16.2968954855
 20
1.1473285229
 30
0.0
 10
16.2954044716
 20
0.9712036169
 30
0.0
 10
16.2939316926
 20
0.806508892
 30
0.0
 10
16.292482903
 20
0.6538865676
 30
0.0
 10
16.2910643968
 20
0.5139358597
 30
0.0
 10
16.2896816262
 20
0.3872034337
 30
0.0
 10
16.2885295475
 20
0.2900862485
 30
0.0
 10
16.2876237042
 20
0.2193673451
 30
0.0
 10
16.2869790497
 20
0.1716834321
 30
0.0
 10
16.2863472945
 20
0.1276427452
 30
0.0
 10
16.285729109
 20
0.0872880278
 30
0.0
 10
16.2851252435
 20
0.0506555898
 30
0.0
 10
16.2845364809
 20
0.017778815
 30
0.0
 10
16.2839635522
 20
-0.0113089918
 30
0.0
 10
16.283482798
 20
-0.0331655523
 30
0.0
 10
16.2831021713
 20
-0.0487322355
 30
0.0
 10
16.2828326684
 20
-0.0589612299
 30
0.0
 10
16.282567574
 20
-0.0682232675
 30
0.0
 10
16.282307018
 20
-0.0765168218
 30
0.0
 10
16.2820511685
 20
-0.0838403567
 30
0.0
 10
16.2818003516
 20
-0.0901923987
 30
0.0
 10
16.2815547866
 20
-0.0955713515
 30
0.0
 10
16.281344579
 20
-0.099444711
 30
0.0
 10
16.2811747457
 20
-0.1020550719
 30
0.0
 10
16.2810564205
 20
-0.1036476632
 30
0.0
 10
16.2809404014
 20
-0.1049942974
 30
0.0
 10
16.280824459
 20
-0.1061011521
 30
0.0
 10
16.2807160162
 20
-0.1069516103
 30
0.0
 10
16.2806000108
 20
-0.1075875688
 30
0.0
 10
16.2805144225
 20
-0.1079298852
 30
0.0
 10
16.2804105666
 20
-0.1081406895
 30
0.0
 10
16.2803550778
 20
-0.108140827
 30
0.0
  0
SPLINE
  5
218
100
AcDbEntity
  8
02___PRT_ALL_AXES
100
AcDbSpline
 62
7
  6
CONTINUOUS
 70
0
 71
3
 72
40
 73
36
 74
0
 42
0.0000001
 43
0.0000001
 44
0.0000000001
 40
0.0
 40
0.0
 40
0.0
 40
0.0
 40
0.1119964473
 40
0.2189808487
 40
0.3205241377
 40
0.4162340961
 40
0.5057388441
 40
0.5886765748
 40
0.6647330708
 40
0.7336085123
 40
0.7950234823
 40
0.8228618299
 40
0.8487509682
 40
0.8726635634
 40
0.8945729847
 40
0.9144592051
 40
0.9323058334
 40
0.9480965292
 40
0.9618149734
 40
0.9678920131
 40
0.9734448957
 40
0.9784721058
 40
0.9829729797
 40
0.9869469476
 40
0.9903934608
 40
0.9933120069
 40
0.9957021418
 40
0.9966989602
 40
0.9975635885
 40
0.998296052
 40
0.9988964441
 40
0.9993650024
 40
0.999702334
 40
0.9999103463
 40
1.0
 40
1.0
 40
1.0
 40
1.0
 10
16.3224517549
 20
6.0466787482
 30
0.0
 10
16.3226307418
 20
6.1155639144
 30
0.0
 10
16.3229599768
 20
6.2502515648
 30
0.0
 10
16.3233745857
 20
6.4473951815
 30
0.0
 10
16.3236974917
 20
6.6345216631
 30
0.0
 10
16.3239276262
 20
6.8108971034
 30
0.0
 10
16.324064358
 20
6.9758289603
 30
0.0
 10
16.3241069637
 20
7.1286726595
 30
0.0
 10
16.3240558162
 20
7.2688279379
 30
0.0
 10
16.3239113704
 20
7.3957451903
 30
0.0
 10
16.3237080181
 20
7.4930048941
 30
0.0
 10
16.3234929326
 20
7.5638249794
 30
0.0
 10
16.3233140129
 20
7.611578556
 30
0.0
 10
16.3231124477
 20
7.6556853173
 30
0.0
 10
16.3228883973
 20
7.696099719
 30
0.0
 10
16.3226422133
 20
7.7327829373
 30
0.0
 10
16.3223743991
 20
7.7657024666
 30
0.0
 10
16.322085375
 20
7.7948280537
 30
0.0
 10
16.3218179162
 20
7.8167143611
 30
0.0
 10
16.3215892244
 20
7.832303653
 30
0.0
 10
16.3214195384
 20
7.8425475195
 30
0.0
 10
16.321244784
 20
7.8518216978
 30
0.0
 10
16.3210650932
 20
7.8601244453
 30
0.0
 10
16.3208806215
 20
7.8674545774
 30
0.0
 10
16.3206916831
 20
7.8738110208
 30
0.0
 10
16.3204984858
 20
7.879192579
 30
0.0
 10
16.3203259438
 20
7.8830672568
 30
0.0
 10
16.3201814673
 20
7.8856781147
 30
0.0
 10
16.3200785944
 20
7.8872706875
 30
0.0
 10
16.3199756695
 20
7.888617132
 30
0.0
 10
16.3198703603
 20
7.8897237559
 30
0.0
 10
16.3197703679
 20
7.8905737766
 30
0.0
 10
16.319659989
 20
7.8912096223
 30
0.0
 10
16.3195786352
 20
7.8915512614
 30
0.0
 10
16.3194756977
 20
7.8917623844
 30
0.0
 10
16.3194205548
 20
7.8917622477
 30
0.0
  0
SPLINE
  5
219
100
AcDbEntity
  8
02___PRT_ALL_AXES
100
AcDbSpline
 62
7
  6
CONTINUOUS
 70
0
 71
3
 72
40
 73
36
 74
0
 42
0.0000001
 43
0.0000001
 44
0.0000000001
 40
0.0
 40
0.0
 40
0.0
 40
0.0
 40
0.0000903356
 40
0.0002993166
 40
0.0006378339
 40
0.0011077634
 40
0.0017096813
 40
0.0024437965
 40
0.0033101741
 40
0.0043088119
 40
0.0067026854
 40
0.0096249195
 40
0.0130748503
 40
0.0170517458
 40
0.0215548376
 40
0.0265833363
 40
0.0321364397
 40
0.038213337
 40
0.0519333526
 40
0.0677273258
 40
0.0855772445
 40
0.105465075
 40
0.1273727705
 40
0.1512821435
 40
0.1771703785
 40
0.2050089405
 40
0.2664214702
 40
0.3352875793
 40
0.4113407198
 40
0.4942719475
 40
0.5837668583
 40
0.6794733122
 40
0.7810123529
 40
0.8879977721
 40
1.0
 40
1.0
 40
1.0
 40
1.0
 10
-6.2301666249
 20
8.0018816362
 30
0.0
 10
-6.2302221137
 20
8.0018814987
 30
0.0
 10
-6.2303259696
 20
8.0016706944
 30
0.0
 10
-6.2304115579
 20
8.001328378
 30
0.0
 10
-6.2305275633
 20
8.0006924195
 30
0.0
 10
-6.2306360061
 20
7.9998419613
 30
0.0
 10
-6.2307519485
 20
7.9987351066
 30
0.0
 10
-6.2308679676
 20
7.9973884724
 30
0.0
 10
-6.2309862928
 20
7.9957958811
 30
0.0
 10
-6.2311561261
 20
7.9931855202
 30
0.0
 10
-6.2313663337
 20
7.9893121606
 30
0.0
 10
-6.2316118987
 20
7.9839332079
 30
0.0
 10
-6.2318627156
 20
7.9775811659
 30
0.0
 10
-6.2321185651
 20
7.970257631
 30
0.0
 10
-6.2323791211
 20
7.9619640766
 30
0.0
 10
-6.2326442155
 20
7.9527020391
 30
0.0
 10
-6.2329137184
 20
7.9424730447
 30
0.0
 10
-6.2332943451
 20
7.9269063614
 30
0.0
 10
-6.2337750993
 20
7.905049801
 30
0.0
 10
-6.234348028
 20
7.8759619942
 30
0.0
 10
-6.2349367906
 20
7.8430852194
 30
0.0
 10
-6.2355406561
 20
7.8064527814
 30
0.0
 10
-6.2361588416
 20
7.766098064
 30
0.0
 10
-6.2367905968
 20
7.722057377
 30
0.0
 10
-6.2374352513
 20
7.674373464
 30
0.0
 10
-6.2383410946
 20
7.6036545607
 30
0.0
 10
-6.2394931733
 20
7.5065373755
 30
0.0
 10
-6.2408759439
 20
7.3798049495
 30
0.0
 10
-6.24229445
 20
7.2398542416
 30
0.0
 10
-6.2437432397
 20
7.0872319172
 30
0.0
 10
-6.2452160187
 20
6.9225371923
 30
0.0
 10
-6.2467070326
 20
6.7464122863
 30
0.0
 10
-6.2482104718
 20
6.5595435171
 30
0.0
 10
-6.249720053
 20
6.362664757
 30
0.0
 10
-6.2507054535
 20
6.2281545008
 30
0.0
 10
-6.251198872
 20
6.1593585434
 30
0.0
  0
SPLINE
  5
21A
100
AcDbEntity
  8
02___PRT_ALL_AXES
100
AcDbSpline
 62
7
  6
CONTINUOUS
 70
0
 71
3
 72
41
 73
37
 74
0
 42
0.0000001
 43
0.0000001
 44
0.0000000001
 40
0.0
 40
0.0
 40
0.0
 40
0.0
 40
0.1026371193
 40
0.2031247378
 40
0.3005391124
 40
0.3940927771
 40
0.4830971433
 40
0.5668795288
 40
0.6447941637
 40
0.7162131052
 40
0.7805958913
 40
0.8099899117
 40
0.8374370956
 40
0.8628883511
 40
0.8862976554
 40
0.907618989
 40
0.9268063771
 40
0.9438198942
 40
0.9586320725
 40
0.9652045616
 40
0.9712170012
 40
0.9766661582
 40
0.9815488045
 40
0.9858617191
 40
0.9896020673
 40
0.9927687817
 40
0.9953613416
 40
0.9964421752
 40
0.9973793187
 40
0.9981727518
 40
0.9988224922
 40
0.9993286377
 40
0.9996914946
 40
0.9999121174
 40
0.9999706929
 40
1.0
 40
1.0
 40
1.0
 40
1.0
 10
18.3407472076
 20
3.5366713829
 30
0.0
 10
18.3404097713
 20
3.4749220013
 30
0.0
 10
18.3397223151
 20
3.3527165446
 30
0.0
 10
18.338645093
 20
3.171904256
 30
0.0
 10
18.3375386432
 20
2.9965571926
 30
0.0
 10
18.3364120972
 20
2.8281191563
 30
0.0
 10
18.335274381
 20
2.667882902
 30
0.0
 10
18.3341339891
 20
2.5170559403
 30
0.0
 10
18.3330003981
 20
2.3768092917
 30
0.0
 10
18.3318820664
 20
2.2482344439
 30
0.0
 10
18.3309445505
 20
2.1488509542
 30
0.0
 10
18.3302043468
 20
2.075921852
 30
0.0
 10
18.3296753439
 20
2.0264144747
 30
0.0
 10
18.3291566201
 20
1.9805078288
 30
0.0
 10
18.3286492386
 20
1.9382868389
 30
0.0
 10
18.3281542845
 20
1.8998345601
 30
0.0
 10
18.3276728516
 20
1.8652303851
 30
0.0
 10
18.3272058735
 20
1.8345425624
 30
0.0
 10
18.3268159796
 20
1.8114440615
 30
0.0
 10
18.3265088062
 20
1.7949638026
 30
0.0
 10
18.3262918998
 20
1.7841159911
 30
0.0
 10
18.3260793274
 20
1.7742849801
 30
0.0
 10
18.3258712524
 20
1.765476624
 30
0.0
 10
18.3256678621
 20
1.7576965479
 30
0.0
 10
18.3254694289
 20
1.7509490955
 30
0.0
 10
18.3252761537
 20
1.7452370099
 30
0.0
 10
18.3251116903
 20
1.7411250077
 30
0.0
 10
18.3249793663
 20
1.7383542396
 30
0.0
 10
18.3248877388
 20
1.7366653556
 30
0.0
 10
18.3247974899
 20
1.7352358057
 30
0.0
 10
18.3247096516
 20
1.7340670681
 30
0.0
 10
18.3246226379
 20
1.7331553447
 30
0.0
 10
18.32454285
 20
1.7325092427
 30
0.0
 10
18.3244661164
 20
1.7321216193
 30
0.0
 10
18.3244093371
 20
1.7319530439
 30
0.0
 10
18.3243678973
 20
1.7319051145
 30
0.0
 10
18.3243502702
 20
1.7319055395
 30
0.0
  0
SPLINE
  5
21B
100
AcDbEntity
  8
02___PRT_ALL_AXES
100
AcDbSpline
 62
7
  6
CONTINUOUS
 70
0
 71
3
 72
45
 73
41
 74
0
 42
0.0000001
 43
0.0000001
 44
0.0000000001
 40
0.0
 40
0.0
 40
0.0
 40
0.0
 40
0.0926370669
 40
0.1859109843
 40
0.2785848751
 40
0.3695939337
 40
0.457906734
 40
0.5424865872
 40
0.6223297107
 40
0.6965091758
 40
0.7311979135
 40
0.764153155
 40
0.7952776108
 40
0.8244750195
 40
0.8516617563
 40
0.8767626954
 40
0.8997028716
 40
0.9204093416
 40
0.9388250152
 40
0.947158301
 40
0.9549002948
 40
0.9620448046
 40
0.9685856401
 40
0.9745169341
 40
0.9798350254
 40
0.9845371824
 40
0.9886206853
 40
0.9920828286
 40
0.9935800533
 40
0.9949209378
 40
0.9961051568
 40
0.9971323934
 40
0.9980023453
 40
0.9987147375
 40
0.9992694703
 40
0.9996668796
 40
0.9998068502
 40
0.9999079825
 40
0.9999710502
 40
1.0
 40
1.0
 40
1.0
 40
1.0
 10
18.3407472076
 20
3.5366713829
 30
0.0
 10
18.3411682539
 20
3.6137210292
 30
0.0
 10
18.3419822856
 20
3.7683501843
 30
0.0
 10
18.3431131434
 20
4.0000601483
 30
0.0
 10
18.3441481443
 20
4.2304164527
 30
0.0
 10
18.3450753135
 20
4.4566467779
 30
0.0
 10
18.3458838061
 20
4.6761453062
 30
0.0
 10
18.3465647593
 20
4.8863569651
 30
0.0
 10
18.3471098158
 20
5.0848135904
 30
0.0
 10
18.347453538
 20
5.2417737001
 30
0.0
 10
18.3476520206
 20
5.3597350569
 30
0.0
 10
18.3477602325
 20
5.4418855442
 30
0.0
 10
18.3478309171
 20
5.5194686629
 30
0.0
 10
18.3478637423
 20
5.5922538585
 30
0.0
 10
18.3478587066
 20
5.6600290074
 30
0.0
 10
18.3478160122
 20
5.7225996953
 30
0.0
 10
18.3477359181
 20
5.7797803873
 30
0.0
 10
18.3476185435
 20
5.8314005394
 30
0.0
 10
18.3474863146
 20
5.8708713399
 30
0.0
 10
18.3473593533
 20
5.8995588807
 30
0.0
 10
18.3472582731
 20
5.9188716575
 30
0.0
 10
18.3471482538
 20
5.9366934909
 30
0.0
 10
18.3470293908
 20
5.9530091839
 30
0.0
 10
18.3469017757
 20
5.9678056391
 30
0.0
 10
18.3467655882
 20
5.9810726279
 30
0.0
 10
18.3466211042
 20
5.9928025319
 30
0.0
 10
18.3464685323
 20
6.0029885008
 30
0.0
 10
18.3463292568
 20
6.0105086403
 30
0.0
 10
18.3462110975
 20
6.0157475416
 30
0.0
 10
18.346124878
 20
6.0190920124
 30
0.0
 10
18.3460368099
 20
6.0220453434
 30
0.0
 10
18.3459469662
 20
6.024606808
 30
0.0
 10
18.3458555952
 20
6.0267752304
 30
0.0
 10
18.3457628249
 20
6.0285509012
 30
0.0
 10
18.3456698032
 20
6.02993094
 30
0.0
 10
18.3455847573
 20
6.0308383823
 30
0.0
 10
18.3455135974
 20
6.0313609903
 30
0.0
 10
18.3454621267
 20
6.0316154998
 30
0.0
 10
18.3454236539
 20
6.0317588359
 30
0.0
 10
18.3453749253
 20
6.0318400941
 30
0.0
 10
18.3453508534
 20
6.0318406745
 30
0.0
  0
SPLINE
  5
21C
100
AcDbEntity
  8
02___PRT_ALL_AXES
100
AcDbSpline
 62
7
  6
CONTINUOUS
 70
0
 71
3
 72
40
 73
36
 74
0
 42
0.0000001
 43
0.0000001
 44
0.0000000001
 40
0.0
 40
0.0
 40
0.0
 40
0.0
 40
0.0000896537
 40
0.000297666
 40
0.0006349976
 40
0.0011035559
 40
0.001703948
 40
0.0024364115
 40
0.0033010398
 40
0.0042978582
 40
0.0066879931
 40
0.0096065392
 40
0.0130530524
 40
0.0170270203
 40
0.0215278942
 40
0.0265551043
 40
0.0321079869
 40
0.0381850266
 40
0.0519034708
 40
0.0676941666
 40
0.0855407949
 40
0.1054270153
 40
0.1273364366
 40
0.1512490318
 40
0.1771381701
 40
0.2049765177
 40
0.2663914877
 40
0.3352669292
 40
0.4113234252
 40
0.4942611559
 40
0.5837659039
 40
0.6794758623
 40
0.7810191513
 40
0.8880035527
 40
1.0
 40
1.0
 40
1.0
 40
1.0
 10
-6.2692321019
 20
0.0019785614
 30
0.0
 10
-6.2692872448
 20
0.0019784248
 30
0.0
 10
-6.2693901823
 20
0.0021895477
 30
0.0
 10
-6.2694715361
 20
0.0025311869
 30
0.0
 10
-6.269581915
 20
0.0031670326
 30
0.0
 10
-6.2696819074
 20
0.0040170533
 30
0.0
 10
-6.2697872166
 20
0.0051236772
 30
0.0
 10
-6.2698901415
 20
0.0064701217
 30
0.0
 10
-6.2699930144
 20
0.0080626945
 30
0.0
 10
-6.2701374909
 20
0.0106735524
 30
0.0
 10
-6.2703100329
 20
0.0145482302
 30
0.0
 10
-6.2705032302
 20
0.0199297884
 30
0.0
 10
-6.2706921686
 20
0.0262862317
 30
0.0
 10
-6.2708766403
 20
0.0336163639
 30
0.0
 10
-6.2710563311
 20
0.0419191114
 30
0.0
 10
-6.2712310854
 20
0.0511932897
 30
0.0
 10
-6.2714007715
 20
0.0614371562
 30
0.0
 10
-6.2716294633
 20
0.0770264481
 30
0.0
 10
-6.2718969221
 20
0.0989127555
 30
0.0
 10
-6.2721859462
 20
0.1280383426
 30
0.0
 10
-6.2724537604
 20
0.1609578719
 30
0.0
 10
-6.2726999444
 20
0.1976410902
 30
0.0
 10
-6.2729239948
 20
0.2380554919
 30
0.0
 10
-6.27312556
 20
0.2821622532
 30
0.0
 10
-6.2733044797
 20
0.3299158298
 30
0.0
 10
-6.2735195652
 20
0.4007359151
 30
0.0
 10
-6.2737229175
 20
0.4979956189
 30
0.0
 10
-6.2738673633
 20
0.6249128713
 30
0.0
 10
-6.2739185108
 20
0.7650681497
 30
0.0
 10
-6.2738759051
 20
0.9179118489
 30
0.0
 10
-6.2737391733
 20
1.0828437058
 30
0.0
 10
-6.2735090388
 20
1.2592191461
 30
0.0
 10
-6.2731861328
 20
1.4463456276
 30
0.0
 10
-6.2727715239
 20
1.6434892443
 30
0.0
 10
-6.2724422889
 20
1.7781768948
 30
0.0
 10
-6.272263302
 20
1.847062061
 30
0.0
  0
SPLINE
  5
21D
100
AcDbEntity
  8
02___PRT_ALL_AXES
100
AcDbSpline
 62
7
  6
CONTINUOUS
 70
0
 71
3
 72
45
 73
41
 74
0
 42
0.0000001
 43
0.0000001
 44
0.0000000001
 40
0.0
 40
0.0
 40
0.0
 40
0.0
 40
0.0926370669
 40
0.1859109843
 40
0.2785848751
 40
0.3695939337
 40
0.457906734
 40
0.5424865872
 40
0.6223297107
 40
0.6965091758
 40
0.7311979135
 40
0.764153155
 40
0.7952776108
 40
0.8244750195
 40
0.8516617563
 40
0.8767626954
 40
0.8997028716
 40
0.9204093416
 40
0.9388250152
 40
0.947158301
 40
0.9549002948
 40
0.9620448046
 40
0.9685856401
 40
0.9745169341
 40
0.9798350254
 40
0.9845371824
 40
0.9886206853
 40
0.9920828286
 40
0.9935800533
 40
0.9949209378
 40
0.9961051568
 40
0.9971323934
 40
0.9980023453
 40
0.9987147375
 40
0.9992694703
 40
0.9996668796
 40
0.9998068502
 40
0.9999079825
 40
0.9999710502
 40
1.0
 40
1.0
 40
1.0
 40
1.0
 10
-8.2787654631
 20
3.6666659781
 30
0.0
 10
-8.2783444168
 20
3.7437156244
 30
0.0
 10
-8.2775303851
 20
3.8983447795
 30
0.0
 10
-8.2763995274
 20
4.1300547435
 30
0.0
 10
-8.2753645265
 20
4.3604110479
 30
0.0
 10
-8.2744373573
 20
4.5866413731
 30
0.0
 10
-8.2736288646
 20
4.8061399013
 30
0.0
 10
-8.2729479115
 20
5.0163515603
 30
0.0
 10
-8.2724028549
 20
5.2148081856
 30
0.0
 10
-8.2720591327
 20
5.3717682952
 30
0.0
 10
-8.2718606501
 20
5.4897296521
 30
0.0
 10
-8.2717524382
 20
5.5718801394
 30
0.0
 10
-8.2716817536
 20
5.6494632581
 30
0.0
 10
-8.2716489284
 20
5.7222484537
 30
0.0
 10
-8.2716539642
 20
5.7900236026
 30
0.0
 10
-8.2716966585
 20
5.8525942905
 30
0.0
 10
-8.2717767527
 20
5.9097749824
 30
0.0
 10
-8.2718941272
 20
5.9613951346
 30
0.0
 10
-8.2720263561
 20
6.0008659351
 30
0.0
 10
-8.2721533174
 20
6.0295534759
 30
0.0
 10
-8.2722543976
 20
6.0488662527
 30
0.0
 10
-8.272364417
 20
6.066688086
 30
0.0
 10
-8.2724832799
 20
6.0830037791
 30
0.0
 10
-8.272610895
 20
6.0978002343
 30
0.0
 10
-8.2727470825
 20
6.1110672231
 30
0.0
 10
-8.2728915665
 20
6.1227971271
 30
0.0
 10
-8.2730441384
 20
6.1329830959
 30
0.0
 10
-8.273183414
 20
6.1405032355
 30
0.0
 10
-8.2733015732
 20
6.1457421367
 30
0.0
 10
-8.2733877927
 20
6.1490866076
 30
0.0
 10
-8.2734758608
 20
6.1520399385
 30
0.0
 10
-8.2735657046
 20
6.1546014032
 30
0.0
 10
-8.2736570755
 20
6.1567698256
 30
0.0
 10
-8.2737498459
 20
6.1585454963
 30
0.0
 10
-8.2738428675
 20
6.1599255351
 30
0.0
 10
-8.2739279134
 20
6.1608329775
 30
0.0
 10
-8.2739990733
 20
6.1613555855
 30
0.0
 10
-8.274050544
 20
6.1616100949
 30
0.0
 10
-8.2740890168
 20
6.1617534311
 30
0.0
 10
-8.2741377454
 20
6.1618346893
 30
0.0
 10
-8.2741618173
 20
6.1618352697
 30
0.0
  0
SPLINE
  5
21E
100
AcDbEntity
  8
02___PRT_ALL_AXES
100
AcDbSpline
 62
7
  6
CONTINUOUS
 70
0
 71
3
 72
40
 73
36
 74
0
 42
0.0000001
 43
0.0000001
 44
0.0000000001
 40
0.0
 40
0.0
 40
0.0
 40
0.0
 40
0.1119964473
 40
0.2189808487
 40
0.3205241377
 40
0.4162340961
 40
0.5057388441
 40
0.5886765748
 40
0.6647330708
 40
0.7336085123
 40
0.7950234823
 40
0.8228618299
 40
0.8487509682
 40
0.8726635634
 40
0.8945729847
 40
0.9144592051
 40
0.9323058334
 40
0.9480965292
 40
0.9618149734
 40
0.9678920131
 40
0.9734448957
 40
0.9784721058
 40
0.9829729797
 40
0.9869469476
 40
0.9903934608
 40
0.9933120069
 40
0.9957021418
 40
0.9966989602
 40
0.9975635885
 40
0.998296052
 40
0.9988964441
 40
0.9993650024
 40
0.999702334
 40
0.9999103463
 40
1.0
 40
1.0
 40
1.0
 40
1.0
 10
-6.2271354249
 20
6.1567981367
 30
0.0
 10
-6.226956438
 20
6.2256833029
 30
0.0
 10
-6.2266272029
 20
6.3603709533
 30
0.0
 10
-6.226212594
 20
6.55751457
 30
0.0
 10
-6.2258896881
 20
6.7446410515
 30
0.0
 10
-6.2256595536
 20
6.9210164918
 30
0.0
 10
-6.2255228218
 20
7.0859483488
 30
0.0
 10
-6.225480216
 20
7.2387920479
 30
0.0
 10
-6.2255313635
 20
7.3789473264
 30
0.0
 10
-6.2256758094
 20
7.5058645788
 30
0.0
 10
-6.2258791616
 20
7.6031242825
 30
0.0
 10
-6.2260942472
 20
7.6739443678
 30
0.0
 10
-6.2262731668
 20
7.7216979445
 30
0.0
 10
-6.226474732
 20
7.7658047058
 30
0.0
 10
-6.2266987824
 20
7.8062191074
 30
0.0
 10
-6.2269449664
 20
7.8429023258
 30
0.0
 10
-6.2272127806
 20
7.8758218551
 30
0.0
 10
-6.2275018048
 20
7.9049474422
 30
0.0
 10
-6.2277692636
 20
7.9268337496
 30
0.0
 10
-6.2279979554
 20
7.9424230414
 30
0.0
 10
-6.2281676414
 20
7.952666908
 30
0.0
 10
-6.2283423957
 20
7.9619410863
 30
0.0
 10
-6.2285220865
 20
7.9702438338
 30
0.0
 10
-6.2287065582
 20
7.9775739659
 30
0.0
 10
-6.2288954967
 20
7.9839304093
 30
0.0
 10
-6.229088694
 20
7.9893119675
 30
0.0
 10
-6.2292612359
 20
7.9931866453
 30
0.0
 10
-6.2294057124
 20
7.9957975032
 30
0.0
 10
-6.2295085854
 20
7.997390076
 30
0.0
 10
-6.2296115103
 20
7.9987365204
 30
0.0
 10
-6.2297168194
 20
7.9998431443
 30
0.0
 10
-6.2298168119
 20
8.0006931651
 30
0.0
 10
-6.2299271908
 20
8.0013290107
 30
0.0
 10
-6.2300085445
 20
8.0016706499
 30
0.0
 10
-6.230111482
 20
8.0018817729
 30
0.0
 10
-6.2301666249
 20
8.0018816362
 30
0.0
  0
SPLINE
  5
21F
100
AcDbEntity
  8
02___PRT_ALL_AXES
100
AcDbSpline
 62
7
  6
CONTINUOUS
 70
0
 71
3
 72
41
 73
37
 74
0
 42
0.0000001
 43
0.0000001
 44
0.0000000001
 40
0.0
 40
0.0
 40
0.0
 40
0.0
 40
0.1026371193
 40
0.2031247378
 40
0.3005391124
 40
0.3940927771
 40
0.4830971433
 40
0.5668795288
 40
0.6447941637
 40
0.7162131052
 40
0.7805958913
 40
0.8099899117
 40
0.8374370956
 40
0.8628883511
 40
0.8862976554
 40
0.907618989
 40
0.9268063771
 40
0.9438198942
 40
0.9586320725
 40
0.9652045616
 40
0.9712170012
 40
0.9766661582
 40
0.9815488045
 40
0.9858617191
 40
0.9896020673
 40
0.9927687817
 40
0.9953613416
 40
0.9964421752
 40
0.9973793187
 40
0.9981727518
 40
0.9988224922
 40
0.9993286377
 40
0.9996914946
 40
0.9999121174
 40
0.9999706929
 40
1.0
 40
1.0
 40
1.0
 40
1.0
 10
-8.2787654631
 20
3.6666659781
 30
0.0
 10
-8.2791028994
 20
3.6049165965
 30
0.0
 10
-8.2797903556
 20
3.4827111398
 30
0.0
 10
-8.2808675778
 20
3.3018988512
 30
0.0
 10
-8.2819740276
 20
3.1265517878
 30
0.0
 10
-8.2831005735
 20
2.9581137515
 30
0.0
 10
-8.2842382897
 20
2.7978774972
 30
0.0
 10
-8.2853786817
 20
2.6470505355
 30
0.0
 10
-8.2865122727
 20
2.5068038869
 30
0.0
 10
-8.2876306044
 20
2.3782290391
 30
0.0
 10
-8.2885681202
 20
2.2788455494
 30
0.0
 10
-8.2893083239
 20
2.2059164472
 30
0.0
 10
-8.2898373268
 20
2.1564090699
 30
0.0
 10
-8.2903560506
 20
2.1105024239
 30
0.0
 10
-8.2908634322
 20
2.0682814341
 30
0.0
 10
-8.2913583862
 20
2.0298291552
 30
0.0
 10
-8.2918398191
 20
1.9952249803
 30
0.0
 10
-8.2923067972
 20
1.9645371576
 30
0.0
 10
-8.2926966911
 20
1.9414386566
 30
0.0
 10
-8.2930038645
 20
1.9249583978
 30
0.0
 10
-8.2932207709
 20
1.9141105863
 30
0.0
 10
-8.2934333433
 20
1.9042795753
 30
0.0
 10
-8.2936414184
 20
1.8954712192
 30
0.0
 10
-8.2938448087
 20
1.8876911431
 30
0.0
 10
-8.2940432419
 20
1.8809436907
 30
0.0
 10
-8.2942365171
 20
1.8752316051
 30
0.0
 10
-8.2944009805
 20
1.8711196029
 30
0.0
 10
-8.2945333045
 20
1.8683488348
 30
0.0
 10
-8.2946249319
 20
1.8666599508
 30
0.0
 10
-8.2947151808
 20
1.8652304009
 30
0.0
 10
-8.2948030191
 20
1.8640616632
 30
0.0
 10
-8.2948900328
 20
1.8631499399
 30
0.0
 10
-8.2949698207
 20
1.8625038379
 30
0.0
 10
-8.2950465543
 20
1.8621162144
 30
0.0
 10
-8.2951033336
 20
1.8619476391
 30
0.0
 10
-8.2951447734
 20
1.8618997096
 30
0.0
 10
-8.2951624005
 20
1.8619001347
 30
0.0
  0
SPLINE
  5
220
100
AcDbEntity
  8
02___PRT_ALL_AXES
100
AcDbSpline
 62
7
  6
CONTINUOUS
 70
0
 71
3
 72
41
 73
37
 74
0
 42
0.0000001
 43
0.0000001
 44
0.0000000001
 40
0.0
 40
0.0
 40
0.0
 40
0.0
 40
0.0000293071
 40
0.0000878826
 40
0.0003085054
 40
0.0006713623
 40
0.0011775078
 40
0.0018272482
 40
0.0026206813
 40
0.0035578248
 40
0.0046386584
 40
0.0072312183
 40
0.0103979327
 40
0.0141382809
 40
0.0184511955
 40
0.0233338418
 40
0.0287829988
 40
0.0347954384
 40
0.0413679275
 40
0.0561801058
 40
0.0731936229
 40
0.092381011
 40
0.1137023446
 40
0.1371116489
 40
0.1625629044
 40
0.1900100883
 40
0.2194041087
 40
0.2837868948
 40
0.3552058363
 40
0.4331204712
 40
0.5169028567
 40
0.6059072229
 40
0.6994608876
 40
0.7968752622
 40
0.8973628807
 40
1.0
 40
1.0
 40
1.0
 40
1.0
 10
-8.2748943958
 20
6.0118375324
 30
0.0
 10
-8.2749107931
 20
6.0118379278
 30
0.0
 10
-8.2749493417
 20
6.0117933422
 30
0.0
 10
-8.2750021597
 20
6.011636528
 30
0.0
 10
-8.2750735398
 20
6.011275948
 30
0.0
 10
-8.2751477611
 20
6.0106749229
 30
0.0
 10
-8.2752287041
 20
6.0098268082
 30
0.0
 10
-8.2753104141
 20
6.0087396103
 30
0.0
 10
-8.2753943666
 20
6.0074097965
 30
0.0
 10
-8.2754796014
 20
6.0058387416
 30
0.0
 10
-8.2756026935
 20
6.0032612829
 30
0.0
 10
-8.2757556827
 20
5.9994361646
 30
0.0
 10
-8.2759354736
 20
5.9941225966
 30
0.0
 10
-8.2761200626
 20
5.9878458967
 30
0.0
 10
-8.2763092629
 20
5.9806086166
 30
0.0
 10
-8.2765028211
 20
5.972414797
 30
0.0
 10
-8.2767005628
 20
5.9632696705
 30
0.0
 10
-8.2769023362
 20
5.953178683
 30
0.0
 10
-8.277188079
 20
5.9378482097
 30
0.0
 10
-8.277550771
 20
5.916361232
 30
0.0
 10
-8.2779851692
 20
5.8878144202
 30
0.0
 10
-8.2784330138
 20
5.85562449
 30
0.0
 10
-8.2788934361
 20
5.8198549283
 30
0.0
 10
-8.2793654189
 20
5.7805795889
 30
0.0
 10
-8.2798479527
 20
5.7378757322
 30
0.0
 10
-8.2803400485
 20
5.691822358
 30
0.0
 10
-8.28102861
 20
5.6239813327
 30
0.0
 10
-8.2819007178
 20
5.5315315748
 30
0.0
 10
-8.2829410264
 20
5.4119270652
 30
0.0
 10
-8.2839955296
 20
5.2814650665
 30
0.0
 10
-8.2850563593
 20
5.1411609161
 30
0.0
 10
-8.2861147
 20
4.9921039354
 30
0.0
 10
-8.2871626497
 20
4.83541739
 30
0.0
 10
-8.2881919053
 20
4.6723038426
 30
0.0
 10
-8.2891939725
 20
4.5041063649
 30
0.0
 10
-8.2898334666
 20
4.3904268703
 30
0.0
 10
-8.2901473608
 20
4.332985585
 30
0.0
  0
SPLINE
  5
221
100
AcDbEntity
  8
02___PRT_ALL_AXES
100
AcDbSpline
 62
7
  6
CONTINUOUS
 70
0
 71
3
 72
41
 73
37
 74
0
 42
0.0000001
 43
0.0000001
 44
0.0000000001
 40
0.0
 40
0.0
 40
0.0
 40
0.0
 40
0.1026371193
 40
0.2031247378
 40
0.3005391124
 40
0.3940927771
 40
0.4830971433
 40
0.5668795288
 40
0.6447941637
 40
0.7162131052
 40
0.7805958913
 40
0.8099899117
 40
0.8374370956
 40
0.8628883511
 40
0.8862976554
 40
0.907618989
 40
0.9268063771
 40
0.9438198942
 40
0.9586320725
 40
0.9652045616
 40
0.9712170012
 40
0.9766661582
 40
0.9815488045
 40
0.9858617191
 40
0.9896020673
 40
0.9927687817
 40
0.9953613416
 40
0.9964421752
 40
0.9973793187
 40
0.9981727518
 40
0.9988224922
 40
0.9993286377
 40
0.9996914946
 40
0.9999121174
 40
0.9999706929
 40
1.0
 40
1.0
 40
1.0
 40
1.0
 10
-6.2438027176
 20
3.6567283747
 30
0.0
 10
-6.2441401539
 20
3.5949789931
 30
0.0
 10
-6.2448276101
 20
3.4727735364
 30
0.0
 10
-6.2459048323
 20
3.2919612479
 30
0.0
 10
-6.2470112821
 20
3.1166141844
 30
0.0
 10
-6.248137828
 20
2.9481761481
 30
0.0
 10
-6.2492755442
 20
2.7879398938
 30
0.0
 10
-6.2504159362
 20
2.6371129321
 30
0.0
 10
-6.2515495272
 20
2.4968662835
 30
0.0
 10
-6.2526678589
 20
2.3682914357
 30
0.0
 10
-6.2536053747
 20
2.268907946
 30
0.0
 10
-6.2543455784
 20
2.1959788438
 30
0.0
 10
-6.2548745813
 20
2.1464714666
 30
0.0
 10
-6.2553933052
 20
2.1005648206
 30
0.0
 10
-6.2559006867
 20
2.0583438307
 30
0.0
 10
-6.2563956407
 20
2.0198915519
 30
0.0
 10
-6.2568770736
 20
1.9852873769
 30
0.0
 10
-6.2573440517
 20
1.9545995542
 30
0.0
 10
-6.2577339456
 20
1.9315010533
 30
0.0
 10
-6.258041119
 20
1.9150207944
 30
0.0
 10
-6.2582580254
 20
1.9041729829
 30
0.0
 10
-6.2584705978
 20
1.8943419719
 30
0.0
 10
-6.2586786729
 20
1.8855336158
 30
0.0
 10
-6.2588820632
 20
1.8777535397
 30
0.0
 10
-6.2590804964
 20
1.8710060874
 30
0.0
 10
-6.2592737716
 20
1.8652940018
 30
0.0
 10
-6.259438235
 20
1.8611819995
 30
0.0
 10
-6.259570559
 20
1.8584112314
 30
0.0
 10
-6.2596621864
 20
1.8567223474
 30
0.0
 10
-6.2597524353
 20
1.8552927976
 30
0.0
 10
-6.2598402736
 20
1.8541240599
 30
0.0
 10
-6.2599272873
 20
1.8532123366
 30
0.0
 10
-6.2600070752
 20
1.8525662345
 30
0.0
 10
-6.2600838088
 20
1.8521786111
 30
0.0
 10
-6.2601405882
 20
1.8520100358
 30
0.0
 10
-6.2601820279
 20
1.8519621063
 30
0.0
 10
-6.260199655
 20
1.8519625313
 30
0.0
  0
SPLINE
  5
222
100
AcDbEntity
  8
02___PRT_ALL_AXES
100
AcDbSpline
 62
7
  6
CONTINUOUS
 70
0
 71
3
 72
44
 73
40
 74
0
 42
0.0000001
 43
0.0000001
 44
0.0000000001
 40
0.0
 40
0.0
 40
0.0
 40
0.0
 40
0.0000289498
 40
0.0000920175
 40
0.0001931498
 40
0.0003331204
 40
0.0007305297
 40
0.0012852625
 40
0.0019976547
 40
0.0028676066
 40
0.0038948432
 40
0.0050790622
 40
0.0064199467
 40
0.0079171714
 40
0.0113793147
 40
0.0154628176
 40
0.0201649747
 40
0.0254830659
 40
0.03141436
 40
0.0379551955
 40
0.0450997052
 40
0.0611749836
 40
0.0795906572
 40
0.1002971272
 40
0.1232373034
 40
0.1483382426
 40
0.1755249794
 40
0.2047223881
 40
0.235846844
 40
0.2688020855
 40
0.3034908232
 40
0.3776702885
 40
0.457513412
 40
0.5420932654
 40
0.6304060658
 40
0.7214151245
 40
0.8140890155
 40
0.907362933
 40
1.0
 40
1.0
 40
1.0
 40
1.0
 10
-8.294429822
 20
2.0118978719
 30
0.0
 10
-8.2944522145
 20
2.0118984119
 30
0.0
 10
-8.2944975435
 20
2.0119740009
 30
0.0
 10
-8.2945333321
 20
2.0121073368
 30
0.0
 10
-8.2945812118
 20
2.0123440898
 30
0.0
 10
-8.2946474071
 20
2.0128302367
 30
0.0
 10
-8.2947265195
 20
2.0136743692
 30
0.0
 10
-8.2948130513
 20
2.0149581262
 30
0.0
 10
-8.2948993493
 20
2.016609913
 30
0.0
 10
-8.2949843455
 20
2.01862705
 30
0.0
 10
-8.2950679211
 20
2.0210098079
 30
0.0
 10
-8.2951498449
 20
2.0237570925
 30
0.0
 10
-8.2952300491
 20
2.0268682282
 30
0.0
 10
-8.2953399647
 20
2.0317416246
 30
0.0
 10
-8.2954695233
 20
2.0387371033
 30
0.0
 10
-8.2956114507
 20
2.0482124232
 30
0.0
 10
-8.2957458543
 20
2.0591239618
 30
0.0
 10
-8.2958725408
 20
2.0714653467
 30
0.0
 10
-8.2959912503
 20
2.0852294911
 30
0.0
 10
-8.2961018303
 20
2.10040688
 30
0.0
 10
-8.2962439183
 20
2.1234328377
 30
0.0
 10
-8.2963961156
 20
2.1556466875
 30
0.0
 10
-8.2965393381
 20
2.1983538107
 30
0.0
 10
-8.2966484752
 20
2.246372558
 30
0.0
 10
-8.2967229966
 20
2.299563899
 30
0.0
 10
-8.2967627076
 20
2.3577691902
 30
0.0
 10
-8.2967673935
 20
2.4208158403
 30
0.0
 10
-8.2967368579
 20
2.488522999
 30
0.0
 10
-8.296671105
 20
2.560693342
 30
0.0
 10
-8.2965704427
 20
2.6371124
 30
0.0
 10
-8.2963858077
 20
2.7468438947
 30
0.0
 10
-8.2960660661
 20
2.892853299
 30
0.0
 10
-8.2955590368
 20
3.0774641132
 30
0.0
 10
-8.294925592
 20
3.2730098425
 30
0.0
 10
-8.2941735058
 20
3.4771945199
 30
0.0
 10
-8.2933110228
 20
3.6876413341
 30
0.0
 10
-8.2923482313
 20
3.9019262684
 30
0.0
 10
-8.2912962706
 20
4.1174704209
 30
0.0
 10
-8.2905390318
 20
4.2613114955
 30
0.0
 10
-8.2901473608
 20
4.332985585
 30
0.0
  0
SPLINE
  5
223
100
AcDbEntity
  8
02___PRT_ALL_AXES
100
AcDbSpline
 62
7
  6
CONTINUOUS
 70
0
 71
3
 72
45
 73
41
 74
0
 42
0.0000001
 43
0.0000001
 44
0.0000000001
 40
0.0
 40
0.0
 40
0.0
 40
0.0
 40
0.0926370669
 40
0.1859109843
 40
0.2785848751
 40
0.3695939337
 40
0.457906734
 40
0.5424865872
 40
0.6223297107
 40
0.6965091758
 40
0.7311979135
 40
0.764153155
 40
0.7952776108
 40
0.8244750195
 40
0.8516617563
 40
0.8767626954
 40
0.8997028716
 40
0.9204093416
 40
0.9388250152
 40
0.947158301
 40
0.9549002948
 40
0.9620448046
 40
0.9685856401
 40
0.9745169341
 40
0.9798350254
 40
0.9845371824
 40
0.9886206853
 40
0.9920828286
 40
0.9935800533
 40
0.9949209378
 40
0.9961051568
 40
0.9971323934
 40
0.9980023453
 40
0.9987147375
 40
0.9992694703
 40
0.9996668796
 40
0.9998068502
 40
0.9999079825
 40
0.9999710502
 40
1.0
 40
1.0
 40
1.0
 40
1.0
 10
-6.2438027176
 20
3.6567283747
 30
0.0
 10
-6.2433816713
 20
3.733778021
 30
0.0
 10
-6.2425676396
 20
3.8884071761
 30
0.0
 10
-6.2414367819
 20
4.1201171401
 30
0.0
 10
-6.240401781
 20
4.3504734445
 30
0.0
 10
-6.2394746118
 20
4.5767037698
 30
0.0
 10
-6.2386661191
 20
4.796202298
 30
0.0
 10
-6.237985166
 20
5.0064139569
 30
0.0
 10
-6.2374401094
 20
5.2048705822
 30
0.0
 10
-6.2370963872
 20
5.3618306919
 30
0.0
 10
-6.2368979046
 20
5.4797920487
 30
0.0
 10
-6.2367896927
 20
5.561942536
 30
0.0
 10
-6.2367190082
 20
5.6395256548
 30
0.0
 10
-6.2366861829
 20
5.7123108503
 30
0.0
 10
-6.2366912187
 20
5.7800859992
 30
0.0
 10
-6.236733913
 20
5.8426566871
 30
0.0
 10
-6.2368140072
 20
5.8998373791
 30
0.0
 10
-6.2369313817
 20
5.9514575312
 30
0.0
 10
-6.2370636106
 20
5.9909283317
 30
0.0
 10
-6.2371905719
 20
6.0196158725
 30
0.0
 10
-6.2372916522
 20
6.0389286493
 30
0.0
 10
-6.2374016715
 20
6.0567504827
 30
0.0
 10
-6.2375205344
 20
6.0730661757
 30
0.0
 10
-6.2376481495
 20
6.0878626309
 30
0.0
 10
-6.2377843371
 20
6.1011296197
 30
0.0
 10
-6.237928821
 20
6.1128595237
 30
0.0
 10
-6.238081393
 20
6.1230454926
 30
0.0
 10
-6.2382206685
 20
6.1305656322
 30
0.0
 10
-6.2383388278
 20
6.1358045334
 30
0.0
 10
-6.2384250472
 20
6.1391490043
 30
0.0
 10
-6.2385131153
 20
6.1421023352
 30
0.0
 10
-6.2386029591
 20
6.1446637999
 30
0.0
 10
-6.23869433
 20
6.1468322222
 30
0.0
 10
-6.2387871004
 20
6.148607893
 30
0.0
 10
-6.238880122
 20
6.1499879318
 30
0.0
 10
-6.2389651679
 20
6.1508953742
 30
0.0
 10
-6.2390363278
 20
6.1514179821
 30
0.0
 10
-6.2390877985
 20
6.1516724916
 30
0.0
 10
-6.2391262713
 20
6.1518158277
 30
0.0
 10
-6.2391749999
 20
6.1518970859
 30
0.0
 10
-6.2391990719
 20
6.1518976663
 30
0.0
  0
SPLINE
  5
224
100
AcDbEntity
  8
02___PRT_ALL_AXES
100
AcDbSpline
 62
7
  6
CONTINUOUS
 70
0
 71
3
 72
9
 73
5
 74
0
 42
0.0000001
 43
0.0000001
 44
0.0000000001
 40
0.0
 40
0.0
 40
0.0
 40
0.0
 40
0.5196262948
 40
1.0
 40
1.0
 40
1.0
 40
1.0
 10
-6.2387288596
 20
3.3596943331
 30
0.0
 10
-6.2401630241
 20
3.097248449
 30
0.0
 10
-6.2431056107
 20
2.5921828314
 30
0.0
 10
-6.246459749
 20
2.087119749
 30
0.0
 10
-6.2481998548
 20
1.8445016543
 30
0.0
  0
SPLINE
  5
225
100
AcDbEntity
  8
02___PRT_ALL_AXES
100
AcDbSpline
 62
7
  6
CONTINUOUS
 70
0
 71
3
 72
40
 73
36
 74
0
 42
0.0000001
 43
0.0000001
 44
0.0000000001
 40
0.0
 40
0.0
 40
0.0
 40
0.0
 40
0.1120022279
 40
0.2189876471
 40
0.3205266878
 40
0.4162331417
 40
0.5057280525
 40
0.5886592802
 40
0.6647124207
 40
0.7335785298
 40
0.7949910595
 40
0.8228296215
 40
0.8487178565
 40
0.8726272295
 40
0.894534925
 40
0.9144227555
 40
0.9322726742
 40
0.9480666474
 40
0.961786663
 40
0.9678635603
 40
0.9734166637
 40
0.9784451624
 40
0.9829482542
 40
0.9869251497
 40
0.9903750805
 40
0.9932973146
 40
0.9956911881
 40
0.9966898259
 40
0.9975562035
 40
0.9982903187
 40
0.9988922366
 40
0.9993621661
 40
0.9997006834
 40
0.9999096644
 40
1.0
 40
1.0
 40
1.0
 40
1.0
 10
-6.2481998548
 20
1.8445016543
 30
0.0
 10
-6.2486932733
 20
1.7757056969
 30
0.0
 10
-6.2496786738
 20
1.6411954407
 30
0.0
 10
-6.2511882551
 20
1.4443166806
 30
0.0
 10
-6.2526916942
 20
1.2574479113
 30
0.0
 10
-6.2541827082
 20
1.0813230053
 30
0.0
 10
-6.2556554872
 20
0.9166282805
 30
0.0
 10
-6.2571042768
 20
0.764005956
 30
0.0
 10
-6.258522783
 20
0.6240552481
 30
0.0
 10
-6.2599055535
 20
0.4973228221
 30
0.0
 10
-6.2610576322
 20
0.4002056369
 30
0.0
 10
-6.2619634755
 20
0.3294867336
 30
0.0
 10
-6.26260813
 20
0.2818028206
 30
0.0
 10
-6.2632398852
 20
0.2377621337
 30
0.0
 10
-6.2638580708
 20
0.1974074163
 30
0.0
 10
-6.2644619362
 20
0.1607749782
 30
0.0
 10
-6.2650506988
 20
0.1278982034
 30
0.0
 10
-6.2656236275
 20
0.0988103966
 30
0.0
 10
-6.2661043817
 20
0.0769538362
 30
0.0
 10
-6.2664850085
 20
0.061387153
 30
0.0
 10
-6.2667545113
 20
0.0511581585
 30
0.0
 10
-6.2670196057
 20
0.041896121
 30
0.0
 10
-6.2672801617
 20
0.0336025667
 30
0.0
 10
-6.2675360113
 20
0.0262790318
 30
0.0
 10
-6.2677868282
 20
0.0199269898
 30
0.0
 10
-6.2680323931
 20
0.014548037
 30
0.0
 10
-6.2682426007
 20
0.0106746775
 30
0.0
 10
-6.268412434
 20
0.0080643166
 30
0.0
 10
-6.2685307593
 20
0.0064717253
 30
0.0
 10
-6.2686467784
 20
0.005125091
 30
0.0
 10
-6.2687627207
 20
0.0040182364
 30
0.0
 10
-6.2688711635
 20
0.0031677782
 30
0.0
 10
-6.2689871689
 20
0.0025318197
 30
0.0
 10
-6.2690727573
 20
0.0021895033
 30
0.0
 10
-6.2691766131
 20
0.0019786989
 30
0.0
 10
-6.2692321019
 20
0.0019785614
 30
0.0
  0
ENDSEC
  0
SECTION
  2
OBJECTS
  0
DICTIONARY
  5
C
100
AcDbDictionary
280
0
281
1
  3
ACAD_GROUP
350
D
  3
ACAD_MLINESTYLE
350
17
  3
ACAD_LAYOUT
350
1A
  3
ACAD_PLOTSETTINGS
350
19
  3
ACAD_PLOTSTYLENAME
350
E
  0
DICTIONARY
  5
D
102
{ACAD_REACTORS
330
C
102
}
100
AcDbDictionary
280
0
281
1
  0
ACDBDICTIONARYWDFLT
  5
E
102
{ACAD_REACTORS
330
C
102
}
100
AcDbDictionary
281
1
  3
Normal
350
F
100
AcDbDictionaryWithDefault
340
F
  0
DICTIONARY
  5
17
102
{ACAD_REACTORS
330
C
102
}
100
AcDbDictionary
280
0
281
1
  3
Standard
350
18
  0
DICTIONARY
  5
19
102
{ACAD_REACTORS
330
C
102
}
100
AcDbDictionary
281
1
  0
DICTIONARY
  5
1A
102
{ACAD_REACTORS
330
C
102
}
100
AcDbDictionary
281
1
  3
Model
350
226
  3
Layout1
350
227
  0
ACDBPLACEHOLDER
  5
F
102
{ACAD_REACTORS
330
E
102
}
  0
MLINESTYLE
  5
18
102
{ACAD_REACTORS
330
17
102
}
100
AcDbMlineStyle
  2
STANDARD
 70
0
  3

 62
256
 51
90.0
 52
90.0
 71
2
 49
0.5
 62
256
  6
BYLAYER
 49
-0.5
 62
256
  6
BYLAYER
  0
LAYOUT
  5
226
102
{ACAD_REACTORS
330
1A
102
}
100
AcDbPlotSettings
  1

  2
none_device
  4

  6

 40
0.0
 41
0.0
 42
0.0
 43
0.0
 44
431.8
 45
279.4
 46
0.0
 47
0.0
 48
0.0
 49
0.0
140
0.0
141
0.0
142
1.0
143
1.0
 70
1024
 72
0
 73
0
 74
0
  7

 75
0
147
1.0
148
0.0
149
0.0
100
AcDbLayout
  1
Model
 70
0
 71
0
 10
0.0
 20
0.0
 11
17.0
 21
11.0
 12
0.0
 22
0.0
 32
0.0
 14
0.0
 24
0.0
 34
0.0
 15
0.0
 25
0.0
 35
0.0
146
0.0
 13
0.0
 23
0.0
 33
0.0
 16
1.0
 26
0.0
 36
0.0
 17
0.0
 27
1.0
 37
0.0
 76
0
330
207
345
0
346
0
  0
LAYOUT
  5
227
102
{ACAD_REACTORS
330
1A
102
}
100
AcDbPlotSettings
  1

  2
none_device
  4

  6

 40
0.0
 41
0.0
 42
0.0
 43
0.0
 44
431.8
 45
279.4
 46
0.0
 47
0.0
 48
0.0
 49
0.0
140
0.0
141
0.0
142
1.0
143
1.0
 70
0
 72
0
 73
0
 74
0
  7

 75
0
147
1.0
148
0.0
149
0.0
100
AcDbLayout
  1
Layout1
 70
0
 71
1
 10
0.0
 20
0.0
 11
17.0
 21
11.0
 12
0.0
 22
0.0
 32
0.0
 14
0.0
 24
0.0
 34
0.0
 15
0.0
 25
0.0
 35
0.0
146
0.0
 13
0.0
 23
0.0
 33
0.0
 16
1.0
 26
0.0
 36
0.0
 17
0.0
 27
1.0
 37
0.0
 76
0
330
208
345
0
346
0
  0
ENDSEC
  0
EOF
