999
DXF file: N:\Master\master\M3_ProE_files\Lenexa\MADAM DXF\411125.dxf
999
Pro/ENGINEER 2010280 by Parametric Technology Corporation
  0
SECTION
  2
HEADER
  9
$ACADVER
  1
AC1021
  9
$DWGCODEPAGE
  3
ANSI_1252
  9
$EXTMAX
 10
17.0
 20
11.0
 30
0.0
  9
$EXTMIN
 10
0.0
 20
-0.0
 30
0.0
  9
$LIMMIN
 10
0.0
 20
-0.0
  9
$LIMMAX
 10
17.0
 20
11.0
  9
$VIEWCTR
 10
8.5
 20
5.5
  9
$VIEWSIZE
 40
11.0
  9
$CLAYER
  8
0
  9
$LTSCALE
 40
0.935
  9
$CELTYPE
  6
BYLAYER
  9
$DIMSCALE
 40
1.0
  9
$DIMASZ
 40
0.125
  9
$DIMEXO
 40
0.10625
  9
$DIMDLI
 40
0.646
  9
$DIMEXE
 40
0.306
  9
$DIMCEN
 40
0.153
  9
$DIMLFAC
 40
1.0
  9
$DIMBLK
  1
_FILLED
  9
$DIMTXT
 40
0.125
  9
$DIMTOL
 70
1
  9
$DIMLIM
 70
0
  9
$DIMTFAC
 40
1.0
  9
$DIMTP
 40
0.01
  9
$DIMTM
 40
0.01
  9
$PDMODE
 70
3
  9
$PDSIZE
 40
0.3125
  9
$HANDSEED
  5
228
  9
$TILEMODE
 70
1
  9
$MEASUREMENT
 70
0
  9
$INSUNITS
 70
1
  0
ENDSEC
  0
SECTION
  2
CLASSES
  0
CLASS
  1
ACDBDICTIONARYWDFLT
  2
AcDbDictionaryWithDefault
  3
AutoCAD 2000
 90
0
 91
1
280
0
281
0
  0
CLASS
  1
ACDBPLACEHOLDER
  2
AcDbPlaceHolder
  3
AutoCAD 2000
 90
0
 91
1
280
0
281
0
  0
CLASS
  1
LAYOUT
  2
AcDbLayout
  3
AutoCAD 2000
 90
0
 91
0
280
0
281
0
  0
ENDSEC
  0
SECTION
  2
TABLES
  0
TABLE
  2
VPORT
  5
8
100
AcDbSymbolTable
 70
2
  0
VPORT
  5
1F4
100
AcDbSymbolTableRecord
100
AcDbViewportTableRecord
  2
*ACTIVE
 70
0
 10
0.0
 20
0.0
 11
1.0
 21
1.0
 12
8.5
 22
5.5
 13
0.0
 23
0.0
 14
1.0
 24
1.0
 15
0.0
 25
0.0
 16
0.0
 26
0.0
 36
1.0
 17
0.0
 27
0.0
 37
0.0
 40
11.0
 41
1.5454545455
 42
50.0
 43
0.0
 44
0.0
 50
0.0
 51
0.0
 71
0
 72
100
 73
1
 74
1
 75
0
 76
0
 77
0
 78
0
  0
ENDTAB
  0
TABLE
  2
LTYPE
  5
5
100
AcDbSymbolTable
 70
6
  0
LTYPE
  5
14
100
AcDbSymbolTableRecord
100
AcDbLinetypeTableRecord
  2
BYBLOCK
 70
0
  3

 72
65
 73
0
 40
0.0
  0
LTYPE
  5
15
100
AcDbSymbolTableRecord
100
AcDbLinetypeTableRecord
  2
BYLAYER
 70
0
  3

 72
65
 73
0
 40
0.0
  0
LTYPE
  5
16
100
AcDbSymbolTableRecord
100
AcDbLinetypeTableRecord
  2
CONTINUOUS
 70
64
  3
Solid line
 72
65
 73
0
 40
0.0
  0
LTYPE
  5
1F5
100
AcDbSymbolTableRecord
100
AcDbLinetypeTableRecord
  2
CENTER
 70
64
  3
____ _ ____ _ ____ _ ____ _ ____ _ ____ _ ____
 72
65
 73
4
 40
0.6
 49
0.375
 74
0
 49
-0.075
 74
0
 49
0.075
 74
0
 49
-0.075
 74
0
  0
LTYPE
  5
1F6
100
AcDbSymbolTableRecord
100
AcDbLinetypeTableRecord
  2
HIDDEN
 70
64
  3
- - - - - - - - - - - - - - - - - - - -
 72
65
 73
2
 40
0.2
 49
0.1
 74
0
 49
-0.1
 74
0
  0
LTYPE
  5
1F7
100
AcDbSymbolTableRecord
100
AcDbLinetypeTableRecord
  2
PHANTOM
 70
64
  3
_____ _ _ _____ _ _ _____ _ _ _____
 72
65
 73
6
 40
0.8
 49
0.45
 74
0
 49
-0.05
 74
0
 49
0.1
 74
0
 49
-0.05
 74
0
 49
0.1
 74
0
 49
-0.05
 74
0
  0
LTYPE
  5
1F8
100
AcDbSymbolTableRecord
100
AcDbLinetypeTableRecord
  2
DOT
 70
64
  3
. . . . . . . . . . . . . . . . . . . .
 72
65
 73
2
 40
0.2
 49
0.1
 74
0
 49
-0.1
 74
0
  0
LTYPE
  5
1F9
100
AcDbSymbolTableRecord
100
AcDbLinetypeTableRecord
  2
DASHED
 70
64
  3
- - - - - - - - - - - - - - - - - - - -
 72
65
 73
2
 40
0.2
 49
0.1
 74
0
 49
-0.1
 74
0
  0
ENDTAB
  0
TABLE
  2
LAYER
  5
2
100
AcDbSymbolTable
 70
36
  0
LAYER
  5
10
100
AcDbSymbolTableRecord
100
AcDbLayerTableRecord
  2
0
 70
0
 62
7
  6
CONTINUOUS
370
-3
390
F
  0
LAYER
  5
1FA
100
AcDbSymbolTableRecord
100
AcDbLayerTableRecord
  2
DEFAULT_1
 70
0
 62
7
  6
CENTER
370
-3
390
F
  0
LAYER
  5
1FB
100
AcDbSymbolTableRecord
100
AcDbLayerTableRecord
  2
DEFAULT_2
 70
0
 62
8
  6
HIDDEN
370
-3
390
F
  0
LAYER
  5
1FC
100
AcDbSymbolTableRecord
100
AcDbLayerTableRecord
  2
DEFAULT_3
 70
0
 62
7
  6
PHANTOM
370
-3
390
F
  0
LAYER
  5
1FD
100
AcDbSymbolTableRecord
100
AcDbLayerTableRecord
  2
01___PRT_ALL_DTM_PLN
 70
0
 62
7
  6
CONTINUOUS
370
-3
390
F
  0
LAYER
  5
1FE
100
AcDbSymbolTableRecord
100
AcDbLayerTableRecord
  2
01___PRT_DEF_DTM_PLN
 70
0
 62
7
  6
CONTINUOUS
370
-3
390
F
  0
LAYER
  5
1FF
100
AcDbSymbolTableRecord
100
AcDbLayerTableRecord
  2
02___PRT_ALL_AXES
 70
0
 62
7
  6
CONTINUOUS
370
-3
390
F
  0
LAYER
  5
200
100
AcDbSymbolTableRecord
100
AcDbLayerTableRecord
  2
03___PRT_ALL_CURVES
 70
0
 62
7
  6
CONTINUOUS
370
-3
390
F
  0
LAYER
  5
201
100
AcDbSymbolTableRecord
100
AcDbLayerTableRecord
  2
04___PRT_ALL_DTM_PNT
 70
0
 62
7
  6
CONTINUOUS
370
-3
390
F
  0
LAYER
  5
202
100
AcDbSymbolTableRecord
100
AcDbLayerTableRecord
  2
05___PRT_ALL_DTM_CSYS
 70
0
 62
7
  6
CONTINUOUS
370
-3
390
F
  0
LAYER
  5
203
100
AcDbSymbolTableRecord
100
AcDbLayerTableRecord
  2
05___PRT_DEF_DTM_CSYS
 70
0
 62
7
  6
CONTINUOUS
370
-3
390
F
  0
LAYER
  5
204
100
AcDbSymbolTableRecord
100
AcDbLayerTableRecord
  2
06___PRT_ALL_SURFS
 70
0
 62
7
  6
CONTINUOUS
370
-3
390
F
  0
ENDTAB
  0
TABLE
  2
STYLE
  5
3
100
AcDbSymbolTable
 70
1
  0
STYLE
  5
11
100
AcDbSymbolTableRecord
100
AcDbTextStyleTableRecord
  2
STANDARD
 70
0
 40
0.0
 41
0.8
 50
0.0
 71
0
 42
0.2
  3
txt
  4

  0
STYLE
  5
205
100
AcDbSymbolTableRecord
100
AcDbTextStyleTableRecord
  2
TEXTSTYLE_1
 70
0
 40
0.0
 41
0.8
 50
0.0
 71
0
 42
0.2
  3
gdt
  4

  0
ENDTAB
  0
TABLE
  2
VIEW
  5
6
100
AcDbSymbolTable
 70
0
  0
ENDTAB
  0
TABLE
  2
UCS
  5
7
100
AcDbSymbolTable
 70
0
  0
ENDTAB
  0
TABLE
  2
APPID
  5
9
100
AcDbSymbolTable
 70
1
  0
APPID
  5
206
100
AcDbSymbolTableRecord
100
AcDbRegAppTableRecord
  2
ACAD
 70
0
  0
ENDTAB
  0
TABLE
  2
BLOCK_RECORD
  5
1
100
AcDbSymbolTable
 70
0
  0
BLOCK_RECORD
  5
207
100
AcDbSymbolTableRecord
100
AcDbBlockTableRecord
  2
*Model_Space
  0
BLOCK_RECORD
  5
208
100
AcDbSymbolTableRecord
100
AcDbBlockTableRecord
  2
*Paper_Space
  0
ENDTAB
  0
TABLE
  2
DIMSTYLE
  5
A
100
AcDbSymbolTable
 70
1
100
AcDbDimStyleTable
 71
0
  0
DIMSTYLE
105
209
100
AcDbSymbolTableRecord
100
AcDbDimStyleTableRecord
  2
STANDARD
 70
0
  3

  4

 40
1.0
 41
0.125
 42
0.0625
 43
0.38
 44
0.18
 45
0.0
 46
0.0
 47
0.01
 48
0.01
140
0.125
141
0.09
142
0.0
143
25.4
144
1.0
145
0.0
146
1.0
147
0.09
 71
1.0
 72
0.0
 73
1
 74
1
 75
0
 76
0
 77
0
 78
4
170
0
171
2
172
0
173
0
174
0
175
0
176
0
177
0
178
0
270
2
271
2
272
2
273
2
274
2
275
0
280
0
281
0
282
0
283
1
284
4
285
0
286
0
287
3
288
0
340
11
  0
ENDTAB
  0
ENDSEC
  0
SECTION
  2
BLOCKS
  0
BLOCK
  5
20
100
AcDbEntity
  8
0
100
AcDbBlockBegin
  2
*Model_Space
 70
0
 10
0.0
 20
0.0
 30
0.0
  3
*Model_Space
  1

  0
ENDBLK
  5
21
100
AcDbEntity
  8
0
100
AcDbBlockEnd
  0
BLOCK
  5
1C
100
AcDbEntity
  8
0
100
AcDbBlockBegin
  2
*Paper_Space
 70
0
 10
0.0
 20
0.0
 30
0.0
  3
*Paper_Space
  1

  0
ENDBLK
  5
1D
100
AcDbEntity
  8
0
100
AcDbBlockEnd
  0
ENDSEC
  0
SECTION
  2
ENTITIES
  0
MTEXT
  5
20A
100
AcDbEntity
  8
0
100
AcDbMText
 62
2
  6
CONTINUOUS
  7
STANDARD
 71
1
 72
1
 10
11.5208414759
 20
19.798872393
 30
0.0
 11
1.0
 21
0.0
 31
0.0
 44
0.9
  1
411125
 40
3.0
 41
14.4
  0
LINE
  5
20B
100
AcDbEntity
  8
02___PRT_ALL_AXES
100
AcDbLine
 62
7
  6
CONTINUOUS
 10
-6.2802204531
 20
-2.2479953778
 11
16.2693667267
 21
-2.3581147663
  0
LINE
  5
20C
100
AcDbEntity
  8
02___PRT_ALL_AXES
100
AcDbLine
 62
7
  6
CONTINUOUS
 10
-8.3049281124
 20
-0.1380828143
 11
-6.2699653669
 21
-0.1480204176
  0
LINE
  5
20D
100
AcDbEntity
  8
02___PRT_ALL_AXES
100
AcDbLine
 62
7
  6
CONTINUOUS
 10
16.2962319817
 20
-0.2582209208
 11
18.3145845583
 21
-0.2680774095
  0
LINE
  5
20E
100
AcDbEntity
  8
02___PRT_ALL_AXES
100
AcDbLine
 62
7
  6
CONTINUOUS
 10
-8.2643961054
 20
8.1618182186
 11
-6.2294333599
 21
8.1518806153
  0
LINE
  5
20F
100
AcDbEntity
  8
02___PRT_ALL_AXES
100
AcDbLine
 62
7
  6
CONTINUOUS
 10
16.3367693085
 20
8.0416800862
 11
18.3551165653
 21
8.0318236235
  0
LINE
  5
210
100
AcDbEntity
  8
02___PRT_ALL_AXES
100
AcDbLine
 62
7
  6
CONTINUOUS
 10
-6.2191782738
 20
10.2518555754
 11
16.330408906
 21
10.141736187
  0
ARC
  5
211
100
AcDbEntity
  8
02___PRT_ALL_AXES
100
AcDbCircle
 62
7
  6
CONTINUOUS
 10
-1472.2131229519
 20
11.2393241751
 40
1466.003687245
100
AcDbArc
 50
359.6779199474
 51
359.8797789009
  0
ARC
  5
212
100
AcDbEntity
  8
02___PRT_ALL_AXES
100
AcDbCircle
 62
7
  6
CONTINUOUS
 10
-1449.6635357708
 20
11.1292047875
 40
1466.0036872437
100
AcDbArc
 50
359.6779199474
 51
359.8797789009
  0
ARC
  5
213
100
AcDbEntity
  8
02___PRT_ALL_AXES
100
AcDbCircle
 62
7
  6
CONTINUOUS
 10
-1169.2355905899
 20
9.0780074971
 40
1163.0188998607
100
AcDbArc
 50
359.5448715668
 51
359.7004903991
  0
ARC
  5
214
100
AcDbEntity
  8
02___PRT_ALL_AXES
100
AcDbCircle
 62
7
  6
CONTINUOUS
 10
-1146.6860034065
 20
8.9678881898
 40
1163.0188998576
100
AcDbArc
 50
359.5448715628
 51
359.700490395
  0
CIRCLE
  5
215
100
AcDbEntity
  8
02___PRT_ALL_AXES
100
AcDbCircle
 62
7
  6
CONTINUOUS
 10
32.4157209125
 20
3.3454811333
 40
6.25
  0
CIRCLE
  5
216
100
AcDbEntity
  8
02___PRT_ALL_AXES
100
AcDbCircle
 62
7
  6
CONTINUOUS
 10
32.4157209125
 20
3.3454811333
 40
4.15
  0
CIRCLE
  5
217
100
AcDbEntity
  8
02___PRT_ALL_AXES
100
AcDbCircle
 62
7
  6
CONTINUOUS
 10
32.4157209125
 20
3.3454811333
 40
4.0
  0
SPLINE
  5
218
100
AcDbEntity
  8
02___PRT_ALL_AXES
100
AcDbSpline
 62
7
  6
CONTINUOUS
 70
0
 71
3
 72
39
 73
35
 74
0
 42
0.0000001
 43
0.0000001
 44
0.0000000001
 40
0.0
 40
0.0
 40
0.0
 40
0.0
 40
0.114702276
 40
0.2235628263
 40
0.3262870862
 40
0.4225923829
 40
0.5122020311
 40
0.5948757473
 40
0.6703870039
 40
0.7385161391
 40
0.7990833235
 40
0.826479493
 40
0.8519231528
 40
0.8753942868
 40
0.8968779789
 40
0.9163617258
 40
0.93383305
 40
0.9492794921
 40
0.9626886224
 40
0.9686253701
 40
0.974048824
 40
0.9789585009
 40
0.9833539385
 40
0.9872346927
 40
0.9906003481
 40
0.9934505396
 40
0.9957849964
 40
0.9976036493
 40
0.9983196772
 40
0.9989070264
 40
0.9993660638
 40
0.9996976577
 40
0.9999044077
 40
1.0
 40
1.0
 40
1.0
 40
1.0
 10
16.2962208531
 20
-0.2704434968
 30
0.0
 10
16.2955763662
 20
-0.350274511
 30
0.0
 10
16.2942946904
 20
-0.5058705839
 30
0.0
 10
16.292339616
 20
-0.7329603512
 30
0.0
 10
16.2904060222
 20
-0.9472453809
 30
0.0
 10
16.2884994908
 20
-1.1481313213
 30
0.0
 10
16.2866251465
 20
-1.3350615902
 30
0.0
 10
16.2847885683
 20
-1.5075186765
 30
0.0
 10
16.2829953469
 20
-1.6650247464
 30
0.0
 10
16.2812503126
 20
-1.8071440076
 30
0.0
 10
16.2797966996
 20
-1.9157758198
 30
0.0
 10
16.2786533844
 20
-1.9946996501
 30
0.0
 10
16.2778399106
 20
-2.047806411
 30
0.0
 10
16.2770420382
 20
-2.0967977798
 30
0.0
 10
16.2762604204
 20
-2.1416406941
 30
0.0
 10
16.2754957567
 20
-2.1823073235
 30
0.0
 10
16.2747488312
 20
-2.2187715298
 30
0.0
 10
16.2740203549
 20
-2.2510071818
 30
0.0
 10
16.2734073951
 20
-2.2752151785
 30
0.0
 10
16.2729209172
 20
-2.2924479597
 30
0.0
 10
16.2725759336
 20
-2.3037666678
 30
0.0
 10
16.2722359908
 20
-2.314012237
 30
0.0
 10
16.2719012207
 20
-2.3231836045
 30
0.0
 10
16.2715718576
 20
-2.3312797648
 30
0.0
 10
16.2712481838
 20
-2.338299607
 30
0.0
 10
16.2709308149
 20
-2.344242434
 30
0.0
 10
16.2706203751
 20
-2.3491065937
 30
0.0
 10
16.2703519015
 20
-2.3524860579
 30
0.0
 10
16.2701324824
 20
-2.3546467161
 30
0.0
 10
16.2699809929
 20
-2.3558668692
 30
0.0
 10
16.2698396648
 20
-2.3568083789
 30
0.0
 10
16.2696865
 20
-2.3575036555
 30
0.0
 10
16.2695751369
 20
-2.3578970049
 30
0.0
 10
16.2694329064
 20
-2.3581151297
 30
0.0
 10
16.2693663752
 20
-2.3581146584
 30
0.0
  0
SPLINE
  5
219
100
AcDbEntity
  8
02___PRT_ALL_AXES
100
AcDbSpline
 62
7
  6
CONTINUOUS
 70
0
 71
3
 72
39
 73
35
 74
0
 42
0.0000001
 43
0.0000001
 44
0.0000000001
 40
0.0
 40
0.0
 40
0.0
 40
0.0
 40
0.1146962632
 40
0.2235512911
 40
0.3262720056
 40
0.4225733463
 40
0.5121799253
 40
0.5948532246
 40
0.6703635197
 40
0.7384922472
 40
0.7990614203
 40
0.8264584439
 40
0.8519023075
 40
0.8753737029
 40
0.896858683
 40
0.9163443146
 40
0.9338176761
 40
0.9492658643
 40
0.9626760082
 40
0.9686131471
 40
0.9740372959
 40
0.9789479238
 40
0.9833445121
 40
0.9872265598
 40
0.9905935948
 40
0.993445195
 40
0.9957810327
 40
0.9976009811
 40
0.9983176066
 40
0.9989055098
 40
0.9993650496
 40
0.9996970844
 40
0.9999041972
 40
1.0
 40
1.0
 40
1.0
 40
1.0
 10
16.3368709742
 20
8.0531590406
 30
0.0
 10
16.3370063254
 20
8.133016756
 30
0.0
 10
16.3372445954
 20
8.288665249
 30
0.0
 10
16.3375078313
 20
8.5158335697
 30
0.0
 10
16.3376674978
 20
8.7301944308
 30
0.0
 10
16.3377232962
 20
8.931153519
 30
0.0
 10
16.3376749325
 20
9.1181545007
 30
0.0
 10
16.3375230046
 20
9.2906795576
 30
0.0
 10
16.3372683371
 20
9.4482504222
 30
0.0
 10
16.336911523
 20
9.5904309427
 30
0.0
 10
16.3365190685
 20
9.6991121161
 30
0.0
 10
16.336146694
 20
9.7780735504
 30
0.0
 10
16.3358519531
 20
9.8312055373
 30
0.0
 10
16.3355326014
 20
9.880221014
 30
0.0
 10
16.335189006
 20
9.9250877704
 30
0.0
 10
16.3348215729
 20
9.9657780265
 30
0.0
 10
16.3344308276
 20
10.002264711
 30
0.0
 10
16.3340172252
 20
10.0345207523
 30
0.0
 10
16.3336407013
 20
10.0587443905
 30
0.0
 10
16.3333225163
 20
10.0759886965
 30
0.0
 10
16.3330880797
 20
10.0873156817
 30
0.0
 10
16.3328482023
 20
10.0975696775
 30
0.0
 10
16.3326030061
 20
10.1067495076
 30
0.0
 10
16.332352715
 20
10.1148540455
 30
0.0
 10
16.332097599
 20
10.1218820589
 30
0.0
 10
16.3318382681
 20
10.1278327258
 30
0.0
 10
16.3315753235
 20
10.1327042689
 30
0.0
 10
16.331339858
 20
10.1360896867
 30
0.0
 10
16.3311415269
 20
10.1382548689
 30
0.0
 10
16.331001972
 20
10.139478044
 30
0.0
 10
16.330869758
 20
10.1404222699
 30
0.0
 10
16.3307235214
 20
10.1411202188
 30
0.0
 10
16.3306156995
 20
10.1415154443
 30
0.0
 10
16.330475959
 20
10.1417356066
 30
0.0
 10
16.3304092575
 20
10.1417360791
 30
0.0
  0
SPLINE
  5
21A
100
AcDbEntity
  8
02___PRT_ALL_AXES
100
AcDbSpline
 62
7
  6
CONTINUOUS
 70
0
 71
3
 72
39
 73
35
 74
0
 42
0.0000001
 43
0.0000001
 44
0.0000000001
 40
0.0
 40
0.0
 40
0.0
 40
0.0
 40
0.0000955923
 40
0.0003023423
 40
0.0006339362
 40
0.0010929736
 40
0.0016803228
 40
0.0023963507
 40
0.0042150036
 40
0.0065494604
 40
0.0093996519
 40
0.0127653073
 40
0.0166460615
 40
0.0210414991
 40
0.025951176
 40
0.0313746299
 40
0.0373113776
 40
0.0507205079
 40
0.06616695
 40
0.0836382742
 40
0.1031220211
 40
0.1246057132
 40
0.1480768472
 40
0.173520507
 40
0.2009166765
 40
0.2614838609
 40
0.3296129961
 40
0.4051242527
 40
0.4877979689
 40
0.5774076171
 40
0.6737129138
 40
0.7764371737
 40
0.885297724
 40
1.0
 40
1.0
 40
1.0
 40
1.0
 10
-6.2191779223
 20
10.2518554676
 30
0.0
 10
-6.2192444535
 20
10.2518559389
 30
0.0
 10
-6.219386684
 20
10.2516378141
 30
0.0
 10
-6.2194980471
 20
10.2512444647
 30
0.0
 10
-6.2196512119
 20
10.250549188
 30
0.0
 10
-6.21979254
 20
10.2496076784
 30
0.0
 10
-6.2199440295
 20
10.2483875253
 30
0.0
 10
-6.2201634486
 20
10.246226867
 30
0.0
 10
-6.2204319222
 20
10.2428474029
 30
0.0
 10
-6.220742362
 20
10.2379832432
 30
0.0
 10
-6.2210597309
 20
10.2320404162
 30
0.0
 10
-6.2213834047
 20
10.225020574
 30
0.0
 10
-6.2217127678
 20
10.2169244137
 30
0.0
 10
-6.2220475379
 20
10.2077530461
 30
0.0
 10
-6.2223874807
 20
10.197507477
 30
0.0
 10
-6.2227324643
 20
10.1861887689
 30
0.0
 10
-6.2232189422
 20
10.1689559877
 30
0.0
 10
-6.223831902
 20
10.144747991
 30
0.0
 10
-6.2245603783
 20
10.112512339
 30
0.0
 10
-6.2253073038
 20
10.0760481326
 30
0.0
 10
-6.2260719675
 20
10.0353815033
 30
0.0
 10
-6.2268535853
 20
9.990538589
 30
0.0
 10
-6.2276514577
 20
9.9415472202
 30
0.0
 10
-6.2284649315
 20
9.8884404592
 30
0.0
 10
-6.2296082467
 20
9.8095166289
 30
0.0
 10
-6.2310618597
 20
9.7008848168
 30
0.0
 10
-6.232806894
 20
9.5587655556
 30
0.0
 10
-6.2346001154
 20
9.4012594857
 30
0.0
 10
-6.2364366936
 20
9.2288023994
 30
0.0
 10
-6.2383110379
 20
9.0418721305
 30
0.0
 10
-6.2402175693
 20
8.8409861901
 30
0.0
 10
-6.2421511631
 20
8.6267011604
 30
0.0
 10
-6.2441062375
 20
8.3996113931
 30
0.0
 10
-6.2453879133
 20
8.2440153201
 30
0.0
 10
-6.2460324002
 20
8.164184306
 30
0.0
  0
SPLINE
  5
21B
100
AcDbEntity
  8
02___PRT_ALL_AXES
100
AcDbSpline
 62
7
  6
CONTINUOUS
 70
0
 71
3
 72
45
 73
41
 74
0
 42
0.0000001
 43
0.0000001
 44
0.0000000001
 40
0.0
 40
0.0
 40
0.0
 40
0.0
 40
0.1026583834
 40
0.2031209516
 40
0.300491896
 40
0.3940303436
 40
0.4830356944
 40
0.5668204383
 40
0.6447202608
 40
0.7161393652
 40
0.7492402667
 40
0.7805179514
 40
0.8099127643
 40
0.8373650685
 40
0.862819459
 40
0.8862302984
 40
0.9075533264
 40
0.9267443191
 40
0.9437640183
 40
0.9514505089
 40
0.9585834853
 40
0.9651594939
 40
0.971175083
 40
0.9766268044
 40
0.9815112675
 40
0.9858261697
 40
0.9895702301
 40
0.9927422263
 40
0.99411333
 40
0.9953409789
 40
0.996425038
 40
0.9973653841
 40
0.9981619134
 40
0.9988145598
 40
0.9993233367
 40
0.9996884631
 40
0.9998174228
 40
0.9999110297
 40
0.9999702942
 40
1.0
 40
1.0
 40
1.0
 40
1.0
 10
18.3462324595
 20
3.2155535
 30
0.0
 10
18.3455809919
 20
3.0963377537
 30
0.0
 10
18.3442541515
 20
2.8604564352
 30
0.0
 10
18.342175185
 20
2.5115003706
 30
0.0
 10
18.3400399355
 20
2.1731358615
 30
0.0
 10
18.3378660734
 20
1.8480771885
 30
0.0
 10
18.3356700034
 20
1.5387967423
 30
0.0
 10
18.3334694223
 20
1.2476780022
 30
0.0
 10
18.3312810295
 20
0.9769827566
 30
0.0
 10
18.3294391575
 20
0.7651459843
 30
0.0
 10
18.3279778939
 20
0.6074504351
 30
0.0
 10
18.3269235116
 20
0.4985561719
 30
0.0
 10
18.3258848546
 20
0.3962218095
 30
0.0
 10
18.3248639507
 20
0.3006502389
 30
0.0
 10
18.3238627496
 20
0.2120280783
 30
0.0
 10
18.3228834322
 20
0.1305240932
 30
0.0
 10
18.321928118
 20
0.0562940736
 30
0.0
 10
18.3209987756
 20
-0.0105135789
 30
0.0
 10
18.3202236452
 20
-0.061485653
 30
0.0
 10
18.319613265
 20
-0.0984555504
 30
0.0
 10
18.3191787448
 20
-0.123298393
 30
0.0
 10
18.3187520326
 20
-0.1462006383
 30
0.0
 10
18.3183333766
 20
-0.1671502303
 30
0.0
 10
18.3179230841
 20
-0.1861351774
 30
0.0
 10
18.3175214234
 20
-0.2031448054
 30
0.0
 10
18.3171288062
 20
-0.2181709428
 30
0.0
 10
18.3167455958
 20
-0.2312078865
 30
0.0
 10
18.3164210149
 20
-0.2408263735
 30
0.0
 10
18.316161815
 20
-0.2475229604
 30
0.0
 10
18.3159794727
 20
-0.2517959526
 30
0.0
 10
18.3157997468
 20
-0.2555682971
 30
0.0
 10
18.3156227556
 20
-0.2588395557
 30
0.0
 10
18.3154488633
 20
-0.2616089537
 30
0.0
 10
18.3152783196
 20
-0.2638768379
 30
0.0
 10
18.3151127935
 20
-0.2656409227
 30
0.0
 10
18.3149667167
 20
-0.266799016
 30
0.0
 10
18.3148473464
 20
-0.2674682818
 30
0.0
 10
18.3147631942
 20
-0.2677903124
 30
0.0
 10
18.3146988621
 20
-0.2679817571
 30
0.0
 10
18.314619843
 20
-0.2680765276
 30
0.0
 10
18.3145853456
 20
-0.268076613
 30
0.0
  0
SPLINE
  5
21C
100
AcDbEntity
  8
02___PRT_ALL_AXES
100
AcDbSpline
 62
7
  6
CONTINUOUS
 70
0
 71
3
 72
46
 73
42
 74
0
 42
0.0000001
 43
0.0000001
 44
0.0000000001
 40
0.0
 40
0.0
 40
0.0
 40
0.0
 40
0.0926731265
 40
0.185935787
 40
0.2786047008
 40
0.3696315061
 40
0.4579581519
 40
0.5425394806
 40
0.6223877881
 40
0.6965710786
 40
0.7312617319
 40
0.7642161636
 40
0.795338958
 40
0.8245355615
 40
0.8517218755
 40
0.8768207927
 40
0.8997556099
 40
0.9204586553
 40
0.9388731351
 40
0.9472046199
 40
0.9549429447
 40
0.9620823095
 40
0.9686184181
 40
0.9745470737
 40
0.9798640828
 40
0.984565257
 40
0.9886464167
 40
0.9921038302
 40
0.9935980515
 40
0.9949357539
 40
0.9961167976
 40
0.997141051
 40
0.9980083972
 40
0.9987187461
 40
0.9992720661
 40
0.9994898736
 40
0.9996684979
 40
0.9998080438
 40
0.9999087609
 40
0.9999714024
 40
1.0
 40
1.0
 40
1.0
 40
1.0
 10
18.3462324595
 20
3.2155535
 30
0.0
 10
18.3470454954
 20
3.3643355457
 30
0.0
 10
18.3486171315
 20
3.6628464333
 30
0.0
 10
18.3507998219
 20
4.1101336377
 30
0.0
 10
18.352797703
 20
4.5547785549
 30
0.0
 10
18.3545872933
 20
4.9914996525
 30
0.0
 10
18.3561483225
 20
5.4152371372
 30
0.0
 10
18.3574623981
 20
5.8210285877
 30
0.0
 10
18.3585145709
 20
6.2041139371
 30
0.0
 10
18.3591778203
 20
6.5071018433
 30
0.0
 10
18.3595609167
 20
6.7348032518
 30
0.0
 10
18.3597696285
 20
6.8933723511
 30
0.0
 10
18.3599058761
 20
7.043120974
 30
0.0
 10
18.3599690929
 20
7.1836090844
 30
0.0
 10
18.3599592588
 20
7.3144260335
 30
0.0
 10
18.3598767234
 20
7.4351898232
 30
0.0
 10
18.359721785
 20
7.5455448184
 30
0.0
 10
18.3594949812
 20
7.6451679779
 30
0.0
 10
18.3592397113
 20
7.7213457099
 30
0.0
 10
18.3589945268
 20
7.7767087916
 30
0.0
 10
18.3587992711
 20
7.8139700037
 30
0.0
 10
18.3585866795
 20
7.8483486421
 30
0.0
 10
18.358357012
 20
7.8798217254
 30
0.0
 10
18.3581105632
 20
7.9083688415
 30
0.0
 10
18.3578476494
 20
7.9339697355
 30
0.0
 10
18.3575687453
 20
7.9566041633
 30
0.0
 10
18.3572742303
 20
7.9762525741
 30
0.0
 10
18.3570052212
 20
7.9907520459
 30
0.0
 10
18.3567769506
 20
8.0008468461
 30
0.0
 10
18.3566104207
 20
8.0072874169
 30
0.0
 10
18.356440315
 20
8.0129730979
 30
0.0
 10
18.3562667976
 20
8.0179030845
 30
0.0
 10
18.3560902898
 20
8.0220768728
 30
0.0
 10
18.3559112152
 20
8.0254932458
 30
0.0
 10
18.3557507341
 20
8.0278671399
 30
0.0
 10
18.3556155202
 20
8.0293850334
 30
0.0
 10
18.3555202968
 20
8.0302423978
 30
0.0
 10
18.355430249
 20
8.0309035355
 30
0.0
 10
18.3553302282
 20
8.0313929024
 30
0.0
 10
18.3552573054
 20
8.0316675308
 30
0.0
 10
18.3551616906
 20
8.0318229408
 30
0.0
 10
18.355115778
 20
8.0318228271
 30
0.0
  0
SPLINE
  5
21D
100
AcDbEntity
  8
02___PRT_ALL_AXES
100
AcDbSpline
 62
7
  6
CONTINUOUS
 70
0
 71
3
 72
39
 73
35
 74
0
 42
0.0000001
 43
0.0000001
 44
0.0000000001
 40
0.0
 40
0.0
 40
0.0
 40
0.0
 40
0.0000958028
 40
0.0003029156
 40
0.0006349504
 40
0.0010944902
 40
0.0016823934
 40
0.0023990189
 40
0.0042189673
 40
0.006554805
 40
0.0094064052
 40
0.0127734402
 40
0.0166554879
 40
0.0210520762
 40
0.0259627041
 40
0.0313868529
 40
0.0373239918
 40
0.0507341357
 40
0.0661823239
 40
0.0836556854
 40
0.103141317
 40
0.1246262971
 40
0.1480976925
 40
0.1735415561
 40
0.2009385797
 40
0.2615077528
 40
0.3296364803
 40
0.4051467754
 40
0.4878200747
 40
0.5774266537
 40
0.6737279944
 40
0.7764487089
 40
0.8853037368
 40
1.0
 40
1.0
 40
1.0
 40
1.0
 10
-6.2802208046
 20
-2.2479952699
 30
0.0
 10
-6.2802875061
 20
-2.2479947975
 30
0.0
 10
-6.2804272466
 20
-2.2477746351
 30
0.0
 10
-6.2805350685
 20
-2.2473794097
 30
0.0
 10
-6.2806813051
 20
-2.2466814607
 30
0.0
 10
-6.2808135191
 20
-2.2457372348
 30
0.0
 10
-6.280953074
 20
-2.2445140597
 30
0.0
 10
-6.2811514051
 20
-2.2423488775
 30
0.0
 10
-6.2813868706
 20
-2.2389634597
 30
0.0
 10
-6.2816498152
 20
-2.2340919166
 30
0.0
 10
-6.2819091461
 20
-2.2281412497
 30
0.0
 10
-6.2821642621
 20
-2.2211132364
 30
0.0
 10
-6.2824145532
 20
-2.2130086984
 30
0.0
 10
-6.2826597494
 20
-2.2038288683
 30
0.0
 10
-6.2828996268
 20
-2.1935748725
 30
0.0
 10
-6.2831340634
 20
-2.1822478873
 30
0.0
 10
-6.2834522484
 20
-2.1650035813
 30
0.0
 10
-6.2838287723
 20
-2.1407799432
 30
0.0
 10
-6.2842423747
 20
-2.1085239019
 30
0.0
 10
-6.28463312
 20
-2.0720372173
 30
0.0
 10
-6.2850005531
 20
-2.0313469612
 30
0.0
 10
-6.2853441485
 20
-1.9864802049
 30
0.0
 10
-6.2856635002
 20
-1.9374647281
 30
0.0
 10
-6.2859582411
 20
-1.8843327412
 30
0.0
 10
-6.2863306156
 20
-1.8053713069
 30
0.0
 10
-6.2867230701
 20
-1.6966901335
 30
0.0
 10
-6.2870798842
 20
-1.554509613
 30
0.0
 10
-6.2873345517
 20
-1.3969387484
 30
0.0
 10
-6.2874864796
 20
-1.2244136915
 30
0.0
 10
-6.2875348433
 20
-1.0374127098
 30
0.0
 10
-6.2874790449
 20
-0.8364536216
 30
0.0
 10
-6.2873193784
 20
-0.6220927606
 30
0.0
 10
-6.2870561425
 20
-0.3949244398
 30
0.0
 10
-6.2868178725
 20
-0.2392759468
 30
0.0
 10
-6.2866825212
 20
-0.1594182315
 30
0.0
  0
SPLINE
  5
21E
100
AcDbEntity
  8
02___PRT_ALL_AXES
100
AcDbSpline
 62
7
  6
CONTINUOUS
 70
0
 71
3
 72
46
 73
42
 74
0
 42
0.0000001
 43
0.0000001
 44
0.0000000001
 40
0.0
 40
0.0
 40
0.0
 40
0.0
 40
0.0926731265
 40
0.185935787
 40
0.2786047008
 40
0.3696315061
 40
0.4579581519
 40
0.5425394806
 40
0.6223877881
 40
0.6965710786
 40
0.7312617319
 40
0.7642161636
 40
0.795338958
 40
0.8245355615
 40
0.8517218755
 40
0.8768207927
 40
0.8997556099
 40
0.9204586553
 40
0.9388731351
 40
0.9472046199
 40
0.9549429447
 40
0.9620823095
 40
0.9686184181
 40
0.9745470737
 40
0.9798640828
 40
0.984565257
 40
0.9886464167
 40
0.9921038302
 40
0.9935980515
 40
0.9949357539
 40
0.9961167976
 40
0.997141051
 40
0.9980083972
 40
0.9987187461
 40
0.9992720661
 40
0.9994898736
 40
0.9996684979
 40
0.9998080438
 40
0.9999087609
 40
0.9999714024
 40
1.0
 40
1.0
 40
1.0
 40
1.0
 10
-8.2732802112
 20
3.3455480952
 30
0.0
 10
-8.2724671753
 20
3.4943301409
 30
0.0
 10
-8.2708955392
 20
3.7928410284
 30
0.0
 10
-8.2687128488
 20
4.2401282329
 30
0.0
 10
-8.2667149677
 20
4.6847731501
 30
0.0
 10
-8.2649253775
 20
5.1214942477
 30
0.0
 10
-8.2633643482
 20
5.5452317324
 30
0.0
 10
-8.2620502726
 20
5.9510231829
 30
0.0
 10
-8.2609980999
 20
6.3341085323
 30
0.0
 10
-8.2603348504
 20
6.6370964385
 30
0.0
 10
-8.259951754
 20
6.864797847
 30
0.0
 10
-8.2597430422
 20
7.0233669463
 30
0.0
 10
-8.2596067946
 20
7.1731155692
 30
0.0
 10
-8.2595435778
 20
7.3136036796
 30
0.0
 10
-8.2595534119
 20
7.4444206287
 30
0.0
 10
-8.2596359473
 20
7.5651844184
 30
0.0
 10
-8.2597908857
 20
7.6755394136
 30
0.0
 10
-8.2600176895
 20
7.7751625731
 30
0.0
 10
-8.2602729595
 20
7.8513403051
 30
0.0
 10
-8.2605181439
 20
7.9067033868
 30
0.0
 10
-8.2607133996
 20
7.9439645989
 30
0.0
 10
-8.2609259912
 20
7.9783432373
 30
0.0
 10
-8.2611556588
 20
8.0098163206
 30
0.0
 10
-8.2614021075
 20
8.0383634366
 30
0.0
 10
-8.2616650213
 20
8.0639643306
 30
0.0
 10
-8.2619439254
 20
8.0865987585
 30
0.0
 10
-8.2622384404
 20
8.1062471693
 30
0.0
 10
-8.2625074496
 20
8.1207466411
 30
0.0
 10
-8.2627357201
 20
8.1308414413
 30
0.0
 10
-8.26290225
 20
8.1372820121
 30
0.0
 10
-8.2630723557
 20
8.1429676931
 30
0.0
 10
-8.2632458731
 20
8.1478976797
 30
0.0
 10
-8.2634223809
 20
8.152071468
 30
0.0
 10
-8.2636014556
 20
8.155487841
 30
0.0
 10
-8.2637619366
 20
8.1578617351
 30
0.0
 10
-8.2638971505
 20
8.1593796286
 30
0.0
 10
-8.2639923739
 20
8.160236993
 30
0.0
 10
-8.2640824218
 20
8.1608981306
 30
0.0
 10
-8.2641824426
 20
8.1613874976
 30
0.0
 10
-8.2642553654
 20
8.161662126
 30
0.0
 10
-8.2643509801
 20
8.161817536
 30
0.0
 10
-8.2643968927
 20
8.1618174222
 30
0.0
  0
SPLINE
  5
21F
100
AcDbEntity
  8
02___PRT_ALL_AXES
100
AcDbSpline
 62
7
  6
CONTINUOUS
 70
0
 71
3
 72
39
 73
35
 74
0
 42
0.0000001
 43
0.0000001
 44
0.0000000001
 40
0.0
 40
0.0
 40
0.0
 40
0.0
 40
0.1146962632
 40
0.2235512911
 40
0.3262720056
 40
0.4225733463
 40
0.5121799253
 40
0.5948532246
 40
0.6703635197
 40
0.7384922472
 40
0.7990614203
 40
0.8264584439
 40
0.8519023075
 40
0.8753737029
 40
0.896858683
 40
0.9163443146
 40
0.9338176761
 40
0.9492658643
 40
0.9626760082
 40
0.9686131471
 40
0.9740372959
 40
0.9789479238
 40
0.9833445121
 40
0.9872265598
 40
0.9905935948
 40
0.993445195
 40
0.9957810327
 40
0.9976009811
 40
0.9983176066
 40
0.9989055098
 40
0.9993650496
 40
0.9996970844
 40
0.9999041972
 40
1.0
 40
1.0
 40
1.0
 40
1.0
 10
-6.2127162056
 20
8.1632784291
 30
0.0
 10
-6.2125808544
 20
8.2431361444
 30
0.0
 10
-6.2123425843
 20
8.3987846374
 30
0.0
 10
-6.2120793484
 20
8.6259529582
 30
0.0
 10
-6.211919682
 20
8.8403138193
 30
0.0
 10
-6.2118638836
 20
9.0412729075
 30
0.0
 10
-6.2119122472
 20
9.2282738891
 30
0.0
 10
-6.2120641751
 20
9.400798946
 30
0.0
 10
-6.2123188426
 20
9.5583698107
 30
0.0
 10
-6.2126756567
 20
9.7005503312
 30
0.0
 10
-6.2130681112
 20
9.8092315045
 30
0.0
 10
-6.2134404858
 20
9.8881929389
 30
0.0
 10
-6.2137352267
 20
9.9413249258
 30
0.0
 10
-6.2140545784
 20
9.9903404025
 30
0.0
 10
-6.2143981737
 20
10.0352071589
 30
0.0
 10
-6.2147656068
 20
10.0758974149
 30
0.0
 10
-6.2151563521
 20
10.1123840995
 30
0.0
 10
-6.2155699546
 20
10.1446401408
 30
0.0
 10
-6.2159464785
 20
10.168863779
 30
0.0
 10
-6.2162646634
 20
10.1861080849
 30
0.0
 10
-6.2164991001
 20
10.1974350702
 30
0.0
 10
-6.2167389774
 20
10.2076890659
 30
0.0
 10
-6.2169841736
 20
10.2168688961
 30
0.0
 10
-6.2172344648
 20
10.224973434
 30
0.0
 10
-6.2174895808
 20
10.2320014473
 30
0.0
 10
-6.2177489117
 20
10.2379521143
 30
0.0
 10
-6.2180118562
 20
10.2428236574
 30
0.0
 10
-6.2182473217
 20
10.2462090752
 30
0.0
 10
-6.2184456529
 20
10.2483742574
 30
0.0
 10
-6.2185852077
 20
10.2495974325
 30
0.0
 10
-6.2187174218
 20
10.2505416584
 30
0.0
 10
-6.2188636584
 20
10.2512396073
 30
0.0
 10
-6.2189714803
 20
10.2516348328
 30
0.0
 10
-6.2191112208
 20
10.2518549951
 30
0.0
 10
-6.2191779223
 20
10.2518554676
 30
0.0
  0
SPLINE
  5
220
100
AcDbEntity
  8
02___PRT_ALL_AXES
100
AcDbSpline
 62
7
  6
CONTINUOUS
 70
0
 71
3
 72
45
 73
41
 74
0
 42
0.0000001
 43
0.0000001
 44
0.0000000001
 40
0.0
 40
0.0
 40
0.0
 40
0.0
 40
0.1026583834
 40
0.2031209516
 40
0.300491896
 40
0.3940303436
 40
0.4830356944
 40
0.5668204383
 40
0.6447202608
 40
0.7161393652
 40
0.7492402667
 40
0.7805179514
 40
0.8099127643
 40
0.8373650685
 40
0.862819459
 40
0.8862302984
 40
0.9075533264
 40
0.9267443191
 40
0.9437640183
 40
0.9514505089
 40
0.9585834853
 40
0.9651594939
 40
0.971175083
 40
0.9766268044
 40
0.9815112675
 40
0.9858261697
 40
0.9895702301
 40
0.9927422263
 40
0.99411333
 40
0.9953409789
 40
0.996425038
 40
0.9973653841
 40
0.9981619134
 40
0.9988145598
 40
0.9993233367
 40
0.9996884631
 40
0.9998174228
 40
0.9999110297
 40
0.9999702942
 40
1.0
 40
1.0
 40
1.0
 40
1.0
 10
-8.2732802112
 20
3.3455480952
 30
0.0
 10
-8.2739316788
 20
3.2263323488
 30
0.0
 10
-8.2752585193
 20
2.9904510304
 30
0.0
 10
-8.2773374857
 20
2.6414949658
 30
0.0
 10
-8.2794727352
 20
2.3031304567
 30
0.0
 10
-8.2816465973
 20
1.9780717836
 30
0.0
 10
-8.2838426674
 20
1.6687913374
 30
0.0
 10
-8.2860432485
 20
1.3776725974
 30
0.0
 10
-8.2882316413
 20
1.1069773517
 30
0.0
 10
-8.2900735133
 20
0.8951405795
 30
0.0
 10
-8.2915347768
 20
0.7374450303
 30
0.0
 10
-8.2925891591
 20
0.6285507671
 30
0.0
 10
-8.2936278161
 20
0.5262164046
 30
0.0
 10
-8.29464872
 20
0.4306448341
 30
0.0
 10
-8.2956499211
 20
0.3420226735
 30
0.0
 10
-8.2966292385
 20
0.2605186884
 30
0.0
 10
-8.2975845527
 20
0.1862886687
 30
0.0
 10
-8.2985138952
 20
0.1194810163
 30
0.0
 10
-8.2992890256
 20
0.0685089422
 30
0.0
 10
-8.2998994057
 20
0.0315390448
 30
0.0
 10
-8.3003339259
 20
0.0066962022
 30
0.0
 10
-8.3007606381
 20
-0.0162060432
 30
0.0
 10
-8.3011792941
 20
-0.0371556351
 30
0.0
 10
-8.3015895866
 20
-0.0561405822
 30
0.0
 10
-8.3019912473
 20
-0.0731502102
 30
0.0
 10
-8.3023838645
 20
-0.0881763476
 30
0.0
 10
-8.3027670749
 20
-0.1012132913
 30
0.0
 10
-8.3030916558
 20
-0.1108317784
 30
0.0
 10
-8.3033508557
 20
-0.1175283652
 30
0.0
 10
-8.3035331981
 20
-0.1218013574
 30
0.0
 10
-8.3037129239
 20
-0.1255737019
 30
0.0
 10
-8.3038899152
 20
-0.1288449605
 30
0.0
 10
-8.3040638075
 20
-0.1316143586
 30
0.0
 10
-8.3042343511
 20
-0.1338822427
 30
0.0
 10
-8.3043998772
 20
-0.1356463276
 30
0.0
 10
-8.304545954
 20
-0.1368044209
 30
0.0
 10
-8.3046653243
 20
-0.1374736866
 30
0.0
 10
-8.3047494766
 20
-0.1377957172
 30
0.0
 10
-8.3048138087
 20
-0.137987162
 30
0.0
 10
-8.3048928277
 20
-0.1380819324
 30
0.0
 10
-8.3049273251
 20
-0.1380820179
 30
0.0
  0
SPLINE
  5
221
100
AcDbEntity
  8
02___PRT_ALL_AXES
100
AcDbSpline
 62
7
  6
CONTINUOUS
 70
0
 71
3
 72
45
 73
41
 74
0
 42
0.0000001
 43
0.0000001
 44
0.0000000001
 40
0.0
 40
0.0
 40
0.0
 40
0.0
 40
0.0000297058
 40
0.0000889703
 40
0.0001825772
 40
0.0003115369
 40
0.0006766633
 40
0.0011854402
 40
0.0018380866
 40
0.0026346159
 40
0.003574962
 40
0.0046590211
 40
0.00588667
 40
0.0072577737
 40
0.0104297699
 40
0.0141738303
 40
0.0184887325
 40
0.0233731956
 40
0.028824917
 40
0.0348405061
 40
0.0414165147
 40
0.0485494911
 40
0.0562359817
 40
0.0732556809
 40
0.0924466736
 40
0.1137697016
 40
0.137180541
 40
0.1626349315
 40
0.1900872357
 40
0.2194820486
 40
0.2507597333
 40
0.2838606348
 40
0.3552797392
 40
0.4331795617
 40
0.5169643056
 40
0.6059696564
 40
0.699508104
 40
0.7968790484
 40
0.8973416166
 40
1.0
 40
1.0
 40
1.0
 40
1.0
 10
-8.2651293704
 20
8.0118192396
 30
0.0
 10
-8.2651626209
 20
8.0118191572
 30
0.0
 10
-8.2652387838
 20
8.0117278122
 30
0.0
 10
-8.2653007907
 20
8.0115432871
 30
0.0
 10
-8.2653819013
 20
8.0112328962
 30
0.0
 10
-8.265496957
 20
8.0105878208
 30
0.0
 10
-8.2656377539
 20
8.0094715863
 30
0.0
 10
-8.2657972972
 20
8.0077712635
 30
0.0
 10
-8.2659616766
 20
8.0055853511
 30
0.0
 10
-8.2661292836
 20
8.0029160517
 30
0.0
 10
-8.2662998776
 20
7.9997630314
 30
0.0
 10
-8.2664731073
 20
7.9961270367
 30
0.0
 10
-8.266648859
 20
7.99200849
 30
0.0
 10
-8.2668986902
 20
7.9855539485
 30
0.0
 10
-8.2672115392
 20
7.9762831176
 30
0.0
 10
-8.2675808987
 20
7.9637173887
 30
0.0
 10
-8.2679593249
 20
7.9492343647
 30
0.0
 10
-8.2683464678
 20
7.9328395426
 30
0.0
 10
-8.2687419304
 20
7.9145407984
 30
0.0
 10
-8.2691454542
 20
7.8943484206
 30
0.0
 10
-8.2695567431
 20
7.8722739673
 30
0.0
 10
-8.2699755577
 20
7.8483290587
 30
0.0
 10
-8.270563876
 20
7.8126954227
 30
0.0
 10
-8.2713109896
 20
7.7635657127
 30
0.0
 10
-8.2722067414
 20
7.6991727946
 30
0.0
 10
-8.2731275262
 20
7.6276257878
 30
0.0
 10
-8.2740714465
 20
7.5490677299
 30
0.0
 10
-8.2750364596
 20
7.4636487798
 30
0.0
 10
-8.2760204634
 20
7.3715316034
 30
0.0
 10
-8.2770215786
 20
7.2728960734
 30
0.0
 10
-8.2780378507
 20
7.1679377473
 30
0.0
 10
-8.2794462975
 20
7.0159420373
 30
0.0
 10
-8.2812215958
 20
6.8117620159
 30
0.0
 10
-8.2833308901
 20
6.5508509357
 30
0.0
 10
-8.2854519321
 20
6.2702545597
 30
0.0
 10
-8.2875686261
 20
5.9721529249
 30
0.0
 10
-8.2896639149
 20
5.6588433605
 30
0.0
 10
-8.2917219867
 20
5.3327088939
 30
0.0
 10
-8.2937258098
 20
4.9963656991
 30
0.0
 10
-8.2950046922
 20
4.7690102114
 30
0.0
 10
-8.2956326127
 20
4.6541034679
 30
0.0
  0
SPLINE
  5
222
100
AcDbEntity
  8
02___PRT_ALL_AXES
100
AcDbSpline
 62
7
  6
CONTINUOUS
 70
0
 71
3
 72
45
 73
41
 74
0
 42
0.0000001
 43
0.0000001
 44
0.0000000001
 40
0.0
 40
0.0
 40
0.0
 40
0.0
 40
0.1026583834
 40
0.2031209516
 40
0.300491896
 40
0.3940303436
 40
0.4830356944
 40
0.5668204383
 40
0.6447202608
 40
0.7161393652
 40
0.7492402667
 40
0.7805179514
 40
0.8099127643
 40
0.8373650685
 40
0.862819459
 40
0.8862302984
 40
0.9075533264
 40
0.9267443191
 40
0.9437640183
 40
0.9514505089
 40
0.9585834853
 40
0.9651594939
 40
0.971175083
 40
0.9766268044
 40
0.9815112675
 40
0.9858261697
 40
0.9895702301
 40
0.9927422263
 40
0.99411333
 40
0.9953409789
 40
0.996425038
 40
0.9973653841
 40
0.9981619134
 40
0.9988145598
 40
0.9993233367
 40
0.9996884631
 40
0.9998174228
 40
0.9999110297
 40
0.9999702942
 40
1.0
 40
1.0
 40
1.0
 40
1.0
 10
-6.2383174657
 20
3.3356104919
 30
0.0
 10
-6.2389689333
 20
3.2163947455
 30
0.0
 10
-6.2402957738
 20
2.980513427
 30
0.0
 10
-6.2423747402
 20
2.6315573624
 30
0.0
 10
-6.2445099897
 20
2.2931928533
 30
0.0
 10
-6.2466838519
 20
1.9681341803
 30
0.0
 10
-6.2488799219
 20
1.6588537341
 30
0.0
 10
-6.251080503
 20
1.367734994
 30
0.0
 10
-6.2532688958
 20
1.0970397484
 30
0.0
 10
-6.2551107678
 20
0.8852029761
 30
0.0
 10
-6.2565720314
 20
0.727507427
 30
0.0
 10
-6.2576264136
 20
0.6186131637
 30
0.0
 10
-6.2586650707
 20
0.5162788013
 30
0.0
 10
-6.2596859746
 20
0.4207072307
 30
0.0
 10
-6.2606871756
 20
0.3320850701
 30
0.0
 10
-6.261666493
 20
0.250581085
 30
0.0
 10
-6.2626218072
 20
0.1763510654
 30
0.0
 10
-6.2635511497
 20
0.1095434129
 30
0.0
 10
-6.2643262801
 20
0.0585713388
 30
0.0
 10
-6.2649366603
 20
0.0216014415
 30
0.0
 10
-6.2653711805
 20
-0.0032414012
 30
0.0
 10
-6.2657978926
 20
-0.0261436465
 30
0.0
 10
-6.2662165486
 20
-0.0470932385
 30
0.0
 10
-6.2666268411
 20
-0.0660781856
 30
0.0
 10
-6.2670285018
 20
-0.0830878136
 30
0.0
 10
-6.2674211191
 20
-0.0981139509
 30
0.0
 10
-6.2678043295
 20
-0.1111508946
 30
0.0
 10
-6.2681289103
 20
-0.1207693817
 30
0.0
 10
-6.2683881102
 20
-0.1274659686
 30
0.0
 10
-6.2685704526
 20
-0.1317389608
 30
0.0
 10
-6.2687501784
 20
-0.1355113052
 30
0.0
 10
-6.2689271697
 20
-0.1387825638
 30
0.0
 10
-6.269101062
 20
-0.1415519619
 30
0.0
 10
-6.2692716056
 20
-0.1438198461
 30
0.0
 10
-6.2694371317
 20
-0.1455839309
 30
0.0
 10
-6.2695832085
 20
-0.1467420242
 30
0.0
 10
-6.2697025788
 20
-0.1474112899
 30
0.0
 10
-6.2697867311
 20
-0.1477333205
 30
0.0
 10
-6.2698510632
 20
-0.1479247653
 30
0.0
 10
-6.2699300822
 20
-0.1480195357
 30
0.0
 10
-6.2699645796
 20
-0.1480196212
 30
0.0
  0
SPLINE
  5
223
100
AcDbEntity
  8
02___PRT_ALL_AXES
100
AcDbSpline
 62
7
  6
CONTINUOUS
 70
0
 71
3
 72
46
 73
42
 74
0
 42
0.0000001
 43
0.0000001
 44
0.0000000001
 40
0.0
 40
0.0
 40
0.0
 40
0.0
 40
0.0000285976
 40
0.0000912391
 40
0.0001919562
 40
0.0003315021
 40
0.0005101264
 40
0.0007279339
 40
0.0012812539
 40
0.0019916028
 40
0.002858949
 40
0.0038832024
 40
0.0050642461
 40
0.0064019485
 40
0.0078961698
 40
0.0113535833
 40
0.015434743
 40
0.0201359172
 40
0.0254529263
 40
0.0313815819
 40
0.0379176905
 40
0.0450570553
 40
0.0527953801
 40
0.0611268649
 40
0.0795413447
 40
0.1002443901
 40
0.1231792073
 40
0.1482781245
 40
0.1754644385
 40
0.204661042
 40
0.2357838364
 40
0.2687382681
 40
0.3034289214
 40
0.3776122119
 40
0.4574605194
 40
0.5420418481
 40
0.6303684939
 40
0.7213952992
 40
0.814064213
 40
0.9073268735
 40
1.0
 40
1.0
 40
1.0
 40
1.0
 10
-8.3041948474
 20
0.0119161648
 30
0.0
 10
-8.3042391005
 20
0.0119160551
 30
0.0
 10
-8.3043312593
 20
0.0120658479
 30
0.0
 10
-8.3044015464
 20
0.01233055
 30
0.0
 10
-8.3044979519
 20
0.012802229
 30
0.0
 10
-8.3045847451
 20
0.01343947
 30
0.0
 10
-8.3046765267
 20
0.0142658454
 30
0.0
 10
-8.3048068533
 20
0.0157288753
 30
0.0
 10
-8.3049615338
 20
0.018016966
 30
0.0
 10
-8.3051341359
 20
0.0213098556
 30
0.0
 10
-8.3053042639
 20
0.0253327841
 30
0.0
 10
-8.3054715096
 20
0.0300845784
 30
0.0
 10
-8.3056354669
 20
0.0355647529
 30
0.0
 10
-8.3057959776
 20
0.0417725319
 30
0.0
 10
-8.3060159974
 20
0.0515024598
 30
0.0
 10
-8.3062752834
 20
0.0654778544
 30
0.0
 10
-8.3065591532
 20
0.0844160817
 30
0.0
 10
-8.3068279765
 20
0.1062323976
 30
0.0
 10
-8.3070813874
 20
0.1309079581
 30
0.0
 10
-8.3073189283
 20
0.1584232507
 30
0.0
 10
-8.3075402946
 20
0.1887587526
 30
0.0
 10
-8.3077452022
 20
0.2218947897
 30
0.0
 10
-8.3079334005
 20
0.257809211
 30
0.0
 10
-8.3081697228
 20
0.3111712174
 30
0.0
 10
-8.3084157661
 20
0.3845955375
 30
0.0
 10
-8.3086343723
 20
0.4806178598
 30
0.0
 10
-8.3087837104
 20
0.5869841203
 30
0.0
 10
-8.3088632626
 20
0.7033829538
 30
0.0
 10
-8.3088727413
 20
0.8294715794
 30
0.0
 10
-8.3088118094
 20
0.9648818063
 30
0.0
 10
-8.3086804864
 20
1.1092178283
 30
0.0
 10
-8.3084793184
 20
1.2620555144
 30
0.0
 10
-8.3081100689
 20
1.4815267515
 30
0.0
 10
-8.3074707923
 20
1.7735632876
 30
0.0
 10
-8.30645665
 20
2.1428021786
 30
0.0
 10
-8.3051900711
 20
2.5339264682
 30
0.0
 10
-8.3036854645
 20
2.9423481402
 30
0.0
 10
-8.3019605583
 20
3.3632841379
 30
0.0
 10
-8.3000348898
 20
3.7918575521
 30
0.0
 10
-8.2979310918
 20
4.2229777492
 30
0.0
 10
-8.2964162618
 20
4.5106990865
 30
0.0
 10
-8.2956326127
 20
4.6541034679
 30
0.0
  0
SPLINE
  5
224
100
AcDbEntity
  8
02___PRT_ALL_AXES
100
AcDbSpline
 62
7
  6
CONTINUOUS
 70
0
 71
3
 72
46
 73
42
 74
0
 42
0.0000001
 43
0.0000001
 44
0.0000000001
 40
0.0
 40
0.0
 40
0.0
 40
0.0
 40
0.0926731265
 40
0.185935787
 40
0.2786047008
 40
0.3696315061
 40
0.4579581519
 40
0.5425394806
 40
0.6223877881
 40
0.6965710786
 40
0.7312617319
 40
0.7642161636
 40
0.795338958
 40
0.8245355615
 40
0.8517218755
 40
0.8768207927
 40
0.8997556099
 40
0.9204586553
 40
0.9388731351
 40
0.9472046199
 40
0.9549429447
 40
0.9620823095
 40
0.9686184181
 40
0.9745470737
 40
0.9798640828
 40
0.984565257
 40
0.9886464167
 40
0.9921038302
 40
0.9935980515
 40
0.9949357539
 40
0.9961167976
 40
0.997141051
 40
0.9980083972
 40
0.9987187461
 40
0.9992720661
 40
0.9994898736
 40
0.9996684979
 40
0.9998080438
 40
0.9999087609
 40
0.9999714024
 40
1.0
 40
1.0
 40
1.0
 40
1.0
 10
-6.2383174657
 20
3.3356104919
 30
0.0
 10
-6.2375044298
 20
3.4843925376
 30
0.0
 10
-6.2359327937
 20
3.7829034251
 30
0.0
 10
-6.2337501033
 20
4.2301906295
 30
0.0
 10
-6.2317522222
 20
4.6748355467
 30
0.0
 10
-6.229962632
 20
5.1115566443
 30
0.0
 10
-6.2284016027
 20
5.5352941291
 30
0.0
 10
-6.2270875271
 20
5.9410855795
 30
0.0
 10
-6.2260353544
 20
6.3241709289
 30
0.0
 10
-6.2253721049
 20
6.6271588351
 30
0.0
 10
-6.2249890085
 20
6.8548602436
 30
0.0
 10
-6.2247802967
 20
7.013429343
 30
0.0
 10
-6.2246440491
 20
7.1631779658
 30
0.0
 10
-6.2245808324
 20
7.3036660762
 30
0.0
 10
-6.2245906664
 20
7.4344830253
 30
0.0
 10
-6.2246732018
 20
7.555246815
 30
0.0
 10
-6.2248281402
 20
7.6656018103
 30
0.0
 10
-6.2250549441
 20
7.7652249697
 30
0.0
 10
-6.225310214
 20
7.8414027018
 30
0.0
 10
-6.2255553984
 20
7.8967657834
 30
0.0
 10
-6.2257506541
 20
7.9340269956
 30
0.0
 10
-6.2259632457
 20
7.968405634
 30
0.0
 10
-6.2261929133
 20
7.9998787172
 30
0.0
 10
-6.226439362
 20
8.0284258333
 30
0.0
 10
-6.2267022758
 20
8.0540267273
 30
0.0
 10
-6.2269811799
 20
8.0766611551
 30
0.0
 10
-6.2272756949
 20
8.0963095659
 30
0.0
 10
-6.2275447041
 20
8.1108090377
 30
0.0
 10
-6.2277729746
 20
8.120903838
 30
0.0
 10
-6.2279395045
 20
8.1273444087
 30
0.0
 10
-6.2281096102
 20
8.1330300898
 30
0.0
 10
-6.2282831276
 20
8.1379600764
 30
0.0
 10
-6.2284596354
 20
8.1421338646
 30
0.0
 10
-6.2286387101
 20
8.1455502377
 30
0.0
 10
-6.2287991911
 20
8.1479241317
 30
0.0
 10
-6.228934405
 20
8.1494420252
 30
0.0
 10
-6.2290296284
 20
8.1502993897
 30
0.0
 10
-6.2291196763
 20
8.1509605273
 30
0.0
 10
-6.2292196971
 20
8.1514498943
 30
0.0
 10
-6.2292926199
 20
8.1517245227
 30
0.0
 10
-6.2293882346
 20
8.1518799327
 30
0.0
 10
-6.2294341472
 20
8.1518798189
 30
0.0
  0
SPLINE
  5
225
100
AcDbEntity
  8
02___PRT_ALL_AXES
100
AcDbSpline
 62
7
  6
CONTINUOUS
 70
0
 71
3
 72
39
 73
35
 74
0
 42
0.0000001
 43
0.0000001
 44
0.0000000001
 40
0.0
 40
0.0
 40
0.0
 40
0.0
 40
0.114702276
 40
0.2235628263
 40
0.3262870862
 40
0.4225923829
 40
0.5122020311
 40
0.5948757473
 40
0.6703870039
 40
0.7385161391
 40
0.7990833235
 40
0.826479493
 40
0.8519231528
 40
0.8753942868
 40
0.8968779789
 40
0.9163617258
 40
0.93383305
 40
0.9492794921
 40
0.9626886224
 40
0.9686253701
 40
0.974048824
 40
0.9789585009
 40
0.9833539385
 40
0.9872346927
 40
0.9906003481
 40
0.9934505396
 40
0.9957849964
 40
0.9976036493
 40
0.9983196772
 40
0.9989070264
 40
0.9993660638
 40
0.9996976577
 40
0.9999044077
 40
1.0
 40
1.0
 40
1.0
 40
1.0
 10
-6.2533663266
 20
-0.1603241084
 30
0.0
 10
-6.2540108136
 20
-0.2401551225
 30
0.0
 10
-6.2552924893
 20
-0.3957511954
 30
0.0
 10
-6.2572475637
 20
-0.6228409627
 30
0.0
 10
-6.2591811576
 20
-0.8371259924
 30
0.0
 10
-6.261087689
 20
-1.0380119328
 30
0.0
 10
-6.2629620333
 20
-1.2249422017
 30
0.0
 10
-6.2647986115
 20
-1.397399288
 30
0.0
 10
-6.2665918328
 20
-1.5549053579
 30
0.0
 10
-6.2683368671
 20
-1.6970246191
 30
0.0
 10
-6.2697904801
 20
-1.8056564313
 30
0.0
 10
-6.2709337954
 20
-1.8845802616
 30
0.0
 10
-6.2717472692
 20
-1.9376870225
 30
0.0
 10
-6.2725451415
 20
-1.9866783913
 30
0.0
 10
-6.2733267593
 20
-2.0315213056
 30
0.0
 10
-6.274091423
 20
-2.072187935
 30
0.0
 10
-6.2748383486
 20
-2.1086521413
 30
0.0
 10
-6.2755668248
 20
-2.1408877934
 30
0.0
 10
-6.2761797846
 20
-2.1650957901
 30
0.0
 10
-6.2766662626
 20
-2.1823285712
 30
0.0
 10
-6.2770112462
 20
-2.1936472793
 30
0.0
 10
-6.2773511889
 20
-2.2038928485
 30
0.0
 10
-6.277685959
 20
-2.213064216
 30
0.0
 10
-6.2780153221
 20
-2.2211603763
 30
0.0
 10
-6.2783389959
 20
-2.2281802185
 30
0.0
 10
-6.2786563648
 20
-2.2341230455
 30
0.0
 10
-6.2789668046
 20
-2.2389872053
 30
0.0
 10
-6.2792352782
 20
-2.2423666694
 30
0.0
 10
-6.2794546974
 20
-2.2445273277
 30
0.0
 10
-6.2796061868
 20
-2.2457474807
 30
0.0
 10
-6.2797475149
 20
-2.2466889904
 30
0.0
 10
-6.2799006798
 20
-2.247384267
 30
0.0
 10
-6.2800120428
 20
-2.2477776164
 30
0.0
 10
-6.2801542733
 20
-2.2479957412
 30
0.0
 10
-6.2802208046
 20
-2.2479952699
 30
0.0
  0
ENDSEC
  0
SECTION
  2
OBJECTS
  0
DICTIONARY
  5
C
100
AcDbDictionary
280
0
281
1
  3
ACAD_GROUP
350
D
  3
ACAD_MLINESTYLE
350
17
  3
ACAD_LAYOUT
350
1A
  3
ACAD_PLOTSETTINGS
350
19
  3
ACAD_PLOTSTYLENAME
350
E
  0
DICTIONARY
  5
D
102
{ACAD_REACTORS
330
C
102
}
100
AcDbDictionary
280
0
281
1
  0
ACDBDICTIONARYWDFLT
  5
E
102
{ACAD_REACTORS
330
C
102
}
100
AcDbDictionary
281
1
  3
Normal
350
F
100
AcDbDictionaryWithDefault
340
F
  0
DICTIONARY
  5
17
102
{ACAD_REACTORS
330
C
102
}
100
AcDbDictionary
280
0
281
1
  3
Standard
350
18
  0
DICTIONARY
  5
19
102
{ACAD_REACTORS
330
C
102
}
100
AcDbDictionary
281
1
  0
DICTIONARY
  5
1A
102
{ACAD_REACTORS
330
C
102
}
100
AcDbDictionary
281
1
  3
Model
350
226
  3
Layout1
350
227
  0
ACDBPLACEHOLDER
  5
F
102
{ACAD_REACTORS
330
E
102
}
  0
MLINESTYLE
  5
18
102
{ACAD_REACTORS
330
17
102
}
100
AcDbMlineStyle
  2
STANDARD
 70
0
  3

 62
256
 51
90.0
 52
90.0
 71
2
 49
0.5
 62
256
  6
BYLAYER
 49
-0.5
 62
256
  6
BYLAYER
  0
LAYOUT
  5
226
102
{ACAD_REACTORS
330
1A
102
}
100
AcDbPlotSettings
  1

  2
none_device
  4

  6

 40
0.0
 41
0.0
 42
0.0
 43
0.0
 44
431.8
 45
279.4
 46
0.0
 47
0.0
 48
0.0
 49
0.0
140
0.0
141
0.0
142
1.0
143
1.0
 70
1024
 72
0
 73
0
 74
0
  7

 75
0
147
1.0
148
0.0
149
0.0
100
AcDbLayout
  1
Model
 70
0
 71
0
 10
0.0
 20
0.0
 11
17.0
 21
11.0
 12
0.0
 22
0.0
 32
0.0
 14
0.0
 24
0.0
 34
0.0
 15
0.0
 25
0.0
 35
0.0
146
0.0
 13
0.0
 23
0.0
 33
0.0
 16
1.0
 26
0.0
 36
0.0
 17
0.0
 27
1.0
 37
0.0
 76
0
330
207
345
0
346
0
  0
LAYOUT
  5
227
102
{ACAD_REACTORS
330
1A
102
}
100
AcDbPlotSettings
  1

  2
none_device
  4

  6

 40
0.0
 41
0.0
 42
0.0
 43
0.0
 44
431.8
 45
279.4
 46
0.0
 47
0.0
 48
0.0
 49
0.0
140
0.0
141
0.0
142
1.0
143
1.0
 70
0
 72
0
 73
0
 74
0
  7

 75
0
147
1.0
148
0.0
149
0.0
100
AcDbLayout
  1
Layout1
 70
0
 71
1
 10
0.0
 20
0.0
 11
17.0
 21
11.0
 12
0.0
 22
0.0
 32
0.0
 14
0.0
 24
0.0
 34
0.0
 15
0.0
 25
0.0
 35
0.0
146
0.0
 13
0.0
 23
0.0
 33
0.0
 16
1.0
 26
0.0
 36
0.0
 17
0.0
 27
1.0
 37
0.0
 76
0
330
208
345
0
346
0
  0
ENDSEC
  0
EOF
