999
DXF file: N:\Master\master\M3_ProE_files\Lenexa\MADAM DXF\40411.dxf
999
Pro/ENGINEER 2010280 by Parametric Technology Corporation
  0
SECTION
  2
HEADER
  9
$ACADVER
  1
AC1021
  9
$DWGCODEPAGE
  3
ANSI_1252
  9
$EXTMAX
 10
17.0
 20
11.0
 30
0.0
  9
$EXTMIN
 10
0.0
 20
-0.0
 30
0.0
  9
$LIMMIN
 10
0.0
 20
-0.0
  9
$LIMMAX
 10
17.0
 20
11.0
  9
$VIEWCTR
 10
8.5
 20
5.5
  9
$VIEWSIZE
 40
11.0
  9
$CLAYER
  8
0
  9
$LTSCALE
 40
0.935
  9
$CELTYPE
  6
BYLAYER
  9
$DIMSCALE
 40
1.0
  9
$DIMASZ
 40
0.125
  9
$DIMEXO
 40
0.10625
  9
$DIMDLI
 40
0.646
  9
$DIMEXE
 40
0.306
  9
$DIMCEN
 40
0.153
  9
$DIMLFAC
 40
1.0
  9
$DIMBLK
  1
_FILLED
  9
$DIMTXT
 40
0.15625
  9
$DIMTOL
 70
1
  9
$DIMLIM
 70
0
  9
$DIMTFAC
 40
1.0
  9
$DIMTP
 40
0.7
  9
$DIMTM
 40
0.7
  9
$PDMODE
 70
3
  9
$PDSIZE
 40
0.3125
  9
$HANDSEED
  5
7D5
  9
$TILEMODE
 70
1
  9
$MEASUREMENT
 70
0
  9
$INSUNITS
 70
1
  0
ENDSEC
  0
SECTION
  2
CLASSES
  0
CLASS
  1
ACDBDICTIONARYWDFLT
  2
AcDbDictionaryWithDefault
  3
AutoCAD 2000
 90
0
 91
1
280
0
281
0
  0
CLASS
  1
ACDBPLACEHOLDER
  2
AcDbPlaceHolder
  3
AutoCAD 2000
 90
0
 91
1
280
0
281
0
  0
CLASS
  1
LAYOUT
  2
AcDbLayout
  3
AutoCAD 2000
 90
0
 91
0
280
0
281
0
  0
ENDSEC
  0
SECTION
  2
TABLES
  0
TABLE
  2
VPORT
  5
8
100
AcDbSymbolTable
 70
2
  0
VPORT
  5
1F4
100
AcDbSymbolTableRecord
100
AcDbViewportTableRecord
  2
*ACTIVE
 70
0
 10
0.0
 20
0.0
 11
1.0
 21
1.0
 12
8.5
 22
5.5
 13
0.0
 23
0.0
 14
1.0
 24
1.0
 15
0.0
 25
0.0
 16
0.0
 26
0.0
 36
1.0
 17
0.0
 27
0.0
 37
0.0
 40
11.0
 41
1.5454545455
 42
50.0
 43
0.0
 44
0.0
 50
0.0
 51
0.0
 71
0
 72
100
 73
1
 74
1
 75
0
 76
0
 77
0
 78
0
  0
ENDTAB
  0
TABLE
  2
LTYPE
  5
5
100
AcDbSymbolTable
 70
6
  0
LTYPE
  5
14
100
AcDbSymbolTableRecord
100
AcDbLinetypeTableRecord
  2
BYBLOCK
 70
0
  3

 72
65
 73
0
 40
0.0
  0
LTYPE
  5
15
100
AcDbSymbolTableRecord
100
AcDbLinetypeTableRecord
  2
BYLAYER
 70
0
  3

 72
65
 73
0
 40
0.0
  0
LTYPE
  5
16
100
AcDbSymbolTableRecord
100
AcDbLinetypeTableRecord
  2
CONTINUOUS
 70
64
  3
Solid line
 72
65
 73
0
 40
0.0
  0
LTYPE
  5
1F5
100
AcDbSymbolTableRecord
100
AcDbLinetypeTableRecord
  2
CENTER
 70
64
  3
____ _ ____ _ ____ _ ____ _ ____ _ ____ _ ____
 72
65
 73
4
 40
0.6
 49
0.375
 74
0
 49
-0.075
 74
0
 49
0.075
 74
0
 49
-0.075
 74
0
  0
LTYPE
  5
1F6
100
AcDbSymbolTableRecord
100
AcDbLinetypeTableRecord
  2
HIDDEN
 70
64
  3
- - - - - - - - - - - - - - - - - - - -
 72
65
 73
2
 40
0.2
 49
0.1
 74
0
 49
-0.1
 74
0
  0
LTYPE
  5
1F7
100
AcDbSymbolTableRecord
100
AcDbLinetypeTableRecord
  2
PHANTOM
 70
64
  3
_____ _ _ _____ _ _ _____ _ _ _____
 72
65
 73
6
 40
0.8
 49
0.45
 74
0
 49
-0.05
 74
0
 49
0.1
 74
0
 49
-0.05
 74
0
 49
0.1
 74
0
 49
-0.05
 74
0
  0
LTYPE
  5
1F8
100
AcDbSymbolTableRecord
100
AcDbLinetypeTableRecord
  2
DOT
 70
64
  3
. . . . . . . . . . . . . . . . . . . .
 72
65
 73
2
 40
0.2
 49
0.1
 74
0
 49
-0.1
 74
0
  0
LTYPE
  5
1F9
100
AcDbSymbolTableRecord
100
AcDbLinetypeTableRecord
  2
DASHED
 70
64
  3
- - - - - - - - - - - - - - - - - - - -
 72
65
 73
2
 40
0.2
 49
0.1
 74
0
 49
-0.1
 74
0
  0
ENDTAB
  0
TABLE
  2
LAYER
  5
2
100
AcDbSymbolTable
 70
36
  0
LAYER
  5
10
100
AcDbSymbolTableRecord
100
AcDbLayerTableRecord
  2
0
 70
0
 62
7
  6
CONTINUOUS
370
-3
390
F
  0
LAYER
  5
1FA
100
AcDbSymbolTableRecord
100
AcDbLayerTableRecord
  2
DEFAULT_1
 70
0
 62
7
  6
CENTER
370
-3
390
F
  0
LAYER
  5
1FB
100
AcDbSymbolTableRecord
100
AcDbLayerTableRecord
  2
DEFAULT_2
 70
0
 62
8
  6
HIDDEN
370
-3
390
F
  0
LAYER
  5
1FC
100
AcDbSymbolTableRecord
100
AcDbLayerTableRecord
  2
DEFAULT_3
 70
0
 62
7
  6
PHANTOM
370
-3
390
F
  0
LAYER
  5
1FD
100
AcDbSymbolTableRecord
100
AcDbLayerTableRecord
  2
01_ALL_DTM_PLN
 70
0
 62
7
  6
CONTINUOUS
370
-3
390
F
  0
LAYER
  5
1FE
100
AcDbSymbolTableRecord
100
AcDbLayerTableRecord
  2
01__ASM_ALL_DTM_PLN
 70
0
 62
7
  6
CONTINUOUS
370
-3
390
F
  0
LAYER
  5
1FF
100
AcDbSymbolTableRecord
100
AcDbLayerTableRecord
  2
01__ASM_DEF_DTM_PLN
 70
0
 62
7
  6
CONTINUOUS
370
-3
390
F
  0
LAYER
  5
200
100
AcDbSymbolTableRecord
100
AcDbLayerTableRecord
  2
01___PRT_ALL_DTM_PLN
 70
0
 62
7
  6
CONTINUOUS
370
-3
390
F
  0
LAYER
  5
201
100
AcDbSymbolTableRecord
100
AcDbLayerTableRecord
  2
01___PRT_DEF_DTM_PLN
 70
0
 62
7
  6
CONTINUOUS
370
-3
390
F
  0
LAYER
  5
202
100
AcDbSymbolTableRecord
100
AcDbLayerTableRecord
  2
02_ALL_AXES
 70
0
 62
7
  6
CONTINUOUS
370
-3
390
F
  0
LAYER
  5
203
100
AcDbSymbolTableRecord
100
AcDbLayerTableRecord
  2
02__ASM_ALL_AXES
 70
0
 62
7
  6
CONTINUOUS
370
-3
390
F
  0
LAYER
  5
204
100
AcDbSymbolTableRecord
100
AcDbLayerTableRecord
  2
02___PRT_ALL_AXES
 70
0
 62
7
  6
CONTINUOUS
370
-3
390
F
  0
LAYER
  5
205
100
AcDbSymbolTableRecord
100
AcDbLayerTableRecord
  2
03_ALL_CURVES
 70
0
 62
7
  6
CONTINUOUS
370
-3
390
F
  0
LAYER
  5
206
100
AcDbSymbolTableRecord
100
AcDbLayerTableRecord
  2
03__ASM_ALL_CURVES
 70
0
 62
7
  6
CONTINUOUS
370
-3
390
F
  0
LAYER
  5
207
100
AcDbSymbolTableRecord
100
AcDbLayerTableRecord
  2
03___PRT_ALL_CURVES
 70
0
 62
7
  6
CONTINUOUS
370
-3
390
F
  0
LAYER
  5
208
100
AcDbSymbolTableRecord
100
AcDbLayerTableRecord
  2
04_ALL_DTM_PNT
 70
0
 62
7
  6
CONTINUOUS
370
-3
390
F
  0
LAYER
  5
209
100
AcDbSymbolTableRecord
100
AcDbLayerTableRecord
  2
04__ASM_ALL_DTM_PNT
 70
0
 62
7
  6
CONTINUOUS
370
-3
390
F
  0
LAYER
  5
20A
100
AcDbSymbolTableRecord
100
AcDbLayerTableRecord
  2
04___PRT_ALL_DTM_PNT
 70
0
 62
7
  6
CONTINUOUS
370
-3
390
F
  0
LAYER
  5
20B
100
AcDbSymbolTableRecord
100
AcDbLayerTableRecord
  2
05_ALL_DTM_CSYS
 70
0
 62
7
  6
CONTINUOUS
370
-3
390
F
  0
LAYER
  5
20C
100
AcDbSymbolTableRecord
100
AcDbLayerTableRecord
  2
05__ASM_ALL_DTM_CSYS
 70
0
 62
7
  6
CONTINUOUS
370
-3
390
F
  0
LAYER
  5
20D
100
AcDbSymbolTableRecord
100
AcDbLayerTableRecord
  2
05__ASM_DEF_DTM_CSYS
 70
0
 62
7
  6
CONTINUOUS
370
-3
390
F
  0
LAYER
  5
20E
100
AcDbSymbolTableRecord
100
AcDbLayerTableRecord
  2
05___PRT_ALL_DTM_CSYS
 70
0
 62
7
  6
CONTINUOUS
370
-3
390
F
  0
LAYER
  5
20F
100
AcDbSymbolTableRecord
100
AcDbLayerTableRecord
  2
05___PRT_DEF_DTM_CSYS
 70
0
 62
7
  6
CONTINUOUS
370
-3
390
F
  0
LAYER
  5
210
100
AcDbSymbolTableRecord
100
AcDbLayerTableRecord
  2
06_ALL_SURFS
 70
0
 62
7
  6
CONTINUOUS
370
-3
390
F
  0
LAYER
  5
211
100
AcDbSymbolTableRecord
100
AcDbLayerTableRecord
  2
06__ASM_ALL_SURFS
 70
0
 62
7
  6
CONTINUOUS
370
-3
390
F
  0
LAYER
  5
212
100
AcDbSymbolTableRecord
100
AcDbLayerTableRecord
  2
06___PRT_ALL_SURFS
 70
0
 62
7
  6
CONTINUOUS
370
-3
390
F
  0
LAYER
  5
213
100
AcDbSymbolTableRecord
100
AcDbLayerTableRecord
  2
07__ASM_ALL_SKELETONS
 70
0
 62
7
  6
CONTINUOUS
370
-3
390
F
  0
LAYER
  5
214
100
AcDbSymbolTableRecord
100
AcDbLayerTableRecord
  2
1
 70
0
 62
7
  6
CONTINUOUS
370
-3
390
F
  0
LAYER
  5
215
100
AcDbSymbolTableRecord
100
AcDbLayerTableRecord
  2
10
 70
0
 62
7
  6
CONTINUOUS
370
-3
390
F
  0
LAYER
  5
216
100
AcDbSymbolTableRecord
100
AcDbLayerTableRecord
  2
11
 70
0
 62
7
  6
CONTINUOUS
370
-3
390
F
  0
LAYER
  5
217
100
AcDbSymbolTableRecord
100
AcDbLayerTableRecord
  2
12
 70
0
 62
7
  6
CONTINUOUS
370
-3
390
F
  0
LAYER
  5
218
100
AcDbSymbolTableRecord
100
AcDbLayerTableRecord
  2
13
 70
0
 62
7
  6
CONTINUOUS
370
-3
390
F
  0
LAYER
  5
219
100
AcDbSymbolTableRecord
100
AcDbLayerTableRecord
  2
14
 70
0
 62
7
  6
CONTINUOUS
370
-3
390
F
  0
LAYER
  5
21A
100
AcDbSymbolTableRecord
100
AcDbLayerTableRecord
  2
15
 70
0
 62
7
  6
CONTINUOUS
370
-3
390
F
  0
LAYER
  5
21B
100
AcDbSymbolTableRecord
100
AcDbLayerTableRecord
  2
16
 70
0
 62
7
  6
CONTINUOUS
370
-3
390
F
  0
LAYER
  5
21C
100
AcDbSymbolTableRecord
100
AcDbLayerTableRecord
  2
17
 70
0
 62
7
  6
CONTINUOUS
370
-3
390
F
  0
LAYER
  5
21D
100
AcDbSymbolTableRecord
100
AcDbLayerTableRecord
  2
18
 70
0
 62
7
  6
CONTINUOUS
370
-3
390
F
  0
LAYER
  5
21E
100
AcDbSymbolTableRecord
100
AcDbLayerTableRecord
  2
19
 70
0
 62
7
  6
CONTINUOUS
370
-3
390
F
  0
LAYER
  5
21F
100
AcDbSymbolTableRecord
100
AcDbLayerTableRecord
  2
1_ALL_PLANES
 70
0
 62
7
  6
CONTINUOUS
370
-3
390
F
  0
LAYER
  5
220
100
AcDbSymbolTableRecord
100
AcDbLayerTableRecord
  2
1__DEF_ASM_PLN
 70
0
 62
7
  6
CONTINUOUS
370
-3
390
F
  0
LAYER
  5
221
100
AcDbSymbolTableRecord
100
AcDbLayerTableRecord
  2
1__DEF_PLANES
 70
0
 62
7
  6
CONTINUOUS
370
-3
390
F
  0
LAYER
  5
222
100
AcDbSymbolTableRecord
100
AcDbLayerTableRecord
  2
2
 70
0
 62
7
  6
CONTINUOUS
370
-3
390
F
  0
LAYER
  5
223
100
AcDbSymbolTableRecord
100
AcDbLayerTableRecord
  2
20
 70
0
 62
7
  6
CONTINUOUS
370
-3
390
F
  0
LAYER
  5
224
100
AcDbSymbolTableRecord
100
AcDbLayerTableRecord
  2
21
 70
0
 62
7
  6
CONTINUOUS
370
-3
390
F
  0
LAYER
  5
225
100
AcDbSymbolTableRecord
100
AcDbLayerTableRecord
  2
22
 70
0
 62
7
  6
CONTINUOUS
370
-3
390
F
  0
LAYER
  5
226
100
AcDbSymbolTableRecord
100
AcDbLayerTableRecord
  2
23
 70
0
 62
7
  6
CONTINUOUS
370
-3
390
F
  0
LAYER
  5
227
100
AcDbSymbolTableRecord
100
AcDbLayerTableRecord
  2
24
 70
0
 62
7
  6
CONTINUOUS
370
-3
390
F
  0
LAYER
  5
228
100
AcDbSymbolTableRecord
100
AcDbLayerTableRecord
  2
25
 70
0
 62
7
  6
CONTINUOUS
370
-3
390
F
  0
LAYER
  5
229
100
AcDbSymbolTableRecord
100
AcDbLayerTableRecord
  2
26
 70
0
 62
7
  6
CONTINUOUS
370
-3
390
F
  0
LAYER
  5
22A
100
AcDbSymbolTableRecord
100
AcDbLayerTableRecord
  2
27
 70
0
 62
7
  6
CONTINUOUS
370
-3
390
F
  0
LAYER
  5
22B
100
AcDbSymbolTableRecord
100
AcDbLayerTableRecord
  2
28
 70
0
 62
7
  6
CONTINUOUS
370
-3
390
F
  0
LAYER
  5
22C
100
AcDbSymbolTableRecord
100
AcDbLayerTableRecord
  2
29
 70
0
 62
7
  6
CONTINUOUS
370
-3
390
F
  0
LAYER
  5
22D
100
AcDbSymbolTableRecord
100
AcDbLayerTableRecord
  2
2_ALL_CSYS
 70
0
 62
7
  6
CONTINUOUS
370
-3
390
F
  0
LAYER
  5
22E
100
AcDbSymbolTableRecord
100
AcDbLayerTableRecord
  2
2__DEF_ASM_CSYS
 70
0
 62
7
  6
CONTINUOUS
370
-3
390
F
  0
LAYER
  5
22F
100
AcDbSymbolTableRecord
100
AcDbLayerTableRecord
  2
2__DEF_CSYS
 70
0
 62
7
  6
CONTINUOUS
370
-3
390
F
  0
LAYER
  5
230
100
AcDbSymbolTableRecord
100
AcDbLayerTableRecord
  2
3
 70
0
 62
7
  6
CONTINUOUS
370
-3
390
F
  0
LAYER
  5
231
100
AcDbSymbolTableRecord
100
AcDbLayerTableRecord
  2
30
 70
0
 62
7
  6
CONTINUOUS
370
-3
390
F
  0
LAYER
  5
232
100
AcDbSymbolTableRecord
100
AcDbLayerTableRecord
  2
31
 70
0
 62
7
  6
CONTINUOUS
370
-3
390
F
  0
LAYER
  5
233
100
AcDbSymbolTableRecord
100
AcDbLayerTableRecord
  2
32
 70
0
 62
7
  6
CONTINUOUS
370
-3
390
F
  0
LAYER
  5
234
100
AcDbSymbolTableRecord
100
AcDbLayerTableRecord
  2
3_ALL_AXES
 70
0
 62
7
  6
CONTINUOUS
370
-3
390
F
  0
LAYER
  5
235
100
AcDbSymbolTableRecord
100
AcDbLayerTableRecord
  2
4
 70
0
 62
7
  6
CONTINUOUS
370
-3
390
F
  0
LAYER
  5
236
100
AcDbSymbolTableRecord
100
AcDbLayerTableRecord
  2
4_ALL_POINTS
 70
0
 62
7
  6
CONTINUOUS
370
-3
390
F
  0
LAYER
  5
237
100
AcDbSymbolTableRecord
100
AcDbLayerTableRecord
  2
5
 70
0
 62
7
  6
CONTINUOUS
370
-3
390
F
  0
LAYER
  5
238
100
AcDbSymbolTableRecord
100
AcDbLayerTableRecord
  2
5_ALL_CURVES
 70
0
 62
7
  6
CONTINUOUS
370
-3
390
F
  0
LAYER
  5
239
100
AcDbSymbolTableRecord
100
AcDbLayerTableRecord
  2
6
 70
0
 62
7
  6
CONTINUOUS
370
-3
390
F
  0
LAYER
  5
23A
100
AcDbSymbolTableRecord
100
AcDbLayerTableRecord
  2
6_ALL_SURFS
 70
0
 62
7
  6
CONTINUOUS
370
-3
390
F
  0
LAYER
  5
23B
100
AcDbSymbolTableRecord
100
AcDbLayerTableRecord
  2
7
 70
0
 62
7
  6
CONTINUOUS
370
-3
390
F
  0
LAYER
  5
23C
100
AcDbSymbolTableRecord
100
AcDbLayerTableRecord
  2
8
 70
0
 62
7
  6
CONTINUOUS
370
-3
390
F
  0
LAYER
  5
23D
100
AcDbSymbolTableRecord
100
AcDbLayerTableRecord
  2
9
 70
0
 62
7
  6
CONTINUOUS
370
-3
390
F
  0
LAYER
  5
23E
100
AcDbSymbolTableRecord
100
AcDbLayerTableRecord
  2
BOTTOM
 70
0
 62
7
  6
CONTINUOUS
370
-3
390
F
  0
LAYER
  5
23F
100
AcDbSymbolTableRecord
100
AcDbLayerTableRecord
  2
COSMETIC
 70
0
 62
7
  6
CONTINUOUS
370
-3
390
F
  0
LAYER
  5
240
100
AcDbSymbolTableRecord
100
AcDbLayerTableRecord
  2
COVER
 70
0
 62
7
  6
CONTINUOUS
370
-3
390
F
  0
LAYER
  5
241
100
AcDbSymbolTableRecord
100
AcDbLayerTableRecord
  2
CURVE
 70
0
 62
7
  6
CONTINUOUS
370
-3
390
F
  0
LAYER
  5
242
100
AcDbSymbolTableRecord
100
AcDbLayerTableRecord
  2
LAY0001
 70
0
 62
7
  6
CONTINUOUS
370
-3
390
F
  0
LAYER
  5
243
100
AcDbSymbolTableRecord
100
AcDbLayerTableRecord
  2
LAYER_4720
 70
0
 62
7
  6
CONTINUOUS
370
-3
390
F
  0
LAYER
  5
244
100
AcDbSymbolTableRecord
100
AcDbLayerTableRecord
  2
NONE
 70
0
 62
7
  6
CONTINUOUS
370
-3
390
F
  0
LAYER
  5
245
100
AcDbSymbolTableRecord
100
AcDbLayerTableRecord
  2
PARTDTMS
 70
0
 62
7
  6
CONTINUOUS
370
-3
390
F
  0
LAYER
  5
246
100
AcDbSymbolTableRecord
100
AcDbLayerTableRecord
  2
PLANE
 70
0
 62
7
  6
CONTINUOUS
370
-3
390
F
  0
ENDTAB
  0
TABLE
  2
STYLE
  5
3
100
AcDbSymbolTable
 70
1
  0
STYLE
  5
11
100
AcDbSymbolTableRecord
100
AcDbTextStyleTableRecord
  2
STANDARD
 70
0
 40
0.0
 41
0.8
 50
0.0
 71
0
 42
0.2
  3
txt
  4

  0
STYLE
  5
247
100
AcDbSymbolTableRecord
100
AcDbTextStyleTableRecord
  2
TEXTSTYLE_1
 70
0
 40
0.0
 41
0.8
 50
0.0
 71
0
 42
0.2
  3
gdt
  4

  0
ENDTAB
  0
TABLE
  2
VIEW
  5
6
100
AcDbSymbolTable
 70
0
  0
ENDTAB
  0
TABLE
  2
UCS
  5
7
100
AcDbSymbolTable
 70
0
  0
ENDTAB
  0
TABLE
  2
APPID
  5
9
100
AcDbSymbolTable
 70
1
  0
APPID
  5
248
100
AcDbSymbolTableRecord
100
AcDbRegAppTableRecord
  2
ACAD
 70
0
  0
ENDTAB
  0
TABLE
  2
BLOCK_RECORD
  5
1
100
AcDbSymbolTable
 70
0
  0
BLOCK_RECORD
  5
249
100
AcDbSymbolTableRecord
100
AcDbBlockTableRecord
  2
*Model_Space
  0
BLOCK_RECORD
  5
24A
100
AcDbSymbolTableRecord
100
AcDbBlockTableRecord
  2
*Paper_Space
  0
ENDTAB
  0
TABLE
  2
DIMSTYLE
  5
A
100
AcDbSymbolTable
 70
1
100
AcDbDimStyleTable
 71
0
  0
DIMSTYLE
105
24B
100
AcDbSymbolTableRecord
100
AcDbDimStyleTableRecord
  2
STANDARD
 70
0
  3

  4

 40
1.0
 41
0.125
 42
0.0625
 43
0.38
 44
0.18
 45
0.0
 46
0.0
 47
0.7
 48
0.7
140
0.15625
141
0.09
142
0.0
143
25.4
144
1.0
145
0.0
146
1.0
147
0.09
 71
1.0
 72
0.0
 73
1
 74
1
 75
0
 76
0
 77
0
 78
4
170
0
171
2
172
0
173
0
174
0
175
0
176
0
177
0
178
0
270
2
271
2
272
2
273
2
274
2
275
0
280
0
281
0
282
0
283
1
284
4
285
0
286
0
287
3
288
0
340
11
  0
ENDTAB
  0
ENDSEC
  0
SECTION
  2
BLOCKS
  0
BLOCK
  5
20
100
AcDbEntity
  8
0
100
AcDbBlockBegin
  2
*Model_Space
 70
0
 10
0.0
 20
0.0
 30
0.0
  3
*Model_Space
  1

  0
ENDBLK
  5
21
100
AcDbEntity
  8
0
100
AcDbBlockEnd
  0
BLOCK
  5
1C
100
AcDbEntity
  8
0
100
AcDbBlockBegin
  2
*Paper_Space
 70
0
 10
0.0
 20
0.0
 30
0.0
  3
*Paper_Space
  1

  0
ENDBLK
  5
1D
100
AcDbEntity
  8
0
100
AcDbBlockEnd
  0
ENDSEC
  0
SECTION
  2
ENTITIES
  0
MTEXT
  5
24C
100
AcDbEntity
  8
0
100
AcDbMText
 62
2
  6
CONTINUOUS
  7
STANDARD
 71
1
 72
1
 10
-5.8946622847
 20
7.0708970129
 30
0.0
 11
1.0
 21
0.0
 31
0.0
 44
0.9
  1
40411 OR 40522
 40
2.0
 41
22.4
  0
LINE
  5
24D
100
AcDbEntity
  8
0
100
AcDbLine
 62
7
  6
CONTINUOUS
 10
-25.6798887716
 20
22.5410171225
 11
-25.4869898668
 21
19.7824342632
  0
LINE
  5
24E
100
AcDbEntity
  8
0
100
AcDbLine
 62
7
  6
CONTINUOUS
 10
-25.8762117174
 20
22.8088719022
 11
-25.8762117174
 21
22.6691081227
  0
LINE
  5
24F
100
AcDbEntity
  8
0
100
AcDbLine
 62
7
  6
CONTINUOUS
 10
-25.6359015478
 20
23.3665568201
 11
-25.6748986761
 21
22.8088719022
  0
LINE
  5
250
100
AcDbEntity
  8
06___PRT_ALL_SURFS
100
AcDbLine
 62
7
  6
CONTINUOUS
 10
-24.2716409892
 20
25.1654860755
 11
-24.2716409892
 21
26.1654860755
  0
LINE
  5
251
100
AcDbEntity
  8
0
100
AcDbLine
 62
7
  6
CONTINUOUS
 10
-24.2516409892
 20
25.1654860755
 11
-24.2516409892
 21
26.1454860755
  0
LINE
  5
252
100
AcDbEntity
  8
0
100
AcDbLine
 62
7
  6
CONTINUOUS
 10
-24.1636132922
 20
26.1454860755
 11
-24.1636132922
 21
25.1187521248
  0
LINE
  5
253
100
AcDbEntity
  8
0
100
AcDbLine
 62
7
  6
CONTINUOUS
 10
-24.1636132922
 20
19.3301317448
 11
-24.1636132922
 21
18.1805254455
  0
LINE
  5
254
100
AcDbEntity
  8
0
100
AcDbLine
 62
7
  6
CONTINUOUS
 10
-24.1991943712
 20
25.0248374723
 11
-25.6084959052
 21
23.4319118598
  0
LINE
  5
255
100
AcDbEntity
  8
0
100
AcDbLine
 62
7
  6
CONTINUOUS
 10
-21.0887244624
 20
26.1654860755
 11
-21.0887244624
 21
26.1754860755
  0
LINE
  5
256
100
AcDbEntity
  8
0
100
AcDbLine
 62
7
  6
CONTINUOUS
 10
-20.9237244624
 20
26.1654860755
 11
-20.9237244624
 21
26.1754860755
  0
LINE
  5
257
100
AcDbEntity
  8
0
100
AcDbLine
 62
7
  6
CONTINUOUS
 10
-20.8870577258
 20
26.1654860755
 11
-20.8870577258
 21
26.1754860755
  0
LINE
  5
258
100
AcDbEntity
  8
0
100
AcDbLine
 62
7
  6
CONTINUOUS
 10
-20.8824742526
 20
26.1654860755
 11
-20.8824742526
 21
26.1754860755
  0
LINE
  5
259
100
AcDbEntity
  8
0
100
AcDbLine
 62
7
  6
CONTINUOUS
 10
-20.8641409892
 20
26.1654860755
 11
-20.8641409892
 21
26.1754860755
  0
LINE
  5
25A
100
AcDbEntity
  8
0
100
AcDbLine
 62
7
  6
CONTINUOUS
 10
-20.8458077258
 20
26.1654860755
 11
-20.8458077258
 21
26.1754860755
  0
LINE
  5
25B
100
AcDbEntity
  8
0
100
AcDbLine
 62
7
  6
CONTINUOUS
 10
-20.8228909892
 20
26.1654860755
 11
-20.8228909892
 21
26.1754860755
  0
LINE
  5
25C
100
AcDbEntity
  8
0
100
AcDbLine
 62
7
  6
CONTINUOUS
 10
-20.7816409892
 20
26.1654860755
 11
-20.7816409892
 21
26.1754860755
  0
LINE
  5
25D
100
AcDbEntity
  8
0
100
AcDbLine
 62
7
  6
CONTINUOUS
 10
-20.7587242526
 20
26.1654860755
 11
-20.7587242526
 21
26.1754860755
  0
LINE
  5
25E
100
AcDbEntity
  8
0
100
AcDbLine
 62
7
  6
CONTINUOUS
 10
-20.7403909892
 20
26.1654860755
 11
-20.7403909892
 21
26.1754860755
  0
LINE
  5
25F
100
AcDbEntity
  8
0
100
AcDbLine
 62
7
  6
CONTINUOUS
 10
-20.7220577258
 20
26.1654860755
 11
-20.7220577258
 21
26.1754860755
  0
LINE
  5
260
100
AcDbEntity
  8
0
100
AcDbLine
 62
7
  6
CONTINUOUS
 10
-20.7128909892
 20
26.1654860755
 11
-20.7128909892
 21
26.1754860755
  0
LINE
  5
261
100
AcDbEntity
  8
0
100
AcDbLine
 62
7
  6
CONTINUOUS
 10
-20.7083077258
 20
26.1654860755
 11
-20.7083077258
 21
26.1754860755
  0
LINE
  5
262
100
AcDbEntity
  8
0
100
AcDbLine
 62
7
  6
CONTINUOUS
 10
-20.6716409892
 20
26.1654860755
 11
-20.6716409892
 21
26.1754860755
  0
LINE
  5
263
100
AcDbEntity
  8
0
100
AcDbLine
 62
7
  6
CONTINUOUS
 10
-20.6670577258
 20
26.1654860755
 11
-20.6670577258
 21
26.1754860755
  0
LINE
  5
264
100
AcDbEntity
  8
0
100
AcDbLine
 62
7
  6
CONTINUOUS
 10
-20.6578909892
 20
26.1654860755
 11
-20.6578909892
 21
26.1754860755
  0
LINE
  5
265
100
AcDbEntity
  8
0
100
AcDbLine
 62
7
  6
CONTINUOUS
 10
-20.6395577258
 20
26.1654860755
 11
-20.6395577258
 21
26.1754860755
  0
LINE
  5
266
100
AcDbEntity
  8
0
100
AcDbLine
 62
7
  6
CONTINUOUS
 10
-20.6212242526
 20
26.1654860755
 11
-20.6212242526
 21
26.1754860755
  0
LINE
  5
267
100
AcDbEntity
  8
0
100
AcDbLine
 62
7
  6
CONTINUOUS
 10
-20.5983077258
 20
26.1654860755
 11
-20.5983077258
 21
26.1754860755
  0
LINE
  5
268
100
AcDbEntity
  8
0
100
AcDbLine
 62
7
  6
CONTINUOUS
 10
-20.4883077258
 20
26.1654860755
 11
-20.4883077258
 21
26.1754860755
  0
LINE
  5
269
100
AcDbEntity
  8
0
100
AcDbLine
 62
7
  6
CONTINUOUS
 10
-20.4516409892
 20
26.1654860755
 11
-20.4516409892
 21
26.1754860755
  0
LINE
  5
26A
100
AcDbEntity
  8
0
100
AcDbLine
 62
7
  6
CONTINUOUS
 10
-20.2866409892
 20
26.1654860755
 11
-20.2866409892
 21
26.1754860755
  0
LINE
  5
26B
100
AcDbEntity
  8
0
100
AcDbLine
 62
7
  6
CONTINUOUS
 10
-20.0299742526
 20
26.1654860755
 11
-20.0299742526
 21
26.1754860755
  0
LINE
  5
26C
100
AcDbEntity
  8
0
100
AcDbLine
 62
7
  6
CONTINUOUS
 10
-20.0253909892
 20
26.1654860755
 11
-20.0253909892
 21
26.1754860755
  0
LINE
  5
26D
100
AcDbEntity
  8
0
100
AcDbLine
 62
7
  6
CONTINUOUS
 10
-20.0116409892
 20
26.1654860755
 11
-20.0116409892
 21
26.1754860755
  0
LINE
  5
26E
100
AcDbEntity
  8
0
100
AcDbLine
 62
7
  6
CONTINUOUS
 10
-19.9933077258
 20
26.1654860755
 11
-19.9933077258
 21
26.1754860755
  0
LINE
  5
26F
100
AcDbEntity
  8
0
100
AcDbLine
 62
7
  6
CONTINUOUS
 10
-19.9703909892
 20
26.1654860755
 11
-19.9703909892
 21
26.1754860755
  0
LINE
  5
270
100
AcDbEntity
  8
0
100
AcDbLine
 62
7
  6
CONTINUOUS
 10
-19.8603909892
 20
26.1654860755
 11
-19.8603909892
 21
26.1754860755
  0
LINE
  5
271
100
AcDbEntity
  8
0
100
AcDbLine
 62
7
  6
CONTINUOUS
 10
-19.8237242526
 20
26.1654860755
 11
-19.8237242526
 21
26.1754860755
  0
LINE
  5
272
100
AcDbEntity
  8
0
100
AcDbLine
 62
7
  6
CONTINUOUS
 10
-14.4195395837
 20
18.1214703274
 11
-24.1045373945
 21
18.1214703274
  0
LINE
  5
273
100
AcDbEntity
  8
0
100
AcDbLine
 62
7
  6
CONTINUOUS
 10
-19.8191409892
 20
26.1654860755
 11
-19.8191409892
 21
26.1754860755
  0
LINE
  5
274
100
AcDbEntity
  8
0
100
AcDbLine
 62
7
  6
CONTINUOUS
 10
-19.8145577258
 20
26.1654860755
 11
-19.8145577258
 21
26.1754860755
  0
LINE
  5
275
100
AcDbEntity
  8
0
100
AcDbLine
 62
7
  6
CONTINUOUS
 10
-19.8008077258
 20
26.1654860755
 11
-19.8008077258
 21
26.1754860755
  0
LINE
  5
276
100
AcDbEntity
  8
0
100
AcDbLine
 62
7
  6
CONTINUOUS
 10
-19.7824742526
 20
26.1654860755
 11
-19.7824742526
 21
26.1754860755
  0
LINE
  5
277
100
AcDbEntity
  8
0
100
AcDbLine
 62
7
  6
CONTINUOUS
 10
-19.7595577258
 20
26.1654860755
 11
-19.7595577258
 21
26.1754860755
  0
LINE
  5
278
100
AcDbEntity
  8
0
100
AcDbLine
 62
7
  6
CONTINUOUS
 10
-19.6495577258
 20
26.1654860755
 11
-19.6495577258
 21
26.1754860755
  0
LINE
  5
279
100
AcDbEntity
  8
0
100
AcDbLine
 62
7
  6
CONTINUOUS
 10
-19.6128909892
 20
26.1654860755
 11
-19.6128909892
 21
26.1754860755
  0
LINE
  5
27A
100
AcDbEntity
  8
0
100
AcDbLine
 62
7
  6
CONTINUOUS
 10
-19.5395577258
 20
26.1654860755
 11
-19.5395577258
 21
26.1754860755
  0
LINE
  5
27B
100
AcDbEntity
  8
0
100
AcDbLine
 62
7
  6
CONTINUOUS
 10
-19.5028909892
 20
26.1654860755
 11
-19.5028909892
 21
26.1754860755
  0
LINE
  5
27C
100
AcDbEntity
  8
0
100
AcDbLine
 62
7
  6
CONTINUOUS
 10
-19.4295577258
 20
26.1654860755
 11
-19.4295577258
 21
26.1754860755
  0
LINE
  5
27D
100
AcDbEntity
  8
0
100
AcDbLine
 62
7
  6
CONTINUOUS
 10
-19.3928909892
 20
26.1654860755
 11
-19.3928909892
 21
26.1754860755
  0
LINE
  5
27E
100
AcDbEntity
  8
0
100
AcDbLine
 62
7
  6
CONTINUOUS
 10
-19.3653909892
 20
26.1654860755
 11
-19.3653909892
 21
26.1754860755
  0
LINE
  5
27F
100
AcDbEntity
  8
0
100
AcDbLine
 62
7
  6
CONTINUOUS
 10
-19.2370577258
 20
26.1654860755
 11
-19.2370577258
 21
26.1754860755
  0
LINE
  5
280
100
AcDbEntity
  8
0
100
AcDbLine
 62
7
  6
CONTINUOUS
 10
-19.2095577258
 20
26.1654860755
 11
-19.2095577258
 21
26.1754860755
  0
LINE
  5
281
100
AcDbEntity
  8
0
100
AcDbLine
 62
7
  6
CONTINUOUS
 10
-19.1728909892
 20
26.1654860755
 11
-19.1728909892
 21
26.1754860755
  0
LINE
  5
282
100
AcDbEntity
  8
0
100
AcDbLine
 62
7
  6
CONTINUOUS
 10
-19.1637242526
 20
26.1654860755
 11
-19.1637242526
 21
26.1754860755
  0
LINE
  5
283
100
AcDbEntity
  8
0
100
AcDbLine
 62
7
  6
CONTINUOUS
 10
-19.1591409892
 20
26.1654860755
 11
-19.1591409892
 21
26.1754860755
  0
LINE
  5
284
100
AcDbEntity
  8
0
100
AcDbLine
 62
7
  6
CONTINUOUS
 10
-19.1545577258
 20
26.1654860755
 11
-19.1545577258
 21
26.1754860755
  0
LINE
  5
285
100
AcDbEntity
  8
0
100
AcDbLine
 62
7
  6
CONTINUOUS
 10
-19.1408077258
 20
26.1654860755
 11
-19.1408077258
 21
26.1754860755
  0
LINE
  5
286
100
AcDbEntity
  8
0
100
AcDbLine
 62
7
  6
CONTINUOUS
 10
-19.1224743575
 20
26.1654860755
 11
-19.1224743575
 21
26.1754860755
  0
LINE
  5
287
100
AcDbEntity
  8
0
100
AcDbLine
 62
7
  6
CONTINUOUS
 10
-19.0995576209
 20
26.1654860755
 11
-19.0995576209
 21
26.1754860755
  0
LINE
  5
288
100
AcDbEntity
  8
0
100
AcDbLine
 62
7
  6
CONTINUOUS
 10
-19.0766409892
 20
26.1654860755
 11
-19.0766409892
 21
26.1754860755
  0
LINE
  5
289
100
AcDbEntity
  8
0
100
AcDbLine
 62
7
  6
CONTINUOUS
 10
-19.0583076209
 20
26.1654860755
 11
-19.0583076209
 21
26.1754860755
  0
LINE
  5
28A
100
AcDbEntity
  8
0
100
AcDbLine
 62
7
  6
CONTINUOUS
 10
-19.0399743575
 20
26.1654860755
 11
-19.0399743575
 21
26.1754860755
  0
LINE
  5
28B
100
AcDbEntity
  8
0
100
AcDbLine
 62
7
  6
CONTINUOUS
 10
-19.0216409892
 20
26.1654860755
 11
-19.0216409892
 21
26.1754860755
  0
LINE
  5
28C
100
AcDbEntity
  8
0
100
AcDbLine
 62
7
  6
CONTINUOUS
 10
-19.0170576209
 20
26.1654860755
 11
-19.0170576209
 21
26.1754860755
  0
LINE
  5
28D
100
AcDbEntity
  8
0
100
AcDbLine
 62
7
  6
CONTINUOUS
 10
-19.0033076209
 20
26.1654860755
 11
-19.0033076209
 21
26.1754860755
  0
LINE
  5
28E
100
AcDbEntity
  8
0
100
AcDbLine
 62
7
  6
CONTINUOUS
 10
-18.7466409892
 20
26.1654860755
 11
-18.7466409892
 21
26.1754860755
  0
LINE
  5
28F
100
AcDbEntity
  8
0
100
AcDbLine
 62
7
  6
CONTINUOUS
 10
-18.7237243575
 20
26.1654860755
 11
-18.7237243575
 21
26.1754860755
  0
LINE
  5
290
100
AcDbEntity
  8
0
100
AcDbLine
 62
7
  6
CONTINUOUS
 10
-18.6870576209
 20
26.1654860755
 11
-18.6870576209
 21
26.1754860755
  0
LINE
  5
291
100
AcDbEntity
  8
0
100
AcDbLine
 62
7
  6
CONTINUOUS
 10
-18.6595576209
 20
26.1654860755
 11
-18.6595576209
 21
26.1754860755
  0
LINE
  5
292
100
AcDbEntity
  8
0
100
AcDbLine
 62
7
  6
CONTINUOUS
 10
-18.5449743575
 20
26.1654860755
 11
-18.5449743575
 21
26.1754860755
  0
LINE
  5
293
100
AcDbEntity
  8
0
100
AcDbLine
 62
7
  6
CONTINUOUS
 10
-18.5037243575
 20
26.1654860755
 11
-18.5037243575
 21
26.1754860755
  0
LINE
  5
294
100
AcDbEntity
  8
0
100
AcDbLine
 62
7
  6
CONTINUOUS
 10
-18.4670576209
 20
26.1654860755
 11
-18.4670576209
 21
26.1754860755
  0
LINE
  5
295
100
AcDbEntity
  8
0
100
AcDbLine
 62
7
  6
CONTINUOUS
 10
-18.4624743575
 20
26.1654860755
 11
-18.4624743575
 21
26.1754860755
  0
LINE
  5
296
100
AcDbEntity
  8
0
100
AcDbLine
 62
7
  6
CONTINUOUS
 10
-18.4533076209
 20
26.1654860755
 11
-18.4533076209
 21
26.1754860755
  0
LINE
  5
297
100
AcDbEntity
  8
0
100
AcDbLine
 62
7
  6
CONTINUOUS
 10
-18.4349743575
 20
26.1654860755
 11
-18.4349743575
 21
26.1754860755
  0
LINE
  5
298
100
AcDbEntity
  8
0
100
AcDbLine
 62
7
  6
CONTINUOUS
 10
-18.4166409892
 20
26.1654860755
 11
-18.4166409892
 21
26.1754860755
  0
LINE
  5
299
100
AcDbEntity
  8
0
100
AcDbLine
 62
7
  6
CONTINUOUS
 10
-18.3937243575
 20
26.1654860755
 11
-18.3937243575
 21
26.1754860755
  0
LINE
  5
29A
100
AcDbEntity
  8
0
100
AcDbLine
 62
7
  6
CONTINUOUS
 10
-18.3570576209
 20
26.1654860755
 11
-18.3570576209
 21
26.1754860755
  0
LINE
  5
29B
100
AcDbEntity
  8
0
100
AcDbLine
 62
7
  6
CONTINUOUS
 10
-18.3341409892
 20
26.1654860755
 11
-18.3341409892
 21
26.1754860755
  0
LINE
  5
29C
100
AcDbEntity
  8
0
100
AcDbLine
 62
7
  6
CONTINUOUS
 10
-18.3158076209
 20
26.1654860755
 11
-18.3158076209
 21
26.1754860755
  0
LINE
  5
29D
100
AcDbEntity
  8
0
100
AcDbLine
 62
7
  6
CONTINUOUS
 10
-18.2974743575
 20
26.1654860755
 11
-18.2974743575
 21
26.1754860755
  0
LINE
  5
29E
100
AcDbEntity
  8
0
100
AcDbLine
 62
7
  6
CONTINUOUS
 10
-18.2883076209
 20
26.1654860755
 11
-18.2883076209
 21
26.1754860755
  0
LINE
  5
29F
100
AcDbEntity
  8
0
100
AcDbLine
 62
7
  6
CONTINUOUS
 10
-18.2837243575
 20
26.1654860755
 11
-18.2837243575
 21
26.1754860755
  0
LINE
  5
2A0
100
AcDbEntity
  8
0
100
AcDbLine
 62
7
  6
CONTINUOUS
 10
-18.2470576734
 20
26.1654860755
 11
-18.2470576734
 21
26.1754860755
  0
LINE
  5
2A1
100
AcDbEntity
  8
0
100
AcDbLine
 62
7
  6
CONTINUOUS
 10
-13.4376836985
 20
19.4088719022
 11
-25.0863932796
 21
19.4088719022
  0
LINE
  5
2A2
100
AcDbEntity
  8
0
100
AcDbLine
 62
7
  6
CONTINUOUS
 10
-18.2195576734
 20
26.1654860755
 11
-18.2195576734
 21
26.1754860755
  0
LINE
  5
2A3
100
AcDbEntity
  8
0
100
AcDbLine
 62
7
  6
CONTINUOUS
 10
-18.1828909892
 20
26.1654860755
 11
-18.1828909892
 21
26.1754860755
  0
LINE
  5
2A4
100
AcDbEntity
  8
0
100
AcDbLine
 62
7
  6
CONTINUOUS
 10
-18.0087243051
 20
26.1654860755
 11
-18.0087243051
 21
26.1754860755
  0
LINE
  5
2A5
100
AcDbEntity
  8
0
100
AcDbLine
 62
7
  6
CONTINUOUS
 10
-17.9720576734
 20
26.1654860755
 11
-17.9720576734
 21
26.1754860755
  0
LINE
  5
2A6
100
AcDbEntity
  8
0
100
AcDbLine
 62
7
  6
CONTINUOUS
 10
-17.9445576734
 20
26.1654860755
 11
-17.9445576734
 21
26.1754860755
  0
LINE
  5
2A7
100
AcDbEntity
  8
0
100
AcDbLine
 62
7
  6
CONTINUOUS
 10
-17.9399743051
 20
26.1654860755
 11
-17.9399743051
 21
26.1754860755
  0
LINE
  5
2A8
100
AcDbEntity
  8
0
100
AcDbLine
 62
7
  6
CONTINUOUS
 10
-17.9308076734
 20
26.1654860755
 11
-17.9308076734
 21
26.1754860755
  0
LINE
  5
2A9
100
AcDbEntity
  8
0
100
AcDbLine
 62
7
  6
CONTINUOUS
 10
-17.9170576734
 20
26.1654860755
 11
-17.9170576734
 21
26.1754860755
  0
LINE
  5
2AA
100
AcDbEntity
  8
0
100
AcDbLine
 62
7
  6
CONTINUOUS
 10
-17.8987243051
 20
26.1654860755
 11
-17.8987243051
 21
26.1754860755
  0
LINE
  5
2AB
100
AcDbEntity
  8
0
100
AcDbLine
 62
7
  6
CONTINUOUS
 10
-17.8803909892
 20
26.1654860755
 11
-17.8803909892
 21
26.1754860755
  0
LINE
  5
2AC
100
AcDbEntity
  8
0
100
AcDbLine
 62
7
  6
CONTINUOUS
 10
-17.8620576734
 20
26.1654860755
 11
-17.8620576734
 21
26.1754860755
  0
LINE
  5
2AD
100
AcDbEntity
  8
0
100
AcDbLine
 62
7
  6
CONTINUOUS
 10
-17.8483076734
 20
26.1654860755
 11
-17.8483076734
 21
26.1754860755
  0
LINE
  5
2AE
100
AcDbEntity
  8
0
100
AcDbLine
 62
7
  6
CONTINUOUS
 10
-17.8391409892
 20
26.1654860755
 11
-17.8391409892
 21
26.1754860755
  0
LINE
  5
2AF
100
AcDbEntity
  8
0
100
AcDbLine
 62
7
  6
CONTINUOUS
 10
-17.8345576734
 20
26.1654860755
 11
-17.8345576734
 21
26.1754860755
  0
LINE
  5
2B0
100
AcDbEntity
  8
0
100
AcDbLine
 62
7
  6
CONTINUOUS
 10
-17.8070576472
 20
26.1654860755
 11
-17.8070576472
 21
26.1754860755
  0
LINE
  5
2B1
100
AcDbEntity
  8
0
100
AcDbLine
 62
7
  6
CONTINUOUS
 10
-17.7703909892
 20
26.1654860755
 11
-17.7703909892
 21
26.1754860755
  0
LINE
  5
2B2
100
AcDbEntity
  8
0
100
AcDbLine
 62
7
  6
CONTINUOUS
 10
-17.6970576472
 20
26.1654860755
 11
-17.6970576472
 21
26.1754860755
  0
LINE
  5
2B3
100
AcDbEntity
  8
0
100
AcDbLine
 62
7
  6
CONTINUOUS
 10
-17.6603909892
 20
26.1654860755
 11
-17.6603909892
 21
26.1754860755
  0
LINE
  5
2B4
100
AcDbEntity
  8
0
100
AcDbLine
 62
7
  6
CONTINUOUS
 10
-17.5870576603
 20
26.1654860755
 11
-17.5870576603
 21
26.1754860755
  0
LINE
  5
2B5
100
AcDbEntity
  8
0
100
AcDbLine
 62
7
  6
CONTINUOUS
 10
-17.5503909892
 20
26.1654860755
 11
-17.5503909892
 21
26.1754860755
  0
LINE
  5
2B6
100
AcDbEntity
  8
0
100
AcDbLine
 62
7
  6
CONTINUOUS
 10
-17.5458076603
 20
26.1654860755
 11
-17.5458076603
 21
26.1754860755
  0
LINE
  5
2B7
100
AcDbEntity
  8
0
100
AcDbLine
 62
7
  6
CONTINUOUS
 10
-17.5274743182
 20
26.1654860755
 11
-17.5274743182
 21
26.1754860755
  0
LINE
  5
2B8
100
AcDbEntity
  8
0
100
AcDbLine
 62
7
  6
CONTINUOUS
 10
-17.5091409892
 20
26.1654860755
 11
-17.5091409892
 21
26.1754860755
  0
LINE
  5
2B9
100
AcDbEntity
  8
0
100
AcDbLine
 62
7
  6
CONTINUOUS
 10
-17.4862243182
 20
26.1654860755
 11
-17.4862243182
 21
26.1754860755
  0
LINE
  5
2BA
100
AcDbEntity
  8
0
100
AcDbLine
 62
7
  6
CONTINUOUS
 10
-17.4449743247
 20
26.1654860755
 11
-17.4449743247
 21
26.1754860755
  0
LINE
  5
2BB
100
AcDbEntity
  8
0
100
AcDbLine
 62
7
  6
CONTINUOUS
 10
-17.422057657
 20
26.1654860755
 11
-17.422057657
 21
26.1754860755
  0
LINE
  5
2BC
100
AcDbEntity
  8
0
100
AcDbLine
 62
7
  6
CONTINUOUS
 10
-17.4037243215
 20
26.1654860755
 11
-17.4037243215
 21
26.1754860755
  0
LINE
  5
2BD
100
AcDbEntity
  8
0
100
AcDbLine
 62
7
  6
CONTINUOUS
 10
-17.3853909892
 20
26.1654860755
 11
-17.3853909892
 21
26.1754860755
  0
LINE
  5
2BE
100
AcDbEntity
  8
0
100
AcDbLine
 62
7
  6
CONTINUOUS
 10
-17.3762243227
 20
26.1654860755
 11
-17.3762243227
 21
26.1754860755
  0
LINE
  5
2BF
100
AcDbEntity
  8
0
100
AcDbLine
 62
7
  6
CONTINUOUS
 10
-17.3716409892
 20
26.1654860755
 11
-17.3716409892
 21
26.1754860755
  0
LINE
  5
2C0
100
AcDbEntity
  8
0
100
AcDbLine
 62
7
  6
CONTINUOUS
 10
-12.6990998475
 20
22.6179270203
 11
-25.8249771306
 21
22.6179270203
  0
LINE
  5
2C1
100
AcDbEntity
  8
0
100
AcDbLine
 62
7
  6
CONTINUOUS
 10
-12.6478652607
 20
22.8088719022
 11
-25.8762117174
 21
22.8088719022
  0
LINE
  5
2C2
100
AcDbEntity
  8
0
100
AcDbLine
 62
7
  6
CONTINUOUS
 10
-14.3604636859
 20
26.1454860755
 11
-14.3604636859
 21
25.1187521248
  0
LINE
  5
2C3
100
AcDbEntity
  8
0
100
AcDbLine
 62
7
  6
CONTINUOUS
 10
-14.3604636859
 20
19.3301317448
 11
-14.3604636859
 21
18.1805254455
  0
LINE
  5
2C4
100
AcDbEntity
  8
0
100
AcDbLine
 62
7
  6
CONTINUOUS
 10
-14.2916409892
 20
26.1454860755
 11
-14.2916409892
 21
25.1654860755
  0
LINE
  5
2C5
100
AcDbEntity
  8
06___PRT_ALL_SURFS
100
AcDbLine
 62
7
  6
CONTINUOUS
 10
-14.2716409892
 20
26.1654860755
 11
-14.2716409892
 21
25.1654860755
  0
LINE
  5
2C6
100
AcDbEntity
  8
0
100
AcDbLine
 62
7
  6
CONTINUOUS
 10
-12.8881754304
 20
23.3665568201
 11
-12.849178302
 21
22.8088719022
  0
LINE
  5
2C7
100
AcDbEntity
  8
0
100
AcDbLine
 62
7
  6
CONTINUOUS
 10
-12.6478652607
 20
22.8088719022
 11
-12.6478652607
 21
22.6691081227
  0
LINE
  5
2C8
100
AcDbEntity
  8
0
100
AcDbLine
 62
7
  6
CONTINUOUS
 10
-12.8441882066
 20
22.5410171225
 11
-13.0370871114
 21
19.7824342632
  0
LINE
  5
2C9
100
AcDbEntity
  8
0
100
AcDbLine
 62
7
  6
CONTINUOUS
 10
-24.2716409892
 20
25.1654860755
 11
-24.2516409892
 21
25.1654860755
  0
LINE
  5
2CA
100
AcDbEntity
  8
0
100
AcDbLine
 62
7
  6
CONTINUOUS
 10
-14.2716409892
 20
25.1654860755
 11
-14.2916409892
 21
25.1654860755
  0
LINE
  5
2CB
100
AcDbEntity
  8
0
100
AcDbLine
 62
7
  6
CONTINUOUS
 10
-14.324882607
 20
25.0248374723
 11
-12.915581073
 21
23.4319118598
  0
LINE
  5
2CC
100
AcDbEntity
  8
0
100
AcDbLine
 62
7
  6
CONTINUOUS
 10
-14.2916409892
 20
26.1454860755
 11
-24.2516409892
 21
26.1454860755
  0
LINE
  5
2CD
100
AcDbEntity
  8
06___PRT_ALL_SURFS
100
AcDbLine
 62
7
  6
CONTINUOUS
 10
-24.2716409892
 20
26.1654860755
 11
-14.2716409892
 21
26.1654860755
  0
LINE
  5
2CE
100
AcDbEntity
  8
0
100
AcDbLine
 62
7
  6
CONTINUOUS
 10
-21.0887244624
 20
26.1754860755
 11
-20.9237244624
 21
26.1754860755
  0
LINE
  5
2CF
100
AcDbEntity
  8
0
100
AcDbLine
 62
7
  6
CONTINUOUS
 10
-20.8870577258
 20
26.1754860755
 11
-20.7083077258
 21
26.1754860755
  0
LINE
  5
2D0
100
AcDbEntity
  8
0
100
AcDbLine
 62
7
  6
CONTINUOUS
 10
-20.6716409892
 20
26.1754860755
 11
-20.4883077258
 21
26.1754860755
  0
LINE
  5
2D1
100
AcDbEntity
  8
0
100
AcDbLine
 62
7
  6
CONTINUOUS
 10
-20.4516409892
 20
26.1754860755
 11
-20.2866409892
 21
26.1754860755
  0
LINE
  5
2D2
100
AcDbEntity
  8
0
100
AcDbLine
 62
7
  6
CONTINUOUS
 10
-20.0299742526
 20
26.1754860755
 11
-19.8603909892
 21
26.1754860755
  0
LINE
  5
2D3
100
AcDbEntity
  8
0
100
AcDbLine
 62
7
  6
CONTINUOUS
 10
-19.8237242526
 20
26.1754860755
 11
-19.6495577258
 21
26.1754860755
  0
LINE
  5
2D4
100
AcDbEntity
  8
0
100
AcDbLine
 62
7
  6
CONTINUOUS
 10
-19.6128909892
 20
26.1754860755
 11
-19.4295577258
 21
26.1754860755
  0
LINE
  5
2D5
100
AcDbEntity
  8
0
100
AcDbLine
 62
7
  6
CONTINUOUS
 10
-19.3928909892
 20
26.1754860755
 11
-19.2095577258
 21
26.1754860755
  0
LINE
  5
2D6
100
AcDbEntity
  8
0
100
AcDbLine
 62
7
  6
CONTINUOUS
 10
-19.1728909892
 20
26.1754860755
 11
-19.0033076209
 21
26.1754860755
  0
LINE
  5
2D7
100
AcDbEntity
  8
0
100
AcDbLine
 62
7
  6
CONTINUOUS
 10
-18.7466409892
 20
26.1754860755
 11
-18.7237243575
 21
26.1754860755
  0
LINE
  5
2D8
100
AcDbEntity
  8
0
100
AcDbLine
 62
7
  6
CONTINUOUS
 10
-18.6870576209
 20
26.1754860755
 11
-18.5037243575
 21
26.1754860755
  0
LINE
  5
2D9
100
AcDbEntity
  8
0
100
AcDbLine
 62
7
  6
CONTINUOUS
 10
-18.4670576209
 20
26.1754860755
 11
-18.2837243575
 21
26.1754860755
  0
LINE
  5
2DA
100
AcDbEntity
  8
0
100
AcDbLine
 62
7
  6
CONTINUOUS
 10
-18.2470576734
 20
26.1754860755
 11
-18.2195576734
 21
26.1754860755
  0
LINE
  5
2DB
100
AcDbEntity
  8
0
100
AcDbLine
 62
7
  6
CONTINUOUS
 10
-18.1828909892
 20
26.1754860755
 11
-18.0087243051
 21
26.1754860755
  0
LINE
  5
2DC
100
AcDbEntity
  8
0
100
AcDbLine
 62
7
  6
CONTINUOUS
 10
-17.9720576734
 20
26.1754860755
 11
-17.8070576472
 21
26.1754860755
  0
LINE
  5
2DD
100
AcDbEntity
  8
0
100
AcDbLine
 62
7
  6
CONTINUOUS
 10
-17.7703909892
 20
26.1754860755
 11
-17.5870576603
 21
26.1754860755
  0
LINE
  5
2DE
100
AcDbEntity
  8
0
100
AcDbLine
 62
7
  6
CONTINUOUS
 10
-17.5503909892
 20
26.1754860755
 11
-17.3716409892
 21
26.1754860755
  0
LINE
  5
2DF
100
AcDbEntity
  8
0
100
AcDbLine
 62
7
  6
CONTINUOUS
 10
-1.1434184389
 20
22.8088719022
 11
-1.1434184389
 21
22.6691081227
  0
LINE
  5
2E0
100
AcDbEntity
  8
0
100
AcDbLine
 62
7
  6
CONTINUOUS
 10
-0.9031082692
 20
23.3665568201
 11
-0.9421053976
 21
22.8088719022
  0
LINE
  5
2E1
100
AcDbEntity
  8
0
100
AcDbLine
 62
7
  6
CONTINUOUS
 10
-0.947095493
 20
22.5410171225
 11
-0.7541965882
 21
19.7824342632
  0
LINE
  5
2E2
100
AcDbEntity
  8
0
100
AcDbLine
 62
7
  6
CONTINUOUS
 10
0.5691799863
 20
26.1454860755
 11
0.5691799863
 21
25.1187521248
  0
LINE
  5
2E3
100
AcDbEntity
  8
0
100
AcDbLine
 62
7
  6
CONTINUOUS
 10
0.5691799863
 20
19.3301317448
 11
0.5691799863
 21
18.1805254455
  0
LINE
  5
2E4
100
AcDbEntity
  8
0
100
AcDbLine
 62
7
  6
CONTINUOUS
 10
0.5335989074
 20
25.0248374723
 11
-0.8757026266
 21
23.4319118598
  0
LINE
  5
2E5
100
AcDbEntity
  8
06___PRT_ALL_SURFS
100
AcDbLine
 62
7
  6
CONTINUOUS
 10
4.9211816436
 20
26.1654860755
 11
4.9211816436
 21
25.1654860755
  0
LINE
  5
2E6
100
AcDbEntity
  8
0
100
AcDbLine
 62
7
  6
CONTINUOUS
 10
5.3611816436
 20
26.1654860755
 11
5.3611816436
 21
26.1754860755
  0
LINE
  5
2E7
100
AcDbEntity
  8
0
100
AcDbLine
 62
7
  6
CONTINUOUS
 10
5.3658624941
 20
26.1654860755
 11
5.3658624941
 21
26.1754860755
  0
LINE
  5
2E8
100
AcDbEntity
  8
0
100
AcDbLine
 62
7
  6
CONTINUOUS
 10
5.3752241951
 20
26.1654860755
 11
5.3752241951
 21
26.1754860755
  0
LINE
  5
2E9
100
AcDbEntity
  8
0
100
AcDbLine
 62
7
  6
CONTINUOUS
 10
0.6282351045
 20
18.1214703274
 11
10.3132744745
 21
18.1214703274
  0
LINE
  5
2EA
100
AcDbEntity
  8
0
100
AcDbLine
 62
7
  6
CONTINUOUS
 10
5.3939475971
 20
26.1654860755
 11
5.3939475971
 21
26.1754860755
  0
LINE
  5
2EB
100
AcDbEntity
  8
0
100
AcDbLine
 62
7
  6
CONTINUOUS
 10
5.4126709991
 20
26.1654860755
 11
5.4126709991
 21
26.1754860755
  0
LINE
  5
2EC
100
AcDbEntity
  8
0
100
AcDbLine
 62
7
  6
CONTINUOUS
 10
5.4360752648
 20
26.1654860755
 11
5.4360752648
 21
26.1754860755
  0
LINE
  5
2ED
100
AcDbEntity
  8
0
100
AcDbLine
 62
7
  6
CONTINUOUS
 10
5.5062880289
 20
26.1654860755
 11
5.5062880289
 21
26.1754860755
  0
LINE
  5
2EE
100
AcDbEntity
  8
0
100
AcDbLine
 62
7
  6
CONTINUOUS
 10
5.5296922814
 20
26.1654860755
 11
5.5296922814
 21
26.1754860755
  0
LINE
  5
2EF
100
AcDbEntity
  8
0
100
AcDbLine
 62
7
  6
CONTINUOUS
 10
5.5484156867
 20
26.1654860755
 11
5.5484156867
 21
26.1754860755
  0
LINE
  5
2F0
100
AcDbEntity
  8
0
100
AcDbLine
 62
7
  6
CONTINUOUS
 10
5.5671390904
 20
26.1654860755
 11
5.5671390904
 21
26.1754860755
  0
LINE
  5
2F1
100
AcDbEntity
  8
0
100
AcDbLine
 62
7
  6
CONTINUOUS
 10
5.5765007927
 20
26.1654860755
 11
5.5765007927
 21
26.1754860755
  0
LINE
  5
2F2
100
AcDbEntity
  8
0
100
AcDbLine
 62
7
  6
CONTINUOUS
 10
5.5811816436
 20
26.1654860755
 11
5.5811816436
 21
26.1754860755
  0
LINE
  5
2F3
100
AcDbEntity
  8
06___PRT_ALL_SURFS
100
AcDbLine
 62
7
  6
CONTINUOUS
 10
5.9211816436
 20
26.1654860755
 11
5.9211816436
 21
25.1654860755
  0
LINE
  5
2F4
100
AcDbEntity
  8
0
100
AcDbLine
 62
7
  6
CONTINUOUS
 10
-0.3536000011
 20
19.4088719022
 11
11.29510958
 21
19.4088719022
  0
LINE
  5
2F5
100
AcDbEntity
  8
0
100
AcDbLine
 62
7
  6
CONTINUOUS
 10
10.3416747433
 20
25.0981944097
 11
10.342423699
 21
25.0988570298
  0
LINE
  5
2F6
100
AcDbEntity
  8
0
100
AcDbLine
 62
7
  6
CONTINUOUS
 10
12.3723983055
 20
20.4161058431
 11
13.8694232779
 21
20.4291701821
  0
LINE
  5
2F7
100
AcDbEntity
  8
0
100
AcDbLine
 62
7
  6
CONTINUOUS
 10
13.986502821
 20
20.914777414
 11
13.9904398289
 21
20.914777414
  0
LINE
  5
2F8
100
AcDbEntity
  8
0
100
AcDbLine
 62
7
  6
CONTINUOUS
 10
12.3565128483
 20
20.4158309812
 11
12.0878343325
 21
20.418175703
  0
LINE
  5
2F9
100
AcDbEntity
  8
0
100
AcDbLine
 62
7
  6
CONTINUOUS
 10
11.7817096764
 20
20.630571304
 11
11.9629494819
 21
20.6289896482
  0
LINE
  5
2FA
100
AcDbEntity
  8
0
100
AcDbLine
 62
7
  6
CONTINUOUS
 10
11.8927043613
 20
20.7314034317
 11
11.8011953605
 21
20.7322020187
  0
LINE
  5
2FB
100
AcDbEntity
  8
0
100
AcDbLine
 62
7
  6
CONTINUOUS
 10
11.9200519129
 20
22.5098073777
 11
12.0384713249
 21
22.5108408082
  0
LINE
  5
2FC
100
AcDbEntity
  8
0
100
AcDbLine
 62
7
  6
CONTINUOUS
 10
11.7207547895
 20
22.4747774141
 11
11.8143015119
 21
22.4747774141
  0
LINE
  5
2FD
100
AcDbEntity
  8
0
100
AcDbLine
 62
7
  6
CONTINUOUS
 10
12.0337469155
 20
22.6179270203
 11
-1.0922373365
 21
22.6179270203
  0
LINE
  5
2FE
100
AcDbEntity
  8
0
100
AcDbLine
 62
7
  6
CONTINUOUS
 10
-1.1434184389
 20
22.8088719022
 11
12.0384713249
 21
22.8088719022
  0
LINE
  5
2FF
100
AcDbEntity
  8
0
100
AcDbLine
 62
7
  6
CONTINUOUS
 10
12.0384713249
 20
23.0214699254
 11
11.801194471
 21
23.0235406091
  0
LINE
  5
300
100
AcDbEntity
  8
0
100
AcDbLine
 62
7
  6
CONTINUOUS
 10
10.3723295926
 20
26.1454860755
 11
10.3723295926
 21
25.1187521248
  0
LINE
  5
301
100
AcDbEntity
  8
0
100
AcDbLine
 62
7
  6
CONTINUOUS
 10
10.3723295926
 20
19.3301317448
 11
10.3723295926
 21
18.1805254455
  0
LINE
  5
302
100
AcDbEntity
  8
0
100
AcDbLine
 62
7
  6
CONTINUOUS
 10
11.8011946813
 20
23.2882976854
 11
11.8927033859
 21
23.2890962698
  0
LINE
  5
303
100
AcDbEntity
  8
0
100
AcDbLine
 62
7
  6
CONTINUOUS
 10
11.7817096764
 20
23.508056125
 11
11.9629494819
 21
23.5096377808
  0
LINE
  5
304
100
AcDbEntity
  8
0
100
AcDbLine
 62
7
  6
CONTINUOUS
 10
12.0878343325
 20
23.6613791251
 11
12.3644555769
 21
23.6637931621
  0
LINE
  5
305
100
AcDbEntity
  8
0
100
AcDbLine
 62
7
  6
CONTINUOUS
 10
13.986502821
 20
23.164777414
 11
13.9904398289
 21
23.164777414
  0
LINE
  5
306
100
AcDbEntity
  8
0
100
AcDbLine
 62
7
  6
CONTINUOUS
 10
13.8694232779
 20
23.6503846459
 11
12.3723983055
 21
23.663448985
  0
LINE
  5
307
100
AcDbEntity
  8
0
100
AcDbLine
 62
7
  6
CONTINUOUS
 10
12.372400704
 20
23.663723826
 11
12.3644555769
 21
23.6637931621
  0
LINE
  5
308
100
AcDbEntity
  8
0
100
AcDbLine
 62
7
  6
CONTINUOUS
 10
11.8446178482
 20
23.3665568201
 11
11.85006044
 21
23.2887241304
  0
LINE
  5
309
100
AcDbEntity
  8
0
100
AcDbLine
 62
7
  6
CONTINUOUS
 10
11.8686450394
 20
23.0229519769
 11
11.8836149765
 21
22.8088719022
  0
LINE
  5
30A
100
AcDbEntity
  8
0
100
AcDbLine
 62
7
  6
CONTINUOUS
 10
11.7221029219
 20
23.2095414794
 11
11.7221029219
 21
23.1022968184
  0
LINE
  5
30B
100
AcDbEntity
  8
0
100
AcDbLine
 62
7
  6
CONTINUOUS
 10
11.7221029219
 20
22.3129123047
 11
11.7221029219
 21
20.81095823
  0
LINE
  5
30C
100
AcDbEntity
  8
0
100
AcDbLine
 62
7
  6
CONTINUOUS
 10
11.7739043958
 20
23.5002120742
 11
11.7739043958
 21
23.480862434
  0
LINE
  5
30D
100
AcDbEntity
  8
0
100
AcDbLine
 62
7
  6
CONTINUOUS
 10
11.7739043958
 20
20.7403592666
 11
11.7739043958
 21
20.6384153549
  0
LINE
  5
30E
100
AcDbEntity
  8
0
100
AcDbLine
 62
7
  6
CONTINUOUS
 10
11.9707547895
 20
23.5432733861
 11
11.9707547895
 21
23.0337692787
  0
LINE
  5
30F
100
AcDbEntity
  8
0
100
AcDbLine
 62
7
  6
CONTINUOUS
 10
11.9707547895
 20
22.4985414549
 11
11.9707547895
 21
20.536281442
  0
LINE
  5
310
100
AcDbEntity
  8
0
100
AcDbLine
 62
7
  6
CONTINUOUS
 10
12.0384713249
 20
22.5108408082
 11
12.0384713249
 21
23.0214699254
  0
LINE
  5
311
100
AcDbEntity
  8
0
100
AcDbLine
 62
7
  6
CONTINUOUS
 10
12.3644555769
 20
20.4237046971
 11
12.3644555769
 21
23.6637931621
  0
LINE
  5
312
100
AcDbEntity
  8
0
100
AcDbLine
 62
7
  6
CONTINUOUS
 10
11.888605072
 20
22.5410171225
 11
11.8859832304
 21
22.5035230417
  0
LINE
  5
313
100
AcDbEntity
  8
0
100
AcDbLine
 62
7
  6
CONTINUOUS
 10
11.7631167419
 20
20.7464503952
 11
11.6957061672
 21
19.7824342632
  0
LINE
  5
314
100
AcDbEntity
  8
06___PRT_ALL_SURFS
100
AcDbLine
 62
7
  6
CONTINUOUS
 10
4.9211816436
 20
25.1654860755
 11
5.9211816436
 21
25.1654860755
  0
LINE
  5
315
100
AcDbEntity
  8
0
100
AcDbLine
 62
7
  6
CONTINUOUS
 10
10.3416747433
 20
25.0981944097
 11
11.9324610525
 21
23.3001375745
  0
LINE
  5
316
100
AcDbEntity
  8
0
100
AcDbLine
 62
7
  6
CONTINUOUS
 10
10.342423699
 20
25.0988570298
 11
11.9332100083
 21
23.3008001945
  0
LINE
  5
317
100
AcDbEntity
  8
0
100
AcDbLine
 62
7
  6
CONTINUOUS
 10
4.9211816436
 20
26.1454860755
 11
0.5691957926
 21
26.1454860755
  0
LINE
  5
318
100
AcDbEntity
  8
0
100
AcDbLine
 62
7
  6
CONTINUOUS
 10
5.9211816436
 20
26.1454860755
 11
10.3723137864
 21
26.1454860755
  0
LINE
  5
319
100
AcDbEntity
  8
06___PRT_ALL_SURFS
100
AcDbLine
 62
7
  6
CONTINUOUS
 10
4.9211816436
 20
26.1654860755
 11
5.9211816436
 21
26.1654860755
  0
LINE
  5
31A
100
AcDbEntity
  8
0
100
AcDbLine
 62
7
  6
CONTINUOUS
 10
5.3611816436
 20
26.1754860755
 11
5.5811816436
 21
26.1754860755
  0
LWPOLYLINE
  5
31B
100
AcDbEntity
  8
0
100
AcDbPolyline
 62
7
  6
CONTINUOUS
 90
7
 70
0
 10
13.93604943
 20
20.6330099914
 10
13.9362158394
 20
20.6325881064
 10
13.9359526779
 20
20.6336783796
 10
13.934741662
 20
20.6397764783
 10
13.9332408196
 20
20.6500367177
 10
13.9316910817
 20
20.664019702
 10
13.9301903589
 20
20.6815974181
  0
LINE
  5
31C
100
AcDbEntity
  8
0
100
AcDbLine
 62
7
  6
CONTINUOUS
 10
13.9301903589
 20
20.6815974181
 11
13.9287976593
 21
20.7028170731
  0
LWPOLYLINE
  5
31D
100
AcDbEntity
  8
0
100
AcDbPolyline
 62
7
  6
CONTINUOUS
 90
9
 70
0
 10
13.9287976593
 20
20.7028170731
 10
13.9275759684
 20
20.7277216305
 10
13.9265918684
 20
20.7559726726
 10
13.9259221873
 20
20.7868606112
 10
13.9256113314
 20
20.8194798664
 10
13.9256968257
 20
20.8527530301
 10
13.9261770381
 20
20.8854366432
 10
13.9270310306
 20
20.9162964944
 10
13.9281989416
 20
20.9442427769
  0
LINE
  5
31E
100
AcDbEntity
  8
0
100
AcDbLine
 62
7
  6
CONTINUOUS
 10
13.986502821
 20
20.5472759211
 11
13.986502821
 21
23.532278907
  0
LINE
  5
31F
100
AcDbEntity
  8
0
100
AcDbLine
 62
7
  6
CONTINUOUS
 10
13.9904398289
 20
20.914777414
 11
13.9904398289
 21
23.164777414
  0
LWPOLYLINE
  5
320
100
AcDbEntity
  8
0
100
AcDbPolyline
 62
7
  6
CONTINUOUS
 90
3
 70
0
 10
13.9281989416
 20
20.9442427769
 10
13.9296049256
 20
20.9684727543
 10
13.9311722352
 20
20.9887039511
  0
LWPOLYLINE
  5
321
100
AcDbEntity
  8
0
100
AcDbPolyline
 62
7
  6
CONTINUOUS
 90
5
 70
0
 10
13.9311722352
 20
20.9887039511
 10
13.9328216576
 20
21.0048399435
 10
13.9344554964
 20
21.0167896135
 10
13.9358446227
 20
21.0241591686
 10
13.9360143823
 20
21.0248691907
  0
LINE
  5
322
100
AcDbEntity
  8
0
100
AcDbLine
 62
7
  6
CONTINUOUS
 10
-25.2954405425
 20
5.3864487541
 11
-24.8711584293
 21
4.4765728262
  0
LINE
  5
323
100
AcDbEntity
  8
0
100
AcDbLine
 62
7
  6
CONTINUOUS
 10
-25.2703087063
 20
5.3330078085
 11
-24.8959421359
 21
4.5301761073
  0
LINE
  5
324
100
AcDbEntity
  8
0
100
AcDbLine
 62
7
  6
CONTINUOUS
 10
-24.8494276619
 20
4.5518661628
 11
-25.2237942323
 21
5.3546978639
  0
LINE
  5
325
100
AcDbEntity
  8
0
100
AcDbLine
 62
7
  6
CONTINUOUS
 10
-25.2225497277
 20
5.3552781859
 11
-24.8481831573
 21
4.5524464848
  0
LINE
  5
326
100
AcDbEntity
  8
0
100
AcDbLine
 62
7
  6
CONTINUOUS
 10
-24.8399394274
 20
4.5562905992
 11
-25.2143059978
 21
5.3591223003
  0
LINE
  5
327
100
AcDbEntity
  8
0
100
AcDbLine
 62
7
  6
CONTINUOUS
 10
-24.8363799783
 20
4.5579503975
 11
-25.2107465487
 21
5.3607820987
  0
LINE
  5
328
100
AcDbEntity
  8
0
100
AcDbLine
 62
7
  6
CONTINUOUS
 10
-24.807688693
 20
4.5061692503
 11
-25.2319708062
 21
5.4160451782
  0
LINE
  5
329
100
AcDbEntity
  8
0
100
AcDbLine
 62
7
  6
CONTINUOUS
 10
-24.804129244
 20
4.5078290486
 11
-25.2284113571
 21
5.4177049766
  0
LINE
  5
32A
100
AcDbEntity
  8
LAY0001
100
AcDbLine
 62
7
  6
CONTINUOUS
 10
-24.2886372827
 20
3.7353657517
 11
-24.2883078659
 21
3.734597236
  0
LINE
  5
32B
100
AcDbEntity
  8
LAY0001
100
AcDbLine
 62
7
  6
CONTINUOUS
 10
-24.2759187863
 20
3.720960302
 11
-24.2755893694
 21
3.7201917863
  0
LINE
  5
32C
100
AcDbEntity
  8
LAY0001
100
AcDbLine
 62
7
  6
CONTINUOUS
 10
-24.2731411829
 20
3.720156296
 11
-24.272811766
 21
3.7193877804
  0
LINE
  5
32D
100
AcDbEntity
  8
LAY0001
100
AcDbLine
 62
7
  6
CONTINUOUS
 10
-24.2072827565
 20
3.6385365138
 11
-24.2069533399
 21
3.637767998
  0
LINE
  5
32E
100
AcDbEntity
  8
LAY0001
100
AcDbLine
 62
7
  6
CONTINUOUS
 10
-24.450126171
 20
3.8538929718
 11
-24.4506316959
 21
3.8552621937
  0
LINE
  5
32F
100
AcDbEntity
  8
LAY0001
100
AcDbLine
 62
7
  6
CONTINUOUS
 10
-24.1604440133
 20
3.5123053341
 11
-24.1609495584
 21
3.5136745801
  0
LINE
  5
330
100
AcDbEntity
  8
LAY0001
100
AcDbLine
 62
7
  6
CONTINUOUS
 10
-24.1224981596
 20
3.4634411121
 11
-24.1230037046
 21
3.4648103581
  0
LINE
  5
331
100
AcDbEntity
  8
LAY0001
100
AcDbLine
 62
7
  6
CONTINUOUS
 10
-23.9765044274
 20
3.290027628
 11
-23.9770099674
 21
3.2913968679
  0
LINE
  5
332
100
AcDbEntity
  8
LAY0001
100
AcDbLine
 62
7
  6
CONTINUOUS
 10
-23.9720617531
 20
3.2883751694
 11
-23.9725672931
 21
3.2897444093
  0
LINE
  5
333
100
AcDbEntity
  8
LAY0001
100
AcDbLine
 62
7
  6
CONTINUOUS
 10
-24.3509557927
 20
3.8126415155
 11
-24.3506881264
 21
3.8118212807
  0
LINE
  5
334
100
AcDbEntity
  8
LAY0001
100
AcDbLine
 62
7
  6
CONTINUOUS
 10
-24.272440597
 20
3.7165645362
 11
-24.2727083105
 21
3.7173848272
  0
LINE
  5
335
100
AcDbEntity
  8
LAY0001
100
AcDbLine
 62
7
  6
CONTINUOUS
 10
-24.2697246971
 20
3.7157087549
 11
-24.2699924105
 21
3.7165290459
  0
LINE
  5
336
100
AcDbEntity
  8
LAY0001
100
AcDbLine
 62
7
  6
CONTINUOUS
 10
-24.1922185809
 20
3.6229646306
 11
-24.1924862708
 21
3.6237848935
  0
LINE
  5
337
100
AcDbEntity
  8
LAY0001
100
AcDbLine
 62
7
  6
CONTINUOUS
 10
-23.9006339032
 20
3.2730866412
 11
-23.9009016019
 21
3.2739069146
  0
LINE
  5
338
100
AcDbEntity
  8
LAY0001
100
AcDbLine
 62
7
  6
CONTINUOUS
 10
-23.8858374263
 20
3.2583350314
 11
-23.8855697276
 21
3.257514758
  0
LINE
  5
339
100
AcDbEntity
  8
LAY0001
100
AcDbLine
 62
7
  6
CONTINUOUS
 10
-24.4555191263
 20
3.8601283549
 11
-24.4559302619
 21
3.8615767788
  0
LINE
  5
33A
100
AcDbEntity
  8
LAY0001
100
AcDbLine
 62
7
  6
CONTINUOUS
 10
-24.1909683618
 20
3.54408227
 11
-24.1913795176
 21
3.545530718
  0
LINE
  5
33B
100
AcDbEntity
  8
LAY0001
100
AcDbLine
 62
7
  6
CONTINUOUS
 10
-24.1555566034
 20
3.5074391968
 11
-24.1551454473
 21
3.505990749
  0
LINE
  5
33C
100
AcDbEntity
  8
LAY0001
100
AcDbLine
 62
7
  6
CONTINUOUS
 10
-24.1278911148
 20
3.4696764952
 11
-24.1283022706
 21
3.4711249432
  0
LINE
  5
33D
100
AcDbEntity
  8
LAY0001
100
AcDbLine
 62
7
  6
CONTINUOUS
 10
-24.3476010575
 20
3.8081422552
 11
-24.3478070203
 21
3.8090142654
  0
LINE
  5
33E
100
AcDbEntity
  8
LAY0001
100
AcDbLine
 62
7
  6
CONTINUOUS
 10
-24.2101638157
 20
3.6413434728
 11
-24.2103698255
 21
3.6422155392
  0
LINE
  5
33F
100
AcDbEntity
  8
LAY0001
100
AcDbLine
 62
7
  6
CONTINUOUS
 10
-24.1893374985
 20
3.6201576434
 11
-24.189131512
 21
3.6192856051
  0
LINE
  5
340
100
AcDbEntity
  8
LAY0001
100
AcDbLine
 62
7
  6
CONTINUOUS
 10
-23.9037826757
 20
3.2767138912
 11
-23.9039886708
 21
3.2775859401
  0
LINE
  5
341
100
AcDbEntity
  8
LAY0001
100
AcDbLine
 62
7
  6
CONTINUOUS
 10
-23.882688654
 20
3.2547077813
 11
-23.8824826587
 21
3.2538357325
  0
LINE
  5
342
100
AcDbEntity
  8
LAY0001
100
AcDbLine
 62
7
  6
CONTINUOUS
 10
-24.2596273419
 20
3.6245650246
 11
-24.2384330779
 21
3.5993066844
  0
LINE
  5
343
100
AcDbEntity
  8
LAY0001
100
AcDbLine
 62
7
  6
CONTINUOUS
 10
-23.9938159608
 20
3.3077833562
 11
-23.9894004857
 21
3.302521198
  0
LINE
  5
344
100
AcDbEntity
  8
LAY0001
100
AcDbLine
 62
7
  6
CONTINUOUS
 10
-23.8957924897
 20
3.1909635324
 11
-23.9293500752
 21
3.2309559055
  0
LINE
  5
345
100
AcDbEntity
  8
LAY0001
100
AcDbLine
 62
7
  6
CONTINUOUS
 10
-23.9364148282
 20
3.2393753503
 11
-23.9682062268
 21
3.2772628637
  0
LINE
  5
346
100
AcDbEntity
  8
LAY0001
100
AcDbLine
 62
7
  6
CONTINUOUS
 10
-24.0150102248
 20
3.3330416965
 11
-24.0485678129
 21
3.3730340727
  0
LINE
  5
347
100
AcDbEntity
  8
LAY0001
100
AcDbLine
 62
7
  6
CONTINUOUS
 10
-24.0556325608
 20
3.3814535114
 11
-24.0874239669
 21
3.4193410339
  0
LINE
  5
348
100
AcDbEntity
  8
LAY0001
100
AcDbLine
 62
7
  6
CONTINUOUS
 10
-24.0944887149
 20
3.4277604726
 11
-24.1156829789
 21
3.4530188129
  0
LINE
  5
349
100
AcDbEntity
  8
LAY0001
100
AcDbLine
 62
7
  6
CONTINUOUS
 10
-24.172201023
 20
3.520374395
 11
-24.180148872
 21
3.5298462727
  0
LINE
  5
34A
100
AcDbEntity
  8
LAY0001
100
AcDbLine
 62
7
  6
CONTINUOUS
 10
-24.1995769339
 20
3.5529997352
 11
-24.2313683299
 21
3.5908872456
  0
LINE
  5
34B
100
AcDbEntity
  8
LAY0001
100
AcDbLine
 62
7
  6
CONTINUOUS
 10
-24.2790554442
 20
3.6477185354
 11
-24.3126130019
 21
3.6877108754
  0
LINE
  5
34C
100
AcDbEntity
  8
LAY0001
100
AcDbLine
 62
7
  6
CONTINUOUS
 10
-24.3196777701
 20
3.6961303382
 11
-24.3249763361
 21
3.7024449233
  0
LINE
  5
34D
100
AcDbEntity
  8
LAY0001
100
AcDbLine
 62
7
  6
CONTINUOUS
 10
-24.3320411042
 20
3.7108643861
 11
-24.3638325003
 21
3.7487518965
  0
LINE
  5
34E
100
AcDbEntity
  8
LAY0001
100
AcDbLine
 62
7
  6
CONTINUOUS
 10
-24.370897228
 20
3.7571713112
 11
-24.376195794
 21
3.7634858962
  0
LINE
  5
34F
100
AcDbEntity
  8
LAY0001
100
AcDbLine
 62
7
  6
CONTINUOUS
 10
-24.3832605622
 20
3.7719053591
 11
-24.4150519582
 21
3.8097928695
  0
LINE
  5
350
100
AcDbEntity
  8
LAY0001
100
AcDbLine
 62
7
  6
CONTINUOUS
 10
-24.4221167263
 20
3.8182123323
 11
-24.4433109904
 21
3.8434706726
  0
LINE
  5
351
100
AcDbEntity
  8
LAY0001
100
AcDbLine
 62
7
  6
CONTINUOUS
 10
-24.3121410569
 20
3.6881068843
 11
-24.298011561
 21
3.6712680068
  0
LINE
  5
352
100
AcDbEntity
  8
LAY0001
100
AcDbLine
 62
7
  6
CONTINUOUS
 10
-24.292712995
 20
3.6649534217
 11
-24.2785834992
 21
3.6481145443
  0
LINE
  5
353
100
AcDbEntity
  8
LAY0001
100
AcDbLine
 62
7
  6
CONTINUOUS
 10
-24.2600385181
 20
3.6260134965
 11
-24.2432596988
 21
3.6060172783
  0
LINE
  5
354
100
AcDbEntity
  8
LAY0001
100
AcDbLine
 62
7
  6
CONTINUOUS
 10
-24.0480958678
 20
3.3734300816
 11
-24.0339663517
 21
3.35659118
  0
LINE
  5
355
100
AcDbEntity
  8
LAY0001
100
AcDbLine
 62
7
  6
CONTINUOUS
 10
-24.0286677857
 20
3.3502765949
 11
-24.0145382798
 21
3.3334377054
  0
LINE
  5
356
100
AcDbEntity
  8
LAY0001
100
AcDbLine
 62
7
  6
CONTINUOUS
 10
-23.9288781302
 20
3.2313519144
 11
-23.9147486204
 21
3.2145130204
  0
LINE
  5
357
100
AcDbEntity
  8
LAY0001
100
AcDbLine
 62
7
  6
CONTINUOUS
 10
-23.9094500544
 20
3.2081984353
 11
-23.8953205446
 21
3.1913595413
  0
LINE
  5
358
100
AcDbEntity
  8
LAY0001
100
AcDbLine
 62
7
  6
CONTINUOUS
 10
-24.4144856241
 20
3.8102680802
 11
-24.3879927941
 21
3.7786951548
  0
LINE
  5
359
100
AcDbEntity
  8
LAY0001
100
AcDbLine
 62
7
  6
CONTINUOUS
 10
-24.3632661662
 20
3.7492271072
 11
-24.3367733362
 21
3.7176541818
  0
LINE
  5
35A
100
AcDbEntity
  8
LAY0001
100
AcDbLine
 62
7
  6
CONTINUOUS
 10
-24.2308019959
 20
3.5913624563
 11
-24.2043091659
 21
3.5597895309
  0
LINE
  5
35B
100
AcDbEntity
  8
LAY0001
100
AcDbLine
 62
7
  6
CONTINUOUS
 10
-24.179582538
 20
3.5303214833
 11
-24.171634689
 21
3.5208496057
  0
LINE
  5
35C
100
AcDbEntity
  8
LAY0001
100
AcDbLine
 62
7
  6
CONTINUOUS
 10
-24.0868576329
 20
3.4198162446
 11
-24.0603647928
 21
3.3882433072
  0
LINE
  5
35D
100
AcDbEntity
  8
LAY0001
100
AcDbLine
 62
7
  6
CONTINUOUS
 10
-23.9676398927
 20
3.2777380744
 11
-23.9411470627
 21
3.2461651491
  0
LINE
  5
35E
100
AcDbEntity
  8
LAY0001
100
AcDbLine
 62
7
  6
CONTINUOUS
 10
-23.9888341517
 20
3.3029964087
 11
-23.9941327177
 21
3.3093109938
  0
LINE
  5
35F
100
AcDbEntity
  8
LAY0001
100
AcDbLine
 62
7
  6
CONTINUOUS
 10
-24.0992209468
 20
3.4345502684
 11
-24.1151166448
 21
3.4534940236
  0
LINE
  5
360
100
AcDbEntity
  8
LAY0001
100
AcDbLine
 62
7
  6
CONTINUOUS
 10
-24.4268489583
 20
3.8250021281
 11
-24.4427446563
 21
3.8439458833
  0
LINE
  5
361
100
AcDbEntity
  8
LAY0001
100
AcDbLine
 62
7
  6
CONTINUOUS
 10
-23.9989593387
 20
3.3160215877
 11
-24.0042579047
 21
3.3223361728
  0
LINE
  5
362
100
AcDbEntity
  8
LAY0001
100
AcDbLine
 62
7
  6
CONTINUOUS
 10
-24.1913795176
 20
3.545530718
 11
-24.1860809516
 21
3.539216133
  0
LINE
  5
363
100
AcDbEntity
  8
LAY0001
100
AcDbLine
 62
7
  6
CONTINUOUS
 10
-23.9399200054
 20
3.2471947724
 11
-23.9628804564
 21
3.2745579724
  0
LINE
  5
364
100
AcDbEntity
  8
LAY0001
100
AcDbLine
 62
7
  6
CONTINUOUS
 10
-24.0591377354
 20
3.3892729305
 11
-24.0820981915
 21
3.4166361365
  0
LINE
  5
365
100
AcDbEntity
  8
LAY0001
100
AcDbLine
 62
7
  6
CONTINUOUS
 10
-24.2030821085
 20
3.5608191543
 11
-24.2260425747
 21
3.5881823724
  0
LINE
  5
366
100
AcDbEntity
  8
LAY0001
100
AcDbLine
 62
7
  6
CONTINUOUS
 10
-24.3355462789
 20
3.7186838052
 11
-24.3585067046
 21
3.7460469751
  0
LINE
  5
367
100
AcDbEntity
  8
LAY0001
100
AcDbLine
 62
7
  6
CONTINUOUS
 10
-24.3867657368
 20
3.7797247782
 11
-24.4097262029
 21
3.8070879962
  0
LINE
  5
368
100
AcDbEntity
  8
LAY0001
100
AcDbLine
 62
7
  6
CONTINUOUS
 10
-23.9928112713
 20
3.3104198189
 11
-23.9875127053
 21
3.3041052338
  0
LINE
  5
369
100
AcDbEntity
  8
LAY0001
100
AcDbLine
 62
7
  6
CONTINUOUS
 10
-24.2418438635
 20
3.6072053053
 11
-24.2586226828
 21
3.6272015234
  0
LINE
  5
36A
100
AcDbEntity
  8
LAY0001
100
AcDbLine
 62
7
  6
CONTINUOUS
 10
-24.4091598689
 20
3.8075632069
 11
-24.3861994027
 21
3.7801999889
  0
LINE
  5
36B
100
AcDbEntity
  8
LAY0001
100
AcDbLine
 62
7
  6
CONTINUOUS
 10
-24.3579403706
 20
3.7465221858
 11
-24.3349799448
 21
3.7191590159
  0
LINE
  5
36C
100
AcDbEntity
  8
LAY0001
100
AcDbLine
 62
7
  6
CONTINUOUS
 10
-24.2254762406
 20
3.588657583
 11
-24.2025157745
 21
3.561294365
  0
LINE
  5
36D
100
AcDbEntity
  8
LAY0001
100
AcDbLine
 62
7
  6
CONTINUOUS
 10
-24.0815318574
 20
3.4171113472
 11
-24.0585714014
 21
3.3897481412
  0
LINE
  5
36E
100
AcDbEntity
  8
LAY0001
100
AcDbLine
 62
7
  6
CONTINUOUS
 10
-23.9623141223
 20
3.2750331831
 11
-23.9393536713
 21
3.2476699831
  0
LINE
  5
36F
100
AcDbEntity
  8
LAY0001
100
AcDbLine
 62
7
  6
CONTINUOUS
 10
-23.9869463713
 20
3.3045804445
 11
-23.9922449373
 21
3.3108950296
  0
LINE
  5
370
100
AcDbEntity
  8
LAY0001
100
AcDbLine
 62
7
  6
CONTINUOUS
 10
-24.2412775294
 20
3.6076805159
 11
-24.2562901466
 21
3.6255718564
  0
LINE
  5
371
100
AcDbEntity
  8
LAY0001
100
AcDbLine
 62
7
  6
CONTINUOUS
 10
-23.9773603191
 20
3.2946897544
 11
-23.9720617531
 21
3.2883751694
  0
LINE
  5
372
100
AcDbEntity
  8
LAY0001
100
AcDbLine
 62
7
  6
CONTINUOUS
 10
-24.1839100043
 20
3.541037774
 11
-24.1892085703
 21
3.5473523591
  0
LINE
  5
373
100
AcDbEntity
  8
LAY0001
100
AcDbLine
 62
7
  6
CONTINUOUS
 10
-24.4394410406
 20
3.846717946
 11
-24.4235453426
 21
3.8277741908
  0
LINE
  5
374
100
AcDbEntity
  8
LAY0001
100
AcDbLine
 62
7
  6
CONTINUOUS
 10
-24.1118130292
 20
3.4562660863
 11
-24.0959173311
 21
3.4373223311
  0
LINE
  5
375
100
AcDbEntity
  8
LAY0001
100
AcDbLine
 62
7
  6
CONTINUOUS
 10
-23.990829102
 20
3.3120830565
 11
-23.9837643541
 21
3.3036636177
  0
LINE
  5
376
100
AcDbEntity
  8
LAY0001
100
AcDbLine
 62
7
  6
CONTINUOUS
 10
-23.937843447
 20
3.2489372118
 11
-23.964336277
 21
3.2805101371
  0
LINE
  5
377
100
AcDbEntity
  8
LAY0001
100
AcDbLine
 62
7
  6
CONTINUOUS
 10
-24.0570611771
 20
3.3910153699
 11
-24.0835540172
 21
3.4225883073
  0
LINE
  5
378
100
AcDbEntity
  8
LAY0001
100
AcDbLine
 62
7
  6
CONTINUOUS
 10
-24.1683310733
 20
3.5236216684
 11
-24.1762789223
 21
3.533093546
  0
LINE
  5
379
100
AcDbEntity
  8
LAY0001
100
AcDbLine
 62
7
  6
CONTINUOUS
 10
-24.2010055502
 20
3.5625615936
 11
-24.2274983802
 21
3.594134519
  0
LINE
  5
37A
100
AcDbEntity
  8
LAY0001
100
AcDbLine
 62
7
  6
CONTINUOUS
 10
-24.3846891784
 20
3.7814672175
 11
-24.4111820085
 21
3.8130401429
  0
LINE
  5
37B
100
AcDbEntity
  8
LAY0001
100
AcDbLine
 62
7
  6
CONTINUOUS
 10
-24.4388747065
 20
3.8471931567
 11
-24.4176804425
 21
3.8219348164
  0
LINE
  5
37C
100
AcDbEntity
  8
LAY0001
100
AcDbLine
 62
7
  6
CONTINUOUS
 10
-24.4106156744
 20
3.8135153536
 11
-24.3788242783
 21
3.7756278432
  0
LINE
  5
37D
100
AcDbEntity
  8
LAY0001
100
AcDbLine
 62
7
  6
CONTINUOUS
 10
-24.3717595102
 20
3.7672083804
 11
-24.3664609442
 21
3.7608937953
  0
LINE
  5
37E
100
AcDbEntity
  8
LAY0001
100
AcDbLine
 62
7
  6
CONTINUOUS
 10
-24.3329033864
 20
3.7209014553
 11
-24.3276048204
 21
3.7145868702
  0
LINE
  5
37F
100
AcDbEntity
  8
LAY0001
100
AcDbLine
 62
7
  6
CONTINUOUS
 10
-24.3205400523
 20
3.7061674074
 11
-24.3152414863
 21
3.6998528223
  0
LINE
  5
380
100
AcDbEntity
  8
LAY0001
100
AcDbLine
 62
7
  6
CONTINUOUS
 10
-24.2940472222
 20
3.674594482
 11
-24.2887486562
 21
3.668279897
  0
LINE
  5
381
100
AcDbEntity
  8
LAY0001
100
AcDbLine
 62
7
  6
CONTINUOUS
 10
-24.2269320461
 20
3.5946097297
 11
-24.1951406501
 21
3.5567222193
  0
LINE
  5
382
100
AcDbEntity
  8
LAY0001
100
AcDbLine
 62
7
  6
CONTINUOUS
 10
-24.1757125882
 20
3.5335687568
 11
-24.1677647392
 21
3.5240968792
  0
LINE
  5
383
100
AcDbEntity
  8
LAY0001
100
AcDbLine
 62
7
  6
CONTINUOUS
 10
-24.1112466951
 20
3.456741297
 11
-24.090052431
 21
3.4314829567
  0
LINE
  5
384
100
AcDbEntity
  8
LAY0001
100
AcDbLine
 62
7
  6
CONTINUOUS
 10
-24.0829876831
 20
3.423063518
 11
-24.051196277
 21
3.3851759955
  0
LINE
  5
385
100
AcDbEntity
  8
LAY0001
100
AcDbLine
 62
7
  6
CONTINUOUS
 10
-24.0300020129
 20
3.3599176552
 11
-24.0247034469
 21
3.3536030702
  0
LINE
  5
386
100
AcDbEntity
  8
LAY0001
100
AcDbLine
 62
7
  6
CONTINUOUS
 10
-23.9637699429
 20
3.2809853479
 11
-23.9319785444
 21
3.2430978344
  0
LINE
  5
387
100
AcDbEntity
  8
LAY0001
100
AcDbLine
 62
7
  6
CONTINUOUS
 10
-23.9107842816
 20
3.2178394956
 11
-23.9054857156
 21
3.2115249106
  0
LINE
  5
388
100
AcDbEntity
  8
LAY0001
100
AcDbLine
 62
7
  6
CONTINUOUS
 10
-23.98319802
 20
3.3041388285
 11
-23.9902627679
 21
3.3125582672
  0
LINE
  5
389
100
AcDbEntity
  8
LAY0001
100
AcDbLine
 62
7
  6
CONTINUOUS
 10
-24.233996794
 20
3.6030291685
 11
-24.23929536
 21
3.6093437536
  0
LINE
  5
38A
100
AcDbEntity
  8
LAY0001
100
AcDbLine
 62
7
  6
CONTINUOUS
 10
-24.2613727453
 20
3.6356545568
 11
-24.2675543922
 21
3.6430215567
  0
LINE
  5
38B
100
AcDbEntity
  8
LAY0001
100
AcDbLine
 62
7
  6
CONTINUOUS
 10
-23.7919298173
 20
3.1126149046
 11
-24.5131678833
 21
3.9721529608
  0
LINE
  5
38C
100
AcDbEntity
  8
LAY0001
100
AcDbLine
 62
7
  6
CONTINUOUS
 10
-23.8153025357
 20
3.1436111235
 11
-23.8517296192
 21
3.1870232312
  0
LINE
  5
38D
100
AcDbEntity
  8
LAY0001
100
AcDbLine
 62
7
  6
CONTINUOUS
 10
-24.0217226354
 20
3.3896130189
 11
-24.0581497068
 21
3.4330251122
  0
LINE
  5
38E
100
AcDbEntity
  8
LAY0001
100
AcDbLine
 62
7
  6
CONTINUOUS
 10
-24.1067191405
 20
3.4909079092
 11
-24.1431462149
 21
3.5343200061
  0
LINE
  5
38F
100
AcDbEntity
  8
LAY0001
100
AcDbLine
 62
7
  6
CONTINUOUS
 10
-24.3131392311
 20
3.7369097938
 11
-24.3495663146
 21
3.7803219014
  0
LINE
  5
390
100
AcDbEntity
  8
LAY0001
100
AcDbLine
 62
7
  6
CONTINUOUS
 10
-24.3981357512
 20
3.838204702
 11
-24.4284916461
 21
3.8743814488
  0
LINE
  5
391
100
AcDbEntity
  8
LAY0001
100
AcDbLine
 62
7
  6
CONTINUOUS
 10
-24.4272118958
 20
3.8754552868
 11
-24.3968560009
 21
3.8392785401
  0
LINE
  5
392
100
AcDbEntity
  8
LAY0001
100
AcDbLine
 62
7
  6
CONTINUOUS
 10
-24.3942965001
 20
3.8414262163
 11
-24.4246523949
 21
3.8776029631
  0
LINE
  5
393
100
AcDbEntity
  8
LAY0001
100
AcDbLine
 62
7
  6
CONTINUOUS
 10
-23.8468665676
 20
3.191103816
 11
-24.0168595837
 21
3.3936936038
  0
LINE
  5
394
100
AcDbEntity
  8
LAY0001
100
AcDbLine
 62
7
  6
CONTINUOUS
 10
-24.0153238833
 20
3.3949822094
 11
-23.8453308671
 21
3.1923924217
  0
LINE
  5
395
100
AcDbEntity
  8
LAY0001
100
AcDbLine
 62
7
  6
CONTINUOUS
 10
-24.4164619923
 20
3.8844755269
 11
-24.3861060974
 21
3.8482987801
  0
LINE
  5
396
100
AcDbEntity
  8
LAY0001
100
AcDbLine
 62
7
  6
CONTINUOUS
 10
-24.2403977875
 20
3.6746503783
 11
-24.1918283509
 21
3.6167675777
  0
LINE
  5
397
100
AcDbEntity
  8
LAY0001
100
AcDbLine
 62
7
  6
CONTINUOUS
 10
-24.046120053
 20
3.4431191903
 11
-24.0096929816
 21
3.399707097
  0
LINE
  5
398
100
AcDbEntity
  8
LAY0001
100
AcDbLine
 62
7
  6
CONTINUOUS
 10
-23.8396999654
 20
3.1971173093
 11
-23.8032728819
 21
3.1537052016
  0
LINE
  5
399
100
AcDbEntity
  8
LAY0001
100
AcDbLine
 62
7
  6
CONTINUOUS
 10
-24.3680362779
 20
3.8286113724
 11
-24.364949209
 21
3.824932347
  0
LINE
  5
39A
100
AcDbEntity
  8
LAY0001
100
AcDbLine
 62
7
  6
CONTINUOUS
 10
-24.3526009333
 20
3.8102162451
 11
-24.3495138644
 21
3.8065372196
  0
LINE
  5
39B
100
AcDbEntity
  8
LAY0001
100
AcDbLine
 62
7
  6
CONTINUOUS
 10
-24.2826273556
 20
3.7268249824
 11
-24.2800548139
 21
3.7237591466
  0
LINE
  5
39C
100
AcDbEntity
  8
LAY0001
100
AcDbLine
 62
7
  6
CONTINUOUS
 10
-23.8596989144
 20
3.2227984932
 11
-23.8627859833
 21
3.2264775186
  0
LINE
  5
39D
100
AcDbEntity
  8
LAY0001
100
AcDbLine
 62
7
  6
CONTINUOUS
 10
-23.8771923044
 20
3.2436463036
 11
-23.8802793733
 21
3.247325329
  0
LINE
  5
39E
100
AcDbEntity
  8
LAY0001
100
AcDbLine
 62
7
  6
CONTINUOUS
 10
-23.8926276504
 20
3.2620414327
 11
-23.8967437413
 21
3.2669467988
  0
LINE
  5
39F
100
AcDbEntity
  8
LAY0001
100
AcDbLine
 62
7
  6
CONTINUOUS
 10
-23.909092017
 20
3.2816629007
 11
-23.9137226203
 21
3.2871814389
  0
LINE
  5
3A0
100
AcDbEntity
  8
LAY0001
100
AcDbLine
 62
7
  6
CONTINUOUS
 10
-23.9291579649
 20
3.3055765662
 11
-23.9337885683
 21
3.3110951044
  0
LINE
  5
3A1
100
AcDbEntity
  8
LAY0001
100
AcDbLine
 62
7
  6
CONTINUOUS
 10
-23.9379046621
 20
3.3160004741
 11
-23.9564270756
 21
3.3380746269
  0
LINE
  5
3A2
100
AcDbEntity
  8
LAY0001
100
AcDbLine
 62
7
  6
CONTINUOUS
 10
-23.9852397208
 20
3.3724122003
 11
-23.9883267897
 21
3.3760912257
  0
LINE
  5
3A3
100
AcDbEntity
  8
LAY0001
100
AcDbLine
 62
7
  6
CONTINUOUS
 10
-24.0027331034
 20
3.3932600019
 11
-24.0058201724
 21
3.3969390274
  0
LINE
  5
3A4
100
AcDbEntity
  8
LAY0001
100
AcDbLine
 62
7
  6
CONTINUOUS
 10
-24.0099362721
 20
3.401844404
 11
-24.0284586856
 21
3.4239185568
  0
LINE
  5
3A5
100
AcDbEntity
  8
LAY0001
100
AcDbLine
 62
7
  6
CONTINUOUS
 10
-24.0325747735
 20
3.4288239194
 11
-24.0372053769
 21
3.4343424576
  0
LINE
  5
3A6
100
AcDbEntity
  8
LAY0001
100
AcDbLine
 62
7
  6
CONTINUOUS
 10
-24.050068168
 20
3.4496717351
 11
-24.0531552369
 21
3.4533507606
  0
LINE
  5
3A7
100
AcDbEntity
  8
LAY0001
100
AcDbLine
 62
7
  6
CONTINUOUS
 10
-24.0572713249
 20
3.4582561232
 11
-24.0768227692
 21
3.4815566272
  0
LINE
  5
3A8
100
AcDbEntity
  8
LAY0001
100
AcDbLine
 62
7
  6
CONTINUOUS
 10
-24.0809388453
 20
3.4864619758
 11
-24.0840259143
 21
3.4901410012
  0
LINE
  5
3A9
100
AcDbEntity
  8
LAY0001
100
AcDbLine
 62
7
  6
CONTINUOUS
 10
-24.088142014
 20
3.4950463779
 11
-24.0912290829
 21
3.4987254033
  0
LINE
  5
3AA
100
AcDbEntity
  8
LAY0001
100
AcDbLine
 62
7
  6
CONTINUOUS
 10
-24.1190127031
 20
3.5318366326
 11
-24.1231288029
 21
3.5367420092
  0
LINE
  5
3AB
100
AcDbEntity
  8
LAY0001
100
AcDbLine
 62
7
  6
CONTINUOUS
 10
-24.1354770785
 20
3.5514581111
 11
-24.1550284993
 21
3.574758587
  0
LINE
  5
3AC
100
AcDbEntity
  8
LAY0001
100
AcDbLine
 62
7
  6
CONTINUOUS
 10
-24.159144599
 20
3.5796639637
 11
-24.1622316679
 21
3.5833429891
  0
LINE
  5
3AD
100
AcDbEntity
  8
LAY0001
100
AcDbLine
 62
7
  6
CONTINUOUS
 10
-24.1663477677
 20
3.5882483658
 11
-24.170978371
 21
3.593766904
  0
LINE
  5
3AE
100
AcDbEntity
  8
LAY0001
100
AcDbLine
 62
7
  6
CONTINUOUS
 10
-24.1838411503
 20
3.6090961674
 11
-24.1869282193
 21
3.6127751929
  0
LINE
  5
3AF
100
AcDbEntity
  8
LAY0001
100
AcDbLine
 62
7
  6
CONTINUOUS
 10
-24.1992764949
 20
3.6274912948
 11
-24.2039070983
 21
3.633009833
  0
LINE
  5
3B0
100
AcDbEntity
  8
LAY0001
100
AcDbLine
 62
7
  6
CONTINUOUS
 10
-24.2399228944
 20
3.6759317874
 11
-24.2430099633
 21
3.6796108129
  0
LINE
  5
3B1
100
AcDbEntity
  8
LAY0001
100
AcDbLine
 62
7
  6
CONTINUOUS
 10
-24.2471260631
 20
3.6845161895
 11
-24.2517566664
 21
3.6900347277
  0
LINE
  5
3B2
100
AcDbEntity
  8
LAY0001
100
AcDbLine
 62
7
  6
CONTINUOUS
 10
-24.2646194693
 20
3.7053640192
 11
-24.2677065382
 21
3.7090430447
  0
LINE
  5
3B3
100
AcDbEntity
  8
LAY0001
100
AcDbLine
 62
7
  6
CONTINUOUS
 10
-24.2949756312
 20
3.7415410843
 11
-24.314527052
 21
3.7648415602
  0
LINE
  5
3B4
100
AcDbEntity
  8
LAY0001
100
AcDbLine
 62
7
  6
CONTINUOUS
 10
-24.3186431753
 20
3.7697469649
 11
-24.3217302442
 21
3.7734259904
  0
LINE
  5
3B5
100
AcDbEntity
  8
LAY0001
100
AcDbLine
 62
7
  6
CONTINUOUS
 10
-24.3258463204
 20
3.778331339
 11
-24.3453977411
 21
3.8016318149
  0
LINE
  5
3B6
100
AcDbEntity
  8
LAY0001
100
AcDbLine
 62
7
  6
CONTINUOUS
 10
-24.3721523541
 20
3.833516721
 11
-24.3917037749
 21
3.856817197
  0
LINE
  5
3B7
100
AcDbEntity
  8
LAY0001
100
AcDbLine
 62
7
  6
CONTINUOUS
 10
-24.3958198981
 20
3.8617226017
 11
-24.4143423116
 21
3.8837967545
  0
LINE
  5
3B8
100
AcDbEntity
  8
LAY0001
100
AcDbLine
 62
7
  6
CONTINUOUS
 10
-24.3913952576
 20
3.8570760736
 11
-24.3831631053
 21
3.8472653765
  0
LINE
  5
3B9
100
AcDbEntity
  8
LAY0001
100
AcDbLine
 62
7
  6
CONTINUOUS
 10
-24.3800760364
 20
3.843586351
 11
-24.3718438369
 21
3.8337755977
  0
LINE
  5
3BA
100
AcDbEntity
  8
LAY0001
100
AcDbLine
 62
7
  6
CONTINUOUS
 10
-24.3450892239
 20
3.8018906916
 11
-24.3368570716
 21
3.7920799944
  0
LINE
  5
3BB
100
AcDbEntity
  8
LAY0001
100
AcDbLine
 62
7
  6
CONTINUOUS
 10
-24.3337700027
 20
3.788400969
 11
-24.3255378032
 21
3.7785902157
  0
LINE
  5
3BC
100
AcDbEntity
  8
LAY0001
100
AcDbLine
 62
7
  6
CONTINUOUS
 10
-24.3142185348
 20
3.7651004369
 11
-24.3059863824
 21
3.7552897397
  0
LINE
  5
3BD
100
AcDbEntity
  8
LAY0001
100
AcDbLine
 62
7
  6
CONTINUOUS
 10
-24.3028993135
 20
3.7516107143
 11
-24.294667114
 21
3.741799961
  0
LINE
  5
3BE
100
AcDbEntity
  8
LAY0001
100
AcDbLine
 62
7
  6
CONTINUOUS
 10
-24.1547199821
 20
3.5750174637
 11
-24.1464878062
 21
3.5652067385
  0
LINE
  5
3BF
100
AcDbEntity
  8
LAY0001
100
AcDbLine
 62
7
  6
CONTINUOUS
 10
-24.1434007372
 20
3.561527713
 11
-24.1351685613
 21
3.5517169878
  0
LINE
  5
3C0
100
AcDbEntity
  8
LAY0001
100
AcDbLine
 62
7
  6
CONTINUOUS
 10
-24.076514252
 20
3.4818155039
 11
-24.0682820525
 21
3.4720047506
  0
LINE
  5
3C1
100
AcDbEntity
  8
LAY0001
100
AcDbLine
 62
7
  6
CONTINUOUS
 10
-24.0651949836
 20
3.4683257251
 11
-24.0569628076
 21
3.4585149999
  0
LINE
  5
3C2
100
AcDbEntity
  8
LAY0001
100
AcDbLine
 62
7
  6
CONTINUOUS
 10
-24.413972091
 20
3.8841074065
 11
-24.3985367464
 21
3.8657122791
  0
LINE
  5
3C3
100
AcDbEntity
  8
LAY0001
100
AcDbLine
 62
7
  6
CONTINUOUS
 10
-24.2035368776
 20
3.633320485
 11
-24.1989062743
 21
3.6278019468
  0
LINE
  5
3C4
100
AcDbEntity
  8
LAY0001
100
AcDbLine
 62
7
  6
CONTINUOUS
 10
-24.0280884649
 20
3.4242292088
 11
-24.0126531204
 21
3.4058340815
  0
LINE
  5
3C5
100
AcDbEntity
  8
LAY0001
100
AcDbLine
 62
7
  6
CONTINUOUS
 10
-23.956056855
 20
3.3383852789
 11
-23.9406215104
 21
3.3199901515
  0
LINE
  5
3C6
100
AcDbEntity
  8
LAY0001
100
AcDbLine
 62
7
  6
CONTINUOUS
 10
-23.8922574298
 20
3.2623520847
 11
-23.8963735207
 21
3.2672574508
  0
LINE
  5
3C7
100
AcDbEntity
  8
LAY0001
100
AcDbLine
 62
7
  6
CONTINUOUS
 10
-24.2796845932
 20
3.7240697986
 11
-24.2827716621
 21
3.7277488241
  0
LINE
  5
3C8
100
AcDbEntity
  8
LAY0001
100
AcDbLine
 62
7
  6
CONTINUOUS
 10
-24.2855502138
 20
3.7316867262
 11
-24.2886372827
 21
3.7353657517
  0
LINE
  5
3C9
100
AcDbEntity
  8
LAY0001
100
AcDbLine
 62
7
  6
CONTINUOUS
 10
-24.2103698255
 20
3.6422155392
 11
-24.2072827565
 21
3.6385365138
  0
LINE
  5
3CA
100
AcDbEntity
  8
LAY0001
100
AcDbLine
 62
7
  6
CONTINUOUS
 10
-23.8616136177
 20
3.2274612502
 11
-23.8760199388
 21
3.2446300351
  0
LINE
  5
3CB
100
AcDbEntity
  8
LAY0001
100
AcDbLine
 62
7
  6
CONTINUOUS
 10
-23.9398193655
 20
3.320663231
 11
-23.9531966602
 21
3.3366056701
  0
LINE
  5
3CC
100
AcDbEntity
  8
LAY0001
100
AcDbLine
 62
7
  6
CONTINUOUS
 10
-24.0118509754
 20
3.406507161
 11
-24.0252282701
 21
3.4224496
  0
LINE
  5
3CD
100
AcDbEntity
  8
LAY0001
100
AcDbLine
 62
7
  6
CONTINUOUS
 10
-24.3977346015
 20
3.8663853587
 11
-24.4111118844
 21
3.8823277836
  0
LINE
  5
3CE
100
AcDbEntity
  8
LAY0001
100
AcDbLine
 62
7
  6
CONTINUOUS
 10
-24.2819078138
 20
3.7284736789
 11
-24.2788207449
 21
3.7247946534
  0
LINE
  5
3CF
100
AcDbEntity
  8
LAY0001
100
AcDbLine
 62
7
  6
CONTINUOUS
 10
-24.2020968222
 20
3.6334839536
 11
-24.2098144945
 21
3.6426815173
  0
LINE
  5
3D0
100
AcDbEntity
  8
LAY0001
100
AcDbLine
 62
7
  6
CONTINUOUS
 10
-24.4107416638
 20
3.8826384357
 11
-24.3973643808
 21
3.8666960107
  0
LINE
  5
3D1
100
AcDbEntity
  8
LAY0001
100
AcDbLine
 62
7
  6
CONTINUOUS
 10
-24.0248580495
 20
3.422760252
 11
-24.0114807548
 21
3.406817813
  0
LINE
  5
3D2
100
AcDbEntity
  8
LAY0001
100
AcDbLine
 62
7
  6
CONTINUOUS
 10
-23.9528264395
 20
3.3369163221
 11
-23.9394491448
 21
3.3209738831
  0
LINE
  5
3D3
100
AcDbEntity
  8
LAY0001
100
AcDbLine
 62
7
  6
CONTINUOUS
 10
-23.8756497182
 20
3.2449406871
 11
-23.861243397
 21
3.2277719022
  0
LINE
  5
3D4
100
AcDbEntity
  8
LAY0001
100
AcDbLine
 62
7
  6
CONTINUOUS
 10
-24.2784505242
 20
3.7251053054
 11
-24.2815375931
 21
3.7287843309
  0
LINE
  5
3D5
100
AcDbEntity
  8
LAY0001
100
AcDbLine
 62
7
  6
CONTINUOUS
 10
-24.2063572049
 20
3.6393131438
 11
-24.2017266015
 21
3.6337946056
  0
LINE
  5
3D6
100
AcDbEntity
  8
LAY0001
100
AcDbLine
 62
7
  6
CONTINUOUS
 10
-24.1237885376
 20
3.5414128807
 11
-24.1145273309
 21
3.5303758043
  0
LINE
  5
3D7
100
AcDbEntity
  8
LAY0001
100
AcDbLine
 62
7
  6
CONTINUOUS
 10
-24.272811766
 20
3.7193877804
 11
-24.2697246971
 21
3.7157087549
  0
LINE
  5
3D8
100
AcDbEntity
  8
LAY0001
100
AcDbLine
 62
7
  6
CONTINUOUS
 10
-24.1240562511
 20
3.5422331716
 11
-24.1137660135
 21
3.5299697441
  0
LINE
  5
3D9
100
AcDbEntity
  8
LAY0001
100
AcDbLine
 62
7
  6
CONTINUOUS
 10
-24.357274237
 20
3.8209234082
 11
-24.3552161754
 21
3.8184707058
  0
LINE
  5
3DA
100
AcDbEntity
  8
LAY0001
100
AcDbLine
 62
7
  6
CONTINUOUS
 10
-24.2806120414
 20
3.7295609611
 11
-24.2764959181
 21
3.7246555563
  0
LINE
  5
3DB
100
AcDbEntity
  8
LAY0001
100
AcDbLine
 62
7
  6
CONTINUOUS
 10
-23.8942138999
 20
3.2690695878
 11
-23.890097809
 21
3.2641642217
  0
LINE
  5
3DC
100
AcDbEntity
  8
LAY0001
100
AcDbLine
 62
7
  6
CONTINUOUS
 10
-23.9384618896
 20
3.3218022885
 11
-23.9538972342
 21
3.3401974159
  0
LINE
  5
3DD
100
AcDbEntity
  8
LAY0001
100
AcDbLine
 62
7
  6
CONTINUOUS
 10
-24.0104934996
 20
3.4076462185
 11
-24.0259288442
 21
3.4260413458
  0
LINE
  5
3DE
100
AcDbEntity
  8
LAY0001
100
AcDbLine
 62
7
  6
CONTINUOUS
 10
-24.0886992415
 20
3.5008481923
 11
-24.1041345861
 21
3.5192433197
  0
LINE
  5
3DF
100
AcDbEntity
  8
LAY0001
100
AcDbLine
 62
7
  6
CONTINUOUS
 10
-24.1967466535
 20
3.6296140838
 11
-24.2013772569
 21
3.635132622
  0
LINE
  5
3E0
100
AcDbEntity
  8
LAY0001
100
AcDbLine
 62
7
  6
CONTINUOUS
 10
-24.3963771256
 20
3.8675244161
 11
-24.4118124702
 21
3.8859195435
  0
LINE
  5
3E1
100
AcDbEntity
  8
LAY0001
100
AcDbLine
 62
7
  6
CONTINUOUS
 10
-24.4114422495
 20
3.8862301955
 11
-24.392919836
 21
3.8641560427
  0
LINE
  5
3E2
100
AcDbEntity
  8
LAY0001
100
AcDbLine
 62
7
  6
CONTINUOUS
 10
-24.3805715604
 20
3.8494399408
 11
-24.3774844915
 21
3.8457609154
  0
LINE
  5
3E3
100
AcDbEntity
  8
LAY0001
100
AcDbLine
 62
7
  6
CONTINUOUS
 10
-24.3342655267
 20
3.7942545588
 11
-24.3311784577
 21
3.7905755333
  0
LINE
  5
3E4
100
AcDbEntity
  8
LAY0001
100
AcDbLine
 62
7
  6
CONTINUOUS
 10
-24.3188301821
 20
3.7758594315
 11
-24.3157431132
 21
3.772180406
  0
LINE
  5
3E5
100
AcDbEntity
  8
LAY0001
100
AcDbLine
 62
7
  6
CONTINUOUS
 10
-24.3033948375
 20
3.7574643041
 11
-24.3003077686
 21
3.7537852786
  0
LINE
  5
3E6
100
AcDbEntity
  8
LAY0001
100
AcDbLine
 62
7
  6
CONTINUOUS
 10
-24.2648064761
 20
3.7114764858
 11
-24.2601758727
 21
3.7059579475
  0
LINE
  5
3E7
100
AcDbEntity
  8
LAY0001
100
AcDbLine
 62
7
  6
CONTINUOUS
 10
-24.2473130699
 20
3.690628656
 11
-24.244226001
 21
3.6869496306
  0
LINE
  5
3E8
100
AcDbEntity
  8
LAY0001
100
AcDbLine
 62
7
  6
CONTINUOUS
 10
-24.2401099012
 20
3.6820442539
 11
-24.2370228323
 21
3.6783652285
  0
LINE
  5
3E9
100
AcDbEntity
  8
LAY0001
100
AcDbLine
 62
7
  6
CONTINUOUS
 10
-24.2010070362
 20
3.635443274
 11
-24.1963764328
 21
3.6299247358
  0
LINE
  5
3EA
100
AcDbEntity
  8
LAY0001
100
AcDbLine
 62
7
  6
CONTINUOUS
 10
-24.1840281571
 20
3.6152086339
 11
-24.1793975538
 21
3.6096900957
  0
LINE
  5
3EB
100
AcDbEntity
  8
LAY0001
100
AcDbLine
 62
7
  6
CONTINUOUS
 10
-24.1665347745
 20
3.5943608323
 11
-24.1634477056
 21
3.5906818068
  0
LINE
  5
3EC
100
AcDbEntity
  8
LAY0001
100
AcDbLine
 62
7
  6
CONTINUOUS
 10
-24.1593316058
 20
3.5857764302
 11
-24.1562445369
 21
3.5820974047
  0
LINE
  5
3ED
100
AcDbEntity
  8
LAY0001
100
AcDbLine
 62
7
  6
CONTINUOUS
 10
-24.1438962613
 20
3.5673813028
 11
-24.1408091923
 21
3.5637022774
  0
LINE
  5
3EE
100
AcDbEntity
  8
LAY0001
100
AcDbLine
 62
7
  6
CONTINUOUS
 10
-24.1284609167
 20
3.5489861755
 11
-24.1253738478
 21
3.54530715
  0
LINE
  5
3EF
100
AcDbEntity
  8
LAY0001
100
AcDbLine
 62
7
  6
CONTINUOUS
 10
-24.1037643654
 20
3.5195539717
 11
-24.0852419519
 21
3.4974798189
  0
LINE
  5
3F0
100
AcDbEntity
  8
LAY0001
100
AcDbLine
 62
7
  6
CONTINUOUS
 10
-24.110967534
 20
3.5281383739
 11
-24.1078804651
 21
3.5244593484
  0
LINE
  5
3F1
100
AcDbEntity
  8
LAY0001
100
AcDbLine
 62
7
  6
CONTINUOUS
 10
-24.0811258521
 20
3.4925744423
 11
-24.0780387832
 21
3.4888954168
  0
LINE
  5
3F2
100
AcDbEntity
  8
LAY0001
100
AcDbLine
 62
7
  6
CONTINUOUS
 10
-24.0656905076
 20
3.4741793149
 11
-24.0626034387
 21
3.4705002895
  0
LINE
  5
3F3
100
AcDbEntity
  8
LAY0001
100
AcDbLine
 62
7
  6
CONTINUOUS
 10
-24.0502551748
 20
3.4557842016
 11
-24.0456245714
 21
3.4502656634
  0
LINE
  5
3F4
100
AcDbEntity
  8
LAY0001
100
AcDbLine
 62
7
  6
CONTINUOUS
 10
-24.0255586235
 20
3.4263519979
 11
-24.00703621
 21
3.4042778451
  0
LINE
  5
3F5
100
AcDbEntity
  8
LAY0001
100
AcDbLine
 62
7
  6
CONTINUOUS
 10
-24.0327617803
 20
3.434936386
 11
-24.0296747114
 21
3.4312573605
  0
LINE
  5
3F6
100
AcDbEntity
  8
LAY0001
100
AcDbLine
 62
7
  6
CONTINUOUS
 10
-23.9946879343
 20
3.3895617432
 11
-23.9905718346
 21
3.3846563665
  0
LINE
  5
3F7
100
AcDbEntity
  8
LAY0001
100
AcDbLine
 62
7
  6
CONTINUOUS
 10
-23.9535270135
 20
3.3405080679
 11
-23.9350046
 21
3.3184339151
  0
LINE
  5
3F8
100
AcDbEntity
  8
LAY0001
100
AcDbLine
 62
7
  6
CONTINUOUS
 10
-23.9308885062
 20
3.3135285455
 11
-23.9278014373
 21
3.30984952
  0
LINE
  5
3F9
100
AcDbEntity
  8
LAY0001
100
AcDbLine
 62
7
  6
CONTINUOUS
 10
-23.9205982745
 20
3.3012651249
 11
-23.9164821865
 21
3.2963597623
  0
LINE
  5
3FA
100
AcDbEntity
  8
LAY0001
100
AcDbLine
 62
7
  6
CONTINUOUS
 10
-23.9092790238
 20
3.2877753672
 11
-23.9061919549
 21
3.2840963417
  0
LINE
  5
3FB
100
AcDbEntity
  8
LAY0001
100
AcDbLine
 62
7
  6
CONTINUOUS
 10
-23.8938436792
 20
3.2693802398
 11
-23.8897275883
 21
3.2644748737
  0
LINE
  5
3FC
100
AcDbEntity
  8
LAY0001
100
AcDbLine
 62
7
  6
CONTINUOUS
 10
-23.8773793112
 20
3.2497587701
 11
-23.8742922423
 21
3.2460797446
  0
LINE
  5
3FD
100
AcDbEntity
  8
LAY0001
100
AcDbLine
 62
7
  6
CONTINUOUS
 10
-23.8598859212
 20
3.2289109597
 11
-23.8567988522
 21
3.2252319342
  0
LINE
  5
3FE
100
AcDbEntity
  8
LAY0001
100
AcDbLine
 62
7
  6
CONTINUOUS
 10
-24.2761256974
 20
3.7249662084
 11
-24.2802418207
 21
3.7298716131
  0
LINE
  5
3FF
100
AcDbEntity
  8
LAY0001
100
AcDbLine
 62
7
  6
CONTINUOUS
 10
-24.3548459547
 20
3.8187813578
 11
-24.3569040163
 21
3.8212340602
  0
LINE
  5
400
100
AcDbEntity
  8
0
100
AcDbLine
 62
7
  6
CONTINUOUS
 10
-24.5245908243
 20
4.0489903356
 11
-23.7123231502
 21
3.0809674168
  0
LINE
  5
401
100
AcDbEntity
  8
1_ALL_PLANES
100
AcDbLine
 62
7
  6
CONTINUOUS
 10
-24.4694702482
 20
3.9879022773
 11
-23.7688317536
 21
3.1529138343
  0
LINE
  5
402
100
AcDbEntity
  8
LAY0001
100
AcDbLine
 62
7
  6
CONTINUOUS
 10
-24.4433109904
 20
3.8434706726
 11
-24.4476320461
 21
3.8488119965
  0
LINE
  5
403
100
AcDbEntity
  8
LAY0001
100
AcDbLine
 62
7
  6
CONTINUOUS
 10
-24.263948438
 20
3.6299063967
 11
-24.2596273419
 21
3.6245650246
  0
LINE
  5
404
100
AcDbEntity
  8
LAY0001
100
AcDbLine
 62
7
  6
CONTINUOUS
 10
-24.180148872
 20
3.5298462727
 11
-24.1844699479
 21
3.5351876206
  0
LINE
  5
405
100
AcDbEntity
  8
LAY0001
100
AcDbLine
 62
7
  6
CONTINUOUS
 10
-24.1156829789
 20
3.4530188129
 11
-24.1200040548
 21
3.4583601609
  0
LINE
  5
406
100
AcDbEntity
  8
LAY0001
100
AcDbLine
 62
7
  6
CONTINUOUS
 10
-23.9981370468
 20
3.3131247163
 11
-23.9938159608
 21
3.3077833562
  0
LINE
  5
407
100
AcDbEntity
  8
LAY0001
100
AcDbLine
 62
7
  6
CONTINUOUS
 10
-24.1677647392
 20
3.5240968792
 11
-24.1634436431
 21
3.5187555071
  0
LINE
  5
408
100
AcDbEntity
  8
LAY0001
100
AcDbLine
 62
7
  6
CONTINUOUS
 10
-23.9971323574
 20
3.3157611789
 11
-23.9928112713
 21
3.3104198189
  0
LINE
  5
409
100
AcDbEntity
  8
LAY0001
100
AcDbLine
 62
7
  6
CONTINUOUS
 10
-23.9788769339
 20
3.2987974684
 11
-23.98319802
 21
3.3041388285
  0
LINE
  5
40A
100
AcDbEntity
  8
LAY0001
100
AcDbLine
 62
7
  6
CONTINUOUS
 10
-24.2851381939
 20
3.7299425936
 11
-24.2826273556
 21
3.7268249824
  0
LINE
  5
40B
100
AcDbEntity
  8
LAY0001
100
AcDbLine
 62
7
  6
CONTINUOUS
 10
-24.3523351164
 20
3.8156637467
 11
-24.3548459547
 21
3.8187813578
  0
LINE
  5
40C
100
AcDbEntity
  8
LAY0001
100
AcDbLine
 62
7
  6
CONTINUOUS
 10
-24.2844186521
 20
3.7315912901
 11
-24.2819078138
 21
3.7284736789
  0
LINE
  5
40D
100
AcDbEntity
  8
LAY0001
100
AcDbLine
 62
7
  6
CONTINUOUS
 10
-24.2039070983
 20
3.633009833
 11
-24.2064179601
 21
3.6361274722
  0
LINE
  5
40E
100
AcDbEntity
  8
LAY0001
100
AcDbLine
 62
7
  6
CONTINUOUS
 10
-24.2736148591
 20
3.7218485972
 11
-24.2761256974
 21
3.7249662084
  0
LINE
  5
40F
100
AcDbEntity
  8
LAY0001
100
AcDbLine
 62
7
  6
CONTINUOUS
 10
-24.1963764328
 20
3.6299247358
 11
-24.193865571
 21
3.6268070966
  0
LINE
  5
410
100
AcDbEntity
  8
LAY0001
100
AcDbLine
 62
7
  6
CONTINUOUS
 10
-23.8967437413
 20
3.2669467988
 11
-23.8992545943
 21
3.2700644275
  0
LINE
  5
411
100
AcDbEntity
  8
LAY0001
100
AcDbLine
 62
7
  6
CONTINUOUS
 10
-23.8897275883
 20
3.2644748737
 11
-23.8872167324
 21
3.2613572415
  0
LINE
  5
412
100
AcDbEntity
  8
LAY0001
100
AcDbLine
 62
7
  6
CONTINUOUS
 10
-24.4427446563
 20
3.8439458833
 11
-24.4461826312
 21
3.8482347924
  0
LINE
  5
413
100
AcDbEntity
  8
LAY0001
100
AcDbLine
 62
7
  6
CONTINUOUS
 10
-24.1830205128
 20
3.5346103924
 11
-24.179582538
 21
3.5303214833
  0
LINE
  5
414
100
AcDbEntity
  8
LAY0001
100
AcDbLine
 62
7
  6
CONTINUOUS
 10
-24.1151166448
 20
3.4534940236
 11
-24.1185546399
 21
3.4577829568
  0
LINE
  5
415
100
AcDbEntity
  8
LAY0001
100
AcDbLine
 62
7
  6
CONTINUOUS
 10
-24.1648930782
 20
3.5193327352
 11
-24.1683310733
 21
3.5236216684
  0
LINE
  5
416
100
AcDbEntity
  8
LAY0001
100
AcDbLine
 62
7
  6
CONTINUOUS
 10
-23.9922449373
 20
3.3108950296
 11
-23.9956829324
 21
3.3151839628
  0
LINE
  5
417
100
AcDbEntity
  8
LAY0001
100
AcDbLine
 62
7
  6
CONTINUOUS
 10
-23.9835083863
 20
3.3002915234
 11
-23.9869463713
 21
3.3045804445
  0
LINE
  5
418
100
AcDbEntity
  8
LAY0001
100
AcDbLine
 62
7
  6
CONTINUOUS
 10
-23.9837643541
 20
3.3036636177
 11
-23.980326359
 21
3.2993746845
  0
LINE
  5
419
100
AcDbEntity
  8
LAY0001
100
AcDbLine
 62
7
  6
CONTINUOUS
 10
-24.3552161754
 20
3.8184707058
 11
-24.3532198643
 21
3.8159662842
  0
LINE
  5
41A
100
AcDbEntity
  8
LAY0001
100
AcDbLine
 62
7
  6
CONTINUOUS
 10
-24.2815375931
 20
3.7287843309
 11
-24.2835339042
 21
3.7312887525
  0
LINE
  5
41B
100
AcDbEntity
  8
LAY0001
100
AcDbLine
 62
7
  6
CONTINUOUS
 10
-24.276454166
 20
3.7226008277
 11
-24.2784505242
 21
3.7251053054
  0
LINE
  5
41C
100
AcDbEntity
  8
LAY0001
100
AcDbLine
 62
7
  6
CONTINUOUS
 10
-24.2764959181
 20
3.7246555563
 11
-24.274499607
 21
3.7221511348
  0
LINE
  5
41D
100
AcDbEntity
  8
LAY0001
100
AcDbLine
 62
7
  6
CONTINUOUS
 10
-24.2055332123
 20
3.6358249346
 11
-24.2035368776
 21
3.633320485
  0
LINE
  5
41E
100
AcDbEntity
  8
LAY0001
100
AcDbLine
 62
7
  6
CONTINUOUS
 10
-24.1947503188
 20
3.6271096341
 11
-24.1967466535
 21
3.6296140838
  0
LINE
  5
41F
100
AcDbEntity
  8
LAY0001
100
AcDbLine
 62
7
  6
CONTINUOUS
 10
-23.8963735207
 20
3.2672574508
 11
-23.8983698642
 21
3.269761911
  0
LINE
  5
420
100
AcDbEntity
  8
LAY0001
100
AcDbLine
 62
7
  6
CONTINUOUS
 10
-23.890097809
 20
3.2641642217
 11
-23.8881014655
 21
3.2616597615
  0
LINE
  5
421
100
AcDbEntity
  8
LAY0001
100
AcDbLine
 62
7
  6
CONTINUOUS
 10
-24.2625934121
 20
3.6292499908
 11
-24.2600385181
 21
3.6260134965
  0
LINE
  5
422
100
AcDbEntity
  8
LAY0001
100
AcDbLine
 62
7
  6
CONTINUOUS
 10
-23.9941327177
 20
3.3093109938
 11
-23.9966876117
 21
3.3125474881
  0
LINE
  5
423
100
AcDbEntity
  8
LAY0001
100
AcDbLine
 62
7
  6
CONTINUOUS
 10
-23.9875127053
 20
3.3041052338
 11
-23.9849578113
 21
3.3008687395
  0
LINE
  5
424
100
AcDbEntity
  8
LAY0001
100
AcDbLine
 62
7
  6
CONTINUOUS
 10
-24.2827716621
 20
3.7277488241
 11
-24.2842534931
 21
3.7296401121
  0
LINE
  5
425
100
AcDbEntity
  8
LAY0001
100
AcDbLine
 62
7
  6
CONTINUOUS
 10
-24.2788207449
 20
3.7247946534
 11
-24.2773389138
 21
3.7229033654
  0
LINE
  5
426
100
AcDbEntity
  8
LAY0001
100
AcDbLine
 62
7
  6
CONTINUOUS
 10
-24.5131678833
 20
3.9721529608
 11
-24.1672754611
 21
3.530026839
  0
LINE
  5
427
100
AcDbEntity
  8
LAY0001
100
AcDbLine
 62
7
  6
CONTINUOUS
 10
-24.4476320461
 20
3.8488119965
 11
-24.4509756723
 21
3.8531801556
  0
LINE
  5
428
100
AcDbEntity
  8
LAY0001
100
AcDbLine
 62
7
  6
CONTINUOUS
 10
-24.1844699479
 20
3.5351876206
 11
-24.187813554
 21
3.5395557556
  0
LINE
  5
429
100
AcDbEntity
  8
LAY0001
100
AcDbLine
 62
7
  6
CONTINUOUS
 10
-24.1200040548
 20
3.4583601609
 11
-24.1233476609
 21
3.4627282959
  0
LINE
  5
42A
100
AcDbEntity
  8
LAY0001
100
AcDbLine
 62
7
  6
CONTINUOUS
 10
-24.1634436431
 20
3.5187555071
 11
-24.1601000572
 21
3.5143873962
  0
LINE
  5
42B
100
AcDbEntity
  8
LAY0001
100
AcDbLine
 62
7
  6
CONTINUOUS
 10
-24.0004759533
 20
3.3201293019
 11
-23.9971323574
 21
3.3157611789
  0
LINE
  5
42C
100
AcDbEntity
  8
LAY0001
100
AcDbLine
 62
7
  6
CONTINUOUS
 10
-23.9801647904
 20
3.2959234004
 11
-23.9835083863
 21
3.3002915234
  0
LINE
  5
42D
100
AcDbEntity
  8
LAY0001
100
AcDbLine
 62
7
  6
CONTINUOUS
 10
-24.3504004617
 20
3.8131074936
 11
-24.3523351164
 21
3.8156637467
  0
LINE
  5
42E
100
AcDbEntity
  8
LAY0001
100
AcDbLine
 62
7
  6
CONTINUOUS
 10
-24.2863533068
 20
3.7341475431
 11
-24.2844186521
 21
3.7315912901
  0
LINE
  5
42F
100
AcDbEntity
  8
LAY0001
100
AcDbLine
 62
7
  6
CONTINUOUS
 10
-24.2745195112
 20
3.7200445747
 11
-24.276454166
 21
3.7226008277
  0
LINE
  5
430
100
AcDbEntity
  8
LAY0001
100
AcDbLine
 62
7
  6
CONTINUOUS
 10
-24.2064179601
 20
3.6361274722
 11
-24.2083525913
 21
3.6386836972
  0
LINE
  5
431
100
AcDbEntity
  8
LAY0001
100
AcDbLine
 62
7
  6
CONTINUOUS
 10
-24.193865571
 20
3.6268070966
 11
-24.1919309398
 21
3.6242508716
  0
LINE
  5
432
100
AcDbEntity
  8
LAY0001
100
AcDbLine
 62
7
  6
CONTINUOUS
 10
-23.8992545943
 20
3.2700644275
 11
-23.9011892344
 21
3.272620663
  0
LINE
  5
433
100
AcDbEntity
  8
LAY0001
100
AcDbLine
 62
7
  6
CONTINUOUS
 10
-23.8872167324
 20
3.2613572415
 11
-23.8852820953
 21
3.2588010095
  0
LINE
  5
434
100
AcDbEntity
  8
LAY0001
100
AcDbLine
 62
7
  6
CONTINUOUS
 10
-23.974744631
 20
3.2932977109
 11
-23.9788769339
 21
3.2987974684
  0
LINE
  5
435
100
AcDbEntity
  8
LAY0001
100
AcDbLine
 62
7
  6
CONTINUOUS
 10
-24.4461826312
 20
3.8482347924
 11
-24.4486431362
 21
3.8515504885
  0
LINE
  5
436
100
AcDbEntity
  8
LAY0001
100
AcDbLine
 62
7
  6
CONTINUOUS
 10
-24.1854810178
 20
3.5379260885
 11
-24.1830205128
 21
3.5346103924
  0
LINE
  5
437
100
AcDbEntity
  8
LAY0001
100
AcDbLine
 62
7
  6
CONTINUOUS
 10
-24.1474135859
 20
3.49275078
 11
-24.1498740907
 21
3.4960664763
  0
LINE
  5
438
100
AcDbEntity
  8
LAY0001
100
AcDbLine
 62
7
  6
CONTINUOUS
 10
-24.1624325733
 20
3.5160170391
 11
-24.1648930782
 21
3.5193327352
  0
LINE
  5
439
100
AcDbEntity
  8
LAY0001
100
AcDbLine
 62
7
  6
CONTINUOUS
 10
-24.1185546399
 20
3.4577829568
 11
-24.1210151449
 21
3.4610986529
  0
LINE
  5
43A
100
AcDbEntity
  8
LAY0001
100
AcDbLine
 62
7
  6
CONTINUOUS
 10
-24.1360341323
 20
3.4843649119
 11
-24.1335736273
 21
3.4810492158
  0
LINE
  5
43B
100
AcDbEntity
  8
LAY0001
100
AcDbLine
 62
7
  6
CONTINUOUS
 10
-23.9956829324
 20
3.3151839628
 11
-23.9981434374
 21
3.3184996589
  0
LINE
  5
43C
100
AcDbEntity
  8
LAY0001
100
AcDbLine
 62
7
  6
CONTINUOUS
 10
-23.9849578113
 20
3.3008687395
 11
-23.9824973064
 21
3.2975530434
  0
LINE
  5
43D
100
AcDbEntity
  8
LAY0001
100
AcDbLine
 62
7
  6
CONTINUOUS
 10
-24.2712274277
 20
3.7186274353
 11
-24.2736148591
 21
3.7218485972
  0
LINE
  5
43E
100
AcDbEntity
  8
LAY0001
100
AcDbLine
 62
7
  6
CONTINUOUS
 10
-24.3532198643
 20
3.8159662842
 11
-24.3517997368
 21
3.8140232208
  0
LINE
  5
43F
100
AcDbEntity
  8
LAY0001
100
AcDbLine
 62
7
  6
CONTINUOUS
 10
-24.2835339042
 20
3.7312887525
 11
-24.2849540318
 21
3.7332318159
  0
LINE
  5
440
100
AcDbEntity
  8
LAY0001
100
AcDbLine
 62
7
  6
CONTINUOUS
 10
-24.2773389138
 20
3.7229033654
 11
-24.2759187863
 21
3.720960302
  0
LINE
  5
441
100
AcDbEntity
  8
LAY0001
100
AcDbLine
 62
7
  6
CONTINUOUS
 10
-24.2069533399
 20
3.637767998
 11
-24.2055332123
 21
3.6358249346
  0
LINE
  5
442
100
AcDbEntity
  8
LAY0001
100
AcDbLine
 62
7
  6
CONTINUOUS
 10
-24.1933301913
 20
3.6251665707
 11
-24.1947503188
 21
3.6271096341
  0
LINE
  5
443
100
AcDbEntity
  8
LAY0001
100
AcDbLine
 62
7
  6
CONTINUOUS
 10
-23.8983698642
 20
3.269761911
 11
-23.8997899917
 21
3.2717049744
  0
LINE
  5
444
100
AcDbEntity
  8
LAY0001
100
AcDbLine
 62
7
  6
CONTINUOUS
 10
-23.8881014655
 20
3.2616597615
 11
-23.886681338
 21
3.2597166981
  0
LINE
  5
445
100
AcDbEntity
  8
LAY0001
100
AcDbLine
 62
7
  6
CONTINUOUS
 10
-24.2671976349
 20
3.6343537094
 11
-24.263948438
 21
3.6299063967
  0
LINE
  5
446
100
AcDbEntity
  8
LAY0001
100
AcDbLine
 62
7
  6
CONTINUOUS
 10
-24.0013862538
 20
3.317572041
 11
-23.9981370468
 21
3.3131247163
  0
LINE
  5
447
100
AcDbEntity
  8
LAY0001
100
AcDbLine
 62
7
  6
CONTINUOUS
 10
-24.2870111452
 20
3.732550622
 11
-24.2851381939
 21
3.7299425936
  0
LINE
  5
448
100
AcDbEntity
  8
LAY0001
100
AcDbLine
 62
7
  6
CONTINUOUS
 10
-24.4509756723
 20
3.8531801556
 11
-24.4541304802
 21
3.85770667
  0
LINE
  5
449
100
AcDbEntity
  8
LAY0001
100
AcDbLine
 62
7
  6
CONTINUOUS
 10
-24.2641707958
 20
3.631513224
 11
-24.2625934121
 21
3.6292499908
  0
LINE
  5
44A
100
AcDbEntity
  8
LAY0001
100
AcDbLine
 62
7
  6
CONTINUOUS
 10
-24.187813554
 20
3.5395557556
 11
-24.1909683618
 21
3.54408227
  0
LINE
  5
44B
100
AcDbEntity
  8
LAY0001
100
AcDbLine
 62
7
  6
CONTINUOUS
 10
-24.1601000572
 20
3.5143873962
 11
-24.1569452292
 21
3.5098608576
  0
LINE
  5
44C
100
AcDbEntity
  8
LAY0001
100
AcDbLine
 62
7
  6
CONTINUOUS
 10
-24.1233476609
 20
3.4627282959
 11
-24.1265024889
 21
3.4672548344
  0
LINE
  5
44D
100
AcDbEntity
  8
LAY0001
100
AcDbLine
 62
7
  6
CONTINUOUS
 10
-23.9966876117
 20
3.3125474881
 11
-23.9982650257
 21
3.3148107573
  0
LINE
  5
44E
100
AcDbEntity
  8
LAY0001
100
AcDbLine
 62
7
  6
CONTINUOUS
 10
-24.0036307814
 20
3.3246558404
 11
-24.0004759533
 21
3.3201293019
  0
LINE
  5
44F
100
AcDbEntity
  8
LAY0001
100
AcDbLine
 62
7
  6
CONTINUOUS
 10
-23.9770099674
 20
3.2913968679
 11
-23.9801647904
 21
3.2959234004
  0
LINE
  5
450
100
AcDbEntity
  8
LAY0001
100
AcDbLine
 62
7
  6
CONTINUOUS
 10
-23.980326359
 20
3.2993746845
 11
-23.9779602431
 21
3.2959797866
  0
LINE
  5
451
100
AcDbEntity
  8
LAY0001
100
AcDbLine
 62
7
  6
CONTINUOUS
 10
-24.3485892609
 20
3.810447746
 11
-24.3504004617
 21
3.8131074936
  0
LINE
  5
452
100
AcDbEntity
  8
LAY0001
100
AcDbLine
 62
7
  6
CONTINUOUS
 10
-24.2842534931
 20
3.7296401121
 11
-24.2851590935
 21
3.7309699859
  0
LINE
  5
453
100
AcDbEntity
  8
LAY0001
100
AcDbLine
 62
7
  6
CONTINUOUS
 10
-24.2881645076
 20
3.7368072907
 11
-24.2863533068
 21
3.7341475431
  0
LINE
  5
454
100
AcDbEntity
  8
LAY0001
100
AcDbLine
 62
7
  6
CONTINUOUS
 10
-24.2727083105
 20
3.7173848272
 11
-24.2745195112
 21
3.7200445747
  0
LINE
  5
455
100
AcDbEntity
  8
LAY0001
100
AcDbLine
 62
7
  6
CONTINUOUS
 10
-24.274499607
 20
3.7221511348
 11
-24.2731411829
 21
3.720156296
  0
LINE
  5
456
100
AcDbEntity
  8
LAY0001
100
AcDbLine
 62
7
  6
CONTINUOUS
 10
-24.2083525913
 20
3.6386836972
 11
-24.2101638157
 21
3.6413434728
  0
LINE
  5
457
100
AcDbEntity
  8
LAY0001
100
AcDbLine
 62
7
  6
CONTINUOUS
 10
-24.1919309398
 20
3.6242508716
 11
-24.1901197155
 21
3.6215910959
  0
LINE
  5
458
100
AcDbEntity
  8
LAY0001
100
AcDbLine
 62
7
  6
CONTINUOUS
 10
-23.9011892344
 20
3.272620663
 11
-23.9030004675
 21
3.2752804492
  0
LINE
  5
459
100
AcDbEntity
  8
LAY0001
100
AcDbLine
 62
7
  6
CONTINUOUS
 10
-23.8852820953
 20
3.2588010095
 11
-23.8834708621
 21
3.2561412233
  0
LINE
  5
45A
100
AcDbEntity
  8
LAY0001
100
AcDbLine
 62
7
  6
CONTINUOUS
 10
-24.1431462149
 20
3.5343200061
 11
-24.2176487701
 21
3.6444203719
  0
LINE
  5
45B
100
AcDbEntity
  8
LAY0001
100
AcDbLine
 62
7
  6
CONTINUOUS
 10
-24.1918283509
 20
3.6167675777
 11
-24.1067191405
 21
3.4909079092
  0
LINE
  5
45C
100
AcDbEntity
  8
LAY0001
100
AcDbLine
 62
7
  6
CONTINUOUS
 10
-24.2694693618
 20
3.637827809
 11
-24.2671976349
 21
3.6343537094
  0
LINE
  5
45D
100
AcDbEntity
  8
LAY0001
100
AcDbLine
 62
7
  6
CONTINUOUS
 10
-24.0036579807
 20
3.3210461406
 11
-24.0013862538
 21
3.317572041
  0
LINE
  5
45E
100
AcDbEntity
  8
LAY0001
100
AcDbLine
 62
7
  6
CONTINUOUS
 10
-24.2883078659
 20
3.734597236
 11
-24.2870111452
 21
3.732550622
  0
LINE
  5
45F
100
AcDbEntity
  8
LAY0001
100
AcDbLine
 62
7
  6
CONTINUOUS
 10
-24.4486431362
 20
3.8515504885
 11
-24.450126171
 21
3.8538929718
  0
LINE
  5
460
100
AcDbEntity
  8
LAY0001
100
AcDbLine
 62
7
  6
CONTINUOUS
 10
-24.1609495584
 20
3.5136745801
 11
-24.1624325733
 21
3.5160170391
  0
LINE
  5
461
100
AcDbEntity
  8
LAY0001
100
AcDbLine
 62
7
  6
CONTINUOUS
 10
-24.1210151449
 20
3.4610986529
 11
-24.1224981596
 21
3.4634411121
  0
LINE
  5
462
100
AcDbEntity
  8
LAY0001
100
AcDbLine
 62
7
  6
CONTINUOUS
 10
-23.9981434374
 20
3.3184996589
 11
-23.9996264521
 21
3.320842118
  0
LINE
  5
463
100
AcDbEntity
  8
LAY0001
100
AcDbLine
 62
7
  6
CONTINUOUS
 10
-23.9725672931
 20
3.2897444093
 11
-23.974744631
 21
3.2932977109
  0
LINE
  5
464
100
AcDbEntity
  8
LAY0001
100
AcDbLine
 62
7
  6
CONTINUOUS
 10
-24.3517997368
 20
3.8140232208
 11
-24.3509557927
 21
3.8126415155
  0
LINE
  5
465
100
AcDbEntity
  8
LAY0001
100
AcDbLine
 62
7
  6
CONTINUOUS
 10
-24.2849540318
 20
3.7332318159
 11
-24.2857979758
 21
3.7346135212
  0
LINE
  5
466
100
AcDbEntity
  8
LAY0001
100
AcDbLine
 62
7
  6
CONTINUOUS
 10
-24.1924862708
 20
3.6237848935
 11
-24.1933301913
 21
3.6251665707
  0
LINE
  5
467
100
AcDbEntity
  8
LAY0001
100
AcDbLine
 62
7
  6
CONTINUOUS
 10
-23.8997899917
 20
3.2717049744
 11
-23.9006339032
 21
3.2730866412
  0
LINE
  5
468
100
AcDbEntity
  8
LAY0001
100
AcDbLine
 62
7
  6
CONTINUOUS
 10
-23.886681338
 20
3.2597166981
 11
-23.8858374263
 21
3.2583350314
  0
LINE
  5
469
100
AcDbEntity
  8
LAY0001
100
AcDbLine
 62
7
  6
CONTINUOUS
 10
-24.2517566664
 20
3.6900347277
 11
-24.2621513313
 21
3.7074350329
  0
LINE
  5
46A
100
AcDbEntity
  8
LAY0001
100
AcDbLine
 62
7
  6
CONTINUOUS
 10
-24.170978371
 20
3.593766904
 11
-24.1813730124
 21
3.6111671811
  0
LINE
  5
46B
100
AcDbEntity
  8
LAY0001
100
AcDbLine
 62
7
  6
CONTINUOUS
 10
-24.0372053769
 20
3.4343424576
 11
-24.04760003
 21
3.4517427488
  0
LINE
  5
46C
100
AcDbEntity
  8
LAY0001
100
AcDbLine
 62
7
  6
CONTINUOUS
 10
-24.2601758727
 20
3.7059579475
 11
-24.2498429113
 21
3.688505867
  0
LINE
  5
46D
100
AcDbEntity
  8
LAY0001
100
AcDbLine
 62
7
  6
CONTINUOUS
 10
-24.1793975538
 20
3.6096900957
 11
-24.1690646159
 21
3.5922380433
  0
LINE
  5
46E
100
AcDbEntity
  8
LAY0001
100
AcDbLine
 62
7
  6
CONTINUOUS
 10
-24.0456245714
 20
3.4502656634
 11
-24.0352916218
 21
3.4328135969
  0
LINE
  5
46F
100
AcDbEntity
  8
LAY0001
100
AcDbLine
 62
7
  6
CONTINUOUS
 10
-24.2699924105
 20
3.7165290459
 11
-24.2712274277
 21
3.7186274353
  0
LINE
  5
470
100
AcDbEntity
  8
LAY0001
100
AcDbLine
 62
7
  6
CONTINUOUS
 10
-24.4541304802
 20
3.85770667
 11
-24.4555191263
 21
3.8601283549
  0
LINE
  5
471
100
AcDbEntity
  8
LAY0001
100
AcDbLine
 62
7
  6
CONTINUOUS
 10
-24.1569452292
 20
3.5098608576
 11
-24.1555566034
 21
3.5074391968
  0
LINE
  5
472
100
AcDbEntity
  8
LAY0001
100
AcDbLine
 62
7
  6
CONTINUOUS
 10
-24.1265024889
 20
3.4672548344
 11
-24.1278911148
 21
3.4696764952
  0
LINE
  5
473
100
AcDbEntity
  8
LAY0001
100
AcDbLine
 62
7
  6
CONTINUOUS
 10
-23.9982650257
 20
3.3148107573
 11
-23.9989593387
 21
3.3160215877
  0
LINE
  5
474
100
AcDbEntity
  8
LAY0001
100
AcDbLine
 62
7
  6
CONTINUOUS
 10
-24.0050194072
 20
3.3270775013
 11
-24.0036307814
 21
3.3246558404
  0
LINE
  5
475
100
AcDbEntity
  8
LAY0001
100
AcDbLine
 62
7
  6
CONTINUOUS
 10
-24.3478070203
 20
3.8090142654
 11
-24.3485892609
 21
3.810447746
  0
LINE
  5
476
100
AcDbEntity
  8
LAY0001
100
AcDbLine
 62
7
  6
CONTINUOUS
 10
-24.2851590935
 20
3.7309699859
 11
-24.2855502138
 21
3.7316867262
  0
LINE
  5
477
100
AcDbEntity
  8
LAY0001
100
AcDbLine
 62
7
  6
CONTINUOUS
 10
-24.2889467481
 20
3.7382407713
 11
-24.2881645076
 21
3.7368072907
  0
LINE
  5
478
100
AcDbEntity
  8
LAY0001
100
AcDbLine
 62
7
  6
CONTINUOUS
 10
-24.1901197155
 20
3.6215910959
 11
-24.1893374985
 21
3.6201576434
  0
LINE
  5
479
100
AcDbEntity
  8
LAY0001
100
AcDbLine
 62
7
  6
CONTINUOUS
 10
-23.9030004675
 20
3.2752804492
 11
-23.9037826757
 21
3.2767138912
  0
LINE
  5
47A
100
AcDbEntity
  8
LAY0001
100
AcDbLine
 62
7
  6
CONTINUOUS
 10
-23.8834708621
 20
3.2561412233
 11
-23.882688654
 21
3.2547077813
  0
LINE
  5
47B
100
AcDbEntity
  8
LAY0001
100
AcDbLine
 62
7
  6
CONTINUOUS
 10
-24.2675543922
 20
3.6430215567
 11
-24.2617774906
 21
3.6317280379
  0
LINE
  5
47C
100
AcDbEntity
  8
LAY0001
100
AcDbLine
 62
7
  6
CONTINUOUS
 10
-24.2562901466
 20
3.6255718564
 11
-24.2613727453
 21
3.6356545568
  0
LINE
  5
47D
100
AcDbEntity
  8
LAY0001
100
AcDbLine
 62
7
  6
CONTINUOUS
 10
-23.9164821865
 20
3.2963597623
 11
-23.9115620515
 21
3.2858596795
  0
LINE
  5
47E
100
AcDbEntity
  8
LAY0001
100
AcDbLine
 62
7
  6
CONTINUOUS
 10
-24.2700693161
 20
3.6391178773
 11
-24.2694693618
 21
3.637827809
  0
LINE
  5
47F
100
AcDbEntity
  8
LAY0001
100
AcDbLine
 62
7
  6
CONTINUOUS
 10
-24.2647707501
 20
3.6328032923
 11
-24.2641707958
 21
3.631513224
  0
LINE
  5
480
100
AcDbEntity
  8
LAY0001
100
AcDbLine
 62
7
  6
CONTINUOUS
 10
-24.1860809516
 20
3.539216133
 11
-24.1854810178
 21
3.5379260885
  0
LINE
  5
481
100
AcDbEntity
  8
LAY0001
100
AcDbLine
 62
7
  6
CONTINUOUS
 10
-24.0042579047
 20
3.3223361728
 11
-24.0036579807
 21
3.3210461406
  0
LINE
  5
482
100
AcDbEntity
  8
LAY0001
100
AcDbLine
 62
7
  6
CONTINUOUS
 10
-23.9824973064
 20
3.2975530434
 11
-23.9818973824
 21
3.2962630113
  0
LINE
  5
483
100
AcDbEntity
  8
LAY0001
100
AcDbLine
 62
7
  6
CONTINUOUS
 10
-23.9779602431
 20
3.2959797866
 11
-23.9773603191
 21
3.2946897544
  0
LINE
  5
484
100
AcDbEntity
  8
LAY0001
100
AcDbLine
 62
7
  6
CONTINUOUS
 10
-23.9137226203
 20
3.2871814389
 11
-23.9188487478
 21
3.2985535669
  0
LINE
  5
485
100
AcDbEntity
  8
LAY0001
100
AcDbLine
 62
7
  6
CONTINUOUS
 10
-23.9883267897
 20
3.3760912257
 11
-23.9930001052
 21
3.3867984028
  0
LINE
  5
486
100
AcDbEntity
  8
LAY0001
100
AcDbLine
 62
7
  6
CONTINUOUS
 10
-24.1231288029
 20
3.5367420092
 11
-24.1284609167
 21
3.5489861755
  0
LINE
  5
487
100
AcDbEntity
  8
LAY0001
100
AcDbLine
 62
7
  6
CONTINUOUS
 10
-23.9905718346
 20
3.3846563665
 11
-23.9852397208
 21
3.3724122003
  0
LINE
  5
488
100
AcDbEntity
  8
LAY0001
100
AcDbLine
 62
7
  6
CONTINUOUS
 10
-24.1208239275
 20
3.5344964082
 11
-24.1237885376
 21
3.5414128807
  0
LINE
  5
489
100
AcDbEntity
  8
LAY0001
100
AcDbLine
 62
7
  6
CONTINUOUS
 10
-24.1253738478
 20
3.54530715
 11
-24.1240562511
 21
3.5422331716
  0
LINE
  5
48A
100
AcDbEntity
  8
0
100
AcDbLine
 62
7
  6
CONTINUOUS
 10
-23.495086921
 20
2.8141544181
 11
-23.4911595035
 21
2.8209569048
  0
LINE
  5
48B
100
AcDbEntity
  8
0
100
AcDbLine
 62
3
  6
CONTINUOUS
 10
-23.495086921
 20
2.8141544181
 11
-23.5506311998
 21
2.7179489051
  0
LINE
  5
48C
100
AcDbEntity
  8
03___PRT_ALL_CURVES
100
AcDbLine
 62
4
  6
CONTINUOUS
 10
-21.9525473623
 20
1.8164113065
 11
-21.950792198
 21
1.8150346398
  0
LINE
  5
48D
100
AcDbEntity
  8
03___PRT_ALL_CURVES
100
AcDbLine
 62
4
  6
CONTINUOUS
 10
-21.737735848
 20
1.6893924131
 11
-21.7394910123
 21
1.6907690797
  0
LINE
  5
48E
100
AcDbEntity
  8
03___PRT_ALL_CURVES
100
AcDbLine
 62
4
  6
CONTINUOUS
 10
-21.6037401634
 20
1.618938097
 11
-21.6054953113
 21
1.6203147542
  0
LINE
  5
48F
100
AcDbEntity
  8
03___PRT_ALL_CURVES
100
AcDbLine
 62
4
  6
CONTINUOUS
 10
-21.5550160446
 20
1.5840807464
 11
-21.5558936185
 21
1.584769075
  0
LINE
  5
490
100
AcDbEntity
  8
03___PRT_ALL_CURVES
100
AcDbLine
 62
4
  6
CONTINUOUS
 10
-21.5637131303
 20
1.5911002832
 11
-21.5619579825
 21
1.5897236259
  0
LINE
  5
491
100
AcDbEntity
  8
LAY0001
100
AcDbLine
 62
7
  6
CONTINUOUS
 10
-23.8842312403
 20
3.2534133977
 11
-23.885507076
 21
3.254432637
  0
LINE
  5
492
100
AcDbEntity
  8
LAY0001
100
AcDbLine
 62
7
  6
CONTINUOUS
 10
-23.9022400894
 20
3.2780082748
 11
-23.9009642536
 21
3.2769890355
  0
LINE
  5
493
100
AcDbEntity
  8
LAY0001
100
AcDbLine
 62
7
  6
CONTINUOUS
 10
-24.1908800848
 20
3.6188632598
 11
-24.1921559294
 21
3.6198825096
  0
LINE
  5
494
100
AcDbEntity
  8
LAY0001
100
AcDbLine
 62
7
  6
CONTINUOUS
 10
-24.2873623627
 20
3.7374803701
 11
-24.2886382309
 21
3.738499648
  0
LINE
  5
495
100
AcDbEntity
  8
LAY0001
100
AcDbLine
 62
7
  6
CONTINUOUS
 10
-24.3640246055
 20
3.8288428734
 11
-24.3653004266
 21
3.8298620951
  0
LINE
  5
496
100
AcDbEntity
  8
LAY0001
100
AcDbLine
 62
7
  6
CONTINUOUS
 10
-24.0024037241
 20
3.3256854637
 11
-24.0045474621
 21
3.3274735102
  0
LINE
  5
497
100
AcDbEntity
  8
LAY0001
100
AcDbLine
 62
7
  6
CONTINUOUS
 10
-24.1255313893
 20
3.47165654
 11
-24.1233876513
 21
3.4698684935
  0
LINE
  5
498
100
AcDbEntity
  8
LAY0001
100
AcDbLine
 62
7
  6
CONTINUOUS
 10
-24.1579163289
 20
3.5054591519
 11
-24.1600600669
 21
3.5072471985
  0
LINE
  5
499
100
AcDbEntity
  8
LAY0001
100
AcDbLine
 62
7
  6
CONTINUOUS
 10
-24.4531594007
 20
3.8621083997
 11
-24.4510156425
 21
3.8603203291
  0
LINE
  5
49A
100
AcDbEntity
  8
LAY0001
100
AcDbLine
 62
7
  6
CONTINUOUS
 10
-24.1335736273
 20
3.4810492158
 11
-24.1474135859
 21
3.49275078
  0
LINE
  5
49B
100
AcDbEntity
  8
LAY0001
100
AcDbLine
 62
7
  6
CONTINUOUS
 10
-24.1498740907
 20
3.4960664763
 11
-24.1360341323
 21
3.4843649119
  0
LINE
  5
49C
100
AcDbEntity
  8
03___PRT_ALL_CURVES
100
AcDbLine
 62
4
  6
CONTINUOUS
 10
-21.783018207
 20
1.7191694169
 11
-21.7753166874
 21
1.71263384
  0
LINE
  5
49D
100
AcDbEntity
  8
03___PRT_ALL_CURVES
100
AcDbLine
 62
4
  6
CONTINUOUS
 10
-21.6490225114
 20
1.6487150945
 11
-21.6413209919
 21
1.6421795176
  0
LINE
  5
49E
100
AcDbEntity
  8
03___PRT_ALL_CURVES
100
AcDbLine
 62
4
  6
CONTINUOUS
 10
-21.7695006076
 20
1.7094575858
 11
-21.776324545
 21
1.7153048293
  0
LINE
  5
49F
100
AcDbEntity
  8
03___PRT_ALL_CURVES
100
AcDbLine
 62
4
  6
CONTINUOUS
 10
-21.635504912
 20
1.6390032634
 11
-21.6423288604
 21
1.6448505132
  0
LINE
  5
4A0
100
AcDbEntity
  8
LAY0001
100
AcDbLine
 62
7
  6
CONTINUOUS
 10
-23.8872566056
 20
3.2571441986
 11
-23.8884707381
 21
3.2582152131
  0
LINE
  5
4A1
100
AcDbEntity
  8
LAY0001
100
AcDbLine
 62
7
  6
CONTINUOUS
 10
-23.899214724
 20
3.274277474
 11
-23.8980005917
 21
3.2732064593
  0
LINE
  5
4A2
100
AcDbEntity
  8
LAY0001
100
AcDbLine
 62
7
  6
CONTINUOUS
 10
-24.1951195914
 20
3.6236650858
 11
-24.1939054501
 21
3.6225940607
  0
LINE
  5
4A3
100
AcDbEntity
  8
LAY0001
100
AcDbLine
 62
7
  6
CONTINUOUS
 10
-24.2856128654
 20
3.7347688472
 11
-24.2843987007
 21
3.733697794
  0
LINE
  5
4A4
100
AcDbEntity
  8
LAY0001
100
AcDbLine
 62
7
  6
CONTINUOUS
 10
-24.3622750611
 20
3.8261312943
 11
-24.3610609435
 21
3.8250602972
  0
LINE
  5
4A5
100
AcDbEntity
  8
03___PRT_ALL_CURVES
100
AcDbLine
 62
4
  6
CONTINUOUS
 10
-21.8154663105
 20
1.7336343028
 11
-21.8289175534
 21
1.7456694169
  0
LINE
  5
4A6
100
AcDbEntity
  8
03___PRT_ALL_CURVES
100
AcDbLine
 62
4
  6
CONTINUOUS
 10
-21.9823357155
 20
1.8310663653
 11
-21.9814974861
 21
1.8303099215
  0
LINE
  5
4A7
100
AcDbEntity
  8
03___PRT_ALL_CURVES
100
AcDbLine
 62
4
  6
CONTINUOUS
 10
-21.8114840565
 20
1.7316984695
 11
-21.8190282529
 21
1.738506538
  0
LINE
  5
4A8
100
AcDbEntity
  8
03___PRT_ALL_CURVES
100
AcDbLine
 62
4
  6
CONTINUOUS
 10
-21.8231801351
 20
1.7423569169
 11
-21.8198271516
 21
1.7393311045
  0
LINE
  5
4A9
100
AcDbEntity
  8
03___PRT_ALL_CURVES
100
AcDbLine
 62
4
  6
CONTINUOUS
 10
-21.7834778713
 20
1.7161649046
 11
-21.7826396419
 21
1.715408461
  0
LINE
  5
4AA
100
AcDbEntity
  8
03___PRT_ALL_CURVES
100
AcDbLine
 62
4
  6
CONTINUOUS
 10
-21.777740453
 20
1.7128524046
 11
-21.7769022236
 21
1.712095961
  0
LINE
  5
4AB
100
AcDbEntity
  8
03___PRT_ALL_CURVES
100
AcDbLine
 62
4
  6
CONTINUOUS
 10
-21.6494821867
 20
1.6457105885
 11
-21.6486439463
 21
1.6449541386
  0
LINE
  5
4AC
100
AcDbEntity
  8
03___PRT_ALL_CURVES
100
AcDbLine
 62
4
  6
CONTINUOUS
 10
-21.6437447684
 20
1.6423980885
 11
-21.642906528
 21
1.6416416386
  0
LINE
  5
4AD
100
AcDbEntity
  8
03___PRT_ALL_CURVES
100
AcDbLine
 62
4
  6
CONTINUOUS
 10
-21.5616310368
 20
1.588081575
 11
-21.5607927936
 21
1.5873251235
  0
LINE
  5
4AE
100
AcDbEntity
  8
03___PRT_ALL_CURVES
100
AcDbLine
 62
4
  6
CONTINUOUS
 10
-21.5384453795
 20
1.575240313
 11
-21.5376071357
 21
1.5744838611
  0
LINE
  5
4AF
100
AcDbEntity
  8
03___PRT_ALL_CURVES
100
AcDbLine
 62
4
  6
CONTINUOUS
 10
-21.5347900548
 20
1.574946521
 11
-21.533951811
 21
1.5741900691
  0
LINE
  5
4B0
100
AcDbEntity
  8
LAY0001
100
AcDbLine
 62
7
  6
CONTINUOUS
 10
-23.9993432851
 20
3.3210797233
 11
-23.9972939362
 21
3.319212475
  0
LINE
  5
4B1
100
AcDbEntity
  8
LAY0001
100
AcDbLine
 62
7
  6
CONTINUOUS
 10
-24.1203272123
 20
3.4652627532
 11
-24.1182778633
 21
3.4633955048
  0
LINE
  5
4B2
100
AcDbEntity
  8
LAY0001
100
AcDbLine
 62
7
  6
CONTINUOUS
 10
-24.1651698549
 20
3.5137201871
 11
-24.1631205057
 21
3.511852939
  0
LINE
  5
4B3
100
AcDbEntity
  8
LAY0001
100
AcDbLine
 62
7
  6
CONTINUOUS
 10
-24.4479552237
 20
3.8557146129
 11
-24.4459058546
 21
3.8538473405
  0
LINE
  5
4B4
100
AcDbEntity
  8
LAY0001
100
AcDbLine
 62
7
  6
CONTINUOUS
 10
-24.2654986325
 20
3.6357793416
 11
-24.2685254715
 21
3.6386198271
  0
LINE
  5
4B5
100
AcDbEntity
  8
LAY0001
100
AcDbLine
 62
7
  6
CONTINUOUS
 10
-24.3495663146
 20
3.7803219014
 11
-24.2403977875
 21
3.6746503783
  0
LINE
  5
4B6
100
AcDbEntity
  8
LAY0001
100
AcDbLine
 62
7
  6
CONTINUOUS
 10
-24.2176487701
 20
3.6444203719
 11
-24.3131392311
 21
3.7369097938
  0
LINE
  5
4B7
100
AcDbEntity
  8
LAY0001
100
AcDbLine
 62
7
  6
CONTINUOUS
 10
-23.885507076
 20
3.254432637
 11
-23.8878119367
 21
3.2566782205
  0
LINE
  5
4B8
100
AcDbEntity
  8
LAY0001
100
AcDbLine
 62
7
  6
CONTINUOUS
 10
-23.9009642536
 20
3.2769890355
 11
-23.8986593929
 21
3.274743452
  0
LINE
  5
4B9
100
AcDbEntity
  8
LAY0001
100
AcDbLine
 62
7
  6
CONTINUOUS
 10
-24.1921559294
 20
3.6198825096
 11
-24.1944607812
 21
3.6221280826
  0
LINE
  5
4BA
100
AcDbEntity
  8
LAY0001
100
AcDbLine
 62
7
  6
CONTINUOUS
 10
-24.2081276018
 20
3.6430520591
 11
-24.2058227499
 21
3.6408064862
  0
LINE
  5
4BB
100
AcDbEntity
  8
LAY0001
100
AcDbLine
 62
7
  6
CONTINUOUS
 10
-24.2757535803
 20
3.7190090679
 11
-24.2734487519
 21
3.716763523
  0
LINE
  5
4BC
100
AcDbEntity
  8
LAY0001
100
AcDbLine
 62
7
  6
CONTINUOUS
 10
-24.2850575344
 20
3.7352348253
 11
-24.2873623627
 21
3.7374803701
  0
LINE
  5
4BD
100
AcDbEntity
  8
LAY0001
100
AcDbLine
 62
7
  6
CONTINUOUS
 10
-24.36171973
 20
3.8265972724
 11
-24.3640246055
 21
3.8288428734
  0
LINE
  5
4BE
100
AcDbEntity
  8
LAY0001
100
AcDbLine
 62
7
  6
CONTINUOUS
 10
-23.9820525708
 20
3.2943393646
 11
-23.9781426357
 21
3.2904464463
  0
LINE
  5
4BF
100
AcDbEntity
  8
LAY0001
100
AcDbLine
 62
7
  6
CONTINUOUS
 10
-23.998493784
 20
3.3217925394
 11
-24.0024037241
 21
3.3256854637
  0
LINE
  5
4C0
100
AcDbEntity
  8
LAY0001
100
AcDbLine
 62
7
  6
CONTINUOUS
 10
-24.1233876513
 20
3.4698684935
 11
-24.1194777111
 21
3.4659755693
  0
LINE
  5
4C1
100
AcDbEntity
  8
LAY0001
100
AcDbLine
 62
7
  6
CONTINUOUS
 10
-24.1600600669
 20
3.5072471985
 11
-24.163970007
 21
3.5111401228
  0
LINE
  5
4C2
100
AcDbEntity
  8
LAY0001
100
AcDbLine
 62
7
  6
CONTINUOUS
 10
-24.1878535242
 20
3.5466959292
 11
-24.1839436043
 21
3.542803029
  0
LINE
  5
4C3
100
AcDbEntity
  8
LAY0001
100
AcDbLine
 62
7
  6
CONTINUOUS
 10
-24.2613663548
 20
3.6302796142
 11
-24.2633212945
 21
3.6322260402
  0
LINE
  5
4C4
100
AcDbEntity
  8
LAY0001
100
AcDbLine
 62
7
  6
CONTINUOUS
 10
-24.4510156425
 20
3.8603203291
 11
-24.4471057226
 21
3.856427429
  0
LINE
  5
4C5
100
AcDbEntity
  8
03___PRT_ALL_CURVES
100
AcDbLine
 62
4
  6
CONTINUOUS
 10
-21.9557700484
 20
1.8174544504
 11
-21.9565689471
 21
1.8182790169
  0
LINE
  5
4C6
100
AcDbEntity
  8
03___PRT_ALL_CURVES
100
AcDbLine
 62
4
  6
CONTINUOUS
 10
-21.7337142631
 20
1.6875247028
 11
-21.7345131618
 21
1.6883492693
  0
LINE
  5
4C7
100
AcDbEntity
  8
03___PRT_ALL_CURVES
100
AcDbLine
 62
4
  6
CONTINUOUS
 10
-21.5997185621
 20
1.6170703773
 11
-21.6005174772
 21
1.6178949532
  0
LINE
  5
4C8
100
AcDbEntity
  8
03___PRT_ALL_CURVES
100
AcDbLine
 62
4
  6
CONTINUOUS
 10
-21.5739518101
 20
1.6042830384
 11
-21.573152895
 21
1.6034584624
  0
LINE
  5
4C9
100
AcDbEntity
  8
03___PRT_ALL_CURVES
100
AcDbLine
 62
4
  6
CONTINUOUS
 10
-21.5318303866
 20
1.571239484
 11
-21.5326293
 21
1.572064059
  0
LINE
  5
4CA
100
AcDbEntity
  8
03___PRT_ALL_CURVES
100
AcDbLine
 62
4
  6
CONTINUOUS
 10
-21.5282143927
 20
1.5708775691
 11
-21.529013306
 21
1.5717021441
  0
LINE
  5
4CB
100
AcDbEntity
  8
LAY0001
100
AcDbLine
 62
7
  6
CONTINUOUS
 10
-23.8884707381
 20
3.2582152131
 11
-23.8901376794
 21
3.2599511752
  0
LINE
  5
4CC
100
AcDbEntity
  8
LAY0001
100
AcDbLine
 62
7
  6
CONTINUOUS
 10
-23.8980005917
 20
3.2732064593
 11
-23.8963336503
 21
3.2714704973
  0
LINE
  5
4CD
100
AcDbEntity
  8
LAY0001
100
AcDbLine
 62
7
  6
CONTINUOUS
 10
-24.1967865327
 20
3.6254010478
 11
-24.1951195914
 21
3.6236650858
  0
LINE
  5
4CE
100
AcDbEntity
  8
LAY0001
100
AcDbLine
 62
7
  6
CONTINUOUS
 10
-24.2034969984
 20
3.6375335209
 11
-24.2051639398
 21
3.6392694829
  0
LINE
  5
4CF
100
AcDbEntity
  8
LAY0001
100
AcDbLine
 62
7
  6
CONTINUOUS
 10
-24.276412414
 20
3.7205460991
 11
-24.2780793553
 21
3.7222820612
  0
LINE
  5
4D0
100
AcDbEntity
  8
LAY0001
100
AcDbLine
 62
7
  6
CONTINUOUS
 10
-24.2843987007
 20
3.733697794
 11
-24.2827317593
 21
3.7319618319
  0
LINE
  5
4D1
100
AcDbEntity
  8
LAY0001
100
AcDbLine
 62
7
  6
CONTINUOUS
 10
-24.3610609435
 20
3.8250602972
 11
-24.3593940021
 21
3.8233243352
  0
LINE
  5
4D2
100
AcDbEntity
  8
LAY0001
100
AcDbLine
 62
7
  6
CONTINUOUS
 10
-23.9832524187
 20
3.296919429
 11
-23.9860904797
 21
3.2999183179
  0
LINE
  5
4D3
100
AcDbEntity
  8
LAY0001
100
AcDbLine
 62
7
  6
CONTINUOUS
 10
-23.9972939362
 20
3.319212475
 11
-23.9944558751
 21
3.3162135861
  0
LINE
  5
4D4
100
AcDbEntity
  8
LAY0001
100
AcDbLine
 62
7
  6
CONTINUOUS
 10
-24.1182778633
 20
3.4633955048
 11
-24.1154398022
 21
3.4603966159
  0
LINE
  5
4D5
100
AcDbEntity
  8
LAY0001
100
AcDbLine
 62
7
  6
CONTINUOUS
 10
-24.1680079159
 20
3.5167190761
 11
-24.1651698549
 21
3.5137201871
  0
LINE
  5
4D6
100
AcDbEntity
  8
LAY0001
100
AcDbLine
 62
7
  6
CONTINUOUS
 10
-24.1799056752
 20
3.5372240516
 11
-24.1827437362
 21
3.5402229405
  0
LINE
  5
4D7
100
AcDbEntity
  8
LAY0001
100
AcDbLine
 62
7
  6
CONTINUOUS
 10
-24.4459058546
 20
3.8538473405
 11
-24.4430677935
 21
3.8508484515
  0
LINE
  5
4D8
100
AcDbEntity
  8
LAY0001
100
AcDbLine
 62
7
  6
CONTINUOUS
 10
-23.8878119367
 20
3.2566782205
 11
-23.8899933876
 21
3.2590273511
  0
LINE
  5
4D9
100
AcDbEntity
  8
LAY0001
100
AcDbLine
 62
7
  6
CONTINUOUS
 10
-23.8986593929
 20
3.274743452
 11
-23.8964779391
 21
3.2723943179
  0
LINE
  5
4DA
100
AcDbEntity
  8
LAY0001
100
AcDbLine
 62
7
  6
CONTINUOUS
 10
-24.1944607812
 20
3.6221280826
 11
-24.1966422262
 21
3.6244772062
  0
LINE
  5
4DB
100
AcDbEntity
  8
LAY0001
100
AcDbLine
 62
7
  6
CONTINUOUS
 10
-24.2058227499
 20
3.6408064862
 11
-24.2036413049
 21
3.6384573626
  0
LINE
  5
4DC
100
AcDbEntity
  8
LAY0001
100
AcDbLine
 62
7
  6
CONTINUOUS
 10
-24.2779350488
 20
3.7213582196
 11
-24.2757535803
 21
3.7190090679
  0
LINE
  5
4DD
100
AcDbEntity
  8
LAY0001
100
AcDbLine
 62
7
  6
CONTINUOUS
 10
-24.2828760658
 20
3.7328856736
 11
-24.2850575344
 21
3.7352348253
  0
LINE
  5
4DE
100
AcDbEntity
  8
LAY0001
100
AcDbLine
 62
7
  6
CONTINUOUS
 10
-24.3595382615
 20
3.8242481207
 11
-24.36171973
 21
3.8265972724
  0
LINE
  5
4DF
100
AcDbEntity
  8
LAY0001
100
AcDbLine
 62
7
  6
CONTINUOUS
 10
-23.9857737228
 20
3.2983906804
 11
-23.9820525708
 21
3.2943393646
  0
LINE
  5
4E0
100
AcDbEntity
  8
LAY0001
100
AcDbLine
 62
7
  6
CONTINUOUS
 10
-23.994772632
 20
3.3177412237
 11
-23.998493784
 21
3.3217925394
  0
LINE
  5
4E1
100
AcDbEntity
  8
LAY0001
100
AcDbLine
 62
7
  6
CONTINUOUS
 10
-24.163970007
 20
3.5111401228
 11
-24.1676911489
 21
3.5151914265
  0
LINE
  5
4E2
100
AcDbEntity
  8
LAY0001
100
AcDbLine
 62
7
  6
CONTINUOUS
 10
-24.1194777111
 20
3.4659755693
 11
-24.115756549
 21
3.4619242414
  0
LINE
  5
4E3
100
AcDbEntity
  8
LAY0001
100
AcDbLine
 62
7
  6
CONTINUOUS
 10
-24.1839436043
 20
3.542803029
 11
-24.1802224421
 21
3.5387517012
  0
LINE
  5
4E4
100
AcDbEntity
  8
LAY0001
100
AcDbLine
 62
7
  6
CONTINUOUS
 10
-24.2617774906
 20
3.6317280379
 11
-24.2654986325
 21
3.6357793416
  0
LINE
  5
4E5
100
AcDbEntity
  8
LAY0001
100
AcDbLine
 62
7
  6
CONTINUOUS
 10
-24.4471057226
 20
3.856427429
 11
-24.4433845403
 21
3.8523760771
  0
LINE
  5
4E6
100
AcDbEntity
  8
03___PRT_ALL_CURVES
100
AcDbLine
 62
4
  6
CONTINUOUS
 10
-21.8651906097
 20
1.7623426403
 11
-21.8714245855
 21
1.7692117274
  0
LINE
  5
4E7
100
AcDbEntity
  8
LAY0001
100
AcDbLine
 62
7
  6
CONTINUOUS
 10
-24.1672754611
 20
3.530026839
 11
-23.7919298173
 21
3.1126149046
  0
LINE
  5
4E8
100
AcDbEntity
  8
LAY0001
100
AcDbLine
 62
7
  6
CONTINUOUS
 10
-24.2780793553
 20
3.7222820612
 11
-24.2796845932
 21
3.7240697986
  0
LINE
  5
4E9
100
AcDbEntity
  8
LAY0001
100
AcDbLine
 62
7
  6
CONTINUOUS
 10
-23.9860904797
 20
3.2999183179
 11
-23.9888341517
 21
3.3029964087
  0
LINE
  5
4EA
100
AcDbEntity
  8
LAY0001
100
AcDbLine
 62
7
  6
CONTINUOUS
 10
-24.2586226828
 20
3.6272015234
 11
-24.2613663548
 21
3.6302796142
  0
LINE
  5
4EB
100
AcDbEntity
  8
LAY0001
100
AcDbLine
 62
7
  6
CONTINUOUS
 10
-23.8901376794
 20
3.2599511752
 11
-23.8922574298
 21
3.2623520847
  0
LINE
  5
4EC
100
AcDbEntity
  8
LAY0001
100
AcDbLine
 62
7
  6
CONTINUOUS
 10
-23.8963336503
 20
3.2714704973
 11
-23.8942138999
 21
3.2690695878
  0
LINE
  5
4ED
100
AcDbEntity
  8
LAY0001
100
AcDbLine
 62
7
  6
CONTINUOUS
 10
-24.1989062743
 20
3.6278019468
 11
-24.1967865327
 21
3.6254010478
  0
LINE
  5
4EE
100
AcDbEntity
  8
LAY0001
100
AcDbLine
 62
7
  6
CONTINUOUS
 10
-24.2800548139
 20
3.7237591466
 11
-24.2779350488
 21
3.7213582196
  0
LINE
  5
4EF
100
AcDbEntity
  8
LAY0001
100
AcDbLine
 62
7
  6
CONTINUOUS
 10
-24.2013772569
 20
3.635132622
 11
-24.2034969984
 21
3.6375335209
  0
LINE
  5
4F0
100
AcDbEntity
  8
LAY0001
100
AcDbLine
 62
7
  6
CONTINUOUS
 10
-24.2827317593
 20
3.7319618319
 11
-24.2806120414
 21
3.7295609611
  0
LINE
  5
4F1
100
AcDbEntity
  8
LAY0001
100
AcDbLine
 62
7
  6
CONTINUOUS
 10
-24.3593940021
 20
3.8233243352
 11
-24.357274237
 21
3.8209234082
  0
LINE
  5
4F2
100
AcDbEntity
  8
03___PRT_ALL_CURVES
100
AcDbLine
 62
4
  6
CONTINUOUS
 10
-21.867167016
 20
1.7677527544
 11
-21.8610116799
 21
1.7607474089
  0
LINE
  5
4F3
100
AcDbEntity
  8
LAY0001
100
AcDbLine
 62
7
  6
CONTINUOUS
 10
-23.9894004857
 20
3.302521198
 11
-23.9857737228
 21
3.2983906804
  0
LINE
  5
4F4
100
AcDbEntity
  8
LAY0001
100
AcDbLine
 62
7
  6
CONTINUOUS
 10
-23.9944558751
 20
3.3162135861
 11
-23.990829102
 21
3.3120830565
  0
LINE
  5
4F5
100
AcDbEntity
  8
LAY0001
100
AcDbLine
 62
7
  6
CONTINUOUS
 10
-24.171634689
 20
3.5208496057
 11
-24.1680079159
 21
3.5167190761
  0
LINE
  5
4F6
100
AcDbEntity
  8
LAY0001
100
AcDbLine
 62
7
  6
CONTINUOUS
 10
-24.1154398022
 20
3.4603966159
 11
-24.1118130292
 21
3.4562660863
  0
LINE
  5
4F7
100
AcDbEntity
  8
LAY0001
100
AcDbLine
 62
7
  6
CONTINUOUS
 10
-24.1762789223
 20
3.533093546
 11
-24.1799056752
 21
3.5372240516
  0
LINE
  5
4F8
100
AcDbEntity
  8
LAY0001
100
AcDbLine
 62
7
  6
CONTINUOUS
 10
-24.4430677935
 20
3.8508484515
 11
-24.4394410406
 21
3.846717946
  0
LINE
  5
4F9
100
AcDbEntity
  8
LAY0001
100
AcDbLine
 62
7
  6
CONTINUOUS
 10
-23.8899933876
 20
3.2590273511
 11
-23.8926276504
 21
3.2620414327
  0
LINE
  5
4FA
100
AcDbEntity
  8
LAY0001
100
AcDbLine
 62
7
  6
CONTINUOUS
 10
-23.8964779391
 20
3.2723943179
 11
-23.8938436792
 21
3.2693802398
  0
LINE
  5
4FB
100
AcDbEntity
  8
LAY0001
100
AcDbLine
 62
7
  6
CONTINUOUS
 10
-24.1966422262
 20
3.6244772062
 11
-24.1992764949
 21
3.6274912948
  0
LINE
  5
4FC
100
AcDbEntity
  8
LAY0001
100
AcDbLine
 62
7
  6
CONTINUOUS
 10
-24.2036413049
 20
3.6384573626
 11
-24.2010070362
 21
3.635443274
  0
LINE
  5
4FD
100
AcDbEntity
  8
LAY0001
100
AcDbLine
 62
7
  6
CONTINUOUS
 10
-24.2802418207
 20
3.7298716131
 11
-24.2828760658
 21
3.7328856736
  0
LINE
  5
4FE
100
AcDbEntity
  8
LAY0001
100
AcDbLine
 62
7
  6
CONTINUOUS
 10
-24.3569040163
 20
3.8212340602
 11
-24.3595382615
 21
3.8242481207
  0
LINE
  5
4FF
100
AcDbEntity
  8
LAY0001
100
AcDbLine
 62
7
  6
CONTINUOUS
 10
-24.1676911489
 20
3.5151914265
 11
-24.172201023
 21
3.520374395
  0
LINE
  5
500
100
AcDbEntity
  8
LAY0001
100
AcDbLine
 62
7
  6
CONTINUOUS
 10
-23.9902627679
 20
3.3125582672
 11
-23.994772632
 21
3.3177412237
  0
LINE
  5
501
100
AcDbEntity
  8
LAY0001
100
AcDbLine
 62
7
  6
CONTINUOUS
 10
-24.115756549
 20
3.4619242414
 11
-24.1112466951
 21
3.456741297
  0
LINE
  5
502
100
AcDbEntity
  8
LAY0001
100
AcDbLine
 62
7
  6
CONTINUOUS
 10
-24.1802224421
 20
3.5387517012
 11
-24.1757125882
 21
3.5335687568
  0
LINE
  5
503
100
AcDbEntity
  8
LAY0001
100
AcDbLine
 62
7
  6
CONTINUOUS
 10
-24.4433845403
 20
3.8523760771
 11
-24.4388747065
 21
3.8471931567
  0
LINE
  5
504
100
AcDbEntity
  8
03___PRT_ALL_CURVES
100
AcDbLine
 62
4
  6
CONTINUOUS
 10
-21.987313566
 20
1.8334861757
 11
-21.9880731338
 21
1.8343788653
  0
LINE
  5
505
100
AcDbEntity
  8
03___PRT_ALL_CURVES
100
AcDbLine
 62
4
  6
CONTINUOUS
 10
-21.950792198
 20
1.8150346398
 11
-21.9500326301
 21
1.8141419504
  0
LINE
  5
506
100
AcDbEntity
  8
03___PRT_ALL_CURVES
100
AcDbLine
 62
4
  6
CONTINUOUS
 10
-21.7394910123
 20
1.6907690797
 11
-21.7402505801
 21
1.6916617693
  0
LINE
  5
507
100
AcDbEntity
  8
03___PRT_ALL_CURVES
100
AcDbLine
 62
4
  6
CONTINUOUS
 10
-21.6054953113
 20
1.6203147542
 11
-21.6062548955
 21
1.6212074532
  0
LINE
  5
508
100
AcDbEntity
  8
03___PRT_ALL_CURVES
100
AcDbLine
 62
4
  6
CONTINUOUS
 10
-21.568175061
 20
1.6010386613
 11
-21.5674154794
 21
1.600145964
  0
LINE
  5
509
100
AcDbEntity
  8
03___PRT_ALL_CURVES
100
AcDbLine
 62
4
  6
CONTINUOUS
 10
-21.8442173428
 20
1.7545027544
 11
-21.8384159837
 21
1.7468843028
  0
LINE
  5
50A
100
AcDbEntity
  8
03___PRT_ALL_CURVES
100
AcDbLine
 62
4
  6
CONTINUOUS
 10
-21.844153402
 20
1.7501968028
 11
-21.8484749123
 21
1.7559617274
  0
LINE
  5
50B
100
AcDbEntity
  8
0
100
AcDbLine
 62
7
  6
CONTINUOUS
 10
-21.1709541545
 20
0.744365857
 11
-21.1584686045
 21
-0.6863364647
  0
LINE
  5
50C
100
AcDbEntity
  8
0
100
AcDbLine
 62
7
  6
CONTINUOUS
 10
-20.6792404632
 20
1.1538146759
 11
-20.6811894573
 21
1.3771472769
  0
LINE
  5
50D
100
AcDbEntity
  8
0
100
AcDbLine
 62
7
  6
CONTINUOUS
 10
-20.4932195915
 20
5.8472289341
 11
-20.4932195915
 21
5.8477056586
  0
LINE
  5
50E
100
AcDbEntity
  8
0
100
AcDbLine
 62
7
  6
CONTINUOUS
 10
-21.1688842946
 20
1.02892983
 11
-21.1712290165
 21
0.7602513143
  0
LINE
  5
50F
100
AcDbEntity
  8
0
100
AcDbLine
 62
7
  6
CONTINUOUS
 10
-20.7361596873
 20
1.3829532864
 11
-20.7381593496
 21
1.1538146759
  0
LINE
  5
510
100
AcDbEntity
  8
0
100
AcDbLine
 62
7
  6
CONTINUOUS
 10
-24.4863819045
 20
4.0810514262
 11
-24.5887094212
 21
3.9951884446
  0
LINE
  5
511
100
AcDbEntity
  8
1_ALL_PLANES
100
AcDbLine
 62
7
  6
CONTINUOUS
 10
-24.5834140311
 20
3.9967246743
 11
-24.5251681817
 21
4.045598745
  0
LINE
  5
512
100
AcDbEntity
  8
LAY0001
100
AcDbLine
 62
7
  6
CONTINUOUS
 10
-24.4559302619
 20
3.8615767788
 11
-24.4545144266
 21
3.8627648056
  0
LINE
  5
513
100
AcDbEntity
  8
LAY0001
100
AcDbLine
 62
7
  6
CONTINUOUS
 10
-24.4284916461
 20
3.8743814488
 11
-24.4272118958
 21
3.8754552868
  0
LINE
  5
514
100
AcDbEntity
  8
LAY0001
100
AcDbLine
 62
7
  6
CONTINUOUS
 10
-24.4246523949
 20
3.8776029631
 11
-24.4164619923
 21
3.8844755269
  0
LINE
  5
515
100
AcDbEntity
  8
LAY0001
100
AcDbLine
 62
7
  6
CONTINUOUS
 10
-24.4506316959
 20
3.8552621937
 11
-24.4492158606
 21
3.8564502205
  0
LINE
  5
516
100
AcDbEntity
  8
LAY0001
100
AcDbLine
 62
7
  6
CONTINUOUS
 10
-24.4143423116
 20
3.8837967545
 11
-24.413972091
 21
3.8841074065
  0
LINE
  5
517
100
AcDbEntity
  8
LAY0001
100
AcDbLine
 62
7
  6
CONTINUOUS
 10
-24.4118124702
 20
3.8859195435
 11
-24.4114422495
 21
3.8862301955
  0
LINE
  5
518
100
AcDbEntity
  8
LAY0001
100
AcDbLine
 62
7
  6
CONTINUOUS
 10
-24.4111118844
 20
3.8823277836
 11
-24.4107416638
 21
3.8826384357
  0
LINE
  5
519
100
AcDbEntity
  8
LAY0001
100
AcDbLine
 62
7
  6
CONTINUOUS
 10
-24.3973643808
 20
3.8666960107
 11
-24.3963771256
 21
3.8675244161
  0
LINE
  5
51A
100
AcDbEntity
  8
LAY0001
100
AcDbLine
 62
7
  6
CONTINUOUS
 10
-24.3985367464
 20
3.8657122791
 11
-24.3977346015
 21
3.8663853587
  0
LINE
  5
51B
100
AcDbEntity
  8
LAY0001
100
AcDbLine
 62
7
  6
CONTINUOUS
 10
-24.392919836
 20
3.8641560427
 11
-24.3958198981
 21
3.8617226017
  0
LINE
  5
51C
100
AcDbEntity
  8
LAY0001
100
AcDbLine
 62
7
  6
CONTINUOUS
 10
-24.3917037749
 20
3.856817197
 11
-24.3913952576
 21
3.8570760736
  0
LINE
  5
51D
100
AcDbEntity
  8
LAY0001
100
AcDbLine
 62
7
  6
CONTINUOUS
 10
-24.4235453426
 20
3.8277741908
 11
-24.4268489583
 21
3.8250021281
  0
LINE
  5
51E
100
AcDbEntity
  8
LAY0001
100
AcDbLine
 62
7
  6
CONTINUOUS
 10
-24.4176804425
 20
3.8219348164
 11
-24.4221167263
 21
3.8182123323
  0
LINE
  5
51F
100
AcDbEntity
  8
LAY0001
100
AcDbLine
 62
7
  6
CONTINUOUS
 10
-24.3968560009
 20
3.8392785401
 11
-24.3981357512
 21
3.838204702
  0
LINE
  5
520
100
AcDbEntity
  8
LAY0001
100
AcDbLine
 62
7
  6
CONTINUOUS
 10
-24.3861060974
 20
3.8482987801
 11
-24.3942965001
 21
3.8414262163
  0
LINE
  5
521
100
AcDbEntity
  8
LAY0001
100
AcDbLine
 62
7
  6
CONTINUOUS
 10
-24.3831631053
 20
3.8472653765
 11
-24.3805715604
 21
3.8494399408
  0
LINE
  5
522
100
AcDbEntity
  8
LAY0001
100
AcDbLine
 62
7
  6
CONTINUOUS
 10
-24.3774844915
 20
3.8457609154
 11
-24.3800760364
 21
3.843586351
  0
LINE
  5
523
100
AcDbEntity
  8
LAY0001
100
AcDbLine
 62
7
  6
CONTINUOUS
 10
-24.4150519582
 20
3.8097928695
 11
-24.4144856241
 21
3.8102680802
  0
LINE
  5
524
100
AcDbEntity
  8
LAY0001
100
AcDbLine
 62
7
  6
CONTINUOUS
 10
-24.4111820085
 20
3.8130401429
 11
-24.4106156744
 21
3.8135153536
  0
LINE
  5
525
100
AcDbEntity
  8
LAY0001
100
AcDbLine
 62
7
  6
CONTINUOUS
 10
-24.4097262029
 20
3.8070879962
 11
-24.4091598689
 21
3.8075632069
  0
LINE
  5
526
100
AcDbEntity
  8
LAY0001
100
AcDbLine
 62
7
  6
CONTINUOUS
 10
-24.3718438369
 20
3.8337755977
 11
-24.3721523541
 21
3.833516721
  0
LINE
  5
527
100
AcDbEntity
  8
LAY0001
100
AcDbLine
 62
7
  6
CONTINUOUS
 10
-24.366123471
 20
3.8302164081
 11
-24.3680362779
 21
3.8286113724
  0
LINE
  5
528
100
AcDbEntity
  8
LAY0001
100
AcDbLine
 62
7
  6
CONTINUOUS
 10
-24.364949209
 20
3.824932347
 11
-24.363036402
 21
3.8265373826
  0
LINE
  5
529
100
AcDbEntity
  8
LAY0001
100
AcDbLine
 62
7
  6
CONTINUOUS
 10
-24.3506881264
 20
3.8118212807
 11
-24.3526009333
 21
3.8102162451
  0
LINE
  5
52A
100
AcDbEntity
  8
LAY0001
100
AcDbLine
 62
7
  6
CONTINUOUS
 10
-24.3861994027
 20
3.7801999889
 11
-24.3846891784
 21
3.7814672175
  0
LINE
  5
52B
100
AcDbEntity
  8
LAY0001
100
AcDbLine
 62
7
  6
CONTINUOUS
 10
-24.3879927941
 20
3.7786951548
 11
-24.3867657368
 21
3.7797247782
  0
LINE
  5
52C
100
AcDbEntity
  8
LAY0001
100
AcDbLine
 62
7
  6
CONTINUOUS
 10
-24.3495138644
 20
3.8065372196
 11
-24.3476010575
 21
3.8081422552
  0
LINE
  5
52D
100
AcDbEntity
  8
LAY0001
100
AcDbLine
 62
7
  6
CONTINUOUS
 10
-24.3788242783
 20
3.7756278432
 11
-24.3832605622
 21
3.7719053591
  0
LINE
  5
52E
100
AcDbEntity
  8
LAY0001
100
AcDbLine
 62
7
  6
CONTINUOUS
 10
-24.3453977411
 20
3.8016318149
 11
-24.3450892239
 21
3.8018906916
  0
LINE
  5
52F
100
AcDbEntity
  8
LAY0001
100
AcDbLine
 62
7
  6
CONTINUOUS
 10
-24.376195794
 20
3.7634858962
 11
-24.3717595102
 21
3.7672083804
  0
LINE
  5
530
100
AcDbEntity
  8
LAY0001
100
AcDbLine
 62
7
  6
CONTINUOUS
 10
-24.3368570716
 20
3.7920799944
 11
-24.3342655267
 21
3.7942545588
  0
LINE
  5
531
100
AcDbEntity
  8
LAY0001
100
AcDbLine
 62
7
  6
CONTINUOUS
 10
-24.3311784577
 20
3.7905755333
 11
-24.3337700027
 21
3.788400969
  0
LINE
  5
532
100
AcDbEntity
  8
LAY0001
100
AcDbLine
 62
7
  6
CONTINUOUS
 10
-24.3664609442
 20
3.7608937953
 11
-24.370897228
 21
3.7571713112
  0
LINE
  5
533
100
AcDbEntity
  8
LAY0001
100
AcDbLine
 62
7
  6
CONTINUOUS
 10
-24.3638325003
 20
3.7487518965
 11
-24.3632661662
 21
3.7492271072
  0
LINE
  5
534
100
AcDbEntity
  8
LAY0001
100
AcDbLine
 62
7
  6
CONTINUOUS
 10
-24.3255378032
 20
3.7785902157
 11
-24.3258463204
 21
3.778331339
  0
LINE
  5
535
100
AcDbEntity
  8
LAY0001
100
AcDbLine
 62
7
  6
CONTINUOUS
 10
-24.3585067046
 20
3.7460469751
 11
-24.3579403706
 21
3.7465221858
  0
LINE
  5
536
100
AcDbEntity
  8
LAY0001
100
AcDbLine
 62
7
  6
CONTINUOUS
 10
-24.3217302442
 20
3.7734259904
 11
-24.3188301821
 21
3.7758594315
  0
LINE
  5
537
100
AcDbEntity
  8
LAY0001
100
AcDbLine
 62
7
  6
CONTINUOUS
 10
-24.3157431132
 20
3.772180406
 11
-24.3186431753
 21
3.7697469649
  0
LINE
  5
538
100
AcDbEntity
  8
LAY0001
100
AcDbLine
 62
7
  6
CONTINUOUS
 10
-24.314527052
 20
3.7648415602
 11
-24.3142185348
 21
3.7651004369
  0
LINE
  5
539
100
AcDbEntity
  8
LAY0001
100
AcDbLine
 62
7
  6
CONTINUOUS
 10
-24.3059863824
 20
3.7552897397
 11
-24.3033948375
 21
3.7574643041
  0
LINE
  5
53A
100
AcDbEntity
  8
LAY0001
100
AcDbLine
 62
7
  6
CONTINUOUS
 10
-24.3003077686
 20
3.7537852786
 11
-24.3028993135
 21
3.7516107143
  0
LINE
  5
53B
100
AcDbEntity
  8
LAY0001
100
AcDbLine
 62
7
  6
CONTINUOUS
 10
-24.3349799448
 20
3.7191590159
 11
-24.3329033864
 21
3.7209014553
  0
LINE
  5
53C
100
AcDbEntity
  8
LAY0001
100
AcDbLine
 62
7
  6
CONTINUOUS
 10
-24.3367733362
 20
3.7176541818
 11
-24.3355462789
 21
3.7186838052
  0
LINE
  5
53D
100
AcDbEntity
  8
LAY0001
100
AcDbLine
 62
7
  6
CONTINUOUS
 10
-24.3276048204
 20
3.7145868702
 11
-24.3320411042
 21
3.7108643861
  0
LINE
  5
53E
100
AcDbEntity
  8
LAY0001
100
AcDbLine
 62
7
  6
CONTINUOUS
 10
-24.294667114
 20
3.741799961
 11
-24.2949756312
 21
3.7415410843
  0
LINE
  5
53F
100
AcDbEntity
  8
LAY0001
100
AcDbLine
 62
7
  6
CONTINUOUS
 10
-24.2886382309
 20
3.738499648
 11
-24.2889467481
 21
3.7382407713
  0
LINE
  5
540
100
AcDbEntity
  8
LAY0001
100
AcDbLine
 62
7
  6
CONTINUOUS
 10
-24.3249763361
 20
3.7024449233
 11
-24.3205400523
 21
3.7061674074
  0
LINE
  5
541
100
AcDbEntity
  8
LAY0001
100
AcDbLine
 62
7
  6
CONTINUOUS
 10
-24.2857979758
 20
3.7346135212
 11
-24.2856128654
 21
3.7347688472
  0
LINE
  5
542
100
AcDbEntity
  8
LAY0001
100
AcDbLine
 62
7
  6
CONTINUOUS
 10
-24.3152414863
 20
3.6998528223
 11
-24.3196777701
 21
3.6961303382
  0
LINE
  5
543
100
AcDbEntity
  8
LAY0001
100
AcDbLine
 62
7
  6
CONTINUOUS
 10
-24.2755893694
 20
3.7201917863
 11
-24.2757127763
 21
3.7200882357
  0
LINE
  5
544
100
AcDbEntity
  8
LAY0001
100
AcDbLine
 62
7
  6
CONTINUOUS
 10
-24.3126130019
 20
3.6877108754
 11
-24.3121410569
 21
3.6881068843
  0
LINE
  5
545
100
AcDbEntity
  8
LAY0001
100
AcDbLine
 62
7
  6
CONTINUOUS
 10
-24.272687411
 20
3.7163574347
 11
-24.272440597
 21
3.7165645362
  0
LINE
  5
546
100
AcDbEntity
  8
LAY0001
100
AcDbLine
 62
7
  6
CONTINUOUS
 10
-24.2677065382
 20
3.7090430447
 11
-24.2648064761
 21
3.7114764858
  0
LINE
  5
547
100
AcDbEntity
  8
LAY0001
100
AcDbLine
 62
7
  6
CONTINUOUS
 10
-24.2621513313
 20
3.7074350329
 11
-24.2646194693
 21
3.7053640192
  0
LINE
  5
548
100
AcDbEntity
  8
LAY0001
100
AcDbLine
 62
7
  6
CONTINUOUS
 10
-24.298011561
 20
3.6712680068
 11
-24.2940472222
 21
3.674594482
  0
LINE
  5
549
100
AcDbEntity
  8
LAY0001
100
AcDbLine
 62
7
  6
CONTINUOUS
 10
-24.2887486562
 20
3.668279897
 11
-24.292712995
 21
3.6649534217
  0
LINE
  5
54A
100
AcDbEntity
  8
LAY0001
100
AcDbLine
 62
7
  6
CONTINUOUS
 10
-24.2498429113
 20
3.688505867
 11
-24.2473130699
 21
3.690628656
  0
LINE
  5
54B
100
AcDbEntity
  8
LAY0001
100
AcDbLine
 62
7
  6
CONTINUOUS
 10
-24.244226001
 20
3.6869496306
 11
-24.2471260631
 21
3.6845161895
  0
LINE
  5
54C
100
AcDbEntity
  8
LAY0001
100
AcDbLine
 62
7
  6
CONTINUOUS
 10
-24.2430099633
 20
3.6796108129
 11
-24.2401099012
 21
3.6820442539
  0
LINE
  5
54D
100
AcDbEntity
  8
LAY0001
100
AcDbLine
 62
7
  6
CONTINUOUS
 10
-24.2785834992
 20
3.6481145443
 11
-24.2790554442
 21
3.6477185354
  0
LINE
  5
54E
100
AcDbEntity
  8
LAY0001
100
AcDbLine
 62
7
  6
CONTINUOUS
 10
-24.2370228323
 20
3.6783652285
 11
-24.2399228944
 21
3.6759317874
  0
LINE
  5
54F
100
AcDbEntity
  8
LAY0001
100
AcDbLine
 62
7
  6
CONTINUOUS
 10
-24.2696917598
 20
3.6394346847
 11
-24.2700693161
 21
3.6391178773
  0
LINE
  5
550
100
AcDbEntity
  8
LAY0001
100
AcDbLine
 62
7
  6
CONTINUOUS
 10
-24.2644875828
 20
3.6330408978
 11
-24.2647707501
 21
3.6328032923
  0
LINE
  5
551
100
AcDbEntity
  8
LAY0001
100
AcDbLine
 62
7
  6
CONTINUOUS
 10
-24.2098144945
 20
3.6426815173
 11
-24.2088889428
 21
3.6434581474
  0
LINE
  5
552
100
AcDbEntity
  8
LAY0001
100
AcDbLine
 62
7
  6
CONTINUOUS
 10
-24.2058635773
 20
3.6397273466
 11
-24.2063572049
 21
3.6393131438
  0
LINE
  5
553
100
AcDbEntity
  8
LAY0001
100
AcDbLine
 62
7
  6
CONTINUOUS
 10
-24.2432596988
 20
3.6060172783
 11
-24.2418438635
 21
3.6072053053
  0
LINE
  5
554
100
AcDbEntity
  8
LAY0001
100
AcDbLine
 62
7
  6
CONTINUOUS
 10
-24.23929536
 20
3.6093437536
 11
-24.2412775294
 21
3.6076805159
  0
LINE
  5
555
100
AcDbEntity
  8
LAY0001
100
AcDbLine
 62
7
  6
CONTINUOUS
 10
-24.2017266015
 20
3.6337946056
 11
-24.2020968222
 21
3.6334839536
  0
LINE
  5
556
100
AcDbEntity
  8
LAY0001
100
AcDbLine
 62
7
  6
CONTINUOUS
 10
-24.2384330779
 20
3.5993066844
 11
-24.233996794
 21
3.6030291685
  0
LINE
  5
557
100
AcDbEntity
  8
LAY0001
100
AcDbLine
 62
7
  6
CONTINUOUS
 10
-24.2313683299
 20
3.5908872456
 11
-24.2308019959
 21
3.5913624563
  0
LINE
  5
558
100
AcDbEntity
  8
LAY0001
100
AcDbLine
 62
7
  6
CONTINUOUS
 10
-24.2274983802
 20
3.594134519
 11
-24.2269320461
 21
3.5946097297
  0
LINE
  5
559
100
AcDbEntity
  8
LAY0001
100
AcDbLine
 62
7
  6
CONTINUOUS
 10
-24.1931441327
 20
3.6221880005
 11
-24.1922185809
 21
3.6229646306
  0
LINE
  5
55A
100
AcDbEntity
  8
LAY0001
100
AcDbLine
 62
7
  6
CONTINUOUS
 10
-24.189131512
 20
3.6192856051
 11
-24.1900570637
 21
3.618508975
  0
LINE
  5
55B
100
AcDbEntity
  8
LAY0001
100
AcDbLine
 62
7
  6
CONTINUOUS
 10
-24.2260425747
 20
3.5881823724
 11
-24.2254762406
 21
3.588657583
  0
LINE
  5
55C
100
AcDbEntity
  8
LAY0001
100
AcDbLine
 62
7
  6
CONTINUOUS
 10
-24.1869282193
 20
3.6127751929
 11
-24.1840281571
 21
3.6152086339
  0
LINE
  5
55D
100
AcDbEntity
  8
LAY0001
100
AcDbLine
 62
7
  6
CONTINUOUS
 10
-24.1813730124
 20
3.6111671811
 11
-24.1838411503
 21
3.6090961674
  0
LINE
  5
55E
100
AcDbEntity
  8
LAY0001
100
AcDbLine
 62
7
  6
CONTINUOUS
 10
-24.1690646159
 20
3.5922380433
 11
-24.1665347745
 21
3.5943608323
  0
LINE
  5
55F
100
AcDbEntity
  8
LAY0001
100
AcDbLine
 62
7
  6
CONTINUOUS
 10
-24.2025157745
 20
3.561294365
 11
-24.2010055502
 21
3.5625615936
  0
LINE
  5
560
100
AcDbEntity
  8
LAY0001
100
AcDbLine
 62
7
  6
CONTINUOUS
 10
-24.2043091659
 20
3.5597895309
 11
-24.2030821085
 21
3.5608191543
  0
LINE
  5
561
100
AcDbEntity
  8
LAY0001
100
AcDbLine
 62
7
  6
CONTINUOUS
 10
-24.1634477056
 20
3.5906818068
 11
-24.1663477677
 21
3.5882483658
  0
LINE
  5
562
100
AcDbEntity
  8
LAY0001
100
AcDbLine
 62
7
  6
CONTINUOUS
 10
-24.1951406501
 20
3.5567222193
 11
-24.1995769339
 21
3.5529997352
  0
LINE
  5
563
100
AcDbEntity
  8
LAY0001
100
AcDbLine
 62
7
  6
CONTINUOUS
 10
-24.1622316679
 20
3.5833429891
 11
-24.1593316058
 21
3.5857764302
  0
LINE
  5
564
100
AcDbEntity
  8
LAY0001
100
AcDbLine
 62
7
  6
CONTINUOUS
 10
-24.1562445369
 20
3.5820974047
 11
-24.159144599
 21
3.5796639637
  0
LINE
  5
565
100
AcDbEntity
  8
LAY0001
100
AcDbLine
 62
7
  6
CONTINUOUS
 10
-24.1550284993
 20
3.574758587
 11
-24.1547199821
 21
3.5750174637
  0
LINE
  5
566
100
AcDbEntity
  8
LAY0001
100
AcDbLine
 62
7
  6
CONTINUOUS
 10
-24.1464878062
 20
3.5652067385
 11
-24.1438962613
 21
3.5673813028
  0
LINE
  5
567
100
AcDbEntity
  8
LAY0001
100
AcDbLine
 62
7
  6
CONTINUOUS
 10
-24.1408091923
 20
3.5637022774
 11
-24.1434007372
 21
3.561527713
  0
LINE
  5
568
100
AcDbEntity
  8
LAY0001
100
AcDbLine
 62
7
  6
CONTINUOUS
 10
-24.1351685613
 20
3.5517169878
 11
-24.1354770785
 21
3.5514581111
  0
LINE
  5
569
100
AcDbEntity
  8
LAY0001
100
AcDbLine
 62
7
  6
CONTINUOUS
 10
-24.1618598486
 20
3.5111173073
 11
-24.1604440133
 21
3.5123053341
  0
LINE
  5
56A
100
AcDbEntity
  8
LAY0001
100
AcDbLine
 62
7
  6
CONTINUOUS
 10
-24.1551454473
 20
3.505990749
 11
-24.1565612826
 21
3.5048027222
  0
LINE
  5
56B
100
AcDbEntity
  8
LAY0001
100
AcDbLine
 62
7
  6
CONTINUOUS
 10
-24.1041345861
 20
3.5192433197
 11
-24.1037643654
 21
3.5195539717
  0
LINE
  5
56C
100
AcDbEntity
  8
LAY0001
100
AcDbLine
 62
7
  6
CONTINUOUS
 10
-24.1283022706
 20
3.4711249432
 11
-24.1268864354
 21
3.47231297
  0
LINE
  5
56D
100
AcDbEntity
  8
LAY0001
100
AcDbLine
 62
7
  6
CONTINUOUS
 10
-24.0912290829
 20
3.4987254033
 11
-24.0886992415
 21
3.5008481923
  0
LINE
  5
56E
100
AcDbEntity
  8
LAY0001
100
AcDbLine
 62
7
  6
CONTINUOUS
 10
-24.0852419519
 20
3.4974798189
 11
-24.088142014
 21
3.4950463779
  0
LINE
  5
56F
100
AcDbEntity
  8
LAY0001
100
AcDbLine
 62
7
  6
CONTINUOUS
 10
-24.1230037046
 20
3.4648103581
 11
-24.1215878694
 21
3.4659983849
  0
LINE
  5
570
100
AcDbEntity
  8
LAY0001
100
AcDbLine
 62
7
  6
CONTINUOUS
 10
-24.0840259143
 20
3.4901410012
 11
-24.0811258521
 21
3.4925744423
  0
LINE
  5
571
100
AcDbEntity
  8
LAY0001
100
AcDbLine
 62
7
  6
CONTINUOUS
 10
-24.0780387832
 20
3.4888954168
 11
-24.0809388453
 21
3.4864619758
  0
LINE
  5
572
100
AcDbEntity
  8
LAY0001
100
AcDbLine
 62
7
  6
CONTINUOUS
 10
-24.0768227692
 20
3.4815566272
 11
-24.076514252
 21
3.4818155039
  0
LINE
  5
573
100
AcDbEntity
  8
LAY0001
100
AcDbLine
 62
7
  6
CONTINUOUS
 10
-24.0682820525
 20
3.4720047506
 11
-24.0656905076
 21
3.4741793149
  0
LINE
  5
574
100
AcDbEntity
  8
LAY0001
100
AcDbLine
 62
7
  6
CONTINUOUS
 10
-24.0626034387
 20
3.4705002895
 11
-24.0651949836
 21
3.4683257251
  0
LINE
  5
575
100
AcDbEntity
  8
LAY0001
100
AcDbLine
 62
7
  6
CONTINUOUS
 10
-24.0959173311
 20
3.4373223311
 11
-24.0992209468
 21
3.4345502684
  0
LINE
  5
576
100
AcDbEntity
  8
LAY0001
100
AcDbLine
 62
7
  6
CONTINUOUS
 10
-24.090052431
 20
3.4314829567
 11
-24.0944887149
 21
3.4277604726
  0
LINE
  5
577
100
AcDbEntity
  8
LAY0001
100
AcDbLine
 62
7
  6
CONTINUOUS
 10
-24.0569628076
 20
3.4585149999
 11
-24.0572713249
 21
3.4582561232
  0
LINE
  5
578
100
AcDbEntity
  8
LAY0001
100
AcDbLine
 62
7
  6
CONTINUOUS
 10
-24.0531552369
 20
3.4533507606
 11
-24.0502551748
 21
3.4557842016
  0
LINE
  5
579
100
AcDbEntity
  8
LAY0001
100
AcDbLine
 62
7
  6
CONTINUOUS
 10
-24.0874239669
 20
3.4193410339
 11
-24.0868576329
 21
3.4198162446
  0
LINE
  5
57A
100
AcDbEntity
  8
LAY0001
100
AcDbLine
 62
7
  6
CONTINUOUS
 10
-24.0835540172
 20
3.4225883073
 11
-24.0829876831
 21
3.423063518
  0
LINE
  5
57B
100
AcDbEntity
  8
LAY0001
100
AcDbLine
 62
7
  6
CONTINUOUS
 10
-24.04760003
 20
3.4517427488
 11
-24.050068168
 21
3.4496717351
  0
LINE
  5
57C
100
AcDbEntity
  8
LAY0001
100
AcDbLine
 62
7
  6
CONTINUOUS
 10
-24.0820981915
 20
3.4166361365
 11
-24.0815318574
 21
3.4171113472
  0
LINE
  5
57D
100
AcDbEntity
  8
LAY0001
100
AcDbLine
 62
7
  6
CONTINUOUS
 10
-24.0581497068
 20
3.4330251122
 11
-24.046120053
 21
3.4431191903
  0
LINE
  5
57E
100
AcDbEntity
  8
LAY0001
100
AcDbLine
 62
7
  6
CONTINUOUS
 10
-24.0352916218
 20
3.4328135969
 11
-24.0327617803
 21
3.434936386
  0
LINE
  5
57F
100
AcDbEntity
  8
LAY0001
100
AcDbLine
 62
7
  6
CONTINUOUS
 10
-24.0296747114
 20
3.4312573605
 11
-24.0325747735
 21
3.4288239194
  0
LINE
  5
580
100
AcDbEntity
  8
LAY0001
100
AcDbLine
 62
7
  6
CONTINUOUS
 10
-24.0284586856
 20
3.4239185568
 11
-24.0280884649
 21
3.4242292088
  0
LINE
  5
581
100
AcDbEntity
  8
LAY0001
100
AcDbLine
 62
7
  6
CONTINUOUS
 10
-24.0259288442
 20
3.4260413458
 11
-24.0255586235
 21
3.4263519979
  0
LINE
  5
582
100
AcDbEntity
  8
LAY0001
100
AcDbLine
 62
7
  6
CONTINUOUS
 10
-24.0252282701
 20
3.4224496
 11
-24.0248580495
 21
3.422760252
  0
LINE
  5
583
100
AcDbEntity
  8
LAY0001
100
AcDbLine
 62
7
  6
CONTINUOUS
 10
-24.0585714014
 20
3.3897481412
 11
-24.0570611771
 21
3.3910153699
  0
LINE
  5
584
100
AcDbEntity
  8
LAY0001
100
AcDbLine
 62
7
  6
CONTINUOUS
 10
-24.0603647928
 20
3.3882433072
 11
-24.0591377354
 21
3.3892729305
  0
LINE
  5
585
100
AcDbEntity
  8
LAY0001
100
AcDbLine
 62
7
  6
CONTINUOUS
 10
-24.051196277
 20
3.3851759955
 11
-24.0556325608
 21
3.3814535114
  0
LINE
  5
586
100
AcDbEntity
  8
LAY0001
100
AcDbLine
 62
7
  6
CONTINUOUS
 10
-24.0114807548
 20
3.406817813
 11
-24.0104934996
 21
3.4076462185
  0
LINE
  5
587
100
AcDbEntity
  8
LAY0001
100
AcDbLine
 62
7
  6
CONTINUOUS
 10
-24.0126531204
 20
3.4058340815
 11
-24.0118509754
 21
3.406507161
  0
LINE
  5
588
100
AcDbEntity
  8
LAY0001
100
AcDbLine
 62
7
  6
CONTINUOUS
 10
-24.0485678129
 20
3.3730340727
 11
-24.0480958678
 21
3.3734300816
  0
LINE
  5
589
100
AcDbEntity
  8
LAY0001
100
AcDbLine
 62
7
  6
CONTINUOUS
 10
-24.00703621
 20
3.4042778451
 11
-24.0099362721
 21
3.401844404
  0
LINE
  5
58A
100
AcDbEntity
  8
LAY0001
100
AcDbLine
 62
7
  6
CONTINUOUS
 10
-24.0096929816
 20
3.399707097
 11
-24.0153238833
 21
3.3949822094
  0
LINE
  5
58B
100
AcDbEntity
  8
LAY0001
100
AcDbLine
 62
7
  6
CONTINUOUS
 10
-24.0168595837
 20
3.3936936038
 11
-24.0217226354
 21
3.3896130189
  0
LINE
  5
58C
100
AcDbEntity
  8
LAY0001
100
AcDbLine
 62
7
  6
CONTINUOUS
 10
-24.0339663517
 20
3.35659118
 11
-24.0300020129
 21
3.3599176552
  0
LINE
  5
58D
100
AcDbEntity
  8
LAY0001
100
AcDbLine
 62
7
  6
CONTINUOUS
 10
-24.0247034469
 20
3.3536030702
 11
-24.0286677857
 21
3.3502765949
  0
LINE
  5
58E
100
AcDbEntity
  8
LAY0001
100
AcDbLine
 62
7
  6
CONTINUOUS
 10
-24.0145382798
 20
3.3334377054
 11
-24.0150102248
 21
3.3330416965
  0
LINE
  5
58F
100
AcDbEntity
  8
LAY0001
100
AcDbLine
 62
7
  6
CONTINUOUS
 10
-24.0045474621
 20
3.3274735102
 11
-24.0050194072
 21
3.3270775013
  0
LINE
  5
590
100
AcDbEntity
  8
LAY0001
100
AcDbLine
 62
7
  6
CONTINUOUS
 10
-23.9996264521
 20
3.320842118
 11
-23.9993432851
 21
3.3210797233
  0
LINE
  5
591
100
AcDbEntity
  8
LAY0001
100
AcDbLine
 62
7
  6
CONTINUOUS
 10
-23.9564270756
 20
3.3380746269
 11
-23.956056855
 21
3.3383852789
  0
LINE
  5
592
100
AcDbEntity
  8
LAY0001
100
AcDbLine
 62
7
  6
CONTINUOUS
 10
-23.9538972342
 20
3.3401974159
 11
-23.9535270135
 21
3.3405080679
  0
LINE
  5
593
100
AcDbEntity
  8
LAY0001
100
AcDbLine
 62
7
  6
CONTINUOUS
 10
-23.9531966602
 20
3.3366056701
 11
-23.9528264395
 21
3.3369163221
  0
LINE
  5
594
100
AcDbEntity
  8
LAY0001
100
AcDbLine
 62
7
  6
CONTINUOUS
 10
-23.9818973824
 20
3.2962630113
 11
-23.9820861604
 21
3.2961046077
  0
LINE
  5
595
100
AcDbEntity
  8
LAY0001
100
AcDbLine
 62
7
  6
CONTINUOUS
 10
-23.9768819837
 20
3.2897108206
 11
-23.9765044274
 21
3.290027628
  0
LINE
  5
596
100
AcDbEntity
  8
LAY0001
100
AcDbLine
 62
7
  6
CONTINUOUS
 10
-23.9394491448
 20
3.3209738831
 11
-23.9384618896
 21
3.3218022885
  0
LINE
  5
597
100
AcDbEntity
  8
LAY0001
100
AcDbLine
 62
7
  6
CONTINUOUS
 10
-23.9406215104
 20
3.3199901515
 11
-23.9398193655
 21
3.320663231
  0
LINE
  5
598
100
AcDbEntity
  8
LAY0001
100
AcDbLine
 62
7
  6
CONTINUOUS
 10
-23.9350046
 20
3.3184339151
 11
-23.9379046621
 21
3.3160004741
  0
LINE
  5
599
100
AcDbEntity
  8
LAY0001
100
AcDbLine
 62
7
  6
CONTINUOUS
 10
-23.9337885683
 20
3.3110951044
 11
-23.9308885062
 21
3.3135285455
  0
LINE
  5
59A
100
AcDbEntity
  8
LAY0001
100
AcDbLine
 62
7
  6
CONTINUOUS
 10
-23.9682062268
 20
3.2772628637
 11
-23.9676398927
 21
3.2777380744
  0
LINE
  5
59B
100
AcDbEntity
  8
LAY0001
100
AcDbLine
 62
7
  6
CONTINUOUS
 10
-23.964336277
 20
3.2805101371
 11
-23.9637699429
 21
3.2809853479
  0
LINE
  5
59C
100
AcDbEntity
  8
LAY0001
100
AcDbLine
 62
7
  6
CONTINUOUS
 10
-23.9278014373
 20
3.30984952
 11
-23.930084465
 21
3.3079338323
  0
LINE
  5
59D
100
AcDbEntity
  8
LAY0001
100
AcDbLine
 62
7
  6
CONTINUOUS
 10
-23.9628804564
 20
3.2745579724
 11
-23.9623141223
 21
3.2750331831
  0
LINE
  5
59E
100
AcDbEntity
  8
0
100
AcDbLine
 62
7
  6
CONTINUOUS
 10
-17.6157333018
 20
8.5095303083
 11
-17.6151236013
 21
8.5098822903
  0
LINE
  5
59F
100
AcDbEntity
  8
0
100
AcDbLine
 62
7
  6
CONTINUOUS
 10
-25.2284113571
 20
5.4177049766
 11
-25.2954405425
 21
5.3864487541
  0
LINE
  5
5A0
100
AcDbEntity
  8
0
100
AcDbLine
 62
7
  6
CONTINUOUS
 10
-25.2107465487
 20
5.3607820987
 11
-25.2703087063
 21
5.3330078085
  0
LINE
  5
5A1
100
AcDbEntity
  8
0
100
AcDbLine
 62
7
  6
CONTINUOUS
 10
-18.1969343432
 20
-0.8582929322
 11
-17.4743365187
 21
-0.803072636
  0
LINE
  5
5A2
100
AcDbEntity
  8
0
100
AcDbLine
 62
7
  6
CONTINUOUS
 10
-18.3870384891
 20
-0.8736756663
 11
-20.1370384891
 21
-0.8736756663
  0
LINE
  5
5A3
100
AcDbEntity
  8
0
100
AcDbLine
 62
7
  6
CONTINUOUS
 10
-18.3870384891
 20
-0.8697386584
 11
-20.1370384891
 21
-0.8697386584
  0
LINE
  5
5A4
100
AcDbEntity
  8
0
100
AcDbLine
 62
7
  6
CONTINUOUS
 10
-21.0493625067
 20
-0.803072636
 11
-20.3267646823
 21
-0.8582929322
  0
LINE
  5
5A5
100
AcDbEntity
  8
03___PRT_ALL_CURVES
100
AcDbLine
 62
4
  6
CONTINUOUS
 10
-21.5614466824
 20
1.5906092237
 11
-21.5635164764
 21
1.5914408977
  0
LINE
  5
5A6
100
AcDbEntity
  8
03___PRT_ALL_CURVES
100
AcDbLine
 62
4
  6
CONTINUOUS
 10
-21.5691583305
 20
1.5993355885
 11
-21.5712281273
 21
1.6001672642
  0
LINE
  5
5A7
100
AcDbEntity
  8
03___PRT_ALL_CURVES
100
AcDbLine
 62
4
  6
CONTINUOUS
 10
-21.6045120418
 20
1.6220178269
 11
-21.6024422477
 21
1.6211861529
  0
LINE
  5
5A8
100
AcDbEntity
  8
03___PRT_ALL_CURVES
100
AcDbLine
 62
4
  6
CONTINUOUS
 10
-21.7385077428
 20
1.6924721525
 11
-21.7364379323
 21
1.691640469
  0
LINE
  5
5A9
100
AcDbEntity
  8
03___PRT_ALL_CURVES
100
AcDbLine
 62
4
  6
CONTINUOUS
 10
-21.9517754675
 20
1.8133315671
 11
-21.953845278
 21
1.8141632506
  0
LINE
  5
5AA
100
AcDbEntity
  8
03___PRT_ALL_CURVES
100
AcDbLine
 62
4
  6
CONTINUOUS
 10
-21.5578183889
 20
1.5880602748
 11
-21.5557879256
 21
1.5871604779
  0
LINE
  5
5AB
100
AcDbEntity
  8
03___PRT_ALL_CURVES
100
AcDbLine
 62
4
  6
CONTINUOUS
 10
-21.5748564179
 20
1.6027162116
 11
-21.5768868813
 21
1.6036160084
  0
LINE
  5
5AC
100
AcDbEntity
  8
03___PRT_ALL_CURVES
100
AcDbLine
 62
4
  6
CONTINUOUS
 10
-21.5988139543
 20
1.618637204
 11
-21.596783491
 21
1.6177374071
  0
LINE
  5
5AD
100
AcDbEntity
  8
03___PRT_ALL_CURVES
100
AcDbLine
 62
4
  6
CONTINUOUS
 10
-21.7328096553
 20
1.6890915296
 11
-21.7307791756
 21
1.6881917232
  0
LINE
  5
5AE
100
AcDbEntity
  8
03___PRT_ALL_CURVES
100
AcDbLine
 62
4
  6
CONTINUOUS
 10
-21.9595040347
 20
1.8176119964
 11
-21.9574735549
 21
1.8167121902
  0
LINE
  5
5AF
100
AcDbEntity
  8
03___PRT_ALL_CURVES
100
AcDbLine
 62
4
  6
CONTINUOUS
 10
-21.788633027
 20
1.7293192632
 11
-21.8058329769
 21
1.737069726
  0
LINE
  5
5B0
100
AcDbEntity
  8
03___PRT_ALL_CURVES
100
AcDbLine
 62
4
  6
CONTINUOUS
 10
-21.8088590092
 20
1.7384534844
 11
-21.8229936179
 21
1.7448883242
  0
LINE
  5
5B1
100
AcDbEntity
  8
03___PRT_ALL_CURVES
100
AcDbLine
 62
4
  6
CONTINUOUS
 10
-21.8085050322
 20
1.7390665904
 11
-21.7943704453
 21
1.7326317632
  0
LINE
  5
5B2
100
AcDbEntity
  8
03___PRT_ALL_CURVES
100
AcDbLine
 62
4
  6
CONTINUOUS
 10
-21.8287310362
 20
1.7482008242
 11
-21.8115703952
 21
1.740382226
  0
LINE
  5
5B3
100
AcDbEntity
  8
03___PRT_ALL_CURVES
100
AcDbLine
 62
4
  6
CONTINUOUS
 10
-21.6452246062
 20
1.6442516094
 11
-21.6482506385
 21
1.6456353678
  0
LINE
  5
5B4
100
AcDbEntity
  8
03___PRT_ALL_CURVES
100
AcDbLine
 62
4
  6
CONTINUOUS
 10
-21.7792203018
 20
1.7147059318
 11
-21.782246334
 21
1.7160896902
  0
LINE
  5
5B5
100
AcDbEntity
  8
03___PRT_ALL_CURVES
100
AcDbLine
 62
4
  6
CONTINUOUS
 10
-21.5370835381
 20
1.5731824258
 11
-21.5331012694
 21
1.571246584
  0
LINE
  5
5B6
100
AcDbEntity
  8
03___PRT_ALL_CURVES
100
AcDbLine
 62
4
  6
CONTINUOUS
 10
-21.5574644119
 20
1.588673381
 11
-21.5614466824
 21
1.5906092237
  0
LINE
  5
5B7
100
AcDbEntity
  8
03___PRT_ALL_CURVES
100
AcDbLine
 62
4
  6
CONTINUOUS
 10
-21.5712281273
 20
1.6001672642
 11
-21.575210395
 21
1.6021031054
  0
LINE
  5
5B8
100
AcDbEntity
  8
03___PRT_ALL_CURVES
100
AcDbLine
 62
4
  6
CONTINUOUS
 10
-21.6024422477
 20
1.6211861529
 11
-21.5984599773
 21
1.6192503101
  0
LINE
  5
5B9
100
AcDbEntity
  8
03___PRT_ALL_CURVES
100
AcDbLine
 62
4
  6
CONTINUOUS
 10
-21.640561413
 20
1.6412868219
 11
-21.6425525509
 21
1.6422547449
  0
LINE
  5
5BA
100
AcDbEntity
  8
03___PRT_ALL_CURVES
100
AcDbLine
 62
4
  6
CONTINUOUS
 10
-21.7364379323
 20
1.691640469
 11
-21.7324556783
 21
1.6897046357
  0
LINE
  5
5BB
100
AcDbEntity
  8
03___PRT_ALL_CURVES
100
AcDbLine
 62
4
  6
CONTINUOUS
 10
-21.7745570976
 20
1.711741138
 11
-21.7765482465
 21
1.7127090673
  0
LINE
  5
5BC
100
AcDbEntity
  8
03___PRT_ALL_CURVES
100
AcDbLine
 62
4
  6
CONTINUOUS
 10
-21.953845278
 20
1.8141632506
 11
-21.957827532
 21
1.8160990839
  0
LINE
  5
5BD
100
AcDbEntity
  8
03___PRT_ALL_CURVES
100
AcDbLine
 62
4
  6
CONTINUOUS
 10
-21.9860156503
 20
1.8357342316
 11
-21.9820333524
 21
1.8337983731
  0
LINE
  5
5BE
100
AcDbEntity
  8
03___PRT_ALL_CURVES
100
AcDbLine
 62
4
  6
CONTINUOUS
 10
-21.5387600258
 20
1.5746953296
 11
-21.5417073972
 21
1.5762153342
  0
LINE
  5
5BF
100
AcDbEntity
  8
03___PRT_ALL_CURVES
100
AcDbLine
 62
4
  6
CONTINUOUS
 10
-21.5557879256
 20
1.5871604779
 11
-21.5528405549
 21
1.5856404737
  0
LINE
  5
5C0
100
AcDbEntity
  8
03___PRT_ALL_CURVES
100
AcDbLine
 62
4
  6
CONTINUOUS
 10
-21.5768868813
 20
1.6036160084
 11
-21.579834252
 21
1.6051360126
  0
LINE
  5
5C1
100
AcDbEntity
  8
03___PRT_ALL_CURVES
100
AcDbLine
 62
4
  6
CONTINUOUS
 10
-21.596783491
 20
1.6177374071
 11
-21.5938361203
 21
1.6162174029
  0
LINE
  5
5C2
100
AcDbEntity
  8
03___PRT_ALL_CURVES
100
AcDbLine
 62
4
  6
CONTINUOUS
 10
-21.7307791756
 20
1.6881917232
 11
-21.7278318049
 21
1.686671719
  0
LINE
  5
5C3
100
AcDbEntity
  8
03___PRT_ALL_CURVES
100
AcDbLine
 62
4
  6
CONTINUOUS
 10
-21.9624514054
 20
1.8191320006
 11
-21.9595040347
 21
1.8176119964
  0
LINE
  5
5C4
100
AcDbEntity
  8
03___PRT_ALL_CURVES
100
AcDbLine
 62
4
  6
CONTINUOUS
 10
-21.9774095228
 20
1.8307654816
 11
-21.9803568935
 21
1.8322854858
  0
LINE
  5
5C5
100
AcDbEntity
  8
03___PRT_ALL_CURVES
100
AcDbLine
 62
4
  6
CONTINUOUS
 10
-21.540987145
 20
1.5752545132
 11
-21.5370835381
 21
1.5731824258
  0
LINE
  5
5C6
100
AcDbEntity
  8
03___PRT_ALL_CURVES
100
AcDbLine
 62
4
  6
CONTINUOUS
 10
-21.5535608057
 20
1.586601294
 11
-21.5574644119
 21
1.588673381
  0
LINE
  5
5C7
100
AcDbEntity
  8
03___PRT_ALL_CURVES
100
AcDbLine
 62
4
  6
CONTINUOUS
 10
-21.575210395
 20
1.6021031054
 11
-21.5791140039
 21
1.604175194
  0
LINE
  5
5C8
100
AcDbEntity
  8
03___PRT_ALL_CURVES
100
AcDbLine
 62
4
  6
CONTINUOUS
 10
-21.7324556783
 20
1.6897046357
 11
-21.7285520639
 21
1.687632544
  0
LINE
  5
5C9
100
AcDbEntity
  8
03___PRT_ALL_CURVES
100
AcDbLine
 62
4
  6
CONTINUOUS
 10
-21.7753166874
 20
1.71263384
 11
-21.7792203018
 21
1.7147059318
  0
LINE
  5
5CA
100
AcDbEntity
  8
03___PRT_ALL_CURVES
100
AcDbLine
 62
4
  6
CONTINUOUS
 10
-21.5984599773
 20
1.6192503101
 11
-21.5945563738
 21
1.6171782247
  0
LINE
  5
5CB
100
AcDbEntity
  8
03___PRT_ALL_CURVES
100
AcDbLine
 62
4
  6
CONTINUOUS
 10
-21.6413209919
 20
1.6421795176
 11
-21.6452246062
 21
1.6442516094
  0
LINE
  5
5CC
100
AcDbEntity
  8
03___PRT_ALL_CURVES
100
AcDbLine
 62
4
  6
CONTINUOUS
 10
-21.957827532
 20
1.8160990839
 11
-21.9617311683
 21
1.8181711883
  0
LINE
  5
5CD
100
AcDbEntity
  8
03___PRT_ALL_CURVES
100
AcDbLine
 62
4
  6
CONTINUOUS
 10
-21.9820333524
 20
1.8337983731
 11
-21.9781297599
 21
1.831726294
  0
LINE
  5
5CE
100
AcDbEntity
  8
LAY0001
100
AcDbLine
 62
7
  6
CONTINUOUS
 10
-23.8864952793
 20
3.2567381279
 11
-23.8872566056
 21
3.2571441986
  0
LINE
  5
5CF
100
AcDbEntity
  8
LAY0001
100
AcDbLine
 62
7
  6
CONTINUOUS
 10
-23.8999760502
 20
3.2746835447
 11
-23.899214724
 21
3.274277474
  0
LINE
  5
5D0
100
AcDbEntity
  8
LAY0001
100
AcDbLine
 62
7
  6
CONTINUOUS
 10
-24.1939054501
 20
3.6225940607
 11
-24.1931441327
 21
3.6221880005
  0
LINE
  5
5D1
100
AcDbEntity
  8
LAY0001
100
AcDbLine
 62
7
  6
CONTINUOUS
 10
-24.2088889428
 20
3.6434581474
 11
-24.2081276018
 21
3.6430520591
  0
LINE
  5
5D2
100
AcDbEntity
  8
03___PRT_ALL_CURVES
100
AcDbLine
 62
4
  6
CONTINUOUS
 10
-21.5417073972
 20
1.5762153342
 11
-21.5446154371
 21
1.5778034613
  0
LINE
  5
5D3
100
AcDbEntity
  8
03___PRT_ALL_CURVES
100
AcDbLine
 62
4
  6
CONTINUOUS
 10
-21.7716490577
 20
1.7101530109
 11
-21.7745570976
 21
1.711741138
  0
LINE
  5
5D4
100
AcDbEntity
  8
03___PRT_ALL_CURVES
100
AcDbLine
 62
4
  6
CONTINUOUS
 10
-21.6376533731
 20
1.6396986948
 11
-21.640561413
 21
1.6412868219
  0
LINE
  5
5D5
100
AcDbEntity
  8
03___PRT_ALL_CURVES
100
AcDbLine
 62
4
  6
CONTINUOUS
 10
-21.5448514218
 20
1.5773947239
 11
-21.540987145
 21
1.5752545132
  0
LINE
  5
5D6
100
AcDbEntity
  8
03___PRT_ALL_CURVES
100
AcDbLine
 62
4
  6
CONTINUOUS
 10
-21.5528405549
 20
1.5856404737
 11
-21.5489762782
 21
1.583500263
  0
LINE
  5
5D7
100
AcDbEntity
  8
03___PRT_ALL_CURVES
100
AcDbLine
 62
4
  6
CONTINUOUS
 10
-21.7278318049
 20
1.686671719
 11
-21.7239675432
 21
1.684531517
  0
LINE
  5
5D8
100
AcDbEntity
  8
03___PRT_ALL_CURVES
100
AcDbLine
 62
4
  6
CONTINUOUS
 10
-21.579834252
 20
1.6051360126
 11
-21.5836985301
 21
1.6072762241
  0
LINE
  5
5D9
100
AcDbEntity
  8
03___PRT_ALL_CURVES
100
AcDbLine
 62
4
  6
CONTINUOUS
 10
-21.9663156671
 20
1.8212722026
 11
-21.9624514054
 21
1.8191320006
  0
LINE
  5
5DA
100
AcDbEntity
  8
03___PRT_ALL_CURVES
100
AcDbLine
 62
4
  6
CONTINUOUS
 10
-21.5938361203
 20
1.6162174029
 11
-21.5899718421
 21
1.6140771914
  0
LINE
  5
5DB
100
AcDbEntity
  8
03___PRT_ALL_CURVES
100
AcDbLine
 62
4
  6
CONTINUOUS
 10
-21.9735452173
 20
1.8286252544
 11
-21.9774095228
 21
1.8307654816
  0
LINE
  5
5DC
100
AcDbEntity
  8
03___PRT_ALL_CURVES
100
AcDbLine
 62
4
  6
CONTINUOUS
 10
-21.5487402935
 20
1.5839090005
 11
-21.5535608057
 21
1.586601294
  0
LINE
  5
5DD
100
AcDbEntity
  8
03___PRT_ALL_CURVES
100
AcDbLine
 62
4
  6
CONTINUOUS
 10
-21.7285520639
 20
1.687632544
 11
-21.7237315585
 21
1.6849402544
  0
LINE
  5
5DE
100
AcDbEntity
  8
03___PRT_ALL_CURVES
100
AcDbLine
 62
4
  6
CONTINUOUS
 10
-21.5791140039
 20
1.604175194
 11
-21.5839345148
 21
1.6068674867
  0
LINE
  5
5DF
100
AcDbEntity
  8
03___PRT_ALL_CURVES
100
AcDbLine
 62
4
  6
CONTINUOUS
 10
-21.9617311683
 20
1.8181711883
 11
-21.9665516518
 21
1.8208634652
  0
LINE
  5
5E0
100
AcDbEntity
  8
03___PRT_ALL_CURVES
100
AcDbLine
 62
4
  6
CONTINUOUS
 10
-21.5945563738
 20
1.6171782247
 11
-21.5897358575
 21
1.6144859288
  0
LINE
  5
5E1
100
AcDbEntity
  8
03___PRT_ALL_CURVES
100
AcDbLine
 62
4
  6
CONTINUOUS
 10
-21.9781297599
 20
1.831726294
 11
-21.9733092327
 21
1.8290339918
  0
LINE
  5
5E2
100
AcDbEntity
  8
0
100
AcDbLine
 62
3
  6
CONTINUOUS
 10
-21.4565049849
 20
1.5025622218
 11
-23.485186541
 21
2.6738220643
  0
LINE
  5
5E3
100
AcDbEntity
  8
0
100
AcDbLine
 62
7
  6
CONTINUOUS
 10
-22.0350952357
 20
1.8429341958
 11
-21.4938293583
 21
1.5304341958
  0
LINE
  5
5E4
100
AcDbEntity
  8
03___PRT_ALL_CURVES
100
AcDbLine
 62
4
  6
CONTINUOUS
 10
-21.7714794514
 20
1.7082384779
 11
-21.7485297782
 21
1.6949884779
  0
LINE
  5
5E5
100
AcDbEntity
  8
03___PRT_ALL_CURVES
100
AcDbLine
 62
4
  6
CONTINUOUS
 10
-21.5496326032
 20
1.5801551403
 11
-21.5448514218
 21
1.5773947239
  0
LINE
  5
5E6
100
AcDbEntity
  8
03___PRT_ALL_CURVES
100
AcDbLine
 62
4
  6
CONTINUOUS
 10
-21.5725822764
 20
1.5934051403
 11
-21.6070067862
 21
1.6132801403
  0
LINE
  5
5E7
100
AcDbEntity
  8
03___PRT_ALL_CURVES
100
AcDbLine
 62
4
  6
CONTINUOUS
 10
-21.6146566755
 20
1.6176968059
 11
-21.6490811907
 21
1.6375718091
  0
LINE
  5
5E8
100
AcDbEntity
  8
03___PRT_ALL_CURVES
100
AcDbLine
 62
4
  6
CONTINUOUS
 10
-21.7026304209
 20
1.6684884715
 11
-21.725580105
 21
1.6817384779
  0
LINE
  5
5E9
100
AcDbEntity
  8
03___PRT_ALL_CURVES
100
AcDbLine
 62
4
  6
CONTINUOUS
 10
-21.8078164267
 20
1.7292176403
 11
-21.8154663105
 21
1.7336343028
  0
LINE
  5
5EA
100
AcDbEntity
  8
03___PRT_ALL_CURVES
100
AcDbLine
 62
4
  6
CONTINUOUS
 10
-21.8384159837
 20
1.7468843028
 11
-21.844153402
 21
1.7501968028
  0
LINE
  5
5EB
100
AcDbEntity
  8
03___PRT_ALL_CURVES
100
AcDbLine
 62
4
  6
CONTINUOUS
 10
-21.8575407259
 20
1.7579259779
 11
-21.8651906097
 21
1.7623426403
  0
LINE
  5
5EC
100
AcDbEntity
  8
03___PRT_ALL_CURVES
100
AcDbLine
 62
4
  6
CONTINUOUS
 10
-21.8785779118
 20
1.7700718028
 11
-21.8843153301
 21
1.7733843028
  0
LINE
  5
5ED
100
AcDbEntity
  8
03___PRT_ALL_CURVES
100
AcDbLine
 62
4
  6
CONTINUOUS
 10
-21.8919652357
 20
1.7778009779
 11
-21.8977026322
 21
1.7811134652
  0
LINE
  5
5EE
100
AcDbEntity
  8
03___PRT_ALL_CURVES
100
AcDbLine
 62
4
  6
CONTINUOUS
 10
-21.9053525378
 20
1.7855301403
 11
-21.9139586653
 21
1.7904988903
  0
LINE
  5
5EF
100
AcDbEntity
  8
03___PRT_ALL_CURVES
100
AcDbLine
 62
4
  6
CONTINUOUS
 10
-21.9378645603
 20
1.8043009652
 11
-21.9436019786
 21
1.8076134652
  0
LINE
  5
5F0
100
AcDbEntity
  8
03___PRT_ALL_CURVES
100
AcDbLine
 62
4
  6
CONTINUOUS
 10
-21.9665516518
 20
1.8208634652
 11
-21.9751577792
 21
1.8258322152
  0
LINE
  5
5F1
100
AcDbEntity
  8
03___PRT_ALL_CURVES
100
AcDbLine
 62
4
  6
CONTINUOUS
 10
-21.7722390194
 20
1.7091311673
 11
-21.7540705427
 21
1.6986415924
  0
LINE
  5
5F2
100
AcDbEntity
  8
03___PRT_ALL_CURVES
100
AcDbLine
 62
4
  6
CONTINUOUS
 10
-21.9749217946
 20
1.8262409526
 11
-21.9663156671
 21
1.8212722026
  0
LINE
  5
5F3
100
AcDbEntity
  8
03___PRT_ALL_CURVES
100
AcDbLine
 62
4
  6
CONTINUOUS
 10
-21.6488452061
 20
1.6379805465
 11
-21.6201581091
 21
1.6214180433
  0
LINE
  5
5F4
100
AcDbEntity
  8
03___PRT_ALL_CURVES
100
AcDbLine
 62
4
  6
CONTINUOUS
 10
-21.6067708016
 20
1.6136888777
 11
-21.5780837101
 21
1.5971263777
  0
LINE
  5
5F5
100
AcDbEntity
  8
03___PRT_ALL_CURVES
100
AcDbLine
 62
4
  6
CONTINUOUS
 10
-21.5446154371
 20
1.5778034613
 11
-21.5503528554
 21
1.5811159613
  0
LINE
  5
5F6
100
AcDbEntity
  8
03___PRT_ALL_CURVES
100
AcDbLine
 62
4
  6
CONTINUOUS
 10
-21.7081318546
 20
1.6722097089
 11
-21.7253441204
 21
1.6821472152
  0
LINE
  5
5F7
100
AcDbEntity
  8
03___PRT_ALL_CURVES
100
AcDbLine
 62
4
  6
CONTINUOUS
 10
-21.5558936185
 20
1.584769075
 11
-21.5616310368
 21
1.588081575
  0
LINE
  5
5F8
100
AcDbEntity
  8
03___PRT_ALL_CURVES
100
AcDbLine
 62
4
  6
CONTINUOUS
 10
-21.9880731338
 20
1.8343788653
 11
-21.9823357155
 21
1.8310663653
  0
LINE
  5
5F9
100
AcDbEntity
  8
03___PRT_ALL_CURVES
100
AcDbLine
 62
4
  6
CONTINUOUS
 10
-21.5775724099
 20
1.5980119756
 11
-21.6024345541
 21
1.6123661412
  0
LINE
  5
5FA
100
AcDbEntity
  8
03___PRT_ALL_CURVES
100
AcDbLine
 62
4
  6
CONTINUOUS
 10
-21.619646809
 20
1.6223036412
 11
-21.6445089531
 21
1.6366578068
  0
LINE
  5
5FB
100
AcDbEntity
  8
03___PRT_ALL_CURVES
100
AcDbLine
 62
4
  6
CONTINUOUS
 10
-21.5498022245
 20
1.5820696821
 11
-21.5440648062
 21
1.5787571821
  0
LINE
  5
5FC
100
AcDbEntity
  8
03___PRT_ALL_CURVES
100
AcDbLine
 62
4
  6
CONTINUOUS
 10
-21.753480581
 20
1.699663436
 11
-21.7716490577
 21
1.7101530109
  0
LINE
  5
5FD
100
AcDbEntity
  8
03___PRT_ALL_CURVES
100
AcDbLine
 62
4
  6
CONTINUOUS
 10
-21.9733756111
 20
1.8267107214
 11
-21.9877191568
 21
1.8349919714
  0
LINE
  5
5FE
100
AcDbEntity
  8
03___PRT_ALL_CURVES
100
AcDbLine
 62
4
  6
CONTINUOUS
 10
-21.6442729685
 20
1.6370665442
 11
-21.6194108243
 21
1.6227123786
  0
LINE
  5
5FF
100
AcDbEntity
  8
03___PRT_ALL_CURVES
100
AcDbLine
 62
4
  6
CONTINUOUS
 10
-21.6021985694
 20
1.6127748786
 11
-21.5773364253
 21
1.5984207129
  0
LINE
  5
600
100
AcDbEntity
  8
03___PRT_ALL_CURVES
100
AcDbLine
 62
4
  6
CONTINUOUS
 10
-21.5438288215
 20
1.5791659194
 11
-21.5495662398
 21
1.5824784194
  0
LINE
  5
601
100
AcDbEntity
  8
03___PRT_ALL_CURVES
100
AcDbLine
 62
4
  6
CONTINUOUS
 10
-21.7532445963
 20
1.7000721734
 11
-21.7695006076
 21
1.7094575858
  0
LINE
  5
602
100
AcDbEntity
  8
03___PRT_ALL_CURVES
100
AcDbLine
 62
4
  6
CONTINUOUS
 10
-21.9817457539
 20
1.8320882087
 11
-21.9731396264
 21
1.8271194587
  0
LINE
  5
603
100
AcDbEntity
  8
03___PRT_ALL_CURVES
100
AcDbLine
 62
4
  6
CONTINUOUS
 10
-21.8190282529
 20
1.738506538
 11
-21.801815998
 21
1.728569038
  0
LINE
  5
604
100
AcDbEntity
  8
03___PRT_ALL_CURVES
100
AcDbLine
 62
4
  6
CONTINUOUS
 10
-21.533951811
 20
1.5741900691
 11
-21.5282143927
 21
1.5708775691
  0
LINE
  5
605
100
AcDbEntity
  8
03___PRT_ALL_CURVES
100
AcDbLine
 62
4
  6
CONTINUOUS
 10
-21.8198271516
 20
1.7393311045
 11
-21.8007024312
 21
1.728289442
  0
LINE
  5
606
100
AcDbEntity
  8
03___PRT_ALL_CURVES
100
AcDbLine
 62
4
  6
CONTINUOUS
 10
-21.7239675432
 20
1.684531517
 11
-21.7067552773
 21
1.6745940107
  0
LINE
  5
607
100
AcDbEntity
  8
03___PRT_ALL_CURVES
100
AcDbLine
 62
4
  6
CONTINUOUS
 10
-21.5489762782
 20
1.583500263
 11
-21.5413263862
 21
1.5790835958
  0
LINE
  5
608
100
AcDbEntity
  8
03___PRT_ALL_CURVES
100
AcDbLine
 62
4
  6
CONTINUOUS
 10
-21.5767071328
 20
1.5995106794
 11
-21.6053942243
 21
1.6160731794
  0
LINE
  5
609
100
AcDbEntity
  8
03___PRT_ALL_CURVES
100
AcDbLine
 62
4
  6
CONTINUOUS
 10
-21.6187815319
 20
1.6238023451
 11
-21.6474686288
 21
1.6403648482
  0
LINE
  5
60A
100
AcDbEntity
  8
03___PRT_ALL_CURVES
100
AcDbLine
 62
4
  6
CONTINUOUS
 10
-21.9649390899
 20
1.8236565044
 11
-21.9735452173
 21
1.8286252544
  0
LINE
  5
60B
100
AcDbEntity
  8
03___PRT_ALL_CURVES
100
AcDbLine
 62
4
  6
CONTINUOUS
 10
-21.9733092327
 20
1.8290339918
 11
-21.9647031052
 21
1.8240652418
  0
LINE
  5
60C
100
AcDbEntity
  8
03___PRT_ALL_CURVES
100
AcDbLine
 62
4
  6
CONTINUOUS
 10
-21.941753432
 20
1.8108152418
 11
-21.9331473046
 21
1.8058464918
  0
LINE
  5
60D
100
AcDbEntity
  8
03___PRT_ALL_CURVES
100
AcDbLine
 62
4
  6
CONTINUOUS
 10
-21.8958540856
 20
1.7843152418
 11
-21.8901166892
 21
1.7810027544
  0
LINE
  5
60E
100
AcDbEntity
  8
03___PRT_ALL_CURVES
100
AcDbLine
 62
4
  6
CONTINUOUS
 10
-21.9092414096
 20
1.7920444169
 11
-21.9035039913
 21
1.7887319169
  0
LINE
  5
60F
100
AcDbEntity
  8
03___PRT_ALL_CURVES
100
AcDbLine
 62
4
  6
CONTINUOUS
 10
-21.8748168998
 20
1.7721694169
 11
-21.867167016
 21
1.7677527544
  0
LINE
  5
610
100
AcDbEntity
  8
03___PRT_ALL_CURVES
100
AcDbLine
 62
4
  6
CONTINUOUS
 10
-21.8518672266
 20
1.7589194169
 11
-21.8442173428
 21
1.7545027544
  0
LINE
  5
611
100
AcDbEntity
  8
03___PRT_ALL_CURVES
100
AcDbLine
 62
4
  6
CONTINUOUS
 10
-21.8289175534
 20
1.7456694169
 11
-21.8231801351
 21
1.7423569169
  0
LINE
  5
612
100
AcDbEntity
  8
03___PRT_ALL_CURVES
100
AcDbLine
 62
4
  6
CONTINUOUS
 10
-21.796405509
 20
1.7268985793
 11
-21.7906680907
 21
1.7235860793
  0
LINE
  5
613
100
AcDbEntity
  8
03___PRT_ALL_CURVES
100
AcDbLine
 62
4
  6
CONTINUOUS
 10
-21.7237315585
 20
1.6849402544
 11
-21.7007818743
 21
1.6716902481
  0
LINE
  5
614
100
AcDbEntity
  8
03___PRT_ALL_CURVES
100
AcDbLine
 62
4
  6
CONTINUOUS
 10
-21.6472326442
 20
1.6407735856
 11
-21.6128081289
 21
1.6208985825
  0
LINE
  5
615
100
AcDbEntity
  8
03___PRT_ALL_CURVES
100
AcDbLine
 62
4
  6
CONTINUOUS
 10
-21.6051582397
 20
1.6164819169
 11
-21.5707337299
 21
1.5966069169
  0
LINE
  5
616
100
AcDbEntity
  8
03___PRT_ALL_CURVES
100
AcDbLine
 62
4
  6
CONTINUOUS
 10
-21.5410904015
 20
1.5794923333
 11
-21.5487402935
 21
1.5839090005
  0
LINE
  5
617
100
AcDbEntity
  8
03___PRT_ALL_CURVES
100
AcDbLine
 62
4
  6
CONTINUOUS
 10
-21.7466812317
 20
1.6981902544
 11
-21.75241865
 21
1.7015027544
  0
LINE
  5
618
100
AcDbEntity
  8
03___PRT_ALL_CURVES
100
AcDbLine
 62
4
  6
CONTINUOUS
 10
-21.776324545
 20
1.7153048293
 11
-21.783018207
 21
1.7191694169
  0
LINE
  5
619
100
AcDbEntity
  8
03___PRT_ALL_CURVES
100
AcDbLine
 62
4
  6
CONTINUOUS
 10
-21.6374837559
 20
1.6377841555
 11
-21.6145340772
 21
1.6245341523
  0
LINE
  5
61A
100
AcDbEntity
  8
03___PRT_ALL_CURVES
100
AcDbLine
 62
4
  6
CONTINUOUS
 10
-21.5265603318
 20
1.5737424867
 11
-21.5609848416
 21
1.5936174867
  0
LINE
  5
61B
100
AcDbEntity
  8
03___PRT_ALL_CURVES
100
AcDbLine
 62
4
  6
CONTINUOUS
 10
-21.5839345148
 20
1.6068674867
 11
-21.591584404
 21
1.6112841523
  0
LINE
  5
61C
100
AcDbEntity
  8
03___PRT_ALL_CURVES
100
AcDbLine
 62
4
  6
CONTINUOUS
 10
-21.7044202991
 20
1.6764299867
 11
-21.7407572744
 21
1.6974091491
  0
LINE
  5
61D
100
AcDbEntity
  8
03___PRT_ALL_CURVES
100
AcDbLine
 62
4
  6
CONTINUOUS
 10
-21.74840718
 20
1.7018258242
 11
-21.7828316898
 21
1.7217008242
  0
LINE
  5
61E
100
AcDbEntity
  8
03___PRT_ALL_CURVES
100
AcDbLine
 62
4
  6
CONTINUOUS
 10
-21.7904815736
 20
1.7261174867
 11
-21.7962189919
 21
1.7294299867
  0
LINE
  5
61F
100
AcDbEntity
  8
03___PRT_ALL_CURVES
100
AcDbLine
 62
4
  6
CONTINUOUS
 10
-21.8229936179
 20
1.7448883242
 11
-21.8287310362
 21
1.7482008242
  0
LINE
  5
620
100
AcDbEntity
  8
03___PRT_ALL_CURVES
100
AcDbLine
 62
4
  6
CONTINUOUS
 10
-21.83638092
 20
1.7526174867
 11
-21.8727178953
 21
1.7735966491
  0
LINE
  5
621
100
AcDbEntity
  8
03___PRT_ALL_CURVES
100
AcDbLine
 62
4
  6
CONTINUOUS
 10
-21.8725212414
 20
1.7739372636
 11
-21.8572214739
 21
1.7651039387
  0
LINE
  5
622
100
AcDbEntity
  8
03___PRT_ALL_CURVES
100
AcDbLine
 62
4
  6
CONTINUOUS
 10
-21.8514840556
 20
1.7617914387
 11
-21.8361842661
 21
1.7529581012
  0
LINE
  5
623
100
AcDbEntity
  8
03___PRT_ALL_CURVES
100
AcDbLine
 62
4
  6
CONTINUOUS
 10
-21.7405606205
 20
1.6977497636
 11
-21.725260853
 21
1.6889164387
  0
LINE
  5
624
100
AcDbEntity
  8
03___PRT_ALL_CURVES
100
AcDbLine
 62
4
  6
CONTINUOUS
 10
-21.7195234347
 20
1.6856039387
 11
-21.7042236452
 21
1.6767706012
  0
LINE
  5
625
100
AcDbEntity
  8
03___PRT_ALL_CURVES
100
AcDbLine
 62
4
  6
CONTINUOUS
 10
-21.6382433348
 20
1.6386768512
 11
-21.6200748471
 21
1.6281872699
  0
LINE
  5
626
100
AcDbEntity
  8
03___PRT_ALL_CURVES
100
AcDbLine
 62
4
  6
CONTINUOUS
 10
-21.7825957052
 20
1.7221095616
 11
-21.7539086137
 21
1.7055470616
  0
LINE
  5
627
100
AcDbEntity
  8
03___PRT_ALL_CURVES
100
AcDbLine
 62
4
  6
CONTINUOUS
 10
-21.5607488569
 20
1.5940262241
 11
-21.5320617654
 21
1.5774637241
  0
LINE
  5
628
100
AcDbEntity
  8
03___PRT_ALL_CURVES
100
AcDbLine
 62
4
  6
CONTINUOUS
 10
-21.5836985301
 20
1.6072762241
 11
-21.5913484194
 21
1.6116928897
  0
LINE
  5
629
100
AcDbEntity
  8
03___PRT_ALL_CURVES
100
AcDbLine
 62
4
  6
CONTINUOUS
 10
-21.5315504653
 20
1.5783493219
 11
-21.5564126122
 21
1.5927034891
  0
LINE
  5
62A
100
AcDbEntity
  8
03___PRT_ALL_CURVES
100
AcDbLine
 62
4
  6
CONTINUOUS
 10
-21.7533973135
 20
1.7064326595
 11
-21.7782594522
 21
1.7207868219
  0
LINE
  5
62B
100
AcDbEntity
  8
03___PRT_ALL_CURVES
100
AcDbLine
 62
4
  6
CONTINUOUS
 10
-21.6194848854
 20
1.6292091136
 11
-21.6376533731
 21
1.6396986948
  0
LINE
  5
62C
100
AcDbEntity
  8
03___PRT_ALL_CURVES
100
AcDbLine
 62
4
  6
CONTINUOUS
 10
-21.7780234676
 20
1.7211955593
 11
-21.7531613289
 21
1.7068413968
  0
LINE
  5
62D
100
AcDbEntity
  8
03___PRT_ALL_CURVES
100
AcDbLine
 62
4
  6
CONTINUOUS
 10
-21.5561766275
 20
1.5931122265
 11
-21.5313144806
 21
1.5787580593
  0
LINE
  5
62E
100
AcDbEntity
  8
03___PRT_ALL_CURVES
100
AcDbLine
 62
4
  6
CONTINUOUS
 10
-21.6192489008
 20
1.629617851
 11
-21.635504912
 21
1.6390032634
  0
LINE
  5
62F
100
AcDbEntity
  8
03___PRT_ALL_CURVES
100
AcDbLine
 62
4
  6
CONTINUOUS
 10
-21.5899718421
 20
1.6140771914
 11
-21.5823219529
 21
1.6096605258
  0
LINE
  5
630
100
AcDbEntity
  8
03___PRT_ALL_CURVES
100
AcDbLine
 62
4
  6
CONTINUOUS
 10
-21.7525320364
 20
1.7079313633
 11
-21.7812191279
 21
1.7244938633
  0
LINE
  5
631
100
AcDbEntity
  8
03___PRT_ALL_CURVES
100
AcDbLine
 62
4
  6
CONTINUOUS
 10
-21.8555695812
 20
1.7679651008
 11
-21.8498321629
 21
1.7646526008
  0
LINE
  5
632
100
AcDbEntity
  8
03___PRT_ALL_CURVES
100
AcDbLine
 62
4
  6
CONTINUOUS
 10
-21.8268824897
 20
1.7514026008
 11
-21.8211450714
 21
1.7480901008
  0
LINE
  5
633
100
AcDbEntity
  8
03___PRT_ALL_CURVES
100
AcDbLine
 62
4
  6
CONTINUOUS
 10
-21.7943704453
 20
1.7326317632
 11
-21.788633027
 21
1.7293192632
  0
LINE
  5
634
100
AcDbEntity
  8
03___PRT_ALL_CURVES
100
AcDbLine
 62
4
  6
CONTINUOUS
 10
-21.7809831433
 20
1.7249026008
 11
-21.7465586335
 21
1.7050276008
  0
LINE
  5
635
100
AcDbEntity
  8
03___PRT_ALL_CURVES
100
AcDbLine
 62
4
  6
CONTINUOUS
 10
-21.7236089603
 20
1.6917776008
 11
-21.717871542
 21
1.6884651008
  0
LINE
  5
636
100
AcDbEntity
  8
03___PRT_ALL_CURVES
100
AcDbLine
 62
4
  6
CONTINUOUS
 10
-21.5897358575
 20
1.6144859288
 11
-21.5820859682
 21
1.6100692632
  0
LINE
  5
637
100
AcDbEntity
  8
03___PRT_ALL_CURVES
100
AcDbLine
 62
4
  6
CONTINUOUS
 10
-21.5304492035
 20
1.5802567632
 11
-21.5247117852
 21
1.5769442632
  0
LINE
  5
638
100
AcDbEntity
  8
03___PRT_ALL_CURVES
100
AcDbLine
 62
4
  6
CONTINUOUS
 10
-21.6126855307
 20
1.6277359288
 11
-21.6184229544
 21
1.631048432
  0
LINE
  5
639
100
AcDbEntity
  8
03___PRT_ALL_CURVES
100
AcDbLine
 62
4
  6
CONTINUOUS
 10
-21.6423288604
 20
1.6448505132
 11
-21.6490225114
 21
1.6487150945
  0
LINE
  5
63A
100
AcDbEntity
  8
0
100
AcDbLine
 62
7
  6
CONTINUOUS
 10
-21.4720304602
 20
1.5681909947
 11
-22.0132963376
 21
1.8806909947
  0
LINE
  5
63B
100
AcDbEntity
  8
0
100
AcDbLine
 62
7
  6
CONTINUOUS
 10
-21.4695365501
 20
1.5725105738
 11
-22.0108024275
 21
1.8850105738
  0
LINE
  5
63C
100
AcDbEntity
  8
0
100
AcDbLine
 62
3
  6
CONTINUOUS
 10
-21.3954680704
 20
1.6082812589
 11
-23.4241496265
 21
2.7795411014
  0
LINE
  5
63D
100
AcDbEntity
  8
0
100
AcDbLine
 62
7
  6
CONTINUOUS
 10
-21.3915406528
 20
1.6150837456
 11
-23.420222209
 21
2.7863435881
  0
LINE
  5
63E
100
AcDbEntity
  8
LAY0001
100
AcDbLine
 62
7
  6
CONTINUOUS
 10
-23.9781426357
 20
3.2904464463
 11
-23.9768819837
 21
3.2897108206
  0
LINE
  5
63F
100
AcDbEntity
  8
LAY0001
100
AcDbLine
 62
7
  6
CONTINUOUS
 10
-24.1215878694
 20
3.4659983849
 11
-24.1203272123
 21
3.4652627532
  0
LINE
  5
640
100
AcDbEntity
  8
LAY0001
100
AcDbLine
 62
7
  6
CONTINUOUS
 10
-24.1631205057
 20
3.511852939
 11
-24.1618598486
 21
3.5111173073
  0
LINE
  5
641
100
AcDbEntity
  8
LAY0001
100
AcDbLine
 62
7
  6
CONTINUOUS
 10
-24.4492158606
 20
3.8564502205
 11
-24.4479552237
 21
3.8557146129
  0
LINE
  5
642
100
AcDbEntity
  8
03___PRT_ALL_CURVES
100
AcDbLine
 62
4
  6
CONTINUOUS
 10
-21.9751577792
 20
1.8258322152
 11
-21.9798996449
 21
1.8286607632
  0
LINE
  5
643
100
AcDbEntity
  8
03___PRT_ALL_CURVES
100
AcDbLine
 62
4
  6
CONTINUOUS
 10
-21.7762212953
 20
1.7110670132
 11
-21.7714794514
 21
1.7082384779
  0
LINE
  5
644
100
AcDbEntity
  8
03___PRT_ALL_CURVES
100
AcDbLine
 62
4
  6
CONTINUOUS
 10
-21.9647031052
 20
1.8240652418
 11
-21.9599612832
 21
1.8212367191
  0
LINE
  5
645
100
AcDbEntity
  8
03___PRT_ALL_CURVES
100
AcDbLine
 62
4
  6
CONTINUOUS
 10
-21.725580105
 20
1.6817384779
 11
-21.7303219489
 21
1.6845670132
  0
LINE
  5
646
100
AcDbEntity
  8
03___PRT_ALL_CURVES
100
AcDbLine
 62
4
  6
CONTINUOUS
 10
-21.5543744553
 20
1.5829836804
 11
-21.5496326032
 21
1.5801551403
  0
LINE
  5
647
100
AcDbEntity
  8
03___PRT_ALL_CURVES
100
AcDbLine
 62
4
  6
CONTINUOUS
 10
-21.5545440752
 20
1.5848982214
 11
-21.5498022245
 21
1.5820696821
  0
LINE
  5
648
100
AcDbEntity
  8
03___PRT_ALL_CURVES
100
AcDbLine
 62
4
  6
CONTINUOUS
 10
-21.5363485508
 20
1.576663794
 11
-21.5410904015
 21
1.5794923333
  0
LINE
  5
649
100
AcDbEntity
  8
03___PRT_ALL_CURVES
100
AcDbLine
 62
4
  6
CONTINUOUS
 10
-21.6422255997
 20
1.6406126908
 11
-21.6374837559
 21
1.6377841555
  0
LINE
  5
64A
100
AcDbEntity
  8
03___PRT_ALL_CURVES
100
AcDbLine
 62
4
  6
CONTINUOUS
 10
-21.591584404
 20
1.6112841523
 11
-21.5963262588
 21
1.614112694
  0
LINE
  5
64B
100
AcDbEntity
  8
03___PRT_ALL_CURVES
100
AcDbLine
 62
4
  6
CONTINUOUS
 10
-21.5820859682
 20
1.6100692632
 11
-21.5773441189
 21
1.6072407247
  0
LINE
  5
64C
100
AcDbEntity
  8
03___PRT_ALL_CURVES
100
AcDbLine
 62
4
  6
CONTINUOUS
 10
-21.9787074385
 20
1.8285174257
 11
-21.9749217946
 21
1.8262409526
  0
LINE
  5
64D
100
AcDbEntity
  8
03___PRT_ALL_CURVES
100
AcDbLine
 62
4
  6
CONTINUOUS
 10
-21.9611534897
 20
1.8213800565
 11
-21.9649390899
 21
1.8236565044
  0
LINE
  5
64E
100
AcDbEntity
  8
03___PRT_ALL_CURVES
100
AcDbLine
 62
4
  6
CONTINUOUS
 10
-21.7253441204
 20
1.6821472152
 11
-21.7291297206
 21
1.6844236631
  0
LINE
  5
64F
100
AcDbEntity
  8
03___PRT_ALL_CURVES
100
AcDbLine
 62
4
  6
CONTINUOUS
 10
-21.5495662398
 20
1.5824784194
 11
-21.5533518551
 21
1.5847548759
  0
LINE
  5
650
100
AcDbEntity
  8
03___PRT_ALL_CURVES
100
AcDbLine
 62
4
  6
CONTINUOUS
 10
-21.5400432063
 20
1.5768894629
 11
-21.5438288215
 21
1.5791659194
  0
LINE
  5
651
100
AcDbEntity
  8
03___PRT_ALL_CURVES
100
AcDbLine
 62
4
  6
CONTINUOUS
 10
-21.5413263862
 20
1.5790835958
 11
-21.5375407717
 21
1.5768071397
  0
LINE
  5
652
100
AcDbEntity
  8
03___PRT_ALL_CURVES
100
AcDbLine
 62
4
  6
CONTINUOUS
 10
-21.5913484194
 20
1.6116928897
 11
-21.595134036
 21
1.613969347
  0
LINE
  5
653
100
AcDbEntity
  8
03___PRT_ALL_CURVES
100
AcDbLine
 62
4
  6
CONTINUOUS
 10
-21.5823219529
 20
1.6096605258
 11
-21.5785363363
 21
1.6073840685
  0
LINE
  5
654
100
AcDbEntity
  8
03___PRT_ALL_CURVES
100
AcDbLine
 62
4
  6
CONTINUOUS
 10
-21.7750683977
 20
1.7108555402
 11
-21.7722390194
 21
1.7091311673
  0
LINE
  5
655
100
AcDbEntity
  8
03___PRT_ALL_CURVES
100
AcDbLine
 62
4
  6
CONTINUOUS
 10
-21.5503528554
 20
1.5811159613
 11
-21.5531822324
 21
1.5828403334
  0
LINE
  5
656
100
AcDbEntity
  8
03___PRT_ALL_CURVES
100
AcDbLine
 62
4
  6
CONTINUOUS
 10
-21.5440648062
 20
1.5787571821
 11
-21.5412354278
 21
1.5770328092
  0
LINE
  5
657
100
AcDbEntity
  8
03___PRT_ALL_CURVES
100
AcDbLine
 62
4
  6
CONTINUOUS
 10
-21.6410727131
 20
1.6404012241
 11
-21.6382433348
 21
1.6386768512
  0
LINE
  5
658
100
AcDbEntity
  8
03___PRT_ALL_CURVES
100
AcDbLine
 62
4
  6
CONTINUOUS
 10
-21.9798996449
 20
1.8286607632
 11
-21.9836459143
 21
1.8310053339
  0
LINE
  5
659
100
AcDbEntity
  8
03___PRT_ALL_CURVES
100
AcDbLine
 62
4
  6
CONTINUOUS
 10
-21.9599612832
 20
1.8212367191
 11
-21.9562149701
 21
1.8188921231
  0
LINE
  5
65A
100
AcDbEntity
  8
03___PRT_ALL_CURVES
100
AcDbLine
 62
4
  6
CONTINUOUS
 10
-21.7303219489
 20
1.6845670132
 11
-21.7340682402
 21
1.6869115966
  0
LINE
  5
65B
100
AcDbEntity
  8
03___PRT_ALL_CURVES
100
AcDbLine
 62
4
  6
CONTINUOUS
 10
-21.5582903582
 20
1.5872428
 11
-21.5545440752
 21
1.5848982214
  0
LINE
  5
65C
100
AcDbEntity
  8
03___PRT_ALL_CURVES
100
AcDbLine
 62
4
  6
CONTINUOUS
 10
-21.5362969226
 20
1.5745448839
 11
-21.5400432063
 21
1.5768894629
  0
LINE
  5
65D
100
AcDbEntity
  8
03___PRT_ALL_CURVES
100
AcDbLine
 62
4
  6
CONTINUOUS
 10
-21.5963262588
 20
1.614112694
 11
-21.6000725392
 21
1.616457271
  0
LINE
  5
65E
100
AcDbEntity
  8
03___PRT_ALL_CURVES
100
AcDbLine
 62
4
  6
CONTINUOUS
 10
-21.5773441189
 20
1.6072407247
 11
-21.5735978331
 21
1.6048961445
  0
LINE
  5
65F
100
AcDbEntity
  8
03___PRT_ALL_CURVES
100
AcDbLine
 62
4
  6
CONTINUOUS
 10
-21.5316853614
 20
1.5736990087
 11
-21.5363485508
 21
1.576663794
  0
LINE
  5
660
100
AcDbEntity
  8
03___PRT_ALL_CURVES
100
AcDbLine
 62
4
  6
CONTINUOUS
 10
-21.9814974861
 20
1.8303099215
 11
-21.9787074385
 21
1.8285174257
  0
LINE
  5
661
100
AcDbEntity
  8
03___PRT_ALL_CURVES
100
AcDbLine
 62
4
  6
CONTINUOUS
 10
-21.9583634421
 20
1.8195875607
 11
-21.9611534897
 21
1.8213800565
  0
LINE
  5
662
100
AcDbEntity
  8
03___PRT_ALL_CURVES
100
AcDbLine
 62
4
  6
CONTINUOUS
 10
-21.7291297206
 20
1.6844236631
 11
-21.7319197682
 21
1.6862161589
  0
LINE
  5
663
100
AcDbEntity
  8
03___PRT_ALL_CURVES
100
AcDbLine
 62
4
  6
CONTINUOUS
 10
-21.5533518551
 20
1.5847548759
 11
-21.5561419027
 21
1.5865473717
  0
LINE
  5
664
100
AcDbEntity
  8
03___PRT_ALL_CURVES
100
AcDbLine
 62
4
  6
CONTINUOUS
 10
-21.5412354278
 20
1.5770328092
 11
-21.5384453795
 21
1.575240313
  0
LINE
  5
665
100
AcDbEntity
  8
03___PRT_ALL_CURVES
100
AcDbLine
 62
4
  6
CONTINUOUS
 10
-21.595134036
 20
1.613969347
 11
-21.5979240836
 21
1.6157618428
  0
LINE
  5
666
100
AcDbEntity
  8
03___PRT_ALL_CURVES
100
AcDbLine
 62
4
  6
CONTINUOUS
 10
-21.5785363363
 20
1.6073840685
 11
-21.5757462887
 21
1.6055915727
  0
LINE
  5
667
100
AcDbEntity
  8
03___PRT_ALL_CURVES
100
AcDbLine
 62
4
  6
CONTINUOUS
 10
-21.7799282558
 20
1.7134797195
 11
-21.7762212953
 21
1.7110670132
  0
LINE
  5
668
100
AcDbEntity
  8
03___PRT_ALL_CURVES
100
AcDbLine
 62
4
  6
CONTINUOUS
 10
-21.5580814076
 20
1.5853963819
 11
-21.5543744553
 21
1.5829836804
  0
LINE
  5
669
100
AcDbEntity
  8
03___PRT_ALL_CURVES
100
AcDbLine
 62
4
  6
CONTINUOUS
 10
-21.6459325603
 20
1.643025397
 11
-21.6422255997
 21
1.6406126908
  0
LINE
  5
66A
100
AcDbEntity
  8
LAY0001
100
AcDbLine
 62
7
  6
CONTINUOUS
 10
-24.1145273309
 20
3.5303758043
 11
-24.1208239275
 21
3.5344964082
  0
LINE
  5
66B
100
AcDbEntity
  8
LAY0001
100
AcDbLine
 62
7
  6
CONTINUOUS
 10
-24.1137660135
 20
3.5299697441
 11
-24.110967534
 21
3.5281383739
  0
LINE
  5
66C
100
AcDbEntity
  8
LAY0001
100
AcDbLine
 62
7
  6
CONTINUOUS
 10
-24.2051639398
 20
3.6392694829
 11
-24.2058635773
 21
3.6397273466
  0
LINE
  5
66D
100
AcDbEntity
  8
LAY0001
100
AcDbLine
 62
7
  6
CONTINUOUS
 10
-24.2757127763
 20
3.7200882357
 11
-24.276412414
 21
3.7205460991
  0
LINE
  5
66E
100
AcDbEntity
  8
LAY0001
100
AcDbLine
 62
7
  6
CONTINUOUS
 10
-24.0058201724
 20
3.3969390274
 11
-23.9946879343
 21
3.3895617432
  0
LINE
  5
66F
100
AcDbEntity
  8
LAY0001
100
AcDbLine
 62
7
  6
CONTINUOUS
 10
-24.1078804651
 20
3.5244593484
 11
-24.1190127031
 21
3.5318366326
  0
LINE
  5
670
100
AcDbEntity
  8
LAY0001
100
AcDbLine
 62
7
  6
CONTINUOUS
 10
-23.9930001052
 20
3.3867984028
 11
-24.0027331034
 21
3.3932600019
  0
LINE
  5
671
100
AcDbEntity
  8
03___PRT_ALL_CURVES
100
AcDbLine
 62
4
  6
CONTINUOUS
 10
-21.9836459143
 20
1.8310053339
 11
-21.987313566
 21
1.8334861757
  0
LINE
  5
672
100
AcDbEntity
  8
03___PRT_ALL_CURVES
100
AcDbLine
 62
4
  6
CONTINUOUS
 10
-21.9562149701
 20
1.8188921231
 11
-21.9525473623
 21
1.8164113065
  0
LINE
  5
673
100
AcDbEntity
  8
03___PRT_ALL_CURVES
100
AcDbLine
 62
4
  6
CONTINUOUS
 10
-21.7769022236
 20
1.712095961
 11
-21.7750683977
 21
1.7108555402
  0
LINE
  5
674
100
AcDbEntity
  8
03___PRT_ALL_CURVES
100
AcDbLine
 62
4
  6
CONTINUOUS
 10
-21.7340682402
 20
1.6869115966
 11
-21.737735848
 21
1.6893924131
  0
LINE
  5
675
100
AcDbEntity
  8
03___PRT_ALL_CURVES
100
AcDbLine
 62
4
  6
CONTINUOUS
 10
-21.642906528
 20
1.6416416386
 11
-21.6410727131
 21
1.6404012241
  0
LINE
  5
676
100
AcDbEntity
  8
03___PRT_ALL_CURVES
100
AcDbLine
 62
4
  6
CONTINUOUS
 10
-21.5531822324
 20
1.5828403334
 11
-21.5550160446
 21
1.5840807464
  0
LINE
  5
677
100
AcDbEntity
  8
03___PRT_ALL_CURVES
100
AcDbLine
 62
4
  6
CONTINUOUS
 10
-21.5619579825
 20
1.5897236259
 11
-21.5582903582
 21
1.5872428
  0
LINE
  5
678
100
AcDbEntity
  8
03___PRT_ALL_CURVES
100
AcDbLine
 62
4
  6
CONTINUOUS
 10
-21.6000725392
 20
1.616457271
 11
-21.6037401634
 21
1.618938097
  0
LINE
  5
679
100
AcDbEntity
  8
03___PRT_ALL_CURVES
100
AcDbLine
 62
4
  6
CONTINUOUS
 10
-21.5326293
 20
1.572064059
 11
-21.5362969226
 21
1.5745448839
  0
LINE
  5
67A
100
AcDbEntity
  8
03___PRT_ALL_CURVES
100
AcDbLine
 62
4
  6
CONTINUOUS
 10
-21.5375407717
 20
1.5768071397
 11
-21.5347900548
 21
1.574946521
  0
LINE
  5
67B
100
AcDbEntity
  8
03___PRT_ALL_CURVES
100
AcDbLine
 62
4
  6
CONTINUOUS
 10
-21.5735978331
 20
1.6048961445
 11
-21.5699302116
 21
1.6024153201
  0
LINE
  5
67C
100
AcDbEntity
  8
LAY0001
100
AcDbLine
 62
7
  6
CONTINUOUS
 10
-23.9188487478
 20
3.2985535669
 11
-23.9291579649
 21
3.3055765662
  0
LINE
  5
67D
100
AcDbEntity
  8
LAY0001
100
AcDbLine
 62
7
  6
CONTINUOUS
 10
-23.9820861604
 20
3.2961046077
 11
-23.9832524187
 21
3.296919429
  0
LINE
  5
67E
100
AcDbEntity
  8
LAY0001
100
AcDbLine
 62
7
  6
CONTINUOUS
 10
-24.1827437362
 20
3.5402229405
 11
-24.1839100043
 21
3.541037774
  0
LINE
  5
67F
100
AcDbEntity
  8
LAY0001
100
AcDbLine
 62
7
  6
CONTINUOUS
 10
-24.2633212945
 20
3.6322260402
 11
-24.2644875828
 21
3.6330408978
  0
LINE
  5
680
100
AcDbEntity
  8
LAY0001
100
AcDbLine
 62
7
  6
CONTINUOUS
 10
-24.2685254715
 20
3.6386198271
 11
-24.2696917598
 21
3.6394346847
  0
LINE
  5
681
100
AcDbEntity
  8
LAY0001
100
AcDbLine
 62
7
  6
CONTINUOUS
 10
-23.930084465
 20
3.3079338323
 11
-23.9205982745
 21
3.3012651249
  0
LINE
  5
682
100
AcDbEntity
  8
03___PRT_ALL_CURVES
100
AcDbLine
 62
4
  6
CONTINUOUS
 10
-21.7826396419
 20
1.715408461
 11
-21.7799282558
 21
1.7134797195
  0
LINE
  5
683
100
AcDbEntity
  8
03___PRT_ALL_CURVES
100
AcDbLine
 62
4
  6
CONTINUOUS
 10
-21.6486439463
 20
1.6449541386
 11
-21.6459325603
 21
1.643025397
  0
LINE
  5
684
100
AcDbEntity
  8
03___PRT_ALL_CURVES
100
AcDbLine
 62
4
  6
CONTINUOUS
 10
-21.5607927936
 20
1.5873251235
 11
-21.5580814076
 21
1.5853963819
  0
LINE
  5
685
100
AcDbEntity
  8
03___PRT_ALL_CURVES
100
AcDbLine
 62
4
  6
CONTINUOUS
 10
-21.8058329769
 20
1.737069726
 11
-21.7904815736
 21
1.7261174867
  0
LINE
  5
686
100
AcDbEntity
  8
03___PRT_ALL_CURVES
100
AcDbLine
 62
4
  6
CONTINUOUS
 10
-21.7962189919
 20
1.7294299867
 11
-21.8088590092
 21
1.7384534844
  0
LINE
  5
687
100
AcDbEntity
  8
03___PRT_ALL_CURVES
100
AcDbLine
 62
4
  6
CONTINUOUS
 10
-21.8211450714
 20
1.7480901008
 11
-21.8085050322
 21
1.7390665904
  0
LINE
  5
688
100
AcDbEntity
  8
03___PRT_ALL_CURVES
100
AcDbLine
 62
4
  6
CONTINUOUS
 10
-21.8115703952
 20
1.740382226
 11
-21.8268824897
 21
1.7514026008
  0
LINE
  5
689
100
AcDbEntity
  8
03___PRT_ALL_CURVES
100
AcDbLine
 62
4
  6
CONTINUOUS
 10
-21.9565689471
 20
1.8182790169
 11
-21.9583634421
 21
1.8195875607
  0
LINE
  5
68A
100
AcDbEntity
  8
03___PRT_ALL_CURVES
100
AcDbLine
 62
4
  6
CONTINUOUS
 10
-21.7319197682
 20
1.6862161589
 11
-21.7337142631
 21
1.6875247028
  0
LINE
  5
68B
100
AcDbEntity
  8
03___PRT_ALL_CURVES
100
AcDbLine
 62
4
  6
CONTINUOUS
 10
-21.5979240836
 20
1.6157618428
 11
-21.5997185621
 21
1.6170703773
  0
LINE
  5
68C
100
AcDbEntity
  8
03___PRT_ALL_CURVES
100
AcDbLine
 62
4
  6
CONTINUOUS
 10
-21.5561419027
 20
1.5865473717
 11
-21.5579363812
 21
1.5878559061
  0
LINE
  5
68D
100
AcDbEntity
  8
03___PRT_ALL_CURVES
100
AcDbLine
 62
4
  6
CONTINUOUS
 10
-21.5757462887
 20
1.6055915727
 11
-21.5739518101
 21
1.6042830384
  0
LINE
  5
68E
100
AcDbEntity
  8
03___PRT_ALL_CURVES
100
AcDbLine
 62
4
  6
CONTINUOUS
 10
-21.9139586653
 20
1.7904988903
 11
-21.9362913291
 21
1.8070258815
  0
LINE
  5
68F
100
AcDbEntity
  8
03___PRT_ALL_CURVES
100
AcDbLine
 62
4
  6
CONTINUOUS
 10
-21.9331473046
 20
1.8058464918
 11
-21.9108539715
 21
1.7892513777
  0
LINE
  5
690
100
AcDbEntity
  8
03___PRT_ALL_CURVES
100
AcDbLine
 62
4
  6
CONTINUOUS
 10
-21.529013306
 20
1.5717021441
 11
-21.5316853614
 21
1.5736990087
  0
LINE
  5
691
100
AcDbEntity
  8
03___PRT_ALL_CURVES
100
AcDbLine
 62
4
  6
CONTINUOUS
 10
-21.5699302116
 20
1.6024153201
 11
-21.568175061
 21
1.6010386613
  0
LINE
  5
692
100
AcDbEntity
  8
0
100
AcDbLine
 62
7
  6
CONTINUOUS
 10
-19.7638371123
 20
1.2200183978
 11
-19.7632593611
 21
1.1538146759
  0
LINE
  5
693
100
AcDbEntity
  8
0
100
AcDbLine
 62
7
  6
CONTINUOUS
 10
-20.1370384891
 20
-0.8697386584
 11
-20.1370384891
 21
-0.8736756663
  0
LINE
  5
694
100
AcDbEntity
  8
0
100
AcDbLine
 62
7
  6
CONTINUOUS
 10
-19.6868495127
 20
1.3960093731
 11
-19.6868495127
 21
1.1460093731
  0
LINE
  5
695
100
AcDbEntity
  8
0
100
AcDbLine
 62
7
  6
CONTINUOUS
 10
-19.3274306439
 20
5.7925973804
 11
-19.3274306688
 21
5.7918933733
  0
LINE
  5
696
100
AcDbEntity
  8
0
100
AcDbLine
 62
7
  6
CONTINUOUS
 10
-19.7511600567
 20
1.1972591883
 11
-19.7515391912
 21
1.1538146759
  0
LINE
  5
697
100
AcDbEntity
  8
0
100
AcDbLine
 62
7
  6
CONTINUOUS
 10
-19.744331834
 20
1.1972591883
 11
-19.7456343891
 21
1.1538146759
  0
LINE
  5
698
100
AcDbEntity
  8
0
100
AcDbLine
 62
7
  6
CONTINUOUS
 10
-22.0108024275
 20
1.8850105738
 11
-22.0350952357
 21
1.8429341958
  0
LINE
  5
699
100
AcDbEntity
  8
03___PRT_ALL_CURVES
100
AcDbLine
 62
4
  6
CONTINUOUS
 10
-21.9877191568
 20
1.8349919714
 11
-21.9871291952
 21
1.8360138149
  0
LINE
  5
69A
100
AcDbEntity
  8
03___PRT_ALL_CURVES
100
AcDbLine
 62
4
  6
CONTINUOUS
 10
-21.9814311076
 20
1.832633192
 11
-21.9817457539
 21
1.8320882087
  0
LINE
  5
69B
100
AcDbEntity
  8
03___PRT_ALL_CURVES
100
AcDbLine
 62
4
  6
CONTINUOUS
 10
-21.9731396264
 20
1.8271194587
 11
-21.9733756111
 21
1.8267107214
  0
LINE
  5
69C
100
AcDbEntity
  8
03___PRT_ALL_CURVES
100
AcDbLine
 62
4
  6
CONTINUOUS
 10
-21.95636001
 20
1.8164326069
 11
-21.9557700484
 21
1.8174544504
  0
LINE
  5
69D
100
AcDbEntity
  8
03___PRT_ALL_CURVES
100
AcDbLine
 62
4
  6
CONTINUOUS
 10
-21.9500326301
 20
1.8141419504
 11
-21.9506225917
 21
1.8131201069
  0
LINE
  5
69E
100
AcDbEntity
  8
03___PRT_ALL_CURVES
100
AcDbLine
 62
4
  6
CONTINUOUS
 10
-21.9436019786
 20
1.8076134652
 11
-21.941753432
 21
1.8108152418
  0
LINE
  5
69F
100
AcDbEntity
  8
03___PRT_ALL_CURVES
100
AcDbLine
 62
4
  6
CONTINUOUS
 10
-21.9362913291
 20
1.8070258815
 11
-21.9378645603
 21
1.8043009652
  0
LINE
  5
6A0
100
AcDbEntity
  8
03___PRT_ALL_CURVES
100
AcDbLine
 62
4
  6
CONTINUOUS
 10
-21.9108539715
 20
1.7892513777
 11
-21.9092414096
 21
1.7920444169
  0
LINE
  5
6A1
100
AcDbEntity
  8
03___PRT_ALL_CURVES
100
AcDbLine
 62
4
  6
CONTINUOUS
 10
-21.9035039913
 20
1.7887319169
 11
-21.9053525378
 21
1.7855301403
  0
LINE
  5
6A2
100
AcDbEntity
  8
03___PRT_ALL_CURVES
100
AcDbLine
 62
4
  6
CONTINUOUS
 10
-21.8977026322
 20
1.7811134652
 11
-21.8958540856
 21
1.7843152418
  0
LINE
  5
6A3
100
AcDbEntity
  8
03___PRT_ALL_CURVES
100
AcDbLine
 62
4
  6
CONTINUOUS
 10
-21.8901166892
 20
1.7810027544
 11
-21.8919652357
 21
1.7778009779
  0
LINE
  5
6A4
100
AcDbEntity
  8
03___PRT_ALL_CURVES
100
AcDbLine
 62
4
  6
CONTINUOUS
 10
-21.8727178953
 20
1.7735966491
 11
-21.8725212414
 21
1.7739372636
  0
LINE
  5
6A5
100
AcDbEntity
  8
03___PRT_ALL_CURVES
100
AcDbLine
 62
4
  6
CONTINUOUS
 10
-21.8572214739
 20
1.7651039387
 11
-21.8555695812
 21
1.7679651008
  0
LINE
  5
6A6
100
AcDbEntity
  8
03___PRT_ALL_CURVES
100
AcDbLine
 62
4
  6
CONTINUOUS
 10
-21.8498321629
 20
1.7646526008
 11
-21.8514840556
 21
1.7617914387
  0
LINE
  5
6A7
100
AcDbEntity
  8
03___PRT_ALL_CURVES
100
AcDbLine
 62
4
  6
CONTINUOUS
 10
-21.8361842661
 20
1.7529581012
 11
-21.83638092
 21
1.7526174867
  0
LINE
  5
6A8
100
AcDbEntity
  8
03___PRT_ALL_CURVES
100
AcDbLine
 62
4
  6
CONTINUOUS
 10
-21.7828316898
 20
1.7217008242
 11
-21.7825957052
 21
1.7221095616
  0
LINE
  5
6A9
100
AcDbEntity
  8
03___PRT_ALL_CURVES
100
AcDbLine
 62
4
  6
CONTINUOUS
 10
-21.7812191279
 20
1.7244938633
 11
-21.7809831433
 21
1.7249026008
  0
LINE
  5
6AA
100
AcDbEntity
  8
03___PRT_ALL_CURVES
100
AcDbLine
 62
4
  6
CONTINUOUS
 10
-21.7833205481
 20
1.7164373964
 11
-21.7834778713
 21
1.7161649046
  0
LINE
  5
6AB
100
AcDbEntity
  8
03___PRT_ALL_CURVES
100
AcDbLine
 62
4
  6
CONTINUOUS
 10
-21.7782594522
 20
1.7207868219
 11
-21.7780234676
 21
1.7211955593
  0
LINE
  5
6AC
100
AcDbEntity
  8
03___PRT_ALL_CURVES
100
AcDbLine
 62
4
  6
CONTINUOUS
 10
-21.7776224606
 20
1.7130567735
 11
-21.777740453
 21
1.7128524046
  0
LINE
  5
6AD
100
AcDbEntity
  8
03___PRT_ALL_CURVES
100
AcDbLine
 62
4
  6
CONTINUOUS
 10
-21.7531613289
 20
1.7068413968
 11
-21.7525320364
 21
1.7079313633
  0
LINE
  5
6AE
100
AcDbEntity
  8
03___PRT_ALL_CURVES
100
AcDbLine
 62
4
  6
CONTINUOUS
 10
-21.7539086137
 20
1.7055470616
 11
-21.7533973135
 21
1.7064326595
  0
LINE
  5
6AF
100
AcDbEntity
  8
03___PRT_ALL_CURVES
100
AcDbLine
 62
4
  6
CONTINUOUS
 10
-21.7540705427
 20
1.6986415924
 11
-21.753480581
 21
1.699663436
  0
LINE
  5
6B0
100
AcDbEntity
  8
03___PRT_ALL_CURVES
100
AcDbLine
 62
4
  6
CONTINUOUS
 10
-21.75241865
 20
1.7015027544
 11
-21.7532445963
 21
1.7000721734
  0
LINE
  5
6B1
100
AcDbEntity
  8
03___PRT_ALL_CURVES
100
AcDbLine
 62
4
  6
CONTINUOUS
 10
-21.7465586335
 20
1.7050276008
 11
-21.74840718
 21
1.7018258242
  0
LINE
  5
6B2
100
AcDbEntity
  8
03___PRT_ALL_CURVES
100
AcDbLine
 62
4
  6
CONTINUOUS
 10
-21.7485297782
 20
1.6949884779
 11
-21.7466812317
 21
1.6981902544
  0
LINE
  5
6B3
100
AcDbEntity
  8
03___PRT_ALL_CURVES
100
AcDbLine
 62
4
  6
CONTINUOUS
 10
-21.7407572744
 20
1.6974091491
 11
-21.7405606205
 21
1.6977497636
  0
LINE
  5
6B4
100
AcDbEntity
  8
03___PRT_ALL_CURVES
100
AcDbLine
 62
4
  6
CONTINUOUS
 10
-21.7402505801
 20
1.6916617693
 11
-21.7396606185
 21
1.6926836129
  0
LINE
  5
6B5
100
AcDbEntity
  8
03___PRT_ALL_CURVES
100
AcDbLine
 62
4
  6
CONTINUOUS
 10
-21.7345131618
 20
1.6883492693
 11
-21.7339232002
 21
1.6893711129
  0
LINE
  5
6B6
100
AcDbEntity
  8
03___PRT_ALL_CURVES
100
AcDbLine
 62
4
  6
CONTINUOUS
 10
-21.725260853
 20
1.6889164387
 11
-21.7236089603
 21
1.6917776008
  0
LINE
  5
6B7
100
AcDbEntity
  8
03___PRT_ALL_CURVES
100
AcDbLine
 62
4
  6
CONTINUOUS
 10
-21.717871542
 20
1.6884651008
 11
-21.7195234347
 21
1.6856039387
  0
LINE
  5
6B8
100
AcDbEntity
  8
03___PRT_ALL_CURVES
100
AcDbLine
 62
4
  6
CONTINUOUS
 10
-21.7067552773
 20
1.6745940107
 11
-21.7081318546
 21
1.6722097089
  0
LINE
  5
6B9
100
AcDbEntity
  8
03___PRT_ALL_CURVES
100
AcDbLine
 62
4
  6
CONTINUOUS
 10
-21.7042236452
 20
1.6767706012
 11
-21.7044202991
 21
1.6764299867
  0
LINE
  5
6BA
100
AcDbEntity
  8
03___PRT_ALL_CURVES
100
AcDbLine
 62
4
  6
CONTINUOUS
 10
-21.7007818743
 20
1.6716902481
 11
-21.7026304209
 21
1.6684884715
  0
LINE
  5
6BB
100
AcDbEntity
  8
03___PRT_ALL_CURVES
100
AcDbLine
 62
4
  6
CONTINUOUS
 10
-21.6493248635
 20
1.6459830803
 11
-21.6494821867
 21
1.6457105885
  0
LINE
  5
6BC
100
AcDbEntity
  8
03___PRT_ALL_CURVES
100
AcDbLine
 62
4
  6
CONTINUOUS
 10
-21.6490811907
 20
1.6375718091
 11
-21.6488452061
 21
1.6379805465
  0
LINE
  5
6BD
100
AcDbEntity
  8
03___PRT_ALL_CURVES
100
AcDbLine
 62
4
  6
CONTINUOUS
 10
-21.6474686288
 20
1.6403648482
 11
-21.6472326442
 21
1.6407735856
  0
LINE
  5
6BE
100
AcDbEntity
  8
03___PRT_ALL_CURVES
100
AcDbLine
 62
4
  6
CONTINUOUS
 10
-21.643626776
 20
1.6426024574
 11
-21.6437447684
 21
1.6423980885
  0
LINE
  5
6BF
100
AcDbEntity
  8
03___PRT_ALL_CURVES
100
AcDbLine
 62
4
  6
CONTINUOUS
 10
-21.6445089531
 20
1.6366578068
 11
-21.6442729685
 21
1.6370665442
  0
LINE
  5
6C0
100
AcDbEntity
  8
03___PRT_ALL_CURVES
100
AcDbLine
 62
4
  6
CONTINUOUS
 10
-21.6200748471
 20
1.6281872699
 11
-21.6194848854
 21
1.6292091136
  0
LINE
  5
6C1
100
AcDbEntity
  8
03___PRT_ALL_CURVES
100
AcDbLine
 62
4
  6
CONTINUOUS
 10
-21.6184229544
 20
1.631048432
 11
-21.6192489008
 21
1.629617851
  0
LINE
  5
6C2
100
AcDbEntity
  8
03___PRT_ALL_CURVES
100
AcDbLine
 62
4
  6
CONTINUOUS
 10
-21.6201581091
 20
1.6214180433
 11
-21.619646809
 21
1.6223036412
  0
LINE
  5
6C3
100
AcDbEntity
  8
03___PRT_ALL_CURVES
100
AcDbLine
 62
4
  6
CONTINUOUS
 10
-21.6194108243
 20
1.6227123786
 11
-21.6187815319
 21
1.6238023451
  0
LINE
  5
6C4
100
AcDbEntity
  8
03___PRT_ALL_CURVES
100
AcDbLine
 62
4
  6
CONTINUOUS
 10
-21.6145340772
 20
1.6245341523
 11
-21.6126855307
 21
1.6277359288
  0
LINE
  5
6C5
100
AcDbEntity
  8
03___PRT_ALL_CURVES
100
AcDbLine
 62
4
  6
CONTINUOUS
 10
-21.6128081289
 20
1.6208985825
 11
-21.6146566755
 21
1.6176968059
  0
LINE
  5
6C6
100
AcDbEntity
  8
03___PRT_ALL_CURVES
100
AcDbLine
 62
4
  6
CONTINUOUS
 10
-21.6062548955
 20
1.6212074532
 11
-21.6056649339
 21
1.6222292968
  0
LINE
  5
6C7
100
AcDbEntity
  8
03___PRT_ALL_CURVES
100
AcDbLine
 62
4
  6
CONTINUOUS
 10
-21.6070067862
 20
1.6132801403
 11
-21.6067708016
 21
1.6136888777
  0
LINE
  5
6C8
100
AcDbEntity
  8
03___PRT_ALL_CURVES
100
AcDbLine
 62
4
  6
CONTINUOUS
 10
-21.6053942243
 20
1.6160731794
 11
-21.6051582397
 21
1.6164819169
  0
LINE
  5
6C9
100
AcDbEntity
  8
03___PRT_ALL_CURVES
100
AcDbLine
 62
4
  6
CONTINUOUS
 10
-21.6005174772
 20
1.6178949532
 11
-21.5999275156
 21
1.6189167968
  0
LINE
  5
6CA
100
AcDbEntity
  8
03___PRT_ALL_CURVES
100
AcDbLine
 62
4
  6
CONTINUOUS
 10
-21.6024345541
 20
1.6123661412
 11
-21.6021985694
 21
1.6127748786
  0
LINE
  5
6CB
100
AcDbEntity
  8
03___PRT_ALL_CURVES
100
AcDbLine
 62
4
  6
CONTINUOUS
 10
-21.5780837101
 20
1.5971263777
 11
-21.5775724099
 21
1.5980119756
  0
LINE
  5
6CC
100
AcDbEntity
  8
03___PRT_ALL_CURVES
100
AcDbLine
 62
4
  6
CONTINUOUS
 10
-21.5773364253
 20
1.5984207129
 11
-21.5767071328
 21
1.5995106794
  0
LINE
  5
6CD
100
AcDbEntity
  8
03___PRT_ALL_CURVES
100
AcDbLine
 62
4
  6
CONTINUOUS
 10
-21.573152895
 20
1.6034584624
 11
-21.5737428566
 21
1.6024366188
  0
LINE
  5
6CE
100
AcDbEntity
  8
03___PRT_ALL_CURVES
100
AcDbLine
 62
4
  6
CONTINUOUS
 10
-21.5707337299
 20
1.5966069169
 11
-21.5725822764
 21
1.5934051403
  0
LINE
  5
6CF
100
AcDbEntity
  8
03___PRT_ALL_CURVES
100
AcDbLine
 62
4
  6
CONTINUOUS
 10
-21.5674154794
 20
1.600145964
 11
-21.5680054411
 21
1.5991241204
  0
LINE
  5
6D0
100
AcDbEntity
  8
03___PRT_ALL_CURVES
100
AcDbLine
 62
4
  6
CONTINUOUS
 10
-21.5635164764
 20
1.5914408977
 11
-21.5637131303
 21
1.5911002832
  0
LINE
  5
6D1
100
AcDbEntity
  8
03___PRT_ALL_CURVES
100
AcDbLine
 62
4
  6
CONTINUOUS
 10
-21.5609848416
 20
1.5936174867
 11
-21.5607488569
 21
1.5940262241
  0
LINE
  5
6D2
100
AcDbEntity
  8
03___PRT_ALL_CURVES
100
AcDbLine
 62
4
  6
CONTINUOUS
 10
-21.5564126122
 20
1.5927034891
 11
-21.5561766275
 21
1.5931122265
  0
LINE
  5
6D3
100
AcDbEntity
  8
03___PRT_ALL_CURVES
100
AcDbLine
 62
4
  6
CONTINUOUS
 10
-21.5579363812
 20
1.5878559061
 11
-21.5578183889
 21
1.5880602748
  0
LINE
  5
6D4
100
AcDbEntity
  8
03___PRT_ALL_CURVES
100
AcDbLine
 62
4
  6
CONTINUOUS
 10
-21.5376071357
 20
1.5744838611
 11
-21.5376857972
 21
1.5743476153
  0
LINE
  5
6D5
100
AcDbEntity
  8
03___PRT_ALL_CURVES
100
AcDbLine
 62
4
  6
CONTINUOUS
 10
-21.5313144806
 20
1.5787580593
 11
-21.5304492035
 21
1.5802567632
  0
LINE
  5
6D6
100
AcDbEntity
  8
03___PRT_ALL_CURVES
100
AcDbLine
 62
4
  6
CONTINUOUS
 10
-21.5320617654
 20
1.5774637241
 11
-21.5315504653
 21
1.5783493219
  0
LINE
  5
6D7
100
AcDbEntity
  8
03___PRT_ALL_CURVES
100
AcDbLine
 62
4
  6
CONTINUOUS
 10
-21.5319877098
 20
1.5709669922
 11
-21.5318303866
 21
1.571239484
  0
LINE
  5
6D8
100
AcDbEntity
  8
03___PRT_ALL_CURVES
100
AcDbLine
 62
4
  6
CONTINUOUS
 10
-21.5247117852
 20
1.5769442632
 11
-21.5265603318
 21
1.5737424867
  0
LINE
  5
6D9
100
AcDbEntity
  8
0
100
AcDbLine
 62
7
  6
CONTINUOUS
 10
-21.4695365501
 20
1.5725105738
 11
-21.4938293583
 21
1.5304341958
  0
LINE
  5
6DA
100
AcDbEntity
  8
0
100
AcDbLine
 62
7
  6
CONTINUOUS
 10
-21.3300234116
 20
1.5641544181
 11
-21.326095994
 21
1.5709569048
  0
LINE
  5
6DB
100
AcDbEntity
  8
0
100
AcDbLine
 62
3
  6
CONTINUOUS
 10
-21.3300234116
 20
1.5641544181
 11
-21.3855676904
 21
1.4679489051
  0
LINE
  5
6DC
100
AcDbEntity
  8
LAY0001
100
AcDbLine
 62
7
  6
CONTINUOUS
 10
-23.9115620515
 20
3.2858596795
 11
-23.9092790238
 21
3.2877753672
  0
LINE
  5
6DD
100
AcDbEntity
  8
LAY0001
100
AcDbLine
 62
7
  6
CONTINUOUS
 10
-23.9061919549
 20
3.2840963417
 11
-23.909092017
 21
3.2816629007
  0
LINE
  5
6DE
100
AcDbEntity
  8
LAY0001
100
AcDbLine
 62
7
  6
CONTINUOUS
 10
-23.9039886708
 20
3.2775859401
 11
-23.9030631191
 21
3.2783625702
  0
LINE
  5
6DF
100
AcDbEntity
  8
LAY0001
100
AcDbLine
 62
7
  6
CONTINUOUS
 10
-23.9393536713
 20
3.2476699831
 11
-23.937843447
 21
3.2489372118
  0
LINE
  5
6E0
100
AcDbEntity
  8
LAY0001
100
AcDbLine
 62
7
  6
CONTINUOUS
 10
-23.9411470627
 20
3.2461651491
 11
-23.9399200054
 21
3.2471947724
  0
LINE
  5
6E1
100
AcDbEntity
  8
LAY0001
100
AcDbLine
 62
7
  6
CONTINUOUS
 10
-23.9009016019
 20
3.2739069146
 11
-23.8999760502
 21
3.2746835447
  0
LINE
  5
6E2
100
AcDbEntity
  8
LAY0001
100
AcDbLine
 62
7
  6
CONTINUOUS
 10
-23.9319785444
 20
3.2430978344
 11
-23.9364148282
 21
3.2393753503
  0
LINE
  5
6E3
100
AcDbEntity
  8
LAY0001
100
AcDbLine
 62
7
  6
CONTINUOUS
 10
-23.9293500752
 20
3.2309559055
 11
-23.9288781302
 21
3.2313519144
  0
LINE
  5
6E4
100
AcDbEntity
  8
LAY0001
100
AcDbLine
 62
7
  6
CONTINUOUS
 10
-23.8855697276
 20
3.257514758
 11
-23.8864952793
 21
3.2567381279
  0
LINE
  5
6E5
100
AcDbEntity
  8
LAY0001
100
AcDbLine
 62
7
  6
CONTINUOUS
 10
-23.8824826587
 20
3.2538357325
 11
-23.8834082104
 21
3.2530591024
  0
LINE
  5
6E6
100
AcDbEntity
  8
LAY0001
100
AcDbLine
 62
7
  6
CONTINUOUS
 10
-23.8802793733
 20
3.247325329
 11
-23.8773793112
 21
3.2497587701
  0
LINE
  5
6E7
100
AcDbEntity
  8
LAY0001
100
AcDbLine
 62
7
  6
CONTINUOUS
 10
-23.9147486204
 20
3.2145130204
 11
-23.9107842816
 21
3.2178394956
  0
LINE
  5
6E8
100
AcDbEntity
  8
LAY0001
100
AcDbLine
 62
7
  6
CONTINUOUS
 10
-23.8742922423
 20
3.2460797446
 11
-23.8756497182
 21
3.2449406871
  0
LINE
  5
6E9
100
AcDbEntity
  8
LAY0001
100
AcDbLine
 62
7
  6
CONTINUOUS
 10
-23.8760199388
 20
3.2446300351
 11
-23.8771923044
 21
3.2436463036
  0
LINE
  5
6EA
100
AcDbEntity
  8
LAY0001
100
AcDbLine
 62
7
  6
CONTINUOUS
 10
-23.9054857156
 20
3.2115249106
 11
-23.9094500544
 21
3.2081984353
  0
LINE
  5
6EB
100
AcDbEntity
  8
LAY0001
100
AcDbLine
 62
7
  6
CONTINUOUS
 10
-23.861243397
 20
3.2277719022
 11
-23.8598859212
 21
3.2289109597
  0
LINE
  5
6EC
100
AcDbEntity
  8
LAY0001
100
AcDbLine
 62
7
  6
CONTINUOUS
 10
-23.8627859833
 20
3.2264775186
 11
-23.8616136177
 21
3.2274612502
  0
LINE
  5
6ED
100
AcDbEntity
  8
LAY0001
100
AcDbLine
 62
7
  6
CONTINUOUS
 10
-23.8567988522
 20
3.2252319342
 11
-23.8596989144
 21
3.2227984932
  0
LINE
  5
6EE
100
AcDbEntity
  8
LAY0001
100
AcDbLine
 62
7
  6
CONTINUOUS
 10
-23.8953205446
 20
3.1913595413
 11
-23.8957924897
 21
3.1909635324
  0
LINE
  5
6EF
100
AcDbEntity
  8
LAY0001
100
AcDbLine
 62
7
  6
CONTINUOUS
 10
-23.8453308671
 20
3.1923924217
 11
-23.8396999654
 21
3.1971173093
  0
LINE
  5
6F0
100
AcDbEntity
  8
LAY0001
100
AcDbLine
 62
7
  6
CONTINUOUS
 10
-23.8517296192
 20
3.1870232312
 11
-23.8468665676
 21
3.191103816
  0
LINE
  5
6F1
100
AcDbEntity
  8
LAY0001
100
AcDbLine
 62
7
  6
CONTINUOUS
 10
-23.8032728819
 20
3.1537052016
 11
-23.8153025357
 21
3.1436111235
  0
LINE
  5
6F2
100
AcDbEntity
  8
1_ALL_PLANES
100
AcDbLine
 62
7
  6
CONTINUOUS
 10
-23.7216836696
 20
3.0880431911
 11
-23.7799502091
 21
3.0391517593
  0
LINE
  5
6F3
100
AcDbEntity
  8
0
100
AcDbLine
 62
7
  6
CONTINUOUS
 10
-23.6741142303
 20
3.1130285074
 11
-23.7764417471
 21
3.0271655258
  0
LINE
  5
6F4
100
AcDbEntity
  8
0
100
AcDbLine
 62
7
  6
CONTINUOUS
 10
-24.8363799783
 20
4.5579503975
 11
-24.8959421359
 21
4.5301761073
  0
LINE
  5
6F5
100
AcDbEntity
  8
0
100
AcDbLine
 62
7
  6
CONTINUOUS
 10
-24.804129244
 20
4.5078290486
 11
-24.8711584293
 21
4.4765728262
  0
LINE
  5
6F6
100
AcDbEntity
  8
0
100
AcDbLine
 62
7
  6
CONTINUOUS
 10
-17.3603437249
 20
0.7523085857
 11
-21.1633553005
 21
0.7523085857
  0
LINE
  5
6F7
100
AcDbEntity
  8
03___PRT_ALL_CURVES
100
AcDbLine
 62
4
  6
CONTINUOUS
 10
-21.5680054411
 20
1.5991241204
 11
-21.5691583305
 21
1.5993355885
  0
LINE
  5
6F8
100
AcDbEntity
  8
03___PRT_ALL_CURVES
100
AcDbLine
 62
4
  6
CONTINUOUS
 10
-21.6056649339
 20
1.6222292968
 11
-21.6045120418
 21
1.6220178269
  0
LINE
  5
6F9
100
AcDbEntity
  8
03___PRT_ALL_CURVES
100
AcDbLine
 62
4
  6
CONTINUOUS
 10
-21.7396606185
 20
1.6926836129
 11
-21.7385077428
 21
1.6924721525
  0
LINE
  5
6FA
100
AcDbEntity
  8
03___PRT_ALL_CURVES
100
AcDbLine
 62
4
  6
CONTINUOUS
 10
-21.9506225917
 20
1.8131201069
 11
-21.9517754675
 21
1.8133315671
  0
LINE
  5
6FB
100
AcDbEntity
  8
03___PRT_ALL_CURVES
100
AcDbLine
 62
4
  6
CONTINUOUS
 10
-21.8610116799
 20
1.7607474089
 11
-21.8518672266
 21
1.7589194169
  0
LINE
  5
6FC
100
AcDbEntity
  8
03___PRT_ALL_CURVES
100
AcDbLine
 62
4
  6
CONTINUOUS
 10
-21.8484749123
 20
1.7559617274
 11
-21.8575407259
 21
1.7579259779
  0
LINE
  5
6FD
100
AcDbEntity
  8
03___PRT_ALL_CURVES
100
AcDbLine
 62
4
  6
CONTINUOUS
 10
-21.5331012694
 20
1.571246584
 11
-21.5319877098
 21
1.5709669922
  0
LINE
  5
6FE
100
AcDbEntity
  8
03___PRT_ALL_CURVES
100
AcDbLine
 62
4
  6
CONTINUOUS
 10
-21.5737428566
 20
1.6024366188
 11
-21.5748564179
 21
1.6027162116
  0
LINE
  5
6FF
100
AcDbEntity
  8
03___PRT_ALL_CURVES
100
AcDbLine
 62
4
  6
CONTINUOUS
 10
-21.5999275156
 20
1.6189167968
 11
-21.5988139543
 21
1.618637204
  0
LINE
  5
700
100
AcDbEntity
  8
03___PRT_ALL_CURVES
100
AcDbLine
 62
4
  6
CONTINUOUS
 10
-21.7339232002
 20
1.6893711129
 11
-21.7328096553
 21
1.6890915296
  0
LINE
  5
701
100
AcDbEntity
  8
03___PRT_ALL_CURVES
100
AcDbLine
 62
4
  6
CONTINUOUS
 10
-21.9574735549
 20
1.8167121902
 11
-21.95636001
 21
1.8164326069
  0
LINE
  5
702
100
AcDbEntity
  8
03___PRT_ALL_CURVES
100
AcDbLine
 62
4
  6
CONTINUOUS
 10
-21.9871291952
 20
1.8360138149
 11
-21.9860156503
 21
1.8357342316
  0
LINE
  5
703
100
AcDbEntity
  8
03___PRT_ALL_CURVES
100
AcDbLine
 62
4
  6
CONTINUOUS
 10
-21.5376857972
 20
1.5743476153
 11
-21.5387600258
 21
1.5746953296
  0
LINE
  5
704
100
AcDbEntity
  8
03___PRT_ALL_CURVES
100
AcDbLine
 62
4
  6
CONTINUOUS
 10
-21.6425525509
 20
1.6422547449
 11
-21.643626776
 21
1.6426024574
  0
LINE
  5
705
100
AcDbEntity
  8
03___PRT_ALL_CURVES
100
AcDbLine
 62
4
  6
CONTINUOUS
 10
-21.6482506385
 20
1.6456353678
 11
-21.6493248635
 21
1.6459830803
  0
LINE
  5
706
100
AcDbEntity
  8
03___PRT_ALL_CURVES
100
AcDbLine
 62
4
  6
CONTINUOUS
 10
-21.7765482465
 20
1.7127090673
 11
-21.7776224606
 21
1.7130567735
  0
LINE
  5
707
100
AcDbEntity
  8
03___PRT_ALL_CURVES
100
AcDbLine
 62
4
  6
CONTINUOUS
 10
-21.782246334
 20
1.7160896902
 11
-21.7833205481
 21
1.7164373964
  0
LINE
  5
708
100
AcDbEntity
  8
03___PRT_ALL_CURVES
100
AcDbLine
 62
4
  6
CONTINUOUS
 10
-21.801815998
 20
1.728569038
 11
-21.8114840565
 21
1.7316984695
  0
LINE
  5
709
100
AcDbEntity
  8
03___PRT_ALL_CURVES
100
AcDbLine
 62
4
  6
CONTINUOUS
 10
-21.8007024312
 20
1.728289442
 11
-21.796405509
 21
1.7268985793
  0
LINE
  5
70A
100
AcDbEntity
  8
03___PRT_ALL_CURVES
100
AcDbLine
 62
4
  6
CONTINUOUS
 10
-21.9803568935
 20
1.8322854858
 11
-21.9814311076
 21
1.832633192
  0
LINE
  5
70B
100
AcDbEntity
  8
03___PRT_ALL_CURVES
100
AcDbLine
 62
4
  6
CONTINUOUS
 10
-21.7906680907
 20
1.7235860793
 11
-21.8078164267
 21
1.7292176403
  0
LINE
  5
70C
100
AcDbEntity
  8
LAY0001
100
AcDbLine
 62
7
  6
CONTINUOUS
 10
-23.8834082104
 20
3.2530591024
 11
-23.8842312403
 21
3.2534133977
  0
LINE
  5
70D
100
AcDbEntity
  8
LAY0001
100
AcDbLine
 62
7
  6
CONTINUOUS
 10
-23.9030631191
 20
3.2783625702
 11
-23.9022400894
 21
3.2780082748
  0
LINE
  5
70E
100
AcDbEntity
  8
LAY0001
100
AcDbLine
 62
7
  6
CONTINUOUS
 10
-24.1900570637
 20
3.618508975
 11
-24.1908800848
 21
3.6188632598
  0
LINE
  5
70F
100
AcDbEntity
  8
LAY0001
100
AcDbLine
 62
7
  6
CONTINUOUS
 10
-24.3653004266
 20
3.8298620951
 11
-24.366123471
 21
3.8302164081
  0
LINE
  5
710
100
AcDbEntity
  8
LAY0001
100
AcDbLine
 62
7
  6
CONTINUOUS
 10
-24.1268864354
 20
3.47231297
 11
-24.1255313893
 21
3.47165654
  0
LINE
  5
711
100
AcDbEntity
  8
LAY0001
100
AcDbLine
 62
7
  6
CONTINUOUS
 10
-24.1565612826
 20
3.5048027222
 11
-24.1579163289
 21
3.5054591519
  0
LINE
  5
712
100
AcDbEntity
  8
LAY0001
100
AcDbLine
 62
7
  6
CONTINUOUS
 10
-24.1892085703
 20
3.5473523591
 11
-24.1878535242
 21
3.5466959292
  0
LINE
  5
713
100
AcDbEntity
  8
LAY0001
100
AcDbLine
 62
7
  6
CONTINUOUS
 10
-24.4545144266
 20
3.8627648056
 11
-24.4531594007
 21
3.8621083997
  0
LINE
  5
714
100
AcDbEntity
  8
LAY0001
100
AcDbLine
 62
7
  6
CONTINUOUS
 10
-24.2734487519
 20
3.716763523
 11
-24.272687411
 21
3.7163574347
  0
LINE
  5
715
100
AcDbEntity
  8
LAY0001
100
AcDbLine
 62
7
  6
CONTINUOUS
 10
-24.363036402
 20
3.8265373826
 11
-24.3622750611
 21
3.8261312943
  0
LINE
  5
716
100
AcDbEntity
  8
02___PRT_ALL_AXES
100
AcDbLine
 62
7
  6
CONTINUOUS
 10
-18.7618495127
 20
1.3960093731
 11
-18.7618495127
 21
1.1495028172
  0
LINE
  5
717
100
AcDbEntity
  8
02___PRT_ALL_AXES
100
AcDbLine
 62
7
  6
CONTINUOUS
 10
-18.5118495127
 20
1.3960093731
 11
-18.5118495127
 21
1.2973277659
  0
LINE
  5
718
100
AcDbEntity
  8
0
100
AcDbLine
 62
7
  6
CONTINUOUS
 10
-18.3870384891
 20
-0.8697386584
 11
-18.3870384891
 21
-0.8736756663
  0
LINE
  5
719
100
AcDbEntity
  8
0
100
AcDbLine
 62
7
  6
CONTINUOUS
 10
-18.7604396643
 20
1.1538146759
 11
-18.7598614712
 21
1.2200690416
  0
LINE
  5
71A
100
AcDbEntity
  8
0
100
AcDbLine
 62
7
  6
CONTINUOUS
 10
-18.1612824184
 20
1.3350544639
 11
-18.162864074
 21
1.1538146759
  0
LINE
  5
71B
100
AcDbEntity
  8
0
100
AcDbLine
 62
7
  6
CONTINUOUS
 10
-17.4729204698
 20
1.1460093731
 11
-21.0507785556
 21
1.1460093731
  0
LINE
  5
71C
100
AcDbEntity
  8
0
100
AcDbLine
 62
7
  6
CONTINUOUS
 10
-19.6868495127
 20
1.2050644912
 11
-19.7432863407
 21
1.2050644912
  0
LINE
  5
71D
100
AcDbEntity
  8
0
100
AcDbLine
 62
7
  6
CONTINUOUS
 10
-17.9293454411
 20
1.3428597668
 11
-18.1534087024
 21
1.3428597668
  0
LINE
  5
71E
100
AcDbEntity
  8
03___PRT_ALL_CURVES
100
AcDbLine
 62
4
  6
CONTINUOUS
 10
-21.8714245855
 20
1.7692117274
 11
-21.8785779118
 21
1.7700718028
  0
LINE
  5
71F
100
AcDbEntity
  8
03___PRT_ALL_CURVES
100
AcDbLine
 62
4
  6
CONTINUOUS
 10
-21.8843153301
 20
1.7733843028
 11
-21.8748168998
 21
1.7721694169
  0
LINE
  5
720
100
AcDbEntity
  8
0
100
AcDbLine
 62
7
  6
CONTINUOUS
 10
-17.9214717252
 20
1.3350544639
 11
-17.9198900695
 21
1.1538146759
  0
LINE
  5
721
100
AcDbEntity
  8
0
100
AcDbLine
 62
7
  6
CONTINUOUS
 10
-17.7855396758
 20
1.1538146759
 11
-17.787539341
 21
1.3829536066
  0
LINE
  5
722
100
AcDbEntity
  8
0
100
AcDbLine
 62
7
  6
CONTINUOUS
 10
-17.352470009
 20
0.7602513143
 11
-17.3548147308
 21
1.02892983
  0
LINE
  5
723
100
AcDbEntity
  8
0
100
AcDbLine
 62
7
  6
CONTINUOUS
 10
-17.8425095681
 20
1.3771472769
 11
-17.8444585622
 21
1.1538146759
  0
LINE
  5
724
100
AcDbEntity
  8
0
100
AcDbLine
 62
7
  6
CONTINUOUS
 10
-17.3652304209
 20
-0.6863364647
 11
-17.3527448709
 21
0.744365857
  0
LINE
  5
725
100
AcDbEntity
  8
0
100
AcDbLine
 62
7
  6
CONTINUOUS
 10
-20.8245149088
 20
8.6334372262
 11
-20.8251245844
 21
8.6337892513
  0
ARC
  5
726
100
AcDbEntity
  8
0
100
AcDbCircle
 62
7
  6
CONTINUOUS
 10
-13.4376836985
 20
19.8104467054
 40
0.4015748031
100
AcDbArc
 50
270.0
 51
356.0
  0
ARC
  5
727
100
AcDbEntity
  8
0
100
AcDbCircle
 62
7
  6
CONTINUOUS
 10
-25.0863932796
 20
19.8104467054
 40
0.4015748031
100
AcDbArc
 50
184.0
 51
270.0
  0
ARC
  5
728
100
AcDbEntity
  8
0
100
AcDbCircle
 62
7
  6
CONTINUOUS
 10
-14.2187314025
 20
25.1187521248
 40
0.1417322835
100
AcDbArc
 50
180.0
 51
221.5000000006
  0
ARC
  5
729
100
AcDbEntity
  8
0
100
AcDbCircle
 62
7
  6
CONTINUOUS
 10
-24.3053455757
 20
25.1187521248
 40
0.1417322835
100
AcDbArc
 50
318.4999999995
 51
360.0
  0
ARC
  5
72A
100
AcDbEntity
  8
0
100
AcDbCircle
 62
7
  6
CONTINUOUS
 10
-25.5259338572
 20
23.35886713
 40
0.1102362205
100
AcDbArc
 50
138.4999999989
 51
175.9999999999
  0
ARC
  5
72B
100
AcDbEntity
  8
0
100
AcDbCircle
 62
7
  6
CONTINUOUS
 10
-12.998143121
 20
23.35886713
 40
0.1102362205
100
AcDbArc
 50
4.0000000002
 51
41.5000000011
  0
ARC
  5
72C
100
AcDbEntity
  8
0
100
AcDbCircle
 62
7
  6
CONTINUOUS
 10
-12.7617124387
 20
22.535249855
 40
0.0826771654
100
AcDbArc
 50
90.0
 51
176.0
  0
ARC
  5
72D
100
AcDbEntity
  8
0
100
AcDbCircle
 62
7
  6
CONTINUOUS
 10
-25.7623645395
 20
22.535249855
 40
0.0826771654
100
AcDbArc
 50
4.0
 51
90.0
  0
ARC
  5
72E
100
AcDbEntity
  8
0
100
AcDbCircle
 62
7
  6
CONTINUOUS
 10
-14.2817235285
 20
19.3301317448
 40
0.0787401575
100
AcDbArc
 50
90.0
 51
180.0
  0
ARC
  5
72F
100
AcDbEntity
  8
0
100
AcDbCircle
 62
7
  6
CONTINUOUS
 10
-24.2423534497
 20
19.3301317448
 40
0.0787401575
100
AcDbArc
 50
0.0
 51
90.0
  0
ARC
  5
730
100
AcDbEntity
  8
0
100
AcDbCircle
 62
7
  6
CONTINUOUS
 10
-14.4195188041
 20
18.1805254455
 40
0.0590551181
100
AcDbArc
 50
270.0
 51
360.0
  0
ARC
  5
731
100
AcDbEntity
  8
0
100
AcDbCircle
 62
7
  6
CONTINUOUS
 10
-24.1045581741
 20
18.1805254455
 40
0.0590551181
100
AcDbArc
 50
180.0
 51
270.0
  0
ARC
  5
732
100
AcDbEntity
  8
0
100
AcDbCircle
 62
7
  6
CONTINUOUS
 10
-12.6990463631
 20
22.6691081227
 40
0.0511811024
100
AcDbArc
 50
270.0
 51
360.0
  0
ARC
  5
733
100
AcDbEntity
  8
0
100
AcDbCircle
 62
7
  6
CONTINUOUS
 10
-25.8250306151
 20
22.6691081227
 40
0.0511811024
100
AcDbArc
 50
180.0
 51
270.0
  0
ARC
  5
734
100
AcDbEntity
  8
0
100
AcDbCircle
 62
7
  6
CONTINUOUS
 10
-0.3536000011
 20
19.8104467054
 40
0.4015748031
100
AcDbArc
 50
184.0
 51
270.0
  0
ARC
  5
735
100
AcDbEntity
  8
0
100
AcDbCircle
 62
7
  6
CONTINUOUS
 10
0.4904398289
 20
19.3301317448
 40
0.0787401575
100
AcDbArc
 50
0.0
 51
90.0
  0
ARC
  5
736
100
AcDbEntity
  8
0
100
AcDbCircle
 62
7
  6
CONTINUOUS
 10
0.6282351045
 20
18.1805254455
 40
0.0590551181
100
AcDbArc
 50
180.0
 51
270.0
  0
ARC
  5
737
100
AcDbEntity
  8
0
100
AcDbCircle
 62
7
  6
CONTINUOUS
 10
0.4274477029
 20
25.1187521248
 40
0.1417322835
100
AcDbArc
 50
318.5
 51
360.0
  0
ARC
  5
738
100
AcDbEntity
  8
0
100
AcDbCircle
 62
7
  6
CONTINUOUS
 10
-0.7931405786
 20
23.35886713
 40
0.1102362205
100
AcDbArc
 50
138.5
 51
176.0
  0
ARC
  5
739
100
AcDbEntity
  8
0
100
AcDbCircle
 62
7
  6
CONTINUOUS
 10
-1.0295712609
 20
22.535249855
 40
0.0826771654
100
AcDbArc
 50
4.0
 51
90.0
  0
ARC
  5
73A
100
AcDbEntity
  8
0
100
AcDbCircle
 62
7
  6
CONTINUOUS
 10
-1.0922373365
 20
22.6691081227
 40
0.0511811024
100
AcDbArc
 50
180.0
 51
270.0
  0
ARC
  5
73B
100
AcDbEntity
  8
0
100
AcDbCircle
 62
7
  6
CONTINUOUS
 10
10.4510697501
 20
19.3301317448
 40
0.0787401575
100
AcDbArc
 50
90.0
 51
180.0
  0
ARC
  5
73C
100
AcDbEntity
  8
0
100
AcDbCircle
 62
7
  6
CONTINUOUS
 10
10.3132744745
 20
18.1805254455
 40
0.0590551181
100
AcDbArc
 50
270.0
 51
360.0
  0
ARC
  5
73D
100
AcDbEntity
  8
0
100
AcDbCircle
 62
7
  6
CONTINUOUS
 10
11.29510958
 20
19.8104467054
 40
0.4015748031
100
AcDbArc
 50
270.0
 51
356.0
  0
ARC
  5
73E
100
AcDbEntity
  8
0
100
AcDbCircle
 62
7
  6
CONTINUOUS
 10
12.0888650257
 20
20.536281442
 40
0.1181102362
100
AcDbArc
 50
180.0
 51
269.5
  0
ARC
  5
73F
100
AcDbEntity
  8
0
100
AcDbCircle
 62
7
  6
CONTINUOUS
 10
11.8019352973
 20
20.8128556006
 40
0.0806569759
100
AcDbArc
 50
255.7763075777
 51
269.4743862725
  0
ARC
  5
740
100
AcDbEntity
  8
0
100
AcDbCircle
 62
7
  6
CONTINUOUS
 10
11.8019361189
 20
20.8125797593
 40
0.080389822
100
AcDbArc
 50
240.3143353165
 51
255.7274340288
  0
ARC
  5
741
100
AcDbEntity
  8
0
100
AcDbCircle
 62
7
  6
CONTINUOUS
 10
11.801788254
 20
20.8121211283
 40
0.0799182159
100
AcDbArc
 50
223.8468899348
 51
240.2435924959
  0
ARC
  5
742
100
AcDbEntity
  8
0
100
AcDbCircle
 62
7
  6
CONTINUOUS
 10
11.892014632
 20
20.6526662951
 40
0.0787401575
100
AcDbArc
 50
5.6568005907
 51
89.4981076838
  0
ARC
  5
743
100
AcDbEntity
  8
0
100
AcDbCircle
 62
7
  6
CONTINUOUS
 10
11.8006161923
 20
20.8110218954
 40
0.0783114592
100
AcDbArc
 50
180.0465800882
 51
223.8609131843
  0
ARC
  5
744
100
AcDbEntity
  8
0
100
AcDbCircle
 62
7
  6
CONTINUOUS
 10
11.7817784115
 20
20.6384450198
 40
0.0078740157
100
AcDbArc
 50
179.9837503841
 51
269.4998382142
  0
ARC
  5
745
100
AcDbEntity
  8
0
100
AcDbCircle
 62
7
  6
CONTINUOUS
 10
13.8683925848
 20
20.5472759211
 40
0.1181102362
100
AcDbArc
 50
270.5
 51
360.0
  0
ARC
  5
746
100
AcDbEntity
  8
0
100
AcDbCircle
 62
7
  6
CONTINUOUS
 10
12.3723295926
 20
20.4239795591
 40
0.0078740157
100
AcDbArc
 50
180.0
 51
270.499985363
  0
ARC
  5
747
100
AcDbEntity
  8
0
100
AcDbCircle
 62
7
  6
CONTINUOUS
 10
12.3565815611
 20
20.4237046971
 40
0.0078740157
100
AcDbArc
 50
269.5
 51
360.0
  0
ARC
  5
748
100
AcDbEntity
  8
0
100
AcDbCircle
 62
7
  6
CONTINUOUS
 10
11.7346501576
 20
23.35886713
 40
0.1102362205
100
AcDbArc
 50
4.0
 51
38.2949933908
  0
ARC
  5
749
100
AcDbEntity
  8
0
100
AcDbCircle
 62
7
  6
CONTINUOUS
 10
11.8079226191
 20
23.2072876349
 40
0.0810656913
100
AcDbArc
 50
90.5336186551
 51
105.5589900114
  0
ARC
  5
74A
100
AcDbEntity
  8
0
100
AcDbCircle
 62
7
  6
CONTINUOUS
 10
11.8019364846
 20
23.2076397594
 40
0.0806613369
100
AcDbArc
 50
90.5269086907
 51
104.4500686446
  0
ARC
  5
74B
100
AcDbEntity
  8
0
100
AcDbCircle
 62
7
  6
CONTINUOUS
 10
11.8019344048
 20
23.104193784
 40
0.0806565586
100
AcDbArc
 50
255.7762251703
 51
269.4743859521
  0
ARC
  5
74C
100
AcDbEntity
  8
0
100
AcDbCircle
 62
7
  6
CONTINUOUS
 10
11.8019352529
 20
23.1039180373
 40
0.0803895031
100
AcDbArc
 50
240.3141575388
 51
255.727349377
  0
ARC
  5
74D
100
AcDbEntity
  8
0
100
AcDbCircle
 62
7
  6
CONTINUOUS
 10
11.8019378293
 20
23.2079209735
 40
0.0803893862
100
AcDbArc
 50
104.5010111222
 51
120.1074068763
  0
ARC
  5
74E
100
AcDbEntity
  8
0
100
AcDbCircle
 62
7
  6
CONTINUOUS
 10
11.8017874426
 20
23.1034595045
 40
0.0799180096
100
AcDbArc
 50
223.8466832981
 51
240.2434144046
  0
ARC
  5
74F
100
AcDbEntity
  8
0
100
AcDbCircle
 62
7
  6
CONTINUOUS
 10
11.8017818221
 20
23.2083922837
 40
0.0799034697
100
AcDbArc
 50
120.1801601146
 51
136.6180392213
  0
ARC
  5
750
100
AcDbEntity
  8
0
100
AcDbCircle
 62
7
  6
CONTINUOUS
 10
11.8013383236
 20
23.2089787951
 40
0.079178382
100
AcDbArc
 50
136.7060689913
 51
152.5893402423
  0
ARC
  5
751
100
AcDbEntity
  8
0
100
AcDbCircle
 62
7
  6
CONTINUOUS
 10
11.892014632
 20
23.3678334149
 40
0.0787401575
100
AcDbArc
 50
270.5011825318
 51
354.3509726986
  0
ARC
  5
752
100
AcDbEntity
  8
0
100
AcDbCircle
 62
7
  6
CONTINUOUS
 10
11.8007385736
 20
23.2093943813
 40
0.0784546997
100
AcDbArc
 50
152.657130265
 51
166.9654612225
  0
ARC
  5
753
100
AcDbEntity
  8
0
100
AcDbCircle
 62
7
  6
CONTINUOUS
 10
11.8006154219
 20
23.1023603613
 40
0.0783113447
100
AcDbArc
 50
180.0464921253
 51
223.860728875
  0
ARC
  5
754
100
AcDbEntity
  8
0
100
AcDbCircle
 62
7
  6
CONTINUOUS
 10
11.8005812622
 20
23.2095050534
 40
0.0782765142
100
AcDbArc
 50
167.0184122869
 51
179.9740084225
  0
ARC
  5
755
100
AcDbEntity
  8
0
100
AcDbCircle
 62
7
  6
CONTINUOUS
 10
11.7817784115
 20
23.5001824093
 40
0.0078740157
100
AcDbArc
 50
90.5001617858
 51
180.0162496159
  0
ARC
  5
756
100
AcDbEntity
  8
0
100
AcDbCircle
 62
7
  6
CONTINUOUS
 10
11.9282732984
 20
22.3060387789
 40
0.2038374211
100
AcDbArc
 50
92.2803603404
 51
107.3201987933
  0
ARC
  5
757
100
AcDbEntity
  8
0
100
AcDbCircle
 62
7
  6
CONTINUOUS
 10
11.9219924883
 20
22.3068824502
 40
0.2029341602
100
AcDbArc
 50
90.5478880284
 51
107.2809470173
  0
ARC
  5
758
100
AcDbEntity
  8
0
100
AcDbCircle
 62
7
  6
CONTINUOUS
 10
11.9218782197
 20
22.3077507856
 40
0.2020647981
100
AcDbArc
 50
90.5102518091
 51
100.3182599851
  0
ARC
  5
759
100
AcDbEntity
  8
0
100
AcDbCircle
 62
7
  6
CONTINUOUS
 10
11.9181873172
 20
22.3126668239
 40
0.1958833692
100
AcDbArc
 50
161.7654572629
 51
179.9281976185
  0
ARC
  5
75A
100
AcDbEntity
  8
0
100
AcDbCircle
 62
7
  6
CONTINUOUS
 10
11.9710808399
 20
22.535249855
 40
0.0826771654
100
AcDbArc
 50
90.0
 51
176.0
  0
ARC
  5
75B
100
AcDbEntity
  8
0
100
AcDbCircle
 62
7
  6
CONTINUOUS
 10
12.0337469155
 20
22.6691081227
 40
0.0511811024
100
AcDbArc
 50
270.0
 51
275.5384559099
  0
ARC
  5
75C
100
AcDbEntity
  8
0
100
AcDbCircle
 62
7
  6
CONTINUOUS
 10
11.9825657573
 20
22.4985414544
 40
0.0118109901
100
AcDbArc
 50
90.4997291414
 51
179.9999976363
  0
ARC
  5
75D
100
AcDbEntity
  8
0
100
AcDbCircle
 62
7
  6
CONTINUOUS
 10
12.0305973092
 20
22.5186464083
 40
0.0078740157
100
AcDbArc
 50
270.5
 51
330.1666663893
  0
ARC
  5
75E
100
AcDbEntity
  8
0
100
AcDbCircle
 62
7
  6
CONTINUOUS
 10
12.0888650257
 20
23.5432733861
 40
0.1181102362
100
AcDbArc
 50
90.5
 51
180.0
  0
ARC
  5
75F
100
AcDbEntity
  8
0
100
AcDbCircle
 62
7
  6
CONTINUOUS
 10
11.9825653553
 20
23.0337692827
 40
0.0118107489
100
AcDbArc
 50
180.0000193822
 51
269.5022209757
  0
ARC
  5
760
100
AcDbEntity
  8
0
100
AcDbCircle
 62
7
  6
CONTINUOUS
 10
11.9628807737
 20
23.5175114968
 40
0.0078740157
100
AcDbArc
 50
270.4999655823
 51
315.2499702529
  0
ARC
  5
761
100
AcDbEntity
  8
0
100
AcDbCircle
 62
7
  6
CONTINUOUS
 10
12.0305974287
 20
23.0136643242
 40
0.0078739816
100
AcDbArc
 50
59.6673174807
 51
89.5008699344
  0
ARC
  5
762
100
AcDbEntity
  8
0
100
AcDbCircle
 62
7
  6
CONTINUOUS
 10
10.5140618761
 20
25.1187521248
 40
0.1417322835
100
AcDbArc
 50
180.0
 51
221.5
  0
ARC
  5
763
100
AcDbEntity
  8
0
100
AcDbCircle
 62
7
  6
CONTINUOUS
 10
13.8683925848
 20
23.532278907
 40
0.1181102362
100
AcDbArc
 50
0.0
 51
89.5
  0
ARC
  5
764
100
AcDbEntity
  8
0
100
AcDbCircle
 62
7
  6
CONTINUOUS
 10
12.3723295926
 20
23.655575269
 40
0.0078740157
100
AcDbArc
 50
89.5
 51
180.0
  0
ARC
  5
765
100
AcDbEntity
  8
0
100
AcDbCircle
 62
7
  6
CONTINUOUS
 10
12.3565815611
 20
23.655847368
 40
0.0078740157
100
AcDbArc
 50
0.0201055388
 51
90.4998246098
  0
ARC
  5
766
100
AcDbEntity
  8
0
100
AcDbCircle
 62
7
  6
CONTINUOUS
 10
-21.1630802081
 20
0.7444345699
 40
0.0078740157
100
AcDbArc
 50
90.0016773479
 51
180.499985363
  0
ARC
  5
767
100
AcDbEntity
  8
0
100
AcDbCircle
 62
7
  6
CONTINUOUS
 10
-21.1633553005
 20
0.7601826014
 40
0.0078740157
100
AcDbArc
 50
179.5
 51
270.0
  0
ARC
  5
768
100
AcDbEntity
  8
0
100
AcDbCircle
 62
7
  6
CONTINUOUS
 10
-21.0403628655
 20
-0.6853057715
 40
0.1181102362
100
AcDbArc
 50
180.5
 51
265.63
  0
ARC
  5
769
100
AcDbEntity
  8
0
100
AcDbCircle
 62
7
  6
CONTINUOUS
 10
-21.0507784359
 20
1.0278991368
 40
0.1181102362
100
AcDbArc
 50
90.0
 51
179.500000507
  0
ARC
  5
76A
100
AcDbEntity
  8
0
100
AcDbCircle
 62
7
  6
CONTINUOUS
 10
-20.6930000312
 20
1.3770442076
 40
0.0118110236
100
AcDbArc
 50
0.4999999575
 51
79.622382448
  0
ARC
  5
76B
100
AcDbEntity
  8
0
100
AcDbCircle
 62
7
  6
CONTINUOUS
 10
-20.7243491134
 20
1.3828502171
 40
0.0118110236
100
AcDbArc
 50
79.3930445302
 51
179.4985958908
  0
ARC
  5
76C
100
AcDbEntity
  8
0
100
AcDbCircle
 62
7
  6
CONTINUOUS
 10
-19.7507937937
 20
0.5641488079
 40
0.633151848
100
AcDbArc
 50
89.41413704
 51
89.6996881654
  0
ARC
  5
76D
100
AcDbEntity
  8
0
100
AcDbCircle
 62
7
  6
CONTINUOUS
 10
-19.7553856452
 20
1.1538833888
 40
0.0078740157
100
AcDbArc
 50
180.5
 51
215.8323994692
  0
ARC
  5
76E
100
AcDbEntity
  8
0
100
AcDbCircle
 62
7
  6
CONTINUOUS
 10
-19.759412715
 20
1.1538833888
 40
0.007873906
100
AcDbArc
 50
298.638295689
 51
359.4999878013
  0
ARC
  5
76F
100
AcDbEntity
  8
0
100
AcDbCircle
 62
7
  6
CONTINUOUS
 10
-20.0267766428
 20
3.0672692156
 40
3.937007874
100
AcDbArc
 50
265.6299919824
 51
270.0000065308
  0
ARC
  5
770
100
AcDbEntity
  8
0
100
AcDbCircle
 62
7
  6
CONTINUOUS
 10
-19.8228904237
 20
1.219553695
 40
0.0590551181
100
AcDbArc
 50
0.4508631504
 51
85.97364614
  0
ARC
  5
771
100
AcDbEntity
  8
0
100
AcDbCircle
 62
7
  6
CONTINUOUS
 10
-19.7432863407
 20
1.1971904754
 40
0.0078740157
100
AcDbArc
 50
90.0
 51
179.5
  0
ARC
  5
772
100
AcDbEntity
  8
0
100
AcDbCircle
 62
7
  6
CONTINUOUS
 10
-19.7452377408
 20
1.1991589794
 40
0.0059055118
100
AcDbArc
 50
90.0
 51
179.5
  0
ARC
  5
773
100
AcDbEntity
  8
0
100
AcDbCircle
 62
7
  6
CONTINUOUS
 10
-20.8554520625
 20
6.779278802
 40
3.687007874
100
AcDbArc
 50
52.7357492679
 51
79.5450071726
  0
ARC
  5
774
100
AcDbEntity
  8
0
100
AcDbCircle
 62
7
  6
CONTINUOUS
 10
-20.8554520625
 20
6.779278802
 40
3.5885826772
100
AcDbArc
 50
53.8767997774
 51
82.2128452358
  0
ARC
  5
775
100
AcDbEntity
  8
0
100
AcDbCircle
 62
7
  6
CONTINUOUS
 10
-20.930197055
 20
8.3558882316
 40
3.687007874
100
AcDbArc
 50
1.3071777878
 51
28.1131056756
  0
ARC
  5
776
100
AcDbEntity
  8
0
100
AcDbCircle
 62
7
  6
CONTINUOUS
 10
-20.930197055
 20
8.3558882316
 40
3.5885826772
100
AcDbArc
 50
2.4482283917
 51
30.5663582996
  0
ARC
  5
777
100
AcDbEntity
  8
0
100
AcDbCircle
 62
7
  6
CONTINUOUS
 10
-20.8322191032
 20
8.6201109704
 40
0.0154086888
100
AcDbArc
 50
62.5857471345
 51
74.3414997963
  0
ARC
  5
778
100
AcDbEntity
  8
0
100
AcDbCircle
 62
7
  6
CONTINUOUS
 10
-19.5762064343
 20
5.8547168895
 40
3.687007874
100
AcDbArc
 50
104.164320627
 51
131.0344932169
  0
ARC
  5
779
100
AcDbEntity
  8
0
100
AcDbCircle
 62
7
  6
CONTINUOUS
 10
-19.5762064343
 20
5.8547168895
 40
3.5885826772
100
AcDbArc
 50
105.3053712332
 51
133.865589285
  0
ARC
  5
77A
100
AcDbEntity
  8
0
100
AcDbCircle
 62
7
  6
CONTINUOUS
 10
-19.7441569081
 20
9.3973261208
 40
3.687007874
100
AcDbArc
 50
309.8786064133
 51
336.3741552685
  0
ARC
  5
77B
100
AcDbEntity
  8
0
100
AcDbCircle
 62
7
  6
CONTINUOUS
 10
-19.7441569081
 20
9.3973261208
 40
3.5885826772
100
AcDbArc
 50
311.0196567932
 51
339.1353878719
  0
ARC
  5
77C
100
AcDbEntity
  8
0
100
AcDbCircle
 62
7
  6
CONTINUOUS
 10
-19.2620384891
 20
7.6460093731
 40
6.6141732283
100
AcDbArc
 50
282.8929823969
 51
257.1102227064
  0
CIRCLE
  5
77D
100
AcDbEntity
  8
0
100
AcDbCircle
 62
7
  6
CONTINUOUS
 10
-19.2620384891
 20
7.6460093731
 40
4.9015748031
  0
CIRCLE
  5
77E
100
AcDbEntity
  8
0
100
AcDbCircle
 62
7
  6
CONTINUOUS
 10
-19.2620384891
 20
7.6460093731
 40
2.9133858268
  0
ARC
  5
77F
100
AcDbEntity
  8
0
100
AcDbCircle
 62
7
  6
CONTINUOUS
 10
-18.7683133802
 20
1.1538833888
 40
0.0078740157
100
AcDbArc
 50
323.2895248036
 51
359.5
  0
ARC
  5
780
100
AcDbEntity
  8
0
100
AcDbCircle
 62
7
  6
CONTINUOUS
 10
-18.4969223827
 20
3.0672692156
 40
3.937007874
100
AcDbArc
 50
269.9999934704
 51
274.3700080186
  0
ARC
  5
781
100
AcDbEntity
  8
0
100
AcDbCircle
 62
7
  6
CONTINUOUS
 10
-18.7008086017
 20
1.219553695
 40
0.0590551181
100
AcDbArc
 50
93.984339817
 51
179.5
  0
ARC
  5
782
100
AcDbEntity
  8
0
100
AcDbCircle
 62
7
  6
CONTINUOUS
 10
-18.1534087024
 20
1.334985751
 40
0.0078740157
100
AcDbArc
 50
90.0
 51
179.5
  0
ARC
  5
783
100
AcDbEntity
  8
0
100
AcDbCircle
 62
7
  6
CONTINUOUS
 10
-17.8523322782
 20
1.1538833888
 40
0.0078740157
100
AcDbArc
 50
314.1693059311
 51
359.5
  0
ARC
  5
784
100
AcDbEntity
  8
0
100
AcDbCircle
 62
7
  6
CONTINUOUS
 10
-17.4833361599
 20
-0.6853057715
 40
0.1181102362
100
AcDbArc
 50
274.37
 51
359.5
  0
ARC
  5
785
100
AcDbEntity
  8
0
100
AcDbCircle
 62
7
  6
CONTINUOUS
 10
-17.4729204698
 20
1.0278991368
 40
0.1181102362
100
AcDbArc
 50
0.5
 51
90.0
  0
ARC
  5
786
100
AcDbEntity
  8
0
100
AcDbCircle
 62
7
  6
CONTINUOUS
 10
-17.3606188174
 20
0.7444345699
 40
0.0078740157
100
AcDbArc
 50
359.5
 51
89.9983226521
  0
ARC
  5
787
100
AcDbEntity
  8
0
100
AcDbCircle
 62
7
  6
CONTINUOUS
 10
-17.3603437249
 20
0.7601826014
 40
0.0078740157
100
AcDbArc
 50
270.0
 51
0.4998246098
  0
ARC
  5
788
100
AcDbEntity
  8
0
100
AcDbCircle
 62
7
  6
CONTINUOUS
 10
-17.8306989942
 20
1.3770442076
 40
0.0118110236
100
AcDbArc
 50
100.3774427117
 51
179.5
  0
ARC
  5
789
100
AcDbEntity
  8
0
100
AcDbCircle
 62
7
  6
CONTINUOUS
 10
-17.7993497637
 20
1.3828332139
 40
0.0118110236
100
AcDbArc
 50
0.5840396611
 51
100.5921306628
  0
ARC
  5
78A
100
AcDbEntity
  8
0
100
AcDbCircle
 62
7
  6
CONTINUOUS
 10
-17.9293454411
 20
1.334985751
 40
0.0078740157
100
AcDbArc
 50
0.5
 51
90.0
  0
CIRCLE
  5
78B
100
AcDbEntity
  8
0
100
AcDbCircle
 62
7
  6
CONTINUOUS
 10
-19.2558929515
 20
7.645188305
 40
1.9086094353
  0
CIRCLE
  5
78C
100
AcDbEntity
  8
0
100
AcDbCircle
 62
7
  6
CONTINUOUS
 10
-19.2558929515
 20
7.645188305
 40
1.8346456693
  0
CIRCLE
  5
78D
100
AcDbEntity
  8
0
100
AcDbCircle
 62
7
  6
CONTINUOUS
 10
-19.2558929515
 20
7.645188305
 40
1.811023622
  0
CIRCLE
  5
78E
100
AcDbEntity
  8
0
100
AcDbCircle
 62
7
  6
CONTINUOUS
 10
-19.2558929515
 20
7.645188305
 40
1.6653543307
  0
CIRCLE
  5
78F
100
AcDbEntity
  8
0
100
AcDbCircle
 62
7
  6
CONTINUOUS
 10
-19.2558929515
 20
7.645188305
 40
1.2007874016
  0
CIRCLE
  5
790
100
AcDbEntity
  8
0
100
AcDbCircle
 62
7
  6
CONTINUOUS
 10
-19.2558929515
 20
7.645188305
 40
0.6692913386
  0
CIRCLE
  5
791
100
AcDbEntity
  8
0
100
AcDbCircle
 62
7
  6
CONTINUOUS
 10
-19.2558929515
 20
7.645188305
 40
0.437007874
  0
CIRCLE
  5
792
100
AcDbEntity
  8
0
100
AcDbCircle
 62
7
  6
CONTINUOUS
 10
-19.2558929515
 20
7.645188305
 40
0.4133858268
  0
ARC
  5
793
100
AcDbEntity
  8
0
100
AcDbCircle
 62
7
  6
CONTINUOUS
 10
-19.2618495127
 20
9.1919630451
 40
7.9330708661
100
AcDbArc
 50
280.3776175458
 51
280.6075412593
  0
ARC
  5
794
100
AcDbEntity
  8
0
100
AcDbCircle
 62
7
  6
CONTINUOUS
 10
-19.2618495127
 20
9.1919630451
 40
7.9330708661
100
AcDbArc
 50
274.0257349946
 51
277.9741031471
  0
ARC
  5
795
100
AcDbEntity
  8
0
100
AcDbCircle
 62
7
  6
CONTINUOUS
 10
-19.2618495127
 20
9.1919630451
 40
7.9330708661
100
AcDbArc
 50
278.3245804608
 51
280.3595846052
  0
ARC
  5
796
100
AcDbEntity
  8
0
100
AcDbCircle
 62
7
  6
CONTINUOUS
 10
-19.2618495127
 20
9.1919630451
 40
7.9330708661
100
AcDbArc
 50
259.3924587407
 51
259.6223824542
  0
ARC
  5
797
100
AcDbEntity
  8
0
100
AcDbCircle
 62
7
  6
CONTINUOUS
 10
-19.2618495127
 20
9.1919630451
 40
7.9330708661
100
AcDbArc
 50
259.6403592177
 51
265.974577765
  0
ARC
  5
798
100
AcDbEntity
  8
0
100
AcDbCircle
 62
7
  6
CONTINUOUS
 10
-17.4390359373
 20
7.7313231215
 40
3.687007874
100
AcDbArc
 50
207.0214630551
 51
233.8058199794
  0
ARC
  5
799
100
AcDbEntity
  8
0
100
AcDbCircle
 62
7
  6
CONTINUOUS
 10
-18.0557582204
 20
6.2784164718
 40
3.687007874
100
AcDbArc
 50
155.5928920555
 51
182.5583950851
  0
ARC
  5
79A
100
AcDbEntity
  8
0
100
AcDbCircle
 62
7
  6
CONTINUOUS
 10
-17.4390359373
 20
7.7313231215
 40
3.5885826772
100
AcDbArc
 50
208.1625140393
 51
236.3423025577
  0
ARC
  5
79B
100
AcDbEntity
  8
0
100
AcDbCircle
 62
7
  6
CONTINUOUS
 10
-18.0557582204
 20
6.2784164718
 40
3.5885826772
100
AcDbArc
 50
156.7339426606
 51
185.0893337609
  0
ARC
  5
79C
100
AcDbEntity
  8
0
100
AcDbCircle
 62
7
  6
CONTINUOUS
 10
-18.190444043
 20
9.1193684975
 40
3.687007874
100
AcDbArc
 50
258.4500344837
 51
284.9690221162
  0
ARC
  5
79D
100
AcDbEntity
  8
0
100
AcDbCircle
 62
7
  6
CONTINUOUS
 10
-18.190444043
 20
9.1193684975
 40
3.5885826772
100
AcDbArc
 50
259.5910854677
 51
287.7469175313
  0
SPLINE
  5
79E
100
AcDbEntity
  8
0
100
AcDbSpline
 62
7
  6
CONTINUOUS
 70
0
 71
3
 72
8
 73
4
 74
0
 42
0.0000001
 43
0.0000001
 44
0.0000000001
 40
0.0
 40
0.0
 40
0.0
 40
0.0
 40
1.0
 40
1.0
 40
1.0
 40
1.0
 10
11.7675183449
 20
23.0343091344
 30
0.0
 10
11.7777121156
 20
23.0284048655
 30
0.0
 10
11.7895069974
 20
23.0247271851
 30
0.0
 10
11.8012473072
 20
23.0237584338
 30
0.0
  0
SPLINE
  5
79F
100
AcDbEntity
  8
0
100
AcDbSpline
 62
7
  6
CONTINUOUS
 70
0
 71
3
 72
8
 73
4
 74
0
 42
0.0000001
 43
0.0000001
 44
0.0000000001
 40
0.0
 40
0.0
 40
0.0
 40
0.0
 40
1.0
 40
1.0
 40
1.0
 40
1.0
 10
11.7675200751
 20
20.7429704159
 30
0.0
 10
11.7777136245
 20
20.7370663305
 30
0.0
 10
11.7895081795
 20
20.7333887196
 30
0.0
 10
11.8012481975
 20
20.7324198791
 30
0.0
  0
SPLINE
  5
7A0
100
AcDbEntity
  8
0
100
AcDbSpline
 62
7
  6
CONTINUOUS
 70
0
 71
3
 72
9
 73
5
 74
0
 42
0.0000001
 43
0.0000001
 44
0.0000000001
 40
0.0
 40
0.0
 40
0.0
 40
0.0
 40
0.4999533392
 40
1.0
 40
1.0
 40
1.0
 40
1.0
 10
11.7321405102
 20
22.3739602159
 30
0.0
 10
11.7418823991
 20
22.4034630623
 30
0.0
 10
11.7762630532
 20
22.4584921352
 30
0.0
 10
11.8320429239
 20
22.4914049883
 30
0.0
 10
11.8617094016
 20
22.5006560883
 30
0.0
  0
SPLINE
  5
7A1
100
AcDbEntity
  8
0
100
AcDbSpline
 62
7
  6
CONTINUOUS
 70
0
 71
3
 72
13
 73
9
 74
0
 42
0.0000001
 43
0.0000001
 44
0.0000000001
 40
0.0
 40
0.0
 40
0.0
 40
0.0
 40
0.3585304324
 40
0.6714277326
 40
0.8012666457
 40
0.9051755252
 40
0.9746105208
 40
1.0
 40
1.0
 40
1.0
 40
1.0
 10
12.052014632
 20
22.4991796846
 30
0.0
 10
12.0502923036
 20
22.5004477474
 30
0.0
 10
12.0471276326
 20
22.502896255
 30
0.0
 10
12.0434393572
 20
22.5059662051
 30
0.0
 10
12.0410942094
 20
22.508198511
 30
0.0
 10
12.039699925
 20
22.5094255817
 30
0.0
 10
12.0390830009
 20
22.5103581517
 30
0.0
 10
12.0384713249
 20
22.5106893494
 30
0.0
 10
12.0384713249
 20
22.5108408082
 30
0.0
  0
SPLINE
  5
7A2
100
AcDbEntity
  8
0
100
AcDbSpline
 62
7
  6
CONTINUOUS
 70
0
 71
3
 72
13
 73
9
 74
0
 42
0.0000001
 43
0.0000001
 44
0.0000000001
 40
0.0
 40
0.0
 40
0.0
 40
0.0
 40
0.0258186077
 40
0.09573626
 40
0.1995658651
 40
0.3291617137
 40
0.6417875403
 40
1.0
 40
1.0
 40
1.0
 40
1.0
 10
12.0384713249
 20
23.0214464204
 30
0.0
 10
12.0384713249
 20
23.0216005894
 30
0.0
 10
12.0390774663
 20
23.0219461136
 30
0.0
 10
12.039696671
 20
23.0228851554
 30
0.0
 10
12.041091755
 20
23.0241148051
 30
0.0
 10
12.0434409854
 20
23.0263425202
 30
0.0
 10
12.0471266456
 20
23.0294145903
 30
0.0
 10
12.0502922024
 20
23.0318628093
 30
0.0
 10
12.052014632
 20
23.0331310498
 30
0.0
  0
SPLINE
  5
7A3
100
AcDbEntity
  8
1_ALL_PLANES
100
AcDbSpline
 62
7
  6
CONTINUOUS
 70
0
 71
3
 72
78
 73
74
 74
0
 42
0.0000001
 43
0.0000001
 44
0.0000000001
 40
0.0
 40
0.0
 40
0.0
 40
0.0
 40
0.03125
 40
0.0625
 40
0.078125
 40
0.09375
 40
0.109375
 40
0.1171875
 40
0.12109375
 40
0.125
 40
0.12890625
 40
0.1328125
 40
0.140625
 40
0.15625
 40
0.171875
 40
0.1875
 40
0.203125
 40
0.21875
 40
0.234375
 40
0.2421875
 40
0.24609375
 40
0.25
 40
0.25390625
 40
0.2578125
 40
0.265625
 40
0.28125
 40
0.296875
 40
0.3125
 40
0.328125
 40
0.34375
 40
0.359375
 40
0.3671875
 40
0.37109375
 40
0.375
 40
0.37890625
 40
0.3828125
 40
0.390625
 40
0.40625
 40
0.421875
 40
0.4375
 40
0.46875
 40
0.484375
 40
0.4921875
 40
0.49609375
 40
0.5
 40
0.50390625
 40
0.5078125
 40
0.515625
 40
0.53125
 40
0.5625
 40
0.59375
 40
0.609375
 40
0.6171875
 40
0.625
 40
0.6328125
 40
0.640625
 40
0.65625
 40
0.6875
 40
0.71875
 40
0.734375
 40
0.7421875
 40
0.75
 40
0.7578125
 40
0.765625
 40
0.78125
 40
0.8125
 40
0.84375
 40
0.859375
 40
0.875
 40
0.890625
 40
0.90625
 40
0.9375
 40
1.0
 40
1.0
 40
1.0
 40
1.0
 10
-23.7216836696
 20
3.0880431911
 30
0.0
 10
-23.7216960867
 20
3.0881985137
 30
0.0
 10
-23.7217209563
 20
3.0885091998
 30
0.0
 10
-23.7217518671
 20
3.0888973533
 30
0.0
 10
-23.7217769656
 20
3.0892083047
 30
0.0
 10
-23.7217947856
 20
3.0894403549
 30
0.0
 10
-23.7218128278
 20
3.0896374293
 30
0.0
 10
-23.721819193
 20
3.0897681219
 30
0.0
 10
-23.7218326114
 20
3.0898541384
 30
0.0
 10
-23.7218151215
 20
3.0898867198
 30
0.0
 10
-23.7219029559
 20
3.0900413578
 30
0.0
 10
-23.72198333
 20
3.0902049671
 30
0.0
 10
-23.7221411025
 20
3.0905111204
 30
0.0
 10
-23.722357537
 20
3.090938105
 30
0.0
 10
-23.722621115
 20
3.0914549552
 30
0.0
 10
-23.722883594
 20
3.0919705342
 30
0.0
 10
-23.7231466127
 20
3.0924867296
 30
0.0
 10
-23.7234085715
 20
3.0930017306
 30
0.0
 10
-23.7236299539
 20
3.0934343659
 30
0.0
 10
-23.72377891
 20
3.0937304506
 30
0.0
 10
-23.7238734084
 20
3.0939101901
 30
0.0
 10
-23.723917858
 20
3.0940152815
 30
0.0
 10
-23.724063314
 20
3.0942339518
 30
0.0
 10
-23.7242220231
 20
3.0944858945
 30
0.0
 10
-23.72451618
 20
3.0949452536
 30
0.0
 10
-23.7249278165
 20
3.0955918242
 30
0.0
 10
-23.7254254792
 20
3.096371868
 30
0.0
 10
-23.7259220864
 20
3.0971507262
 30
0.0
 10
-23.726419217
 20
3.0979301678
 30
0.0
 10
-23.7269153092
 20
3.0987084616
 30
0.0
 10
-23.7273317445
 20
3.0993603794
 30
0.0
 10
-23.7276173508
 20
3.0998102108
 30
0.0
 10
-23.7277897584
 20
3.1000774172
 30
0.0
 10
-23.7278931375
 20
3.1002492028
 30
0.0
 10
-23.7280956208
 20
3.100530385
 30
0.0
 10
-23.7283310301
 20
3.100867136
 30
0.0
 10
-23.7287591012
 20
3.1014742277
 30
0.0
 10
-23.7293622214
 20
3.1023322174
 30
0.0
 10
-23.7300895218
 20
3.103365735
 30
0.0
 10
-23.7310582311
 20
3.1047426051
 30
0.0
 10
-23.7320259753
 20
3.1061185359
 30
0.0
 10
-23.7328759573
 20
3.1073256977
 30
0.0
 10
-23.7332965617
 20
3.107924856
 30
0.0
 10
-23.733543969
 20
3.1082743534
 30
0.0
 10
-23.7337095921
 20
3.1085163763
 30
0.0
 10
-23.7339514137
 20
3.1088352393
 30
0.0
 10
-23.734247267
 20
3.1092335907
 30
0.0
 10
-23.7347773571
 20
3.109943157
 30
0.0
 10
-23.7358288972
 20
3.1113535709
 30
0.0
 10
-23.737334603
 20
3.1133720281
 30
0.0
 10
-23.7388427433
 20
3.1153927714
 30
0.0
 10
-23.7398908752
 20
3.1167999847
 30
0.0
 10
-23.7405020482
 20
3.117615947
 30
0.0
 10
-23.7409258682
 20
3.1181944853
 30
0.0
 10
-23.7414818069
 20
3.1189008372
 30
0.0
 10
-23.7421769643
 20
3.1197980486
 30
0.0
 10
-23.7434150631
 20
3.1213890276
 30
0.0
 10
-23.7451717152
 20
3.1236502788
 30
0.0
 10
-23.7469355173
 20
3.1259181021
 30
0.0
 10
-23.748163606
 20
3.1274998803
 30
0.0
 10
-23.7488744936
 20
3.1284115502
 30
0.0
 10
-23.7493821693
 20
3.1290735408
 30
0.0
 10
-23.7499872437
 20
3.12981868
 30
0.0
 10
-23.7507600568
 20
3.1307832113
 30
0.0
 10
-23.7521280888
 20
3.1324844905
 30
0.0
 10
-23.7540759511
 20
3.134909169
 30
0.0
 10
-23.7560199583
 20
3.1373313016
 30
0.0
 10
-23.7575895914
 20
3.1392796942
 30
0.0
 10
-23.7587258474
 20
3.1407104566
 30
0.0
 10
-23.7600187651
 20
3.1422580037
 30
0.0
 10
-23.7616879945
 20
3.1442806525
 30
0.0
 10
-23.7646347682
 20
3.1478393881
 30
0.0
 10
-23.7671517895
 20
3.1508831843
 30
0.0
 10
-23.7688317559
 20
3.152913837
 30
0.0
  0
SPLINE
  5
7A4
100
AcDbEntity
  8
1_ALL_PLANES
100
AcDbSpline
 62
7
  6
CONTINUOUS
 70
0
 71
3
 72
78
 73
74
 74
0
 42
0.0000001
 43
0.0000001
 44
0.0000000001
 40
0.0
 40
0.0
 40
0.0
 40
0.0
 40
0.0625
 40
0.09375
 40
0.109375
 40
0.125
 40
0.140625
 40
0.15625
 40
0.1875
 40
0.21875
 40
0.234375
 40
0.2421875
 40
0.25
 40
0.2578125
 40
0.265625
 40
0.28125
 40
0.3125
 40
0.34375
 40
0.359375
 40
0.3671875
 40
0.375
 40
0.3828125
 40
0.390625
 40
0.40625
 40
0.4375
 40
0.453125
 40
0.46875
 40
0.484375
 40
0.4921875
 40
0.49609375
 40
0.5
 40
0.50390625
 40
0.5078125
 40
0.515625
 40
0.53125
 40
0.5625
 40
0.578125
 40
0.59375
 40
0.609375
 40
0.6171875
 40
0.62109375
 40
0.625
 40
0.62890625
 40
0.6328125
 40
0.640625
 40
0.65625
 40
0.6875
 40
0.703125
 40
0.71875
 40
0.734375
 40
0.7421875
 40
0.74609375
 40
0.75
 40
0.75390625
 40
0.7578125
 40
0.765625
 40
0.78125
 40
0.796875
 40
0.8125
 40
0.828125
 40
0.84375
 40
0.859375
 40
0.8671875
 40
0.87109375
 40
0.875
 40
0.87890625
 40
0.8828125
 40
0.890625
 40
0.90625
 40
0.921875
 40
0.9375
 40
0.96875
 40
1.0
 40
1.0
 40
1.0
 40
1.0
 10
-24.4694702482
 20
3.9879022773
 30
0.0
 10
-24.4711485032
 20
3.9898747867
 30
0.0
 10
-24.4736649959
 20
3.9928311823
 30
0.0
 10
-24.4766040183
 20
3.9962885999
 30
0.0
 10
-24.4782790108
 20
3.9982524252
 30
0.0
 10
-24.4795477121
 20
3.9997584516
 30
0.0
 10
-24.48076881
 20
4.0011377689
 30
0.0
 10
-24.4824135015
 20
4.0030210064
 30
0.0
 10
-24.4844641672
 20
4.005360717
 30
0.0
 10
-24.4865149262
 20
4.0077025882
 30
0.0
 10
-24.4879539007
 20
4.0093473963
 30
0.0
 10
-24.4887702412
 20
4.0102772128
 30
0.0
 10
-24.4893993049
 20
4.0110032259
 30
0.0
 10
-24.4899641004
 20
4.0116196727
 30
0.0
 10
-24.4907395871
 20
4.012479833
 30
0.0
 10
-24.4920861544
 20
4.0139671671
 30
0.0
 10
-24.4940160198
 20
4.0161023902
 30
0.0
 10
-24.4959411594
 20
4.0182299566
 30
0.0
 10
-24.4972943429
 20
4.0197280101
 30
0.0
 10
-24.4980594326
 20
4.0205713255
 30
0.0
 10
-24.4986561281
 20
4.0212394555
 30
0.0
 10
-24.4991653897
 20
4.0217713696
 30
0.0
 10
-24.4998749074
 20
4.0225281084
 30
0.0
 10
-24.501102309
 20
4.0238301974
 30
0.0
 10
-24.5025112905
 20
4.0253279945
 30
0.0
 10
-24.5039178523
 20
4.0268220814
 30
0.0
 10
-24.5049737959
 20
4.0279440818
 30
0.0
 10
-24.5058513498
 20
4.0288758441
 30
0.0
 10
-24.5064702284
 20
4.0295342495
 30
0.0
 10
-24.506816723
 20
4.0299008724
 30
0.0
 10
-24.5070967332
 20
4.0302029025
 30
0.0
 10
-24.5072997613
 20
4.0304014854
 30
0.0
 10
-24.5075973153
 20
4.0307023429
 30
0.0
 10
-24.508105549
 20
4.0312120654
 30
0.0
 10
-24.5091308833
 20
4.0322434261
 30
0.0
 10
-24.5102989703
 20
4.0334171169
 30
0.0
 10
-24.5114680945
 20
4.0345922112
 30
0.0
 10
-24.5123455495
 20
4.0354743285
 30
0.0
 10
-24.5130742905
 20
4.0362061863
 30
0.0
 10
-24.5135893317
 20
4.0367249421
 30
0.0
 10
-24.5138759438
 20
4.0370112797
 30
0.0
 10
-24.5141125879
 20
4.0372544714
 30
0.0
 10
-24.5142663405
 20
4.0373889561
 30
0.0
 10
-24.5145002548
 20
4.0376061839
 30
0.0
 10
-24.5148961608
 20
4.0379687015
 30
0.0
 10
-24.5156975193
 20
4.0387062571
 30
0.0
 10
-24.5166093544
 20
4.0395439222
 30
0.0
 10
-24.5175222887
 20
4.0403830449
 30
0.0
 10
-24.5182076949
 20
4.0410132699
 30
0.0
 10
-24.5187760572
 20
4.0415349067
 30
0.0
 10
-24.5191795021
 20
4.0419071225
 30
0.0
 10
-24.5194012999
 20
4.0421087625
 30
0.0
 10
-24.5195922771
 20
4.0422911368
 30
0.0
 10
-24.51968911
 20
4.042354461
 30
0.0
 10
-24.5198510592
 20
4.0424804193
 30
0.0
 10
-24.5201191694
 20
4.0426814978
 30
0.0
 10
-24.5205101887
 20
4.0429788749
 30
0.0
 10
-24.5209759625
 20
4.0433313661
 30
0.0
 10
-24.5214427262
 20
4.0436851075
 30
0.0
 10
-24.5219089795
 20
4.0440382092
 30
0.0
 10
-24.5223762847
 20
4.0443926197
 30
0.0
 10
-24.5227626246
 20
4.0446841321
 30
0.0
 10
-24.5230390727
 20
4.0448956606
 30
0.0
 10
-24.5231876642
 20
4.0450048775
 30
0.0
 10
-24.5233255274
 20
4.0451196256
 30
0.0
 10
-24.5233624015
 20
4.0451088603
 30
0.0
 10
-24.5234467932
 20
4.0451382871
 30
0.0
 10
-24.5235780661
 20
4.0451693858
 30
0.0
 10
-24.5237741795
 20
4.045224477
 30
0.0
 10
-24.5240058427
 20
4.0452860216
 30
0.0
 10
-24.5243160103
 20
4.0453696761
 30
0.0
 10
-24.5247032766
 20
4.0454736933
 30
0.0
 10
-24.5250132247
 20
4.045557075
 30
0.0
 10
-24.5251681819
 20
4.0455987449
 30
0.0
  0
SPLINE
  5
7A5
100
AcDbEntity
  8
0
100
AcDbSpline
 62
7
  6
CONTINUOUS
 70
0
 71
3
 72
27
 73
23
 74
0
 42
0.0000001
 43
0.0000001
 44
0.0000000001
 40
0.0
 40
0.0
 40
0.0
 40
0.0
 40
0.001719606
 40
0.0036369007
 40
0.0058957047
 40
0.0085843339
 40
0.0154297262
 40
0.0243932572
 40
0.0355534166
 40
0.0489407801
 40
0.0645489929
 40
0.0823503685
 40
0.1023110633
 40
0.1243937359
 40
0.1747542951
 40
0.2329736766
 40
0.2985028751
 40
0.3707539105
 40
0.4490097506
 40
0.620503763
 40
0.8066293734
 40
1.0
 40
1.0
 40
1.0
 40
1.0
 10
-21.326095994
 20
1.5709569048
 30
0.0
 10
-21.3260732331
 20
1.5709963278
 30
0.0
 10
-21.3260406318
 20
1.571089344
 30
0.0
 10
-21.3260384584
 20
1.5712472731
 30
0.0
 10
-21.3260778272
 20
1.5714258253
 30
0.0
 10
-21.3261939583
 20
1.5717166039
 30
0.0
 10
-21.3264547685
 20
1.5721344627
 30
0.0
 10
-21.3269013773
 20
1.5726920546
 30
0.0
 10
-21.3275077575
 20
1.5733406043
 30
0.0
 10
-21.3282733115
 20
1.5740784905
 30
0.0
 10
-21.3291971879
 20
1.5749041522
 30
0.0
 10
-21.3302770459
 20
1.5758154053
 30
0.0
 10
-21.3315103546
 20
1.5768099177
 30
0.0
 10
-21.333442131
 20
1.578310697
 30
0.0
 10
-21.3362223756
 20
1.5803692007
 30
0.0
 10
-21.339983948
 20
1.5830330362
 30
0.0
 10
-21.3442674237
 20
1.5859613328
 30
0.0
 10
-21.3490318152
 20
1.5891249738
 30
0.0
 10
-21.3561857475
 20
1.5937600156
 30
0.0
 10
-21.3659627628
 20
1.5998890165
 30
0.0
 10
-21.3784411236
 20
1.6074423771
 30
0.0
 10
-21.3871075125
 20
1.6125242708
 30
0.0
 10
-21.3915406528
 20
1.6150837456
 30
0.0
  0
SPLINE
  5
7A6
100
AcDbEntity
  8
0
100
AcDbSpline
 62
7
  6
CONTINUOUS
 70
0
 71
3
 72
27
 73
23
 74
0
 42
0.0000001
 43
0.0000001
 44
0.0000000001
 40
0.0
 40
0.0
 40
0.0
 40
0.0
 40
0.1933706266
 40
0.379496237
 40
0.5509902494
 40
0.6292460895
 40
0.7014971249
 40
0.7670263234
 40
0.8252457049
 40
0.8756062641
 40
0.8976889367
 40
0.9176496315
 40
0.9354510071
 40
0.9510592199
 40
0.9644465834
 40
0.9756067428
 40
0.9845702738
 40
0.9914156661
 40
0.9941042953
 40
0.9963630993
 40
0.998280394
 40
1.0
 40
1.0
 40
1.0
 40
1.0
 10
-23.420222209
 20
2.7863435881
 30
0.0
 10
-23.4246553493
 20
2.7889030629
 30
0.0
 10
-23.4333895928
 20
2.7938674289
 30
0.0
 10
-23.4461701754
 20
2.8008973261
 30
0.0
 10
-23.4563665535
 20
2.8062999693
 30
0.0
 10
-23.4639575836
 20
2.8101779355
 30
0.0
 10
-23.4690795729
 20
2.8127221991
 30
0.0
 10
-23.4737572899
 20
2.8149676496
 30
0.0
 10
-23.4779450253
 20
2.8168933491
 30
0.0
 10
-23.4811178641
 20
2.8182718596
 30
0.0
 10
-23.4833834653
 20
2.8191944374
 30
0.0
 10
-23.4848613927
 20
2.8197652579
 30
0.0
 10
-23.48619049
 20
2.8202448158
 30
0.0
 10
-23.4873674722
 20
2.8206320854
 30
0.0
 10
-23.4883892774
 20
2.8209261315
 30
0.0
 10
-23.489254128
 20
2.8211269974
 30
0.0
 10
-23.4899603212
 20
2.8212349759
 30
0.0
 10
-23.4904526026
 20
2.8212519148
 30
0.0
 10
-23.4907624898
 20
2.821207098
 30
0.0
 10
-23.4909368049
 20
2.8211519163
 30
0.0
 10
-23.4910724889
 20
2.8210710695
 30
0.0
 10
-23.4911367426
 20
2.8209963278
 30
0.0
 10
-23.4911595035
 20
2.8209569048
 30
0.0
  0
LINE
  5
7A7
100
AcDbEntity
  8
0
100
AcDbLine
 62
7
  6
CONTINUOUS
 10
-19.7511574172
 20
1.197274983
 11
-19.7474751877
 21
1.1972919588
  0
SPLINE
  5
7A8
100
AcDbEntity
  8
0
100
AcDbSpline
 62
7
  6
CONTINUOUS
 70
0
 71
3
 72
9
 73
5
 74
0
 42
0.0000001
 43
0.0000001
 44
0.0000000001
 40
0.0
 40
0.0
 40
0.0
 40
0.0
 40
0.5061139899
 40
1.0
 40
1.0
 40
1.0
 40
1.0
 10
-17.6026172252
 20
8.5418807421
 30
0.0
 10
-17.6036201923
 20
8.5372611906
 30
0.0
 10
-17.6069858364
 20
8.5284287418
 30
0.0
 10
-17.611940579
 20
8.5204612496
 30
0.0
 10
-17.6146976131
 20
8.5167628426
 30
0.0
  0
SPLINE
  5
7A9
100
AcDbEntity
  8
0
100
AcDbSpline
 62
7
  6
CONTINUOUS
 70
0
 71
3
 72
8
 73
4
 74
0
 42
0.0000001
 43
0.0000001
 44
0.0000000001
 40
0.0
 40
0.0
 40
0.0
 40
0.0
 40
1.0
 40
1.0
 40
1.0
 40
1.0
 10
-17.6146976131
 20
8.5167628426
 30
0.0
 10
-17.6167907602
 20
8.5139550027
 30
0.0
 10
-17.6190748626
 20
8.5112741122
 30
0.0
 10
-17.6215640358
 20
8.5088105282
 30
0.0
  0
SPLINE
  5
7AA
100
AcDbEntity
  8
0
100
AcDbSpline
 62
7
  6
CONTINUOUS
 70
0
 71
3
 72
8
 73
4
 74
0
 42
0.0000001
 43
0.0000001
 44
0.0000000001
 40
0.0
 40
0.0
 40
0.0
 40
0.0
 40
1.0
 40
1.0
 40
1.0
 40
1.0
 10
-19.2578457351
 20
5.7962948272
 30
0.0
 10
-19.2587452518
 20
5.7931864481
 30
0.0
 10
-19.2598893334
 20
5.7901427076
 30
0.0
 10
-19.261211434
 20
5.7871892011
 30
0.0
  0
SPLINE
  5
7AB
100
AcDbEntity
  8
0
100
AcDbSpline
 62
7
  6
CONTINUOUS
 70
0
 71
3
 72
9
 73
5
 74
0
 42
0.0000001
 43
0.0000001
 44
0.0000000001
 40
0.0
 40
0.0
 40
0.0
 40
0.0
 40
0.4925748572
 40
1.0
 40
1.0
 40
1.0
 40
1.0
 10
-19.261211434
 20
5.7871892011
 30
0.0
 10
-19.2630870367
 20
5.7829991985
 30
0.0
 10
-19.2676258052
 20
5.7748106349
 30
0.0
 10
-19.2737263455
 20
5.7676076485
 30
0.0
 10
-19.2773068792
 20
5.7645183718
 30
0.0
  0
SPLINE
  5
7AC
100
AcDbEntity
  8
0
100
AcDbSpline
 62
7
  6
CONTINUOUS
 70
0
 71
3
 72
9
 73
5
 74
0
 42
0.0000001
 43
0.0000001
 44
0.0000000001
 40
0.0
 40
0.0
 40
0.0
 40
0.0
 40
0.5061139899
 40
1.0
 40
1.0
 40
1.0
 40
1.0
 10
-20.8590892446
 20
8.6286208649
 30
0.0
 10
-20.8545871121
 20
8.6300620456
 30
0.0
 10
-20.845255165
 20
8.6315635367
 30
0.0
 10
-20.835877743
 20
8.6312563499
 30
0.0
 10
-20.8312963116
 20
8.6307178918
 30
0.0
  0
SPLINE
  5
7AD
100
AcDbEntity
  8
0
100
AcDbSpline
 62
7
  6
CONTINUOUS
 70
0
 71
3
 72
8
 73
4
 74
0
 42
0.0000001
 43
0.0000001
 44
0.0000000001
 40
0.0
 40
0.0
 40
0.0
 40
0.0
 40
1.0
 40
1.0
 40
1.0
 40
1.0
 10
-20.8312963116
 20
8.6307178918
 30
0.0
 10
-20.8278180774
 20
8.6303090931
 30
0.0
 10
-20.8243543069
 20
8.6296714477
 30
0.0
 10
-20.820976194
 20
8.6287475525
 30
0.0
  0
SPLINE
  5
7AE
100
AcDbEntity
  8
0
100
AcDbSpline
 62
7
  6
CONTINUOUS
 70
0
 71
3
 72
8
 73
4
 74
0
 42
0.0000001
 43
0.0000001
 44
0.0000000001
 40
0.0
 40
0.0
 40
0.0
 40
0.0
 40
1.0
 40
1.0
 40
1.0
 40
1.0
 10
-17.6537278391
 20
8.5679438837
 30
0.0
 10
-17.6505861455
 20
8.5687190689
 30
0.0
 10
-17.6473781481
 20
8.5692501355
 30
0.0
 10
-17.6441592861
 20
8.569581916
 30
0.0
  0
SPLINE
  5
7AF
100
AcDbEntity
  8
0
100
AcDbSpline
 62
7
  6
CONTINUOUS
 70
0
 71
3
 72
9
 73
5
 74
0
 42
0.0000001
 43
0.0000001
 44
0.0000000001
 40
0.0
 40
0.0
 40
0.0
 40
0.0
 40
0.4925748572
 40
1.0
 40
1.0
 40
1.0
 40
1.0
 10
-17.6441592861
 20
8.569581916
 30
0.0
 10
-17.639592836
 20
8.5700525977
 30
0.0
 10
-17.6302319478
 20
8.5702161907
 30
0.0
 10
-17.6209437084
 20
8.568534461
 30
0.0
 10
-17.6164780494
 20
8.5669782662
 30
0.0
  0
SPLINE
  5
7B0
100
AcDbEntity
  8
0
100
AcDbSpline
 62
7
  6
CONTINUOUS
 70
0
 71
3
 72
9
 73
5
 74
0
 42
0.0000001
 43
0.0000001
 44
0.0000000001
 40
0.0
 40
0.0
 40
0.0
 40
0.0
 40
0.5126080584
 40
1.0
 40
1.0
 40
1.0
 40
1.0
 10
-17.6500340522
 20
8.5723313728
 30
0.0
 10
-17.6509143245
 20
8.5718275895
 30
0.0
 10
-17.6525070959
 20
8.570575671
 30
0.0
 10
-17.6534933919
 20
8.5687878689
 30
0.0
 10
-17.6537795339
 20
8.5678669541
 30
0.0
  0
SPLINE
  5
7B1
100
AcDbEntity
  8
0
100
AcDbSpline
 62
7
  6
CONTINUOUS
 70
0
 71
3
 72
9
 73
5
 74
0
 42
0.0000001
 43
0.0000001
 44
0.0000000001
 40
0.0
 40
0.0
 40
0.0
 40
0.0
 40
0.217658289
 40
1.0
 40
1.0
 40
1.0
 40
1.0
 10
-17.6537795339
 20
8.5678669541
 30
0.0
 10
-17.6539284438
 20
8.5673877049
 30
0.0
 10
-17.6543882129
 20
8.5651120573
 30
0.0
 10
-17.6539147283
 20
8.5627416255
 30
0.0
 10
-17.6533362982
 20
8.5610330521
 30
0.0
  0
SPLINE
  5
7B2
100
AcDbEntity
  8
0
100
AcDbSpline
 62
7
  6
CONTINUOUS
 70
0
 71
3
 72
11
 73
7
 74
0
 42
0.0000001
 43
0.0000001
 44
0.0000000001
 40
0.0
 40
0.0
 40
0.0
 40
0.0
 40
0.2259183673
 40
0.4986440741
 40
0.7722142578
 40
1.0
 40
1.0
 40
1.0
 40
1.0
 10
-17.6533363363
 20
8.5610330303
 30
0.0
 10
-17.6524626648
 20
8.5569405006
 30
0.0
 10
-17.6493949634
 20
8.5481672776
 30
0.0
 10
-17.6431181221
 20
8.5352954703
 30
0.0
 10
-17.6355549833
 20
8.5230932944
 30
0.0
 10
-17.6297428685
 20
8.5157784473
 30
0.0
 10
-17.6267310614
 20
8.5128234827
 30
0.0
  0
SPLINE
  5
7B3
100
AcDbEntity
  8
0
100
AcDbSpline
 62
7
  6
CONTINUOUS
 70
0
 71
3
 72
9
 73
5
 74
0
 42
0.0000001
 43
0.0000001
 44
0.0000000001
 40
0.0
 40
0.0
 40
0.0
 40
0.0
 40
0.290660795
 40
1.0
 40
1.0
 40
1.0
 40
1.0
 10
-17.6267309979
 20
8.5128235165
 30
0.0
 10
-17.6263348175
 20
8.5123337127
 30
0.0
 10
-17.6249019683
 20
8.5107178448
 30
0.0
 10
-17.6230590634
 20
8.5093849576
 30
0.0
 10
-17.6215970438
 20
8.5089094265
 30
0.0
  0
SPLINE
  5
7B4
100
AcDbEntity
  8
0
100
AcDbSpline
 62
7
  6
CONTINUOUS
 70
0
 71
3
 72
9
 73
5
 74
0
 42
0.0000001
 43
0.0000001
 44
0.0000000001
 40
0.0
 40
0.0
 40
0.0
 40
0.0
 40
0.4900554854
 40
1.0
 40
1.0
 40
1.0
 40
1.0
 10
-17.6215970438
 20
8.5089094265
 30
0.0
 10
-17.6206615401
 20
8.508605148
 30
0.0
 10
-17.6185925199
 20
8.5083864494
 30
0.0
 10
-17.6166400498
 20
8.5090554145
 30
0.0
 10
-17.615734437
 20
8.5095326622
 30
0.0
  0
SPLINE
  5
7B5
100
AcDbEntity
  8
0
100
AcDbSpline
 62
7
  6
CONTINUOUS
 70
0
 71
3
 72
9
 73
5
 74
0
 42
0.0000001
 43
0.0000001
 44
0.0000000001
 40
0.0
 40
0.0
 40
0.0
 40
0.0
 40
0.5126080584
 40
1.0
 40
1.0
 40
1.0
 40
1.0
 10
-19.2558929515
 20
5.7909021694
 30
0.0
 10
-19.2558891045
 20
5.7919163992
 30
0.0
 10
-19.256176912
 20
5.7939217389
 30
0.0
 10
-19.2572320461
 20
5.7956697974
 30
0.0
 10
-19.2578865106
 20
5.796378061
 30
0.0
  0
SPLINE
  5
7B6
100
AcDbEntity
  8
0
100
AcDbSpline
 62
7
  6
CONTINUOUS
 70
0
 71
3
 72
9
 73
5
 74
0
 42
0.0000001
 43
0.0000001
 44
0.0000000001
 40
0.0
 40
0.0
 40
0.0
 40
0.0
 40
0.217658289
 40
1.0
 40
1.0
 40
1.0
 40
1.0
 10
-19.2578865106
 20
5.796378061
 30
0.0
 10
-19.2582270977
 20
5.7967466453
 30
0.0
 10
-19.2599679818
 20
5.7982826409
 30
0.0
 10
-19.2622575783
 20
5.7990578071
 30
0.0
 10
-19.2640264612
 20
5.7994111586
 30
0.0
  0
SPLINE
  5
7B7
100
AcDbEntity
  8
0
100
AcDbSpline
 62
7
  6
CONTINUOUS
 70
0
 71
3
 72
13
 73
9
 74
0
 42
0.0000001
 43
0.0000001
 44
0.0000000001
 40
0.0
 40
0.0
 40
0.0
 40
0.0
 40
0.1666666667
 40
0.3333333333
 40
0.5
 40
0.6666666667
 40
0.8333333333
 40
1.0
 40
1.0
 40
1.0
 40
1.0
 10
-20.8590892446
 20
8.6286208649
 30
0.0
 10
-20.8609992145
 20
8.6279881438
 30
0.0
 10
-20.8644762533
 20
8.6264558093
 30
0.0
 10
-20.8687027201
 20
8.6233305556
 30
0.0
 10
-20.8718212584
 20
8.6194567745
 30
0.0
 10
-20.8737819973
 20
8.6149069092
 30
0.0
 10
-20.8745442208
 20
8.609758749
 30
0.0
 10
-20.8742448093
 20
8.6060211982
 30
0.0
 10
-20.873893926
 20
8.6040682769
 30
0.0
  0
SPLINE
  5
7B8
100
AcDbEntity
  8
0
100
AcDbSpline
 62
7
  6
CONTINUOUS
 70
0
 71
3
 72
13
 73
9
 74
0
 42
0.0000001
 43
0.0000001
 44
0.0000000001
 40
0.0
 40
0.0
 40
0.0
 40
0.0
 40
0.1666666667
 40
0.3333333333
 40
0.5
 40
0.6666666667
 40
0.8333333333
 40
1.0
 40
1.0
 40
1.0
 40
1.0
 10
-19.3059723848
 20
5.765063308
 30
0.0
 10
-19.3044694473
 20
5.763725586
 30
0.0
 10
-19.3014038873
 20
5.7614805494
 30
0.0
 10
-19.2965841048
 20
5.7593829486
 30
0.0
 10
-19.2916700428
 20
5.7586191057
 30
0.0
 10
-19.2867493745
 20
5.7591959887
 30
0.0
 10
-19.2819098252
 20
5.7611099639
 30
0.0
 10
-19.278822717
 20
5.7632380372
 30
0.0
 10
-19.2773068792
 20
5.7645183718
 30
0.0
  0
SPLINE
  5
7B9
100
AcDbEntity
  8
0
100
AcDbSpline
 62
7
  6
CONTINUOUS
 70
0
 71
3
 72
13
 73
9
 74
0
 42
0.0000001
 43
0.0000001
 44
0.0000000001
 40
0.0
 40
0.0
 40
0.0
 40
0.0
 40
0.1666666667
 40
0.3333333333
 40
0.5
 40
0.6666666667
 40
0.8333333333
 40
1.0
 40
1.0
 40
1.0
 40
1.0
 10
-17.6026172252
 20
8.5418807421
 30
0.0
 10
-17.6022101927
 20
8.5438511851
 30
0.0
 10
-17.601798714
 20
8.5476285562
 30
0.0
 10
-17.6023920297
 20
8.5528514107
 30
0.0
 10
-17.6041875533
 20
8.5574890347
 30
0.0
 10
-17.6071474828
 20
8.561462017
 30
0.0
 10
-17.6112248086
 20
8.564696202
 30
0.0
 10
-17.6146113283
 20
8.5663056794
 30
0.0
 10
-17.6164780494
 20
8.5669782662
 30
0.0
  0
SPLINE
  5
7BA
100
AcDbEntity
  8
0
100
AcDbSpline
 62
7
  6
CONTINUOUS
 70
0
 71
3
 72
9
 73
5
 74
0
 42
0.0000001
 43
0.0000001
 44
0.0000000001
 40
0.0
 40
0.0
 40
0.0
 40
0.0
 40
0.290660795
 40
1.0
 40
1.0
 40
1.0
 40
1.0
 10
-20.8218680627
 20
8.6222663379
 30
0.0
 10
-20.8216419704
 20
8.6228543421
 30
0.0
 10
-20.8209590123
 20
8.6249031599
 30
0.0
 10
-20.8207261507
 20
8.6271656059
 30
0.0
 10
-20.8210453384
 20
8.6286695176
 30
0.0
  0
SPLINE
  5
7BB
100
AcDbEntity
  8
0
100
AcDbSpline
 62
7
  6
CONTINUOUS
 70
0
 71
3
 72
9
 73
5
 74
0
 42
0.0000001
 43
0.0000001
 44
0.0000000001
 40
0.0
 40
0.0
 40
0.0
 40
0.0
 40
0.4900554854
 40
1.0
 40
1.0
 40
1.0
 40
1.0
 10
-20.8210453384
 20
8.6286695176
 30
0.0
 10
-20.8212495773
 20
8.6296318269
 30
0.0
 10
-20.8220946889
 20
8.6315330001
 30
0.0
 10
-20.8236502648
 20
8.6328894063
 30
0.0
 10
-20.8245163797
 20
8.6334350661
 30
0.0
  0
SPLINE
  5
7BC
100
AcDbEntity
  8
0
100
AcDbSpline
 62
7
  6
CONTINUOUS
 70
0
 71
3
 72
11
 73
7
 74
0
 42
0.0000001
 43
0.0000001
 44
0.0000000001
 40
0.0
 40
0.0
 40
0.0
 40
0.0
 40
0.2259183673
 40
0.4986440741
 40
0.7722142578
 40
1.0
 40
1.0
 40
1.0
 40
1.0
 10
-19.264026461
 20
5.7994112025
 30
0.0
 10
-19.2680075315
 20
5.8007008457
 30
0.0
 10
-19.2771392162
 20
5.8024307498
 30
0.0
 10
-19.2914249489
 20
5.8034307495
 30
0.0
 10
-19.3057739127
 20
5.802981967
 30
0.0
 10
-19.3150148135
 20
5.8016059516
 30
0.0
 10
-19.3190797915
 20
5.8004751324
 30
0.0
  0
SPLINE
  5
7BD
100
AcDbEntity
  8
0
100
AcDbSpline
 62
7
  6
CONTINUOUS
 70
0
 71
3
 72
8
 73
4
 74
0
 42
0.0000001
 43
0.0000001
 44
0.0000000001
 40
0.0
 40
0.0
 40
0.0
 40
0.0
 40
1.0
 40
1.0
 40
1.0
 40
1.0
 10
-20.8561052804
 20
8.571326204
 30
0.0
 10
-20.8583474572
 20
8.5736593979
 30
0.0
 10
-20.8604113731
 20
8.5761720719
 30
0.0
 10
-20.8623081345
 20
8.5787937978
 30
0.0
  0
SPLINE
  5
7BE
100
AcDbEntity
  8
0
100
AcDbSpline
 62
7
  6
CONTINUOUS
 70
0
 71
3
 72
9
 73
5
 74
0
 42
0.0000001
 43
0.0000001
 44
0.0000000001
 40
0.0
 40
0.0
 40
0.0
 40
0.0
 40
0.4925748572
 40
1.0
 40
1.0
 40
1.0
 40
1.0
 10
-20.8623081345
 20
8.5787937978
 30
0.0
 10
-20.8649989818
 20
8.5825131188
 30
0.0
 10
-20.8698211016
 20
8.5905380893
 30
0.0
 10
-20.8730088007
 20
8.5994228054
 30
0.0
 10
-20.873893926
 20
8.6040682769
 30
0.0
  0
SPLINE
  5
7BF
100
AcDbEntity
  8
0
100
AcDbSpline
 62
7
  6
CONTINUOUS
 70
0
 71
3
 72
9
 73
5
 74
0
 42
0.0000001
 43
0.0000001
 44
0.0000000001
 40
0.0
 40
0.0
 40
0.0
 40
0.0
 40
0.5061139899
 40
1.0
 40
1.0
 40
1.0
 40
1.0
 10
-19.3059723848
 20
5.765063308
 30
0.0
 10
-19.3094715502
 20
5.7682416787
 30
0.0
 10
-19.3154378531
 20
5.7755726364
 30
0.0
 10
-19.3198605325
 20
5.7838473155
 30
0.0
 10
-19.3216849299
 20
5.7880841805
 30
0.0
  0
SPLINE
  5
7C0
100
AcDbEntity
  8
0
100
AcDbSpline
 62
7
  6
CONTINUOUS
 70
0
 71
3
 72
8
 73
4
 74
0
 42
0.0000001
 43
0.0000001
 44
0.0000000001
 40
0.0
 40
0.0
 40
0.0
 40
0.0
 40
1.0
 40
1.0
 40
1.0
 40
1.0
 10
-19.3216849299
 20
5.7880841805
 30
0.0
 10
-19.323133898
 20
5.7914491723
 30
0.0
 10
-19.3243585984
 20
5.7949265005
 30
0.0
 10
-19.3252601401
 20
5.7984775427
 30
0.0
  0
SPLINE
  5
7C1
100
AcDbEntity
  8
0
100
AcDbSpline
 62
7
  6
CONTINUOUS
 70
0
 71
3
 72
11
 73
7
 74
0
 42
0.0000001
 43
0.0000001
 44
0.0000000001
 40
0.0
 40
0.0
 40
0.0
 40
0.0
 40
0.2259183673
 40
0.4986440741
 40
0.7722142578
 40
1.0
 40
1.0
 40
1.0
 40
1.0
 10
-20.8503160572
 20
8.575120682
 30
0.0
 10
-20.8472086582
 20
8.5779235686
 30
0.0
 10
-20.8411446749
 20
8.5849668875
 30
0.0
 10
-20.8331357835
 20
8.5968386951
 30
0.0
 10
-20.8263499586
 20
8.6094896535
 30
0.0
 10
-20.8229211725
 20
8.6181805161
 30
0.0
 10
-20.8218680017
 20
8.6222662998
 30
0.0
  0
SPLINE
  5
7C2
100
AcDbEntity
  8
0
100
AcDbSpline
 62
7
  6
CONTINUOUS
 70
0
 71
3
 72
9
 73
5
 74
0
 42
0.0000001
 43
0.0000001
 44
0.0000000001
 40
0.0
 40
0.0
 40
0.0
 40
0.0
 40
0.5126080584
 40
1.0
 40
1.0
 40
1.0
 40
1.0
 10
-20.8617518508
 20
8.5723313728
 30
0.0
 10
-20.8608754256
 20
8.5718209262
 30
0.0
 10
-20.8589948466
 20
8.571067505
 30
0.0
 10
-20.8569534166
 20
8.5711072486
 30
0.0
 10
-20.8560128101
 20
8.5713198998
 30
0.0
  0
SPLINE
  5
7C3
100
AcDbEntity
  8
0
100
AcDbSpline
 62
7
  6
CONTINUOUS
 70
0
 71
3
 72
9
 73
5
 74
0
 42
0.0000001
 43
0.0000001
 44
0.0000000001
 40
0.0
 40
0.0
 40
0.0
 40
0.0
 40
0.217658289
 40
1.0
 40
1.0
 40
1.0
 40
1.0
 10
-20.8560128101
 20
8.5713198998
 30
0.0
 10
-20.8555233131
 20
8.5714305647
 30
0.0
 10
-20.8533226599
 20
8.5721702168
 30
0.0
 10
-20.851506548
 20
8.5737654824
 30
0.0
 10
-20.8503160951
 20
8.5751207042
 30
0.0
  0
SPLINE
  5
7C4
100
AcDbEntity
  8
0
100
AcDbSpline
 62
7
  6
CONTINUOUS
 70
0
 71
3
 72
9
 73
5
 74
0
 42
0.0000001
 43
0.0000001
 44
0.0000000001
 40
0.0
 40
0.0
 40
0.0
 40
0.0
 40
0.290660795
 40
1.0
 40
1.0
 40
1.0
 40
1.0
 10
-19.3190797939
 20
5.8004750605
 30
0.0
 10
-19.3197020667
 20
5.8003768601
 30
0.0
 10
-19.3218178739
 20
5.7999439102
 30
0.0
 10
-19.3238936405
 20
5.7990143513
 30
0.0
 10
-19.3250364723
 20
5.7979859708
 30
0.0
  0
SPLINE
  5
7C5
100
AcDbEntity
  8
0
100
AcDbSpline
 62
7
  6
CONTINUOUS
 70
0
 71
3
 72
9
 73
5
 74
0
 42
0.0000001
 43
0.0000001
 44
0.0000000001
 40
0.0
 40
0.0
 40
0.0
 40
0.0
 40
0.4900554854
 40
1.0
 40
1.0
 40
1.0
 40
1.0
 10
-19.3250364723
 20
5.7979859708
 30
0.0
 10
-19.3257677372
 20
5.7973279401
 30
0.0
 10
-19.3269916457
 20
5.7956454654
 30
0.0
 10
-19.32738854
 20
5.7936200941
 30
0.0
 10
-19.3274280378
 20
5.7925971866
 30
0.0
  0
SPLINE
  5
7C6
100
AcDbEntity
  8
0
100
AcDbSpline
 62
7
  6
CONTINUOUS
 70
0
 71
3
 72
10
 73
6
 74
0
 42
0.0000001
 43
0.0000001
 44
0.0000000001
 40
0.0
 40
0.0
 40
0.0
 40
0.0
 40
0.5592550484
 40
0.7919269338
 40
1.0
 40
1.0
 40
1.0
 40
1.0
 10
-17.6164780494
 20
8.5669782662
 30
0.0
 10
-17.6219817165
 20
8.5705172016
 30
0.0
 10
-17.6309968036
 20
8.5739020394
 30
0.0
 10
-17.6426944007
 20
8.5746938935
 30
0.0
 10
-17.6479039553
 20
8.573510046
 30
0.0
 10
-17.6500340462
 20
8.5723313762
 30
0.0
  0
SPLINE
  5
7C7
100
AcDbEntity
  8
0
100
AcDbSpline
 62
7
  6
CONTINUOUS
 70
0
 71
3
 72
10
 73
6
 74
0
 42
0.0000001
 43
0.0000001
 44
0.0000000001
 40
0.0
 40
0.0
 40
0.0
 40
0.0
 40
0.2156173349
 40
0.4517593841
 40
1.0
 40
1.0
 40
1.0
 40
1.0
 10
-20.8280602505
 20
8.6349478041
 30
0.0
 10
-20.8302943438
 20
8.6355744821
 30
0.0
 10
-20.8352202386
 20
8.6359810701
 30
0.0
 10
-20.845921973
 20
8.6347474954
 30
0.0
 10
-20.8540405019
 20
8.6316733428
 30
0.0
 10
-20.8590892446
 20
8.6286208649
 30
0.0
  0
SPLINE
  5
7C8
100
AcDbEntity
  8
0
100
AcDbSpline
 62
7
  6
CONTINUOUS
 70
0
 71
3
 72
9
 73
5
 74
0
 42
0.0000001
 43
0.0000001
 44
0.0000000001
 40
0.0
 40
0.0
 40
0.0
 40
0.0
 40
0.2386817898
 40
1.0
 40
1.0
 40
1.0
 40
1.0
 10
-17.6151235587
 20
8.5098823128
 30
0.0
 10
-17.6146718483
 20
8.5101705719
 30
0.0
 10
-17.6128400194
 20
8.5114762548
 30
0.0
 10
-17.6113327128
 20
8.5131935869
 30
0.0
 10
-17.6103302085
 20
8.5145778981
 30
0.0
  0
SPLINE
  5
7C9
100
AcDbEntity
  8
0
100
AcDbSpline
 62
7
  6
CONTINUOUS
 70
0
 71
3
 72
9
 73
5
 74
0
 42
0.0000001
 43
0.0000001
 44
0.0000000001
 40
0.0
 40
0.0
 40
0.0
 40
0.0
 40
0.4563855406
 40
1.0
 40
1.0
 40
1.0
 40
1.0
 10
-17.6103302085
 20
8.5145778981
 30
0.0
 10
-17.6077697482
 20
8.5181135177
 30
0.0
 10
-17.603904969
 20
8.5270774509
 30
0.0
 10
-17.6025122112
 20
8.5366820652
 30
0.0
 10
-17.6026172252
 20
8.5418807421
 30
0.0
  0
SPLINE
  5
7CA
100
AcDbEntity
  8
0
100
AcDbSpline
 62
7
  6
CONTINUOUS
 70
0
 71
3
 72
10
 73
6
 74
0
 42
0.0000001
 43
0.0000001
 44
0.0000000001
 40
0.0
 40
0.0
 40
0.0
 40
0.0
 40
0.5592550484
 40
0.7919269338
 40
1.0
 40
1.0
 40
1.0
 40
1.0
 10
-19.2773068792
 20
5.7645183718
 30
0.0
 10
-19.2714902377
 20
5.7675152196
 30
0.0
 10
-19.2640513386
 20
5.7736300951
 30
0.0
 10
-19.2575167744
 20
5.7833645843
 30
0.0
 10
-19.255937239
 20
5.7884681147
 30
0.0
 10
-19.2558929515
 20
5.7909021624
 30
0.0
  0
SPLINE
  5
7CB
100
AcDbEntity
  8
0
100
AcDbSpline
 62
7
  6
CONTINUOUS
 70
0
 71
3
 72
10
 73
6
 74
0
 42
0.0000001
 43
0.0000001
 44
0.0000000001
 40
0.0
 40
0.0
 40
0.0
 40
0.0
 40
0.2104184856
 40
0.4456986582
 40
1.0
 40
1.0
 40
1.0
 40
1.0
 10
-19.3274306707
 20
5.7918933252
 30
0.0
 10
-19.3273205412
 20
5.7894146185
 30
0.0
 10
-19.325631384
 20
5.7842548437
 30
0.0
 10
-19.3190432296
 20
5.7744519472
 30
0.0
 10
-19.3116976172
 20
5.7682163494
 30
0.0
 10
-19.3059723848
 20
5.765063308
 30
0.0
  0
SPLINE
  5
7CC
100
AcDbEntity
  8
0
100
AcDbSpline
 62
7
  6
CONTINUOUS
 70
0
 71
3
 72
10
 73
6
 74
0
 42
0.0000001
 43
0.0000001
 44
0.0000000001
 40
0.0
 40
0.0
 40
0.0
 40
0.0
 40
0.5592550484
 40
0.7919269338
 40
1.0
 40
1.0
 40
1.0
 40
1.0
 10
-20.873893926
 20
8.6040682769
 30
0.0
 10
-20.8742069004
 20
8.5975324937
 30
0.0
 10
-20.8726307124
 20
8.5880327803
 30
0.0
 10
-20.8674676795
 20
8.5775064371
 30
0.0
 10
-20.8638376602
 20
8.5735867542
 30
0.0
 10
-20.8617518568
 20
8.5723313762
 30
0.0
  0
SPLINE
  5
7CD
100
AcDbEntity
  8
0
100
AcDbSpline
 62
7
  6
CONTINUOUS
 70
0
 71
3
 72
9
 73
5
 74
0
 42
0.0000001
 43
0.0000001
 44
0.0000000001
 40
0.0
 40
0.0
 40
0.0
 40
0.0
 40
0.2584621652
 40
1.0
 40
1.0
 40
1.0
 40
1.0
 10
-18.6229978867
 20
9.713589585
 30
0.0
 10
-18.6222055205
 20
9.7129867375
 30
0.0
 10
-18.6192057379
 20
9.7105720511
 30
0.0
 10
-18.616470628
 20
9.7078046915
 30
0.0
 10
-18.6147345077
 20
9.7055363439
 30
0.0
  0
SPLINE
  5
7CE
100
AcDbEntity
  8
0
100
AcDbSpline
 62
7
  6
CONTINUOUS
 70
0
 71
3
 72
8
 73
4
 74
0
 42
0.0000001
 43
0.0000001
 44
0.0000000001
 40
0.0
 40
0.0
 40
0.0
 40
0.0
 40
1.0
 40
1.0
 40
1.0
 40
1.0
 10
-18.6147345077
 20
9.7055363439
 30
0.0
 10
-18.6136652139
 20
9.7041392459
 30
0.0
 10
-18.6127026601
 20
9.7026488994
 30
0.0
 10
-18.611905663
 20
9.701080439
 30
0.0
  0
SPLINE
  5
7CF
100
AcDbEntity
  8
0
100
AcDbSpline
 62
3
  6
CONTINUOUS
 70
0
 71
3
 72
27
 73
23
 74
0
 42
0.0000001
 43
0.0000001
 44
0.0000000001
 40
0.0
 40
0.0
 40
0.0
 40
0.0
 40
0.1933706266
 40
0.379496237
 40
0.5509902494
 40
0.6292460895
 40
0.7014971249
 40
0.7670263234
 40
0.8252457049
 40
0.8756062641
 40
0.8976889367
 40
0.9176496315
 40
0.9354510071
 40
0.9510592199
 40
0.9644465834
 40
0.9756067428
 40
0.9845702738
 40
0.9914156661
 40
0.9941042953
 40
0.9963630993
 40
0.998280394
 40
1.0
 40
1.0
 40
1.0
 40
1.0
 10
-21.4565049849
 20
1.5025622218
 30
0.0
 10
-21.4520718446
 20
1.500002747
 30
0.0
 10
-21.4433376011
 20
1.495038381
 30
0.0
 10
-21.4305570185
 20
1.4880084838
 30
0.0
 10
-21.4203606404
 20
1.4826058406
 30
0.0
 10
-21.4127696103
 20
1.4787278744
 30
0.0
 10
-21.407647621
 20
1.4761836108
 30
0.0
 10
-21.402969904
 20
1.4739381603
 30
0.0
 10
-21.3987821686
 20
1.4720124608
 30
0.0
 10
-21.3956093297
 20
1.4706339503
 30
0.0
 10
-21.3933437285
 20
1.4697113724
 30
0.0
 10
-21.3918658012
 20
1.469140552
 30
0.0
 10
-21.3905367039
 20
1.4686609941
 30
0.0
 10
-21.3893597216
 20
1.4682737245
 30
0.0
 10
-21.3883379164
 20
1.4679796784
 30
0.0
 10
-21.3874730658
 20
1.4677788125
 30
0.0
 10
-21.3867668726
 20
1.467670834
 30
0.0
 10
-21.3862745913
 20
1.4676538951
 30
0.0
 10
-21.385964704
 20
1.4676987119
 30
0.0
 10
-21.3857903889
 20
1.4677538936
 30
0.0
 10
-21.385654705
 20
1.4678347404
 30
0.0
 10
-21.3855904512
 20
1.4679094821
 30
0.0
 10
-21.3855676904
 20
1.4679489051
 30
0.0
  0
SPLINE
  5
7D0
100
AcDbEntity
  8
0
100
AcDbSpline
 62
3
  6
CONTINUOUS
 70
0
 71
3
 72
27
 73
23
 74
0
 42
0.0000001
 43
0.0000001
 44
0.0000000001
 40
0.0
 40
0.0
 40
0.0
 40
0.0
 40
0.001719606
 40
0.0036369007
 40
0.0058957047
 40
0.0085843339
 40
0.0154297262
 40
0.0243932572
 40
0.0355534166
 40
0.0489407801
 40
0.0645489929
 40
0.0823503685
 40
0.1023110633
 40
0.1243937359
 40
0.1747542951
 40
0.2329736766
 40
0.2985028751
 40
0.3707539105
 40
0.4490097506
 40
0.620503763
 40
0.8066293734
 40
1.0
 40
1.0
 40
1.0
 40
1.0
 10
-23.5506311998
 20
2.7179489051
 30
0.0
 10
-23.5506539607
 20
2.7179094821
 30
0.0
 10
-23.550686562
 20
2.7178164659
 30
0.0
 10
-23.5506887354
 20
2.7176585367
 30
0.0
 10
-23.5506493667
 20
2.7174799846
 30
0.0
 10
-23.5505332355
 20
2.717189206
 30
0.0
 10
-23.5502724254
 20
2.7167713472
 30
0.0
 10
-23.5498258166
 20
2.7162137553
 30
0.0
 10
-23.5492194364
 20
2.7155652056
 30
0.0
 10
-23.5484538823
 20
2.7148273194
 30
0.0
 10
-23.547530006
 20
2.7140016577
 30
0.0
 10
-23.5464501479
 20
2.7130904046
 30
0.0
 10
-23.5452168393
 20
2.7120958922
 30
0.0
 10
-23.5432850628
 20
2.7105951129
 30
0.0
 10
-23.5405048182
 20
2.7085366091
 30
0.0
 10
-23.5367432459
 20
2.7058727737
 30
0.0
 10
-23.5324597702
 20
2.7029444771
 30
0.0
 10
-23.5276953786
 20
2.6997808361
 30
0.0
 10
-23.5205414464
 20
2.6951457943
 30
0.0
 10
-23.5107644311
 20
2.6890167934
 30
0.0
 10
-23.4982860702
 20
2.6814634328
 30
0.0
 10
-23.4896196813
 20
2.6763815391
 30
0.0
 10
-23.485186541
 20
2.6738220643
 30
0.0
  0
SPLINE
  5
7D1
100
AcDbEntity
  8
0
100
AcDbSpline
 62
3
  6
CONTINUOUS
 70
0
 71
3
 72
27
 73
23
 74
0
 42
0.0000001
 43
0.0000001
 44
0.0000000001
 40
0.0
 40
0.0
 40
0.0
 40
0.0
 40
0.1933706266
 40
0.379496237
 40
0.5509902494
 40
0.6292460895
 40
0.7014971249
 40
0.7670263234
 40
0.8252457049
 40
0.8756062641
 40
0.8976889367
 40
0.9176496315
 40
0.9354510071
 40
0.9510592199
 40
0.9644465834
 40
0.9756067428
 40
0.9845702738
 40
0.9914156661
 40
0.9941042953
 40
0.9963630993
 40
0.998280394
 40
1.0
 40
1.0
 40
1.0
 40
1.0
 10
-23.4241496265
 20
2.7795411014
 30
0.0
 10
-23.4285827668
 20
2.7821005762
 30
0.0
 10
-23.4373170103
 20
2.7870649423
 30
0.0
 10
-23.4500975929
 20
2.7940948394
 30
0.0
 10
-23.460293971
 20
2.7994974826
 30
0.0
 10
-23.4678850011
 20
2.8033754488
 30
0.0
 10
-23.4730069904
 20
2.8059197124
 30
0.0
 10
-23.4776847074
 20
2.8081651629
 30
0.0
 10
-23.4818724428
 20
2.8100908624
 30
0.0
 10
-23.4850452817
 20
2.8114693729
 30
0.0
 10
-23.4873108828
 20
2.8123919508
 30
0.0
 10
-23.4887888102
 20
2.8129627712
 30
0.0
 10
-23.4901179075
 20
2.8134423292
 30
0.0
 10
-23.4912948897
 20
2.8138295987
 30
0.0
 10
-23.4923166949
 20
2.8141236449
 30
0.0
 10
-23.4931815456
 20
2.8143245107
 30
0.0
 10
-23.4938877387
 20
2.8144324893
 30
0.0
 10
-23.4943800201
 20
2.8144494281
 30
0.0
 10
-23.4946899074
 20
2.8144046113
 30
0.0
 10
-23.4948642224
 20
2.8143494296
 30
0.0
 10
-23.4949999064
 20
2.8142685828
 30
0.0
 10
-23.4950641601
 20
2.8141938411
 30
0.0
 10
-23.495086921
 20
2.8141544181
 30
0.0
  0
SPLINE
  5
7D2
100
AcDbEntity
  8
0
100
AcDbSpline
 62
3
  6
CONTINUOUS
 70
0
 71
3
 72
27
 73
23
 74
0
 42
0.0000001
 43
0.0000001
 44
0.0000000001
 40
0.0
 40
0.0
 40
0.0
 40
0.0
 40
0.001719606
 40
0.0036369007
 40
0.0058957047
 40
0.0085843339
 40
0.0154297262
 40
0.0243932572
 40
0.0355534166
 40
0.0489407801
 40
0.0645489929
 40
0.0823503685
 40
0.1023110633
 40
0.1243937359
 40
0.1747542951
 40
0.2329736766
 40
0.2985028751
 40
0.3707539105
 40
0.4490097506
 40
0.620503763
 40
0.8066293734
 40
1.0
 40
1.0
 40
1.0
 40
1.0
 10
-21.3300234116
 20
1.5641544181
 30
0.0
 10
-21.3300006507
 20
1.5641938411
 30
0.0
 10
-21.3299680493
 20
1.5642868573
 30
0.0
 10
-21.3299658759
 20
1.5644447865
 30
0.0
 10
-21.3300052447
 20
1.5646233386
 30
0.0
 10
-21.3301213759
 20
1.5649141172
 30
0.0
 10
-21.330382186
 20
1.565331976
 30
0.0
 10
-21.3308287948
 20
1.5658895679
 30
0.0
 10
-21.331435175
 20
1.5665381176
 30
0.0
 10
-21.332200729
 20
1.5672760038
 30
0.0
 10
-21.3331246054
 20
1.5681016655
 30
0.0
 10
-21.3342044634
 20
1.5690129186
 30
0.0
 10
-21.3354377721
 20
1.570007431
 30
0.0
 10
-21.3373695485
 20
1.5715082103
 30
0.0
 10
-21.3401497931
 20
1.5735667141
 30
0.0
 10
-21.3439113655
 20
1.5762305495
 30
0.0
 10
-21.3481948412
 20
1.5791588461
 30
0.0
 10
-21.3529592328
 20
1.5823224871
 30
0.0
 10
-21.360113165
 20
1.5869575289
 30
0.0
 10
-21.3698901803
 20
1.5930865298
 30
0.0
 10
-21.3823685412
 20
1.6006398904
 30
0.0
 10
-21.39103493
 20
1.6057217841
 30
0.0
 10
-21.3954680704
 20
1.6082812589
 30
0.0
  0
ENDSEC
  0
SECTION
  2
OBJECTS
  0
DICTIONARY
  5
C
100
AcDbDictionary
280
0
281
1
  3
ACAD_GROUP
350
D
  3
ACAD_MLINESTYLE
350
17
  3
ACAD_LAYOUT
350
1A
  3
ACAD_PLOTSETTINGS
350
19
  3
ACAD_PLOTSTYLENAME
350
E
  0
DICTIONARY
  5
D
102
{ACAD_REACTORS
330
C
102
}
100
AcDbDictionary
280
0
281
1
  0
ACDBDICTIONARYWDFLT
  5
E
102
{ACAD_REACTORS
330
C
102
}
100
AcDbDictionary
281
1
  3
Normal
350
F
100
AcDbDictionaryWithDefault
340
F
  0
DICTIONARY
  5
17
102
{ACAD_REACTORS
330
C
102
}
100
AcDbDictionary
280
0
281
1
  3
Standard
350
18
  0
DICTIONARY
  5
19
102
{ACAD_REACTORS
330
C
102
}
100
AcDbDictionary
281
1
  0
DICTIONARY
  5
1A
102
{ACAD_REACTORS
330
C
102
}
100
AcDbDictionary
281
1
  3
Model
350
7D3
  3
Layout1
350
7D4
  0
ACDBPLACEHOLDER
  5
F
102
{ACAD_REACTORS
330
E
102
}
  0
MLINESTYLE
  5
18
102
{ACAD_REACTORS
330
17
102
}
100
AcDbMlineStyle
  2
STANDARD
 70
0
  3

 62
256
 51
90.0
 52
90.0
 71
2
 49
0.5
 62
256
  6
BYLAYER
 49
-0.5
 62
256
  6
BYLAYER
  0
LAYOUT
  5
7D3
102
{ACAD_REACTORS
330
1A
102
}
100
AcDbPlotSettings
  1

  2
none_device
  4

  6

 40
0.0
 41
0.0
 42
0.0
 43
0.0
 44
431.8
 45
279.4
 46
0.0
 47
0.0
 48
0.0
 49
0.0
140
0.0
141
0.0
142
1.0
143
1.0
 70
1024
 72
0
 73
0
 74
0
  7

 75
0
147
1.0
148
0.0
149
0.0
100
AcDbLayout
  1
Model
 70
0
 71
0
 10
0.0
 20
0.0
 11
17.0
 21
11.0
 12
0.0
 22
0.0
 32
0.0
 14
0.0
 24
0.0
 34
0.0
 15
0.0
 25
0.0
 35
0.0
146
0.0
 13
0.0
 23
0.0
 33
0.0
 16
1.0
 26
0.0
 36
0.0
 17
0.0
 27
1.0
 37
0.0
 76
0
330
249
345
0
346
0
  0
LAYOUT
  5
7D4
102
{ACAD_REACTORS
330
1A
102
}
100
AcDbPlotSettings
  1

  2
none_device
  4

  6

 40
0.0
 41
0.0
 42
0.0
 43
0.0
 44
431.8
 45
279.4
 46
0.0
 47
0.0
 48
0.0
 49
0.0
140
0.0
141
0.0
142
1.0
143
1.0
 70
0
 72
0
 73
0
 74
0
  7

 75
0
147
1.0
148
0.0
149
0.0
100
AcDbLayout
  1
Layout1
 70
0
 71
1
 10
0.0
 20
0.0
 11
17.0
 21
11.0
 12
0.0
 22
0.0
 32
0.0
 14
0.0
 24
0.0
 34
0.0
 15
0.0
 25
0.0
 35
0.0
146
0.0
 13
0.0
 23
0.0
 33
0.0
 16
1.0
 26
0.0
 36
0.0
 17
0.0
 27
1.0
 37
0.0
 76
0
330
24A
345
0
346
0
  0
ENDSEC
  0
EOF
