999
DXF file: N:\Master\master\M3_ProE_files\Lenexa\MADAM DXF\40410.dxf
999
Pro/ENGINEER 2010280 by Parametric Technology Corporation
  0
SECTION
  2
HEADER
  9
$ACADVER
  1
AC1021
  9
$DWGCODEPAGE
  3
ANSI_1252
  9
$EXTMAX
 10
17.0
 20
11.0
 30
0.0
  9
$EXTMIN
 10
0.0
 20
-0.0
 30
0.0
  9
$LIMMIN
 10
0.0
 20
-0.0
  9
$LIMMAX
 10
17.0
 20
11.0
  9
$VIEWCTR
 10
8.5
 20
5.5
  9
$VIEWSIZE
 40
11.0
  9
$CLAYER
  8
0
  9
$LTSCALE
 40
0.935
  9
$CELTYPE
  6
BYLAYER
  9
$DIMSCALE
 40
1.0
  9
$DIMASZ
 40
0.125
  9
$DIMEXO
 40
0.10625
  9
$DIMDLI
 40
0.646
  9
$DIMEXE
 40
0.306
  9
$DIMCEN
 40
0.153
  9
$DIMLFAC
 40
1.0
  9
$DIMBLK
  1
_FILLED
  9
$DIMTXT
 40
0.15625
  9
$DIMTOL
 70
1
  9
$DIMLIM
 70
0
  9
$DIMTFAC
 40
1.0
  9
$DIMTP
 40
0.7
  9
$DIMTM
 40
0.7
  9
$PDMODE
 70
3
  9
$PDSIZE
 40
0.3125
  9
$HANDSEED
  5
7B7
  9
$TILEMODE
 70
1
  9
$MEASUREMENT
 70
0
  9
$INSUNITS
 70
1
  0
ENDSEC
  0
SECTION
  2
CLASSES
  0
CLASS
  1
ACDBDICTIONARYWDFLT
  2
AcDbDictionaryWithDefault
  3
AutoCAD 2000
 90
0
 91
1
280
0
281
0
  0
CLASS
  1
ACDBPLACEHOLDER
  2
AcDbPlaceHolder
  3
AutoCAD 2000
 90
0
 91
1
280
0
281
0
  0
CLASS
  1
LAYOUT
  2
AcDbLayout
  3
AutoCAD 2000
 90
0
 91
0
280
0
281
0
  0
ENDSEC
  0
SECTION
  2
TABLES
  0
TABLE
  2
VPORT
  5
8
100
AcDbSymbolTable
 70
2
  0
VPORT
  5
1F4
100
AcDbSymbolTableRecord
100
AcDbViewportTableRecord
  2
*ACTIVE
 70
0
 10
0.0
 20
0.0
 11
1.0
 21
1.0
 12
8.5
 22
5.5
 13
0.0
 23
0.0
 14
1.0
 24
1.0
 15
0.0
 25
0.0
 16
0.0
 26
0.0
 36
1.0
 17
0.0
 27
0.0
 37
0.0
 40
11.0
 41
1.5454545455
 42
50.0
 43
0.0
 44
0.0
 50
0.0
 51
0.0
 71
0
 72
100
 73
1
 74
1
 75
0
 76
0
 77
0
 78
0
  0
ENDTAB
  0
TABLE
  2
LTYPE
  5
5
100
AcDbSymbolTable
 70
6
  0
LTYPE
  5
14
100
AcDbSymbolTableRecord
100
AcDbLinetypeTableRecord
  2
BYBLOCK
 70
0
  3

 72
65
 73
0
 40
0.0
  0
LTYPE
  5
15
100
AcDbSymbolTableRecord
100
AcDbLinetypeTableRecord
  2
BYLAYER
 70
0
  3

 72
65
 73
0
 40
0.0
  0
LTYPE
  5
16
100
AcDbSymbolTableRecord
100
AcDbLinetypeTableRecord
  2
CONTINUOUS
 70
64
  3
Solid line
 72
65
 73
0
 40
0.0
  0
LTYPE
  5
1F5
100
AcDbSymbolTableRecord
100
AcDbLinetypeTableRecord
  2
CENTER
 70
64
  3
____ _ ____ _ ____ _ ____ _ ____ _ ____ _ ____
 72
65
 73
4
 40
0.6
 49
0.375
 74
0
 49
-0.075
 74
0
 49
0.075
 74
0
 49
-0.075
 74
0
  0
LTYPE
  5
1F6
100
AcDbSymbolTableRecord
100
AcDbLinetypeTableRecord
  2
HIDDEN
 70
64
  3
- - - - - - - - - - - - - - - - - - - -
 72
65
 73
2
 40
0.2
 49
0.1
 74
0
 49
-0.1
 74
0
  0
LTYPE
  5
1F7
100
AcDbSymbolTableRecord
100
AcDbLinetypeTableRecord
  2
PHANTOM
 70
64
  3
_____ _ _ _____ _ _ _____ _ _ _____
 72
65
 73
6
 40
0.8
 49
0.45
 74
0
 49
-0.05
 74
0
 49
0.1
 74
0
 49
-0.05
 74
0
 49
0.1
 74
0
 49
-0.05
 74
0
  0
LTYPE
  5
1F8
100
AcDbSymbolTableRecord
100
AcDbLinetypeTableRecord
  2
DOT
 70
64
  3
. . . . . . . . . . . . . . . . . . . .
 72
65
 73
2
 40
0.2
 49
0.1
 74
0
 49
-0.1
 74
0
  0
LTYPE
  5
1F9
100
AcDbSymbolTableRecord
100
AcDbLinetypeTableRecord
  2
DASHED
 70
64
  3
- - - - - - - - - - - - - - - - - - - -
 72
65
 73
2
 40
0.2
 49
0.1
 74
0
 49
-0.1
 74
0
  0
ENDTAB
  0
TABLE
  2
LAYER
  5
2
100
AcDbSymbolTable
 70
36
  0
LAYER
  5
10
100
AcDbSymbolTableRecord
100
AcDbLayerTableRecord
  2
0
 70
0
 62
7
  6
CONTINUOUS
370
-3
390
F
  0
LAYER
  5
1FA
100
AcDbSymbolTableRecord
100
AcDbLayerTableRecord
  2
DEFAULT_1
 70
0
 62
7
  6
CENTER
370
-3
390
F
  0
LAYER
  5
1FB
100
AcDbSymbolTableRecord
100
AcDbLayerTableRecord
  2
DEFAULT_2
 70
0
 62
8
  6
HIDDEN
370
-3
390
F
  0
LAYER
  5
1FC
100
AcDbSymbolTableRecord
100
AcDbLayerTableRecord
  2
DEFAULT_3
 70
0
 62
7
  6
PHANTOM
370
-3
390
F
  0
LAYER
  5
1FD
100
AcDbSymbolTableRecord
100
AcDbLayerTableRecord
  2
01_ALL_DTM_PLN
 70
0
 62
7
  6
CONTINUOUS
370
-3
390
F
  0
LAYER
  5
1FE
100
AcDbSymbolTableRecord
100
AcDbLayerTableRecord
  2
01__ASM_ALL_DTM_PLN
 70
0
 62
7
  6
CONTINUOUS
370
-3
390
F
  0
LAYER
  5
1FF
100
AcDbSymbolTableRecord
100
AcDbLayerTableRecord
  2
01__ASM_DEF_DTM_PLN
 70
0
 62
7
  6
CONTINUOUS
370
-3
390
F
  0
LAYER
  5
200
100
AcDbSymbolTableRecord
100
AcDbLayerTableRecord
  2
01___PRT_ALL_DTM_PLN
 70
0
 62
7
  6
CONTINUOUS
370
-3
390
F
  0
LAYER
  5
201
100
AcDbSymbolTableRecord
100
AcDbLayerTableRecord
  2
01___PRT_DEF_DTM_PLN
 70
0
 62
7
  6
CONTINUOUS
370
-3
390
F
  0
LAYER
  5
202
100
AcDbSymbolTableRecord
100
AcDbLayerTableRecord
  2
02_ALL_AXES
 70
0
 62
7
  6
CONTINUOUS
370
-3
390
F
  0
LAYER
  5
203
100
AcDbSymbolTableRecord
100
AcDbLayerTableRecord
  2
02__ASM_ALL_AXES
 70
0
 62
7
  6
CONTINUOUS
370
-3
390
F
  0
LAYER
  5
204
100
AcDbSymbolTableRecord
100
AcDbLayerTableRecord
  2
02___PRT_ALL_AXES
 70
0
 62
7
  6
CONTINUOUS
370
-3
390
F
  0
LAYER
  5
205
100
AcDbSymbolTableRecord
100
AcDbLayerTableRecord
  2
03_ALL_CURVES
 70
0
 62
7
  6
CONTINUOUS
370
-3
390
F
  0
LAYER
  5
206
100
AcDbSymbolTableRecord
100
AcDbLayerTableRecord
  2
03__ASM_ALL_CURVES
 70
0
 62
7
  6
CONTINUOUS
370
-3
390
F
  0
LAYER
  5
207
100
AcDbSymbolTableRecord
100
AcDbLayerTableRecord
  2
03___PRT_ALL_CURVES
 70
0
 62
7
  6
CONTINUOUS
370
-3
390
F
  0
LAYER
  5
208
100
AcDbSymbolTableRecord
100
AcDbLayerTableRecord
  2
04_ALL_DTM_PNT
 70
0
 62
7
  6
CONTINUOUS
370
-3
390
F
  0
LAYER
  5
209
100
AcDbSymbolTableRecord
100
AcDbLayerTableRecord
  2
04__ASM_ALL_DTM_PNT
 70
0
 62
7
  6
CONTINUOUS
370
-3
390
F
  0
LAYER
  5
20A
100
AcDbSymbolTableRecord
100
AcDbLayerTableRecord
  2
04___PRT_ALL_DTM_PNT
 70
0
 62
7
  6
CONTINUOUS
370
-3
390
F
  0
LAYER
  5
20B
100
AcDbSymbolTableRecord
100
AcDbLayerTableRecord
  2
05_ALL_DTM_CSYS
 70
0
 62
7
  6
CONTINUOUS
370
-3
390
F
  0
LAYER
  5
20C
100
AcDbSymbolTableRecord
100
AcDbLayerTableRecord
  2
05__ASM_ALL_DTM_CSYS
 70
0
 62
7
  6
CONTINUOUS
370
-3
390
F
  0
LAYER
  5
20D
100
AcDbSymbolTableRecord
100
AcDbLayerTableRecord
  2
05__ASM_DEF_DTM_CSYS
 70
0
 62
7
  6
CONTINUOUS
370
-3
390
F
  0
LAYER
  5
20E
100
AcDbSymbolTableRecord
100
AcDbLayerTableRecord
  2
05___PRT_ALL_DTM_CSYS
 70
0
 62
7
  6
CONTINUOUS
370
-3
390
F
  0
LAYER
  5
20F
100
AcDbSymbolTableRecord
100
AcDbLayerTableRecord
  2
05___PRT_DEF_DTM_CSYS
 70
0
 62
7
  6
CONTINUOUS
370
-3
390
F
  0
LAYER
  5
210
100
AcDbSymbolTableRecord
100
AcDbLayerTableRecord
  2
06_ALL_SURFS
 70
0
 62
7
  6
CONTINUOUS
370
-3
390
F
  0
LAYER
  5
211
100
AcDbSymbolTableRecord
100
AcDbLayerTableRecord
  2
06__ASM_ALL_SURFS
 70
0
 62
7
  6
CONTINUOUS
370
-3
390
F
  0
LAYER
  5
212
100
AcDbSymbolTableRecord
100
AcDbLayerTableRecord
  2
06___PRT_ALL_SURFS
 70
0
 62
7
  6
CONTINUOUS
370
-3
390
F
  0
LAYER
  5
213
100
AcDbSymbolTableRecord
100
AcDbLayerTableRecord
  2
07__ASM_ALL_SKELETONS
 70
0
 62
7
  6
CONTINUOUS
370
-3
390
F
  0
LAYER
  5
214
100
AcDbSymbolTableRecord
100
AcDbLayerTableRecord
  2
1
 70
0
 62
7
  6
CONTINUOUS
370
-3
390
F
  0
LAYER
  5
215
100
AcDbSymbolTableRecord
100
AcDbLayerTableRecord
  2
10
 70
0
 62
7
  6
CONTINUOUS
370
-3
390
F
  0
LAYER
  5
216
100
AcDbSymbolTableRecord
100
AcDbLayerTableRecord
  2
11
 70
0
 62
7
  6
CONTINUOUS
370
-3
390
F
  0
LAYER
  5
217
100
AcDbSymbolTableRecord
100
AcDbLayerTableRecord
  2
12
 70
0
 62
7
  6
CONTINUOUS
370
-3
390
F
  0
LAYER
  5
218
100
AcDbSymbolTableRecord
100
AcDbLayerTableRecord
  2
13
 70
0
 62
7
  6
CONTINUOUS
370
-3
390
F
  0
LAYER
  5
219
100
AcDbSymbolTableRecord
100
AcDbLayerTableRecord
  2
14
 70
0
 62
7
  6
CONTINUOUS
370
-3
390
F
  0
LAYER
  5
21A
100
AcDbSymbolTableRecord
100
AcDbLayerTableRecord
  2
15
 70
0
 62
7
  6
CONTINUOUS
370
-3
390
F
  0
LAYER
  5
21B
100
AcDbSymbolTableRecord
100
AcDbLayerTableRecord
  2
16
 70
0
 62
7
  6
CONTINUOUS
370
-3
390
F
  0
LAYER
  5
21C
100
AcDbSymbolTableRecord
100
AcDbLayerTableRecord
  2
17
 70
0
 62
7
  6
CONTINUOUS
370
-3
390
F
  0
LAYER
  5
21D
100
AcDbSymbolTableRecord
100
AcDbLayerTableRecord
  2
18
 70
0
 62
7
  6
CONTINUOUS
370
-3
390
F
  0
LAYER
  5
21E
100
AcDbSymbolTableRecord
100
AcDbLayerTableRecord
  2
19
 70
0
 62
7
  6
CONTINUOUS
370
-3
390
F
  0
LAYER
  5
21F
100
AcDbSymbolTableRecord
100
AcDbLayerTableRecord
  2
1_ALL_PLANES
 70
0
 62
7
  6
CONTINUOUS
370
-3
390
F
  0
LAYER
  5
220
100
AcDbSymbolTableRecord
100
AcDbLayerTableRecord
  2
1__DEF_ASM_PLN
 70
0
 62
7
  6
CONTINUOUS
370
-3
390
F
  0
LAYER
  5
221
100
AcDbSymbolTableRecord
100
AcDbLayerTableRecord
  2
1__DEF_PLANES
 70
0
 62
7
  6
CONTINUOUS
370
-3
390
F
  0
LAYER
  5
222
100
AcDbSymbolTableRecord
100
AcDbLayerTableRecord
  2
2
 70
0
 62
7
  6
CONTINUOUS
370
-3
390
F
  0
LAYER
  5
223
100
AcDbSymbolTableRecord
100
AcDbLayerTableRecord
  2
20
 70
0
 62
7
  6
CONTINUOUS
370
-3
390
F
  0
LAYER
  5
224
100
AcDbSymbolTableRecord
100
AcDbLayerTableRecord
  2
21
 70
0
 62
7
  6
CONTINUOUS
370
-3
390
F
  0
LAYER
  5
225
100
AcDbSymbolTableRecord
100
AcDbLayerTableRecord
  2
22
 70
0
 62
7
  6
CONTINUOUS
370
-3
390
F
  0
LAYER
  5
226
100
AcDbSymbolTableRecord
100
AcDbLayerTableRecord
  2
23
 70
0
 62
7
  6
CONTINUOUS
370
-3
390
F
  0
LAYER
  5
227
100
AcDbSymbolTableRecord
100
AcDbLayerTableRecord
  2
24
 70
0
 62
7
  6
CONTINUOUS
370
-3
390
F
  0
LAYER
  5
228
100
AcDbSymbolTableRecord
100
AcDbLayerTableRecord
  2
25
 70
0
 62
7
  6
CONTINUOUS
370
-3
390
F
  0
LAYER
  5
229
100
AcDbSymbolTableRecord
100
AcDbLayerTableRecord
  2
26
 70
0
 62
7
  6
CONTINUOUS
370
-3
390
F
  0
LAYER
  5
22A
100
AcDbSymbolTableRecord
100
AcDbLayerTableRecord
  2
27
 70
0
 62
7
  6
CONTINUOUS
370
-3
390
F
  0
LAYER
  5
22B
100
AcDbSymbolTableRecord
100
AcDbLayerTableRecord
  2
28
 70
0
 62
7
  6
CONTINUOUS
370
-3
390
F
  0
LAYER
  5
22C
100
AcDbSymbolTableRecord
100
AcDbLayerTableRecord
  2
29
 70
0
 62
7
  6
CONTINUOUS
370
-3
390
F
  0
LAYER
  5
22D
100
AcDbSymbolTableRecord
100
AcDbLayerTableRecord
  2
2_ALL_CSYS
 70
0
 62
7
  6
CONTINUOUS
370
-3
390
F
  0
LAYER
  5
22E
100
AcDbSymbolTableRecord
100
AcDbLayerTableRecord
  2
2__DEF_ASM_CSYS
 70
0
 62
7
  6
CONTINUOUS
370
-3
390
F
  0
LAYER
  5
22F
100
AcDbSymbolTableRecord
100
AcDbLayerTableRecord
  2
2__DEF_CSYS
 70
0
 62
7
  6
CONTINUOUS
370
-3
390
F
  0
LAYER
  5
230
100
AcDbSymbolTableRecord
100
AcDbLayerTableRecord
  2
3
 70
0
 62
7
  6
CONTINUOUS
370
-3
390
F
  0
LAYER
  5
231
100
AcDbSymbolTableRecord
100
AcDbLayerTableRecord
  2
30
 70
0
 62
7
  6
CONTINUOUS
370
-3
390
F
  0
LAYER
  5
232
100
AcDbSymbolTableRecord
100
AcDbLayerTableRecord
  2
31
 70
0
 62
7
  6
CONTINUOUS
370
-3
390
F
  0
LAYER
  5
233
100
AcDbSymbolTableRecord
100
AcDbLayerTableRecord
  2
32
 70
0
 62
7
  6
CONTINUOUS
370
-3
390
F
  0
LAYER
  5
234
100
AcDbSymbolTableRecord
100
AcDbLayerTableRecord
  2
3_ALL_AXES
 70
0
 62
7
  6
CONTINUOUS
370
-3
390
F
  0
LAYER
  5
235
100
AcDbSymbolTableRecord
100
AcDbLayerTableRecord
  2
4
 70
0
 62
7
  6
CONTINUOUS
370
-3
390
F
  0
LAYER
  5
236
100
AcDbSymbolTableRecord
100
AcDbLayerTableRecord
  2
4_ALL_POINTS
 70
0
 62
7
  6
CONTINUOUS
370
-3
390
F
  0
LAYER
  5
237
100
AcDbSymbolTableRecord
100
AcDbLayerTableRecord
  2
5
 70
0
 62
7
  6
CONTINUOUS
370
-3
390
F
  0
LAYER
  5
238
100
AcDbSymbolTableRecord
100
AcDbLayerTableRecord
  2
5_ALL_CURVES
 70
0
 62
7
  6
CONTINUOUS
370
-3
390
F
  0
LAYER
  5
239
100
AcDbSymbolTableRecord
100
AcDbLayerTableRecord
  2
6
 70
0
 62
7
  6
CONTINUOUS
370
-3
390
F
  0
LAYER
  5
23A
100
AcDbSymbolTableRecord
100
AcDbLayerTableRecord
  2
6_ALL_SURFS
 70
0
 62
7
  6
CONTINUOUS
370
-3
390
F
  0
LAYER
  5
23B
100
AcDbSymbolTableRecord
100
AcDbLayerTableRecord
  2
7
 70
0
 62
7
  6
CONTINUOUS
370
-3
390
F
  0
LAYER
  5
23C
100
AcDbSymbolTableRecord
100
AcDbLayerTableRecord
  2
8
 70
0
 62
7
  6
CONTINUOUS
370
-3
390
F
  0
LAYER
  5
23D
100
AcDbSymbolTableRecord
100
AcDbLayerTableRecord
  2
9
 70
0
 62
7
  6
CONTINUOUS
370
-3
390
F
  0
LAYER
  5
23E
100
AcDbSymbolTableRecord
100
AcDbLayerTableRecord
  2
BOTTOM
 70
0
 62
7
  6
CONTINUOUS
370
-3
390
F
  0
LAYER
  5
23F
100
AcDbSymbolTableRecord
100
AcDbLayerTableRecord
  2
COSMETIC
 70
0
 62
7
  6
CONTINUOUS
370
-3
390
F
  0
LAYER
  5
240
100
AcDbSymbolTableRecord
100
AcDbLayerTableRecord
  2
COVER
 70
0
 62
7
  6
CONTINUOUS
370
-3
390
F
  0
LAYER
  5
241
100
AcDbSymbolTableRecord
100
AcDbLayerTableRecord
  2
CURVE
 70
0
 62
7
  6
CONTINUOUS
370
-3
390
F
  0
LAYER
  5
242
100
AcDbSymbolTableRecord
100
AcDbLayerTableRecord
  2
LAY0001
 70
0
 62
7
  6
CONTINUOUS
370
-3
390
F
  0
LAYER
  5
243
100
AcDbSymbolTableRecord
100
AcDbLayerTableRecord
  2
LAYER_4720
 70
0
 62
7
  6
CONTINUOUS
370
-3
390
F
  0
LAYER
  5
244
100
AcDbSymbolTableRecord
100
AcDbLayerTableRecord
  2
NONE
 70
0
 62
7
  6
CONTINUOUS
370
-3
390
F
  0
LAYER
  5
245
100
AcDbSymbolTableRecord
100
AcDbLayerTableRecord
  2
PARTDTMS
 70
0
 62
7
  6
CONTINUOUS
370
-3
390
F
  0
LAYER
  5
246
100
AcDbSymbolTableRecord
100
AcDbLayerTableRecord
  2
PLANE
 70
0
 62
7
  6
CONTINUOUS
370
-3
390
F
  0
ENDTAB
  0
TABLE
  2
STYLE
  5
3
100
AcDbSymbolTable
 70
1
  0
STYLE
  5
11
100
AcDbSymbolTableRecord
100
AcDbTextStyleTableRecord
  2
STANDARD
 70
0
 40
0.0
 41
0.8
 50
0.0
 71
0
 42
0.2
  3
txt
  4

  0
STYLE
  5
247
100
AcDbSymbolTableRecord
100
AcDbTextStyleTableRecord
  2
TEXTSTYLE_1
 70
0
 40
0.0
 41
0.8
 50
0.0
 71
0
 42
0.2
  3
gdt
  4

  0
ENDTAB
  0
TABLE
  2
VIEW
  5
6
100
AcDbSymbolTable
 70
0
  0
ENDTAB
  0
TABLE
  2
UCS
  5
7
100
AcDbSymbolTable
 70
0
  0
ENDTAB
  0
TABLE
  2
APPID
  5
9
100
AcDbSymbolTable
 70
1
  0
APPID
  5
248
100
AcDbSymbolTableRecord
100
AcDbRegAppTableRecord
  2
ACAD
 70
0
  0
ENDTAB
  0
TABLE
  2
BLOCK_RECORD
  5
1
100
AcDbSymbolTable
 70
0
  0
BLOCK_RECORD
  5
249
100
AcDbSymbolTableRecord
100
AcDbBlockTableRecord
  2
*Model_Space
  0
BLOCK_RECORD
  5
24A
100
AcDbSymbolTableRecord
100
AcDbBlockTableRecord
  2
*Paper_Space
  0
ENDTAB
  0
TABLE
  2
DIMSTYLE
  5
A
100
AcDbSymbolTable
 70
1
100
AcDbDimStyleTable
 71
0
  0
DIMSTYLE
105
24B
100
AcDbSymbolTableRecord
100
AcDbDimStyleTableRecord
  2
STANDARD
 70
0
  3

  4

 40
1.0
 41
0.125
 42
0.0625
 43
0.38
 44
0.18
 45
0.0
 46
0.0
 47
0.7
 48
0.7
140
0.15625
141
0.09
142
0.0
143
25.4
144
1.0
145
0.0
146
1.0
147
0.09
 71
1.0
 72
0.0
 73
1
 74
1
 75
0
 76
0
 77
0
 78
4
170
0
171
2
172
0
173
0
174
0
175
0
176
0
177
0
178
0
270
2
271
2
272
2
273
2
274
2
275
0
280
0
281
0
282
0
283
1
284
4
285
0
286
0
287
3
288
0
340
11
  0
ENDTAB
  0
ENDSEC
  0
SECTION
  2
BLOCKS
  0
BLOCK
  5
20
100
AcDbEntity
  8
0
100
AcDbBlockBegin
  2
*Model_Space
 70
0
 10
0.0
 20
0.0
 30
0.0
  3
*Model_Space
  1

  0
ENDBLK
  5
21
100
AcDbEntity
  8
0
100
AcDbBlockEnd
  0
BLOCK
  5
1C
100
AcDbEntity
  8
0
100
AcDbBlockBegin
  2
*Paper_Space
 70
0
 10
0.0
 20
0.0
 30
0.0
  3
*Paper_Space
  1

  0
ENDBLK
  5
1D
100
AcDbEntity
  8
0
100
AcDbBlockEnd
  0
ENDSEC
  0
SECTION
  2
ENTITIES
  0
MTEXT
  5
24C
100
AcDbEntity
  8
0
100
AcDbMText
 62
2
  6
CONTINUOUS
  7
STANDARD
 71
1
 72
1
 10
-7.4771353999
 20
5.8828461464
 30
0.0
 11
1.0
 21
0.0
 31
0.0
 44
0.9
  1
40410 OR 40521
 40
2.0
 41
22.4
  0
LINE
  5
24D
100
AcDbEntity
  8
0
100
AcDbLine
 62
7
  6
CONTINUOUS
 10
-27.8398636564
 20
20.0642191819
 11
-27.7155425817
 21
18.286344984
  0
LINE
  5
24E
100
AcDbEntity
  8
0
100
AcDbLine
 62
7
  6
CONTINUOUS
 10
-28.0361866022
 20
20.3320739616
 11
-28.0361866022
 21
20.1923101821
  0
LINE
  5
24F
100
AcDbEntity
  8
0
100
AcDbLine
 62
7
  6
CONTINUOUS
 10
-27.7958764326
 20
20.8897588794
 11
-27.8348735609
 21
20.3320739616
  0
LINE
  5
250
100
AcDbEntity
  8
06___PRT_ALL_SURFS
100
AcDbLine
 62
7
  6
CONTINUOUS
 10
-26.4082827534
 20
22.6874214092
 11
-26.4082827534
 21
23.6874214092
  0
LINE
  5
251
100
AcDbEntity
  8
0
100
AcDbLine
 62
7
  6
CONTINUOUS
 10
-26.3882827534
 20
22.6874214092
 11
-26.3882827534
 21
23.6674214092
  0
LINE
  5
252
100
AcDbEntity
  8
0
100
AcDbLine
 62
7
  6
CONTINUOUS
 10
-26.323588177
 20
23.6686881348
 11
-26.323588177
 21
22.6419541842
  0
LINE
  5
253
100
AcDbEntity
  8
0
100
AcDbLine
 62
7
  6
CONTINUOUS
 10
-26.323588177
 20
17.8340424656
 11
-26.323588177
 21
16.7041212057
  0
LINE
  5
254
100
AcDbEntity
  8
0
100
AcDbLine
 62
7
  6
CONTINUOUS
 10
-26.359169256
 20
22.5480395317
 11
-27.7684707899
 21
20.9551139191
  0
LINE
  5
255
100
AcDbEntity
  8
0
100
AcDbLine
 62
7
  6
CONTINUOUS
 10
-23.2253662266
 20
23.6874214092
 11
-23.2253662266
 21
23.6974214092
  0
LINE
  5
256
100
AcDbEntity
  8
0
100
AcDbLine
 62
7
  6
CONTINUOUS
 10
-23.0603662266
 20
23.6874214092
 11
-23.0603662266
 21
23.6974214092
  0
LINE
  5
257
100
AcDbEntity
  8
0
100
AcDbLine
 62
7
  6
CONTINUOUS
 10
-23.02369949
 20
23.6874214092
 11
-23.02369949
 21
23.6974214092
  0
LINE
  5
258
100
AcDbEntity
  8
0
100
AcDbLine
 62
7
  6
CONTINUOUS
 10
-23.0191160168
 20
23.6874214092
 11
-23.0191160168
 21
23.6974214092
  0
LINE
  5
259
100
AcDbEntity
  8
0
100
AcDbLine
 62
7
  6
CONTINUOUS
 10
-23.0007827534
 20
23.6874214092
 11
-23.0007827534
 21
23.6974214092
  0
LINE
  5
25A
100
AcDbEntity
  8
0
100
AcDbLine
 62
7
  6
CONTINUOUS
 10
-22.98244949
 20
23.6874214092
 11
-22.98244949
 21
23.6974214092
  0
LINE
  5
25B
100
AcDbEntity
  8
0
100
AcDbLine
 62
7
  6
CONTINUOUS
 10
-22.9595327534
 20
23.6874214092
 11
-22.9595327534
 21
23.6974214092
  0
LINE
  5
25C
100
AcDbEntity
  8
0
100
AcDbLine
 62
7
  6
CONTINUOUS
 10
-22.9182827534
 20
23.6874214092
 11
-22.9182827534
 21
23.6974214092
  0
LINE
  5
25D
100
AcDbEntity
  8
0
100
AcDbLine
 62
7
  6
CONTINUOUS
 10
-22.8953660168
 20
23.6874214092
 11
-22.8953660168
 21
23.6974214092
  0
LINE
  5
25E
100
AcDbEntity
  8
0
100
AcDbLine
 62
7
  6
CONTINUOUS
 10
-22.8770327534
 20
23.6874214092
 11
-22.8770327534
 21
23.6974214092
  0
LINE
  5
25F
100
AcDbEntity
  8
0
100
AcDbLine
 62
7
  6
CONTINUOUS
 10
-22.85869949
 20
23.6874214092
 11
-22.85869949
 21
23.6974214092
  0
LINE
  5
260
100
AcDbEntity
  8
0
100
AcDbLine
 62
7
  6
CONTINUOUS
 10
-22.8495327534
 20
23.6874214092
 11
-22.8495327534
 21
23.6974214092
  0
LINE
  5
261
100
AcDbEntity
  8
0
100
AcDbLine
 62
7
  6
CONTINUOUS
 10
-22.84494949
 20
23.6874214092
 11
-22.84494949
 21
23.6974214092
  0
LINE
  5
262
100
AcDbEntity
  8
0
100
AcDbLine
 62
7
  6
CONTINUOUS
 10
-22.8082827534
 20
23.6874214092
 11
-22.8082827534
 21
23.6974214092
  0
LINE
  5
263
100
AcDbEntity
  8
0
100
AcDbLine
 62
7
  6
CONTINUOUS
 10
-22.80369949
 20
23.6874214092
 11
-22.80369949
 21
23.6974214092
  0
LINE
  5
264
100
AcDbEntity
  8
0
100
AcDbLine
 62
7
  6
CONTINUOUS
 10
-22.7945327534
 20
23.6874214092
 11
-22.7945327534
 21
23.6974214092
  0
LINE
  5
265
100
AcDbEntity
  8
0
100
AcDbLine
 62
7
  6
CONTINUOUS
 10
-22.77619949
 20
23.6874214092
 11
-22.77619949
 21
23.6974214092
  0
LINE
  5
266
100
AcDbEntity
  8
0
100
AcDbLine
 62
7
  6
CONTINUOUS
 10
-22.7578660168
 20
23.6874214092
 11
-22.7578660168
 21
23.6974214092
  0
LINE
  5
267
100
AcDbEntity
  8
0
100
AcDbLine
 62
7
  6
CONTINUOUS
 10
-22.73494949
 20
23.6874214092
 11
-22.73494949
 21
23.6974214092
  0
LINE
  5
268
100
AcDbEntity
  8
0
100
AcDbLine
 62
7
  6
CONTINUOUS
 10
-22.62494949
 20
23.6874214092
 11
-22.62494949
 21
23.6974214092
  0
LINE
  5
269
100
AcDbEntity
  8
0
100
AcDbLine
 62
7
  6
CONTINUOUS
 10
-22.5882827534
 20
23.6874214092
 11
-22.5882827534
 21
23.6974214092
  0
LINE
  5
26A
100
AcDbEntity
  8
0
100
AcDbLine
 62
7
  6
CONTINUOUS
 10
-22.4232827534
 20
23.6874214092
 11
-22.4232827534
 21
23.6974214092
  0
LINE
  5
26B
100
AcDbEntity
  8
0
100
AcDbLine
 62
7
  6
CONTINUOUS
 10
-22.1666160168
 20
23.6874214092
 11
-22.1666160168
 21
23.6974214092
  0
LINE
  5
26C
100
AcDbEntity
  8
0
100
AcDbLine
 62
7
  6
CONTINUOUS
 10
-22.1620327534
 20
23.6874214092
 11
-22.1620327534
 21
23.6974214092
  0
LINE
  5
26D
100
AcDbEntity
  8
0
100
AcDbLine
 62
7
  6
CONTINUOUS
 10
-22.1482827534
 20
23.6874214092
 11
-22.1482827534
 21
23.6974214092
  0
LINE
  5
26E
100
AcDbEntity
  8
0
100
AcDbLine
 62
7
  6
CONTINUOUS
 10
-22.12994949
 20
23.6874214092
 11
-22.12994949
 21
23.6974214092
  0
LINE
  5
26F
100
AcDbEntity
  8
0
100
AcDbLine
 62
7
  6
CONTINUOUS
 10
-22.1070327534
 20
23.6874214092
 11
-22.1070327534
 21
23.6974214092
  0
LINE
  5
270
100
AcDbEntity
  8
0
100
AcDbLine
 62
7
  6
CONTINUOUS
 10
-21.9970327534
 20
23.6874214092
 11
-21.9970327534
 21
23.6974214092
  0
LINE
  5
271
100
AcDbEntity
  8
0
100
AcDbLine
 62
7
  6
CONTINUOUS
 10
-21.9603660168
 20
23.6874214092
 11
-21.9603660168
 21
23.6974214092
  0
LINE
  5
272
100
AcDbEntity
  8
0
100
AcDbLine
 62
7
  6
CONTINUOUS
 10
-21.9557827534
 20
23.6874214092
 11
-21.9557827534
 21
23.6974214092
  0
LINE
  5
273
100
AcDbEntity
  8
0
100
AcDbLine
 62
7
  6
CONTINUOUS
 10
-21.95119949
 20
23.6874214092
 11
-21.95119949
 21
23.6974214092
  0
LINE
  5
274
100
AcDbEntity
  8
0
100
AcDbLine
 62
7
  6
CONTINUOUS
 10
-21.93744949
 20
23.6874214092
 11
-21.93744949
 21
23.6974214092
  0
LINE
  5
275
100
AcDbEntity
  8
0
100
AcDbLine
 62
7
  6
CONTINUOUS
 10
-21.9191160168
 20
23.6874214092
 11
-21.9191160168
 21
23.6974214092
  0
LINE
  5
276
100
AcDbEntity
  8
0
100
AcDbLine
 62
7
  6
CONTINUOUS
 10
-21.89619949
 20
23.6874214092
 11
-21.89619949
 21
23.6974214092
  0
LINE
  5
277
100
AcDbEntity
  8
0
100
AcDbLine
 62
7
  6
CONTINUOUS
 10
-21.78619949
 20
23.6874214092
 11
-21.78619949
 21
23.6974214092
  0
LINE
  5
278
100
AcDbEntity
  8
0
100
AcDbLine
 62
7
  6
CONTINUOUS
 10
-21.7495327534
 20
23.6874214092
 11
-21.7495327534
 21
23.6974214092
  0
LINE
  5
279
100
AcDbEntity
  8
0
100
AcDbLine
 62
7
  6
CONTINUOUS
 10
-21.67619949
 20
23.6874214092
 11
-21.67619949
 21
23.6974214092
  0
LINE
  5
27A
100
AcDbEntity
  8
0
100
AcDbLine
 62
7
  6
CONTINUOUS
 10
-21.6395327534
 20
23.6874214092
 11
-21.6395327534
 21
23.6974214092
  0
LINE
  5
27B
100
AcDbEntity
  8
0
100
AcDbLine
 62
7
  6
CONTINUOUS
 10
-21.56619949
 20
23.6874214092
 11
-21.56619949
 21
23.6974214092
  0
LINE
  5
27C
100
AcDbEntity
  8
0
100
AcDbLine
 62
7
  6
CONTINUOUS
 10
-21.5295327534
 20
23.6874214092
 11
-21.5295327534
 21
23.6974214092
  0
LINE
  5
27D
100
AcDbEntity
  8
0
100
AcDbLine
 62
7
  6
CONTINUOUS
 10
-21.5020327534
 20
23.6874214092
 11
-21.5020327534
 21
23.6974214092
  0
LINE
  5
27E
100
AcDbEntity
  8
0
100
AcDbLine
 62
7
  6
CONTINUOUS
 10
-21.37369949
 20
23.6874214092
 11
-21.37369949
 21
23.6974214092
  0
LINE
  5
27F
100
AcDbEntity
  8
0
100
AcDbLine
 62
7
  6
CONTINUOUS
 10
-21.34619949
 20
23.6874214092
 11
-21.34619949
 21
23.6974214092
  0
LINE
  5
280
100
AcDbEntity
  8
0
100
AcDbLine
 62
7
  6
CONTINUOUS
 10
-21.3095327534
 20
23.6874214092
 11
-21.3095327534
 21
23.6974214092
  0
LINE
  5
281
100
AcDbEntity
  8
0
100
AcDbLine
 62
7
  6
CONTINUOUS
 10
-21.3003660168
 20
23.6874214092
 11
-21.3003660168
 21
23.6974214092
  0
LINE
  5
282
100
AcDbEntity
  8
0
100
AcDbLine
 62
7
  6
CONTINUOUS
 10
-21.2957827534
 20
23.6874214092
 11
-21.2957827534
 21
23.6974214092
  0
LINE
  5
283
100
AcDbEntity
  8
0
100
AcDbLine
 62
7
  6
CONTINUOUS
 10
-21.29119949
 20
23.6874214092
 11
-21.29119949
 21
23.6974214092
  0
LINE
  5
284
100
AcDbEntity
  8
0
100
AcDbLine
 62
7
  6
CONTINUOUS
 10
-21.27744949
 20
23.6874214092
 11
-21.27744949
 21
23.6974214092
  0
LINE
  5
285
100
AcDbEntity
  8
0
100
AcDbLine
 62
7
  6
CONTINUOUS
 10
-21.2591161217
 20
23.6874214092
 11
-21.2591161217
 21
23.6974214092
  0
LINE
  5
286
100
AcDbEntity
  8
0
100
AcDbLine
 62
7
  6
CONTINUOUS
 10
-21.2361993851
 20
23.6874214092
 11
-21.2361993851
 21
23.6974214092
  0
LINE
  5
287
100
AcDbEntity
  8
0
100
AcDbLine
 62
7
  6
CONTINUOUS
 10
-21.2132827534
 20
23.6874214092
 11
-21.2132827534
 21
23.6974214092
  0
LINE
  5
288
100
AcDbEntity
  8
0
100
AcDbLine
 62
7
  6
CONTINUOUS
 10
-21.1949493851
 20
23.6874214092
 11
-21.1949493851
 21
23.6974214092
  0
LINE
  5
289
100
AcDbEntity
  8
0
100
AcDbLine
 62
7
  6
CONTINUOUS
 10
-21.1766161217
 20
23.6874214092
 11
-21.1766161217
 21
23.6974214092
  0
LINE
  5
28A
100
AcDbEntity
  8
0
100
AcDbLine
 62
7
  6
CONTINUOUS
 10
-16.5794936888
 20
16.6450660876
 11
-26.2645330589
 21
16.6450660876
  0
LINE
  5
28B
100
AcDbEntity
  8
0
100
AcDbLine
 62
7
  6
CONTINUOUS
 10
-21.1582827534
 20
23.6874214092
 11
-21.1582827534
 21
23.6974214092
  0
LINE
  5
28C
100
AcDbEntity
  8
0
100
AcDbLine
 62
7
  6
CONTINUOUS
 10
-21.1536993851
 20
23.6874214092
 11
-21.1536993851
 21
23.6974214092
  0
LINE
  5
28D
100
AcDbEntity
  8
0
100
AcDbLine
 62
7
  6
CONTINUOUS
 10
-21.1399493851
 20
23.6874214092
 11
-21.1399493851
 21
23.6974214092
  0
LINE
  5
28E
100
AcDbEntity
  8
0
100
AcDbLine
 62
7
  6
CONTINUOUS
 10
-20.8832827534
 20
23.6874214092
 11
-20.8832827534
 21
23.6974214092
  0
LINE
  5
28F
100
AcDbEntity
  8
0
100
AcDbLine
 62
7
  6
CONTINUOUS
 10
-20.8603661217
 20
23.6874214092
 11
-20.8603661217
 21
23.6974214092
  0
LINE
  5
290
100
AcDbEntity
  8
0
100
AcDbLine
 62
7
  6
CONTINUOUS
 10
-20.8236993851
 20
23.6874214092
 11
-20.8236993851
 21
23.6974214092
  0
LINE
  5
291
100
AcDbEntity
  8
0
100
AcDbLine
 62
7
  6
CONTINUOUS
 10
-20.7961993851
 20
23.6874214092
 11
-20.7961993851
 21
23.6974214092
  0
LINE
  5
292
100
AcDbEntity
  8
0
100
AcDbLine
 62
7
  6
CONTINUOUS
 10
-20.6816161217
 20
23.6874214092
 11
-20.6816161217
 21
23.6974214092
  0
LINE
  5
293
100
AcDbEntity
  8
0
100
AcDbLine
 62
7
  6
CONTINUOUS
 10
-20.6403661217
 20
23.6874214092
 11
-20.6403661217
 21
23.6974214092
  0
LINE
  5
294
100
AcDbEntity
  8
0
100
AcDbLine
 62
7
  6
CONTINUOUS
 10
-20.6036993851
 20
23.6874214092
 11
-20.6036993851
 21
23.6974214092
  0
LINE
  5
295
100
AcDbEntity
  8
0
100
AcDbLine
 62
7
  6
CONTINUOUS
 10
-20.5991161217
 20
23.6874214092
 11
-20.5991161217
 21
23.6974214092
  0
LINE
  5
296
100
AcDbEntity
  8
0
100
AcDbLine
 62
7
  6
CONTINUOUS
 10
-20.5899493851
 20
23.6874214092
 11
-20.5899493851
 21
23.6974214092
  0
LINE
  5
297
100
AcDbEntity
  8
0
100
AcDbLine
 62
7
  6
CONTINUOUS
 10
-20.5716161217
 20
23.6874214092
 11
-20.5716161217
 21
23.6974214092
  0
LINE
  5
298
100
AcDbEntity
  8
0
100
AcDbLine
 62
7
  6
CONTINUOUS
 10
-20.5532827534
 20
23.6874214092
 11
-20.5532827534
 21
23.6974214092
  0
LINE
  5
299
100
AcDbEntity
  8
0
100
AcDbLine
 62
7
  6
CONTINUOUS
 10
-20.5303661217
 20
23.6874214092
 11
-20.5303661217
 21
23.6974214092
  0
LINE
  5
29A
100
AcDbEntity
  8
0
100
AcDbLine
 62
7
  6
CONTINUOUS
 10
-20.4936993851
 20
23.6874214092
 11
-20.4936993851
 21
23.6974214092
  0
LINE
  5
29B
100
AcDbEntity
  8
0
100
AcDbLine
 62
7
  6
CONTINUOUS
 10
-20.4707827534
 20
23.6874214092
 11
-20.4707827534
 21
23.6974214092
  0
LINE
  5
29C
100
AcDbEntity
  8
0
100
AcDbLine
 62
7
  6
CONTINUOUS
 10
-20.4524493851
 20
23.6874214092
 11
-20.4524493851
 21
23.6974214092
  0
LINE
  5
29D
100
AcDbEntity
  8
0
100
AcDbLine
 62
7
  6
CONTINUOUS
 10
-20.4341161217
 20
23.6874214092
 11
-20.4341161217
 21
23.6974214092
  0
LINE
  5
29E
100
AcDbEntity
  8
0
100
AcDbLine
 62
7
  6
CONTINUOUS
 10
-20.4249493851
 20
23.6874214092
 11
-20.4249493851
 21
23.6974214092
  0
LINE
  5
29F
100
AcDbEntity
  8
0
100
AcDbLine
 62
7
  6
CONTINUOUS
 10
-20.4203661217
 20
23.6874214092
 11
-20.4203661217
 21
23.6974214092
  0
LINE
  5
2A0
100
AcDbEntity
  8
0
100
AcDbLine
 62
7
  6
CONTINUOUS
 10
-20.3836994376
 20
23.6874214092
 11
-20.3836994376
 21
23.6974214092
  0
LINE
  5
2A1
100
AcDbEntity
  8
0
100
AcDbLine
 62
7
  6
CONTINUOUS
 10
-20.3561994376
 20
23.6874214092
 11
-20.3561994376
 21
23.6974214092
  0
LINE
  5
2A2
100
AcDbEntity
  8
0
100
AcDbLine
 62
7
  6
CONTINUOUS
 10
-20.3195327534
 20
23.6874214092
 11
-20.3195327534
 21
23.6974214092
  0
LINE
  5
2A3
100
AcDbEntity
  8
0
100
AcDbLine
 62
7
  6
CONTINUOUS
 10
-20.1453660693
 20
23.6874214092
 11
-20.1453660693
 21
23.6974214092
  0
LINE
  5
2A4
100
AcDbEntity
  8
0
100
AcDbLine
 62
7
  6
CONTINUOUS
 10
-20.1086994376
 20
23.6874214092
 11
-20.1086994376
 21
23.6974214092
  0
LINE
  5
2A5
100
AcDbEntity
  8
0
100
AcDbLine
 62
7
  6
CONTINUOUS
 10
-20.0811994376
 20
23.6874214092
 11
-20.0811994376
 21
23.6974214092
  0
LINE
  5
2A6
100
AcDbEntity
  8
0
100
AcDbLine
 62
7
  6
CONTINUOUS
 10
-20.0766160693
 20
23.6874214092
 11
-20.0766160693
 21
23.6974214092
  0
LINE
  5
2A7
100
AcDbEntity
  8
0
100
AcDbLine
 62
7
  6
CONTINUOUS
 10
-20.0674494376
 20
23.6874214092
 11
-20.0674494376
 21
23.6974214092
  0
LINE
  5
2A8
100
AcDbEntity
  8
0
100
AcDbLine
 62
7
  6
CONTINUOUS
 10
-20.0536994376
 20
23.6874214092
 11
-20.0536994376
 21
23.6974214092
  0
LINE
  5
2A9
100
AcDbEntity
  8
0
100
AcDbLine
 62
7
  6
CONTINUOUS
 10
-20.0353660693
 20
23.6874214092
 11
-20.0353660693
 21
23.6974214092
  0
LINE
  5
2AA
100
AcDbEntity
  8
0
100
AcDbLine
 62
7
  6
CONTINUOUS
 10
-20.0170327534
 20
23.6874214092
 11
-20.0170327534
 21
23.6974214092
  0
LINE
  5
2AB
100
AcDbEntity
  8
0
100
AcDbLine
 62
7
  6
CONTINUOUS
 10
-19.9986994376
 20
23.6874214092
 11
-19.9986994376
 21
23.6974214092
  0
LINE
  5
2AC
100
AcDbEntity
  8
0
100
AcDbLine
 62
7
  6
CONTINUOUS
 10
-19.9849494376
 20
23.6874214092
 11
-19.9849494376
 21
23.6974214092
  0
LINE
  5
2AD
100
AcDbEntity
  8
0
100
AcDbLine
 62
7
  6
CONTINUOUS
 10
-19.9757827534
 20
23.6874214092
 11
-19.9757827534
 21
23.6974214092
  0
LINE
  5
2AE
100
AcDbEntity
  8
0
100
AcDbLine
 62
7
  6
CONTINUOUS
 10
-19.9711994376
 20
23.6874214092
 11
-19.9711994376
 21
23.6974214092
  0
LINE
  5
2AF
100
AcDbEntity
  8
0
100
AcDbLine
 62
7
  6
CONTINUOUS
 10
-19.9436994113
 20
23.6874214092
 11
-19.9436994113
 21
23.6974214092
  0
LINE
  5
2B0
100
AcDbEntity
  8
0
100
AcDbLine
 62
7
  6
CONTINUOUS
 10
-19.9070327534
 20
23.6874214092
 11
-19.9070327534
 21
23.6974214092
  0
LINE
  5
2B1
100
AcDbEntity
  8
0
100
AcDbLine
 62
7
  6
CONTINUOUS
 10
-19.8336994113
 20
23.6874214092
 11
-19.8336994113
 21
23.6974214092
  0
LINE
  5
2B2
100
AcDbEntity
  8
0
100
AcDbLine
 62
7
  6
CONTINUOUS
 10
-19.7970327534
 20
23.6874214092
 11
-19.7970327534
 21
23.6974214092
  0
LINE
  5
2B3
100
AcDbEntity
  8
0
100
AcDbLine
 62
7
  6
CONTINUOUS
 10
-19.7236994244
 20
23.6874214092
 11
-19.7236994244
 21
23.6974214092
  0
LINE
  5
2B4
100
AcDbEntity
  8
0
100
AcDbLine
 62
7
  6
CONTINUOUS
 10
-19.6870327534
 20
23.6874214092
 11
-19.6870327534
 21
23.6974214092
  0
LINE
  5
2B5
100
AcDbEntity
  8
0
100
AcDbLine
 62
7
  6
CONTINUOUS
 10
-19.6824494244
 20
23.6874214092
 11
-19.6824494244
 21
23.6974214092
  0
LINE
  5
2B6
100
AcDbEntity
  8
0
100
AcDbLine
 62
7
  6
CONTINUOUS
 10
-19.6641160824
 20
23.6874214092
 11
-19.6641160824
 21
23.6974214092
  0
LINE
  5
2B7
100
AcDbEntity
  8
0
100
AcDbLine
 62
7
  6
CONTINUOUS
 10
-19.6457827534
 20
23.6874214092
 11
-19.6457827534
 21
23.6974214092
  0
LINE
  5
2B8
100
AcDbEntity
  8
0
100
AcDbLine
 62
7
  6
CONTINUOUS
 10
-19.6228660824
 20
23.6874214092
 11
-19.6228660824
 21
23.6974214092
  0
LINE
  5
2B9
100
AcDbEntity
  8
0
100
AcDbLine
 62
7
  6
CONTINUOUS
 10
-19.5816160889
 20
23.6874214092
 11
-19.5816160889
 21
23.6974214092
  0
LINE
  5
2BA
100
AcDbEntity
  8
0
100
AcDbLine
 62
7
  6
CONTINUOUS
 10
-15.5290953086
 20
17.912782623
 11
-27.3149459946
 21
17.912782623
  0
LINE
  5
2BB
100
AcDbEntity
  8
0
100
AcDbLine
 62
7
  6
CONTINUOUS
 10
-19.5586994212
 20
23.6874214092
 11
-19.5586994212
 21
23.6974214092
  0
LINE
  5
2BC
100
AcDbEntity
  8
0
100
AcDbLine
 62
7
  6
CONTINUOUS
 10
-19.5403660857
 20
23.6874214092
 11
-19.5403660857
 21
23.6974214092
  0
LINE
  5
2BD
100
AcDbEntity
  8
0
100
AcDbLine
 62
7
  6
CONTINUOUS
 10
-19.5220327534
 20
23.6874214092
 11
-19.5220327534
 21
23.6974214092
  0
LINE
  5
2BE
100
AcDbEntity
  8
0
100
AcDbLine
 62
7
  6
CONTINUOUS
 10
-19.5128660869
 20
23.6874214092
 11
-19.5128660869
 21
23.6974214092
  0
LINE
  5
2BF
100
AcDbEntity
  8
0
100
AcDbLine
 62
7
  6
CONTINUOUS
 10
-19.5082827534
 20
23.6874214092
 11
-19.5082827534
 21
23.6974214092
  0
LINE
  5
2C0
100
AcDbEntity
  8
0
100
AcDbLine
 62
7
  6
CONTINUOUS
 10
-14.8590747323
 20
20.1411290797
 11
-27.9849520154
 21
20.1411290797
  0
LINE
  5
2C1
100
AcDbEntity
  8
0
100
AcDbLine
 62
7
  6
CONTINUOUS
 10
-14.8078528689
 20
20.3320739616
 11
-28.0361738788
 21
20.3320739616
  0
LINE
  5
2C2
100
AcDbEntity
  8
0
100
AcDbLine
 62
7
  6
CONTINUOUS
 10
-16.5204385707
 20
23.6686881348
 11
-16.5204385707
 21
22.6419541842
  0
LINE
  5
2C3
100
AcDbEntity
  8
0
100
AcDbLine
 62
7
  6
CONTINUOUS
 10
-16.5204385707
 20
17.8340424656
 11
-16.5204385707
 21
16.7041212057
  0
LINE
  5
2C4
100
AcDbEntity
  8
0
100
AcDbLine
 62
7
  6
CONTINUOUS
 10
-16.4282827534
 20
23.6674214092
 11
-16.4282827534
 21
22.6874214092
  0
LINE
  5
2C5
100
AcDbEntity
  8
06___PRT_ALL_SURFS
100
AcDbLine
 62
7
  6
CONTINUOUS
 10
-16.4082827534
 20
23.6874214092
 11
-16.4082827534
 21
22.6874214092
  0
LINE
  5
2C6
100
AcDbEntity
  8
0
100
AcDbLine
 62
7
  6
CONTINUOUS
 10
-15.0481503152
 20
20.8897588794
 11
-15.0091531868
 21
20.3320739616
  0
LINE
  5
2C7
100
AcDbEntity
  8
0
100
AcDbLine
 62
7
  6
CONTINUOUS
 10
-15.0041630914
 20
20.0642191819
 11
-15.1284841661
 21
18.286344984
  0
LINE
  5
2C8
100
AcDbEntity
  8
0
100
AcDbLine
 62
7
  6
CONTINUOUS
 10
-26.4082827534
 20
22.6874214092
 11
-26.3882827534
 21
22.6874214092
  0
LINE
  5
2C9
100
AcDbEntity
  8
0
100
AcDbLine
 62
7
  6
CONTINUOUS
 10
-16.4082827534
 20
22.6874214092
 11
-16.4282827534
 21
22.6874214092
  0
LINE
  5
2CA
100
AcDbEntity
  8
0
100
AcDbLine
 62
7
  6
CONTINUOUS
 10
-16.4848574918
 20
22.5480395317
 11
-15.0755559578
 21
20.9551139191
  0
LINE
  5
2CB
100
AcDbEntity
  8
0
100
AcDbLine
 62
7
  6
CONTINUOUS
 10
-14.8078401455
 20
20.3320739616
 11
-14.8078401455
 21
20.1923101821
  0
LINE
  5
2CC
100
AcDbEntity
  8
0
100
AcDbLine
 62
7
  6
CONTINUOUS
 10
-26.3882827534
 20
23.6674214092
 11
-26.323588177
 21
23.6674214092
  0
LINE
  5
2CD
100
AcDbEntity
  8
0
100
AcDbLine
 62
7
  6
CONTINUOUS
 10
-16.5204385707
 20
23.6674214092
 11
-16.4282827534
 21
23.6674214092
  0
LINE
  5
2CE
100
AcDbEntity
  8
0
100
AcDbLine
 62
7
  6
CONTINUOUS
 10
-16.5519346337
 20
23.6686881348
 11
-26.292092114
 21
23.6686881348
  0
LINE
  5
2CF
100
AcDbEntity
  8
06___PRT_ALL_SURFS
100
AcDbLine
 62
7
  6
CONTINUOUS
 10
-26.4082827534
 20
23.6874214092
 11
-16.4082827534
 21
23.6874214092
  0
LINE
  5
2D0
100
AcDbEntity
  8
0
100
AcDbLine
 62
7
  6
CONTINUOUS
 10
-23.2253662266
 20
23.6974214092
 11
-23.0603662266
 21
23.6974214092
  0
LINE
  5
2D1
100
AcDbEntity
  8
0
100
AcDbLine
 62
7
  6
CONTINUOUS
 10
-23.02369949
 20
23.6974214092
 11
-22.84494949
 21
23.6974214092
  0
LINE
  5
2D2
100
AcDbEntity
  8
0
100
AcDbLine
 62
7
  6
CONTINUOUS
 10
-22.8082827534
 20
23.6974214092
 11
-22.62494949
 21
23.6974214092
  0
LINE
  5
2D3
100
AcDbEntity
  8
0
100
AcDbLine
 62
7
  6
CONTINUOUS
 10
-22.5882827534
 20
23.6974214092
 11
-22.4232827534
 21
23.6974214092
  0
LINE
  5
2D4
100
AcDbEntity
  8
0
100
AcDbLine
 62
7
  6
CONTINUOUS
 10
-22.1666160168
 20
23.6974214092
 11
-21.9970327534
 21
23.6974214092
  0
LINE
  5
2D5
100
AcDbEntity
  8
0
100
AcDbLine
 62
7
  6
CONTINUOUS
 10
-21.9603660168
 20
23.6974214092
 11
-21.78619949
 21
23.6974214092
  0
LINE
  5
2D6
100
AcDbEntity
  8
0
100
AcDbLine
 62
7
  6
CONTINUOUS
 10
-21.7495327534
 20
23.6974214092
 11
-21.56619949
 21
23.6974214092
  0
LINE
  5
2D7
100
AcDbEntity
  8
0
100
AcDbLine
 62
7
  6
CONTINUOUS
 10
-21.5295327534
 20
23.6974214092
 11
-21.34619949
 21
23.6974214092
  0
LINE
  5
2D8
100
AcDbEntity
  8
0
100
AcDbLine
 62
7
  6
CONTINUOUS
 10
-21.3095327534
 20
23.6974214092
 11
-21.1399493851
 21
23.6974214092
  0
LINE
  5
2D9
100
AcDbEntity
  8
0
100
AcDbLine
 62
7
  6
CONTINUOUS
 10
-20.8832827534
 20
23.6974214092
 11
-20.8603661217
 21
23.6974214092
  0
LINE
  5
2DA
100
AcDbEntity
  8
0
100
AcDbLine
 62
7
  6
CONTINUOUS
 10
-20.8236993851
 20
23.6974214092
 11
-20.6403661217
 21
23.6974214092
  0
LINE
  5
2DB
100
AcDbEntity
  8
0
100
AcDbLine
 62
7
  6
CONTINUOUS
 10
-20.6036993851
 20
23.6974214092
 11
-20.4203661217
 21
23.6974214092
  0
LINE
  5
2DC
100
AcDbEntity
  8
0
100
AcDbLine
 62
7
  6
CONTINUOUS
 10
-20.3836994376
 20
23.6974214092
 11
-20.3561994376
 21
23.6974214092
  0
LINE
  5
2DD
100
AcDbEntity
  8
0
100
AcDbLine
 62
7
  6
CONTINUOUS
 10
-20.3195327534
 20
23.6974214092
 11
-20.1453660693
 21
23.6974214092
  0
LINE
  5
2DE
100
AcDbEntity
  8
0
100
AcDbLine
 62
7
  6
CONTINUOUS
 10
-20.1086994376
 20
23.6974214092
 11
-19.9436994113
 21
23.6974214092
  0
LINE
  5
2DF
100
AcDbEntity
  8
0
100
AcDbLine
 62
7
  6
CONTINUOUS
 10
-19.9070327534
 20
23.6974214092
 11
-19.7236994244
 21
23.6974214092
  0
LINE
  5
2E0
100
AcDbEntity
  8
0
100
AcDbLine
 62
7
  6
CONTINUOUS
 10
-19.6870327534
 20
23.6974214092
 11
-19.5082827534
 21
23.6974214092
  0
LINE
  5
2E1
100
AcDbEntity
  8
0
100
AcDbLine
 62
7
  6
CONTINUOUS
 10
-3.4999329263
 20
20.3320739616
 11
-3.4999329263
 21
20.1923101821
  0
LINE
  5
2E2
100
AcDbEntity
  8
0
100
AcDbLine
 62
7
  6
CONTINUOUS
 10
-3.2596227566
 20
20.8897588794
 11
-3.298619885
 21
20.3320739616
  0
LINE
  5
2E3
100
AcDbEntity
  8
0
100
AcDbLine
 62
7
  6
CONTINUOUS
 10
-3.3036099804
 20
20.0642191819
 11
-3.1792889057
 21
18.286344984
  0
LINE
  5
2E4
100
AcDbEntity
  8
0
100
AcDbLine
 62
7
  6
CONTINUOUS
 10
-1.7873345011
 20
23.6686881348
 11
-1.7873345011
 21
22.6419541842
  0
LINE
  5
2E5
100
AcDbEntity
  8
0
100
AcDbLine
 62
7
  6
CONTINUOUS
 10
-1.7873345011
 20
17.8340424656
 11
-1.7873345011
 21
16.7041212057
  0
LINE
  5
2E6
100
AcDbEntity
  8
0
100
AcDbLine
 62
7
  6
CONTINUOUS
 10
-1.82291558
 20
22.5480395317
 11
-3.232217114
 21
20.9551139191
  0
LINE
  5
2E7
100
AcDbEntity
  8
06___PRT_ALL_SURFS
100
AcDbLine
 62
7
  6
CONTINUOUS
 10
2.4731059707
 20
23.6874214092
 11
2.4731059707
 21
22.6874214092
  0
LINE
  5
2E8
100
AcDbEntity
  8
0
100
AcDbLine
 62
7
  6
CONTINUOUS
 10
2.9131059707
 20
23.6874214092
 11
2.9131059707
 21
23.6974214092
  0
LINE
  5
2E9
100
AcDbEntity
  8
0
100
AcDbLine
 62
7
  6
CONTINUOUS
 10
2.9177868212
 20
23.6874214092
 11
2.9177868212
 21
23.6974214092
  0
LINE
  5
2EA
100
AcDbEntity
  8
0
100
AcDbLine
 62
7
  6
CONTINUOUS
 10
2.9271485222
 20
23.6874214092
 11
2.9271485222
 21
23.6974214092
  0
LINE
  5
2EB
100
AcDbEntity
  8
0
100
AcDbLine
 62
7
  6
CONTINUOUS
 10
2.9458719243
 20
23.6874214092
 11
2.9458719243
 21
23.6974214092
  0
LINE
  5
2EC
100
AcDbEntity
  8
0
100
AcDbLine
 62
7
  6
CONTINUOUS
 10
2.9645953263
 20
23.6874214092
 11
2.9645953263
 21
23.6974214092
  0
LINE
  5
2ED
100
AcDbEntity
  8
0
100
AcDbLine
 62
7
  6
CONTINUOUS
 10
2.9879995919
 20
23.6874214092
 11
2.9879995919
 21
23.6974214092
  0
LINE
  5
2EE
100
AcDbEntity
  8
0
100
AcDbLine
 62
7
  6
CONTINUOUS
 10
3.0582123561
 20
23.6874214092
 11
3.0582123561
 21
23.6974214092
  0
LINE
  5
2EF
100
AcDbEntity
  8
0
100
AcDbLine
 62
7
  6
CONTINUOUS
 10
3.0816166086
 20
23.6874214092
 11
3.0816166086
 21
23.6974214092
  0
LINE
  5
2F0
100
AcDbEntity
  8
0
100
AcDbLine
 62
7
  6
CONTINUOUS
 10
3.1003400139
 20
23.6874214092
 11
3.1003400139
 21
23.6974214092
  0
LINE
  5
2F1
100
AcDbEntity
  8
0
100
AcDbLine
 62
7
  6
CONTINUOUS
 10
3.1190634176
 20
23.6874214092
 11
3.1190634176
 21
23.6974214092
  0
LINE
  5
2F2
100
AcDbEntity
  8
0
100
AcDbLine
 62
7
  6
CONTINUOUS
 10
3.1284251198
 20
23.6874214092
 11
3.1284251198
 21
23.6974214092
  0
LINE
  5
2F3
100
AcDbEntity
  8
0
100
AcDbLine
 62
7
  6
CONTINUOUS
 10
3.1331059707
 20
23.6874214092
 11
3.1331059707
 21
23.6974214092
  0
LINE
  5
2F4
100
AcDbEntity
  8
06___PRT_ALL_SURFS
100
AcDbLine
 62
7
  6
CONTINUOUS
 10
3.4731059707
 20
23.6874214092
 11
3.4731059707
 21
22.6874214092
  0
LINE
  5
2F5
100
AcDbEntity
  8
0
100
AcDbLine
 62
7
  6
CONTINUOUS
 10
-1.728279383
 20
16.6450660876
 11
7.9567599871
 21
16.6450660876
  0
LINE
  5
2F6
100
AcDbEntity
  8
0
100
AcDbLine
 62
7
  6
CONTINUOUS
 10
11.5007040661
 20
18.0344588557
 11
10.0036790937
 21
18.0213945167
  0
LINE
  5
2F7
100
AcDbEntity
  8
0
100
AcDbLine
 62
7
  6
CONTINUOUS
 10
-2.7786923186
 20
17.912782623
 11
9.0071729228
 21
17.912782623
  0
LINE
  5
2F8
100
AcDbEntity
  8
0
100
AcDbLine
 62
7
  6
CONTINUOUS
 10
9.9877936364
 20
18.0211196547
 11
9.7191151207
 21
18.0234643766
  0
LINE
  5
2F9
100
AcDbEntity
  8
0
100
AcDbLine
 62
7
  6
CONTINUOUS
 10
7.9851602559
 20
22.6213964691
 11
7.9859092116
 21
22.6220590892
  0
LINE
  5
2FA
100
AcDbEntity
  8
0
100
AcDbLine
 62
7
  6
CONTINUOUS
 10
11.6177836092
 20
18.5200660876
 11
11.621720617
 21
18.5200660876
  0
LINE
  5
2FB
100
AcDbEntity
  8
0
100
AcDbLine
 62
7
  6
CONTINUOUS
 10
9.4129904646
 20
18.2358599776
 11
9.5942302701
 21
18.2342783218
  0
LINE
  5
2FC
100
AcDbEntity
  8
0
100
AcDbLine
 62
7
  6
CONTINUOUS
 10
9.5239851494
 20
18.3366921053
 11
9.4324761487
 21
18.3374906922
  0
LINE
  5
2FD
100
AcDbEntity
  8
0
100
AcDbLine
 62
7
  6
CONTINUOUS
 10
9.551332701
 20
20.1150960512
 11
9.6697521131
 21
20.1161294818
  0
LINE
  5
2FE
100
AcDbEntity
  8
0
100
AcDbLine
 62
7
  6
CONTINUOUS
 10
9.3520355777
 20
20.0906566388
 11
9.4620388266
 21
20.0906566388
  0
LINE
  5
2FF
100
AcDbEntity
  8
0
100
AcDbLine
 62
7
  6
CONTINUOUS
 10
9.6697521131
 20
20.1411290797
 11
-3.4487518239
 21
20.1411290797
  0
LINE
  5
300
100
AcDbEntity
  8
0
100
AcDbLine
 62
7
  6
CONTINUOUS
 10
-3.4999329263
 20
20.3320739616
 11
9.6697521131
 21
20.3320739616
  0
LINE
  5
301
100
AcDbEntity
  8
0
100
AcDbLine
 62
7
  6
CONTINUOUS
 10
11.6177836092
 20
20.7700660876
 11
11.621720617
 21
20.7700660876
  0
LINE
  5
302
100
AcDbEntity
  8
0
100
AcDbLine
 62
7
  6
CONTINUOUS
 10
9.6697521131
 20
20.6267585989
 11
9.4324752592
 21
20.6288292826
  0
LINE
  5
303
100
AcDbEntity
  8
0
100
AcDbLine
 62
7
  6
CONTINUOUS
 10
8.0158151052
 20
23.6686881348
 11
8.0158151052
 21
22.6419541842
  0
LINE
  5
304
100
AcDbEntity
  8
0
100
AcDbLine
 62
7
  6
CONTINUOUS
 10
8.0158151052
 20
17.8340424656
 11
8.0158151052
 21
16.7041212057
  0
LINE
  5
305
100
AcDbEntity
  8
0
100
AcDbLine
 62
7
  6
CONTINUOUS
 10
9.4324754695
 20
20.893586359
 11
9.523984174
 21
20.8943849433
  0
LINE
  5
306
100
AcDbEntity
  8
0
100
AcDbLine
 62
7
  6
CONTINUOUS
 10
9.4129904646
 20
21.1133447985
 11
9.5942302701
 21
21.1149264544
  0
LINE
  5
307
100
AcDbEntity
  8
0
100
AcDbLine
 62
7
  6
CONTINUOUS
 10
9.7191151207
 20
21.2666677986
 11
9.9957363651
 21
21.2690818356
  0
LINE
  5
308
100
AcDbEntity
  8
0
100
AcDbLine
 62
7
  6
CONTINUOUS
 10
11.5007040661
 20
21.2556733195
 11
10.0036790937
 21
21.2687376585
  0
LINE
  5
309
100
AcDbEntity
  8
0
100
AcDbLine
 62
7
  6
CONTINUOUS
 10
10.0036814922
 20
21.2690124996
 11
9.9957363651
 21
21.2690818356
  0
LINE
  5
30A
100
AcDbEntity
  8
0
100
AcDbLine
 62
7
  6
CONTINUOUS
 10
9.5063944442
 20
20.6281841997
 11
9.5271004891
 21
20.3320739616
  0
LINE
  5
30B
100
AcDbEntity
  8
0
100
AcDbLine
 62
7
  6
CONTINUOUS
 10
9.3533837101
 20
20.8148301529
 11
9.3533837101
 21
20.7075854919
  0
LINE
  5
30C
100
AcDbEntity
  8
0
100
AcDbLine
 62
7
  6
CONTINUOUS
 10
9.3533837101
 20
19.9182009783
 11
9.3533837101
 21
18.4162469036
  0
LINE
  5
30D
100
AcDbEntity
  8
0
100
AcDbLine
 62
7
  6
CONTINUOUS
 10
9.405185184
 20
21.1055007477
 11
9.405185184
 21
21.0178594249
  0
LINE
  5
30E
100
AcDbEntity
  8
0
100
AcDbLine
 62
7
  6
CONTINUOUS
 10
9.405185184
 20
18.3456479401
 11
9.405185184
 21
18.2437040284
  0
LINE
  5
30F
100
AcDbEntity
  8
0
100
AcDbLine
 62
7
  6
CONTINUOUS
 10
9.6020355777
 20
21.1485620597
 11
9.6020355777
 21
20.6390579523
  0
LINE
  5
310
100
AcDbEntity
  8
0
100
AcDbLine
 62
7
  6
CONTINUOUS
 10
9.6020355777
 20
20.1038301284
 11
9.6020355777
 21
18.1415701155
  0
LINE
  5
311
100
AcDbEntity
  8
0
100
AcDbLine
 62
7
  6
CONTINUOUS
 10
9.6697521131
 20
20.1161294818
 11
9.6697521131
 21
20.6267585989
  0
LINE
  5
312
100
AcDbEntity
  8
0
100
AcDbLine
 62
7
  6
CONTINUOUS
 10
9.9957363651
 20
18.0289933706
 11
9.9957363651
 21
21.2690818356
  0
LINE
  5
313
100
AcDbEntity
  8
06___PRT_ALL_SURFS
100
AcDbLine
 62
7
  6
CONTINUOUS
 10
2.4731059707
 20
22.6874214092
 11
3.4731059707
 21
22.6874214092
  0
LINE
  5
314
100
AcDbEntity
  8
0
100
AcDbLine
 62
7
  6
CONTINUOUS
 10
7.9851602559
 20
22.6213964691
 11
9.5131744455
 21
20.8942906082
  0
LINE
  5
315
100
AcDbEntity
  8
0
100
AcDbLine
 62
7
  6
CONTINUOUS
 10
7.9859092116
 20
22.6220590892
 11
9.5144994081
 21
20.894302171
  0
LINE
  5
316
100
AcDbEntity
  8
0
100
AcDbLine
 62
7
  6
CONTINUOUS
 10
2.4731059707
 20
23.6686881348
 11
-1.7873186948
 21
23.6686881348
  0
LINE
  5
317
100
AcDbEntity
  8
0
100
AcDbLine
 62
7
  6
CONTINUOUS
 10
3.4731059707
 20
23.6686881348
 11
8.015799299
 21
23.6686881348
  0
LINE
  5
318
100
AcDbEntity
  8
06___PRT_ALL_SURFS
100
AcDbLine
 62
7
  6
CONTINUOUS
 10
2.4731059707
 20
23.6874214092
 11
3.4731059707
 21
23.6874214092
  0
LINE
  5
319
100
AcDbEntity
  8
0
100
AcDbLine
 62
7
  6
CONTINUOUS
 10
2.9131059707
 20
23.6974214092
 11
3.1331059707
 21
23.6974214092
  0
LWPOLYLINE
  5
31A
100
AcDbEntity
  8
0
100
AcDbPolyline
 62
7
  6
CONTINUOUS
 90
7
 70
0
 10
11.5673302181
 20
18.238298665
 10
11.5674966276
 20
18.23787678
 10
11.5672334661
 20
18.2389670532
 10
11.5660224502
 20
18.2450651518
 10
11.5645216078
 20
18.2553253913
 10
11.5629718698
 20
18.2693083755
 10
11.5614711471
 20
18.2868860916
  0
LINE
  5
31B
100
AcDbEntity
  8
0
100
AcDbLine
 62
7
  6
CONTINUOUS
 10
11.5614711471
 20
18.2868860916
 11
11.5600784475
 21
18.3081057467
  0
LWPOLYLINE
  5
31C
100
AcDbEntity
  8
0
100
AcDbPolyline
 62
7
  6
CONTINUOUS
 90
9
 70
0
 10
11.5600784475
 20
18.3081057467
 10
11.5588567565
 20
18.3330103041
 10
11.5578726566
 20
18.3612613462
 10
11.5572029755
 20
18.3921492848
 10
11.5568921196
 20
18.4247685399
 10
11.5569776139
 20
18.4580417037
 10
11.5574578263
 20
18.4907253168
 10
11.5583118188
 20
18.521585168
 10
11.5594797298
 20
18.5495314505
  0
LINE
  5
31D
100
AcDbEntity
  8
0
100
AcDbLine
 62
7
  6
CONTINUOUS
 10
11.6177836092
 20
18.1525645946
 11
11.6177836092
 21
21.1375675806
  0
LINE
  5
31E
100
AcDbEntity
  8
0
100
AcDbLine
 62
7
  6
CONTINUOUS
 10
11.621720617
 20
18.5200660876
 11
11.621720617
 21
20.7700660876
  0
LWPOLYLINE
  5
31F
100
AcDbEntity
  8
0
100
AcDbPolyline
 62
7
  6
CONTINUOUS
 90
3
 70
0
 10
11.5594797298
 20
18.5495314505
 10
11.5608857138
 20
18.5737614279
 10
11.5624530234
 20
18.5939926246
  0
LWPOLYLINE
  5
320
100
AcDbEntity
  8
0
100
AcDbPolyline
 62
7
  6
CONTINUOUS
 90
5
 70
0
 10
11.5624530234
 20
18.5939926246
 10
11.5641024458
 20
18.6101286171
 10
11.5657362846
 20
18.622078287
 10
11.5671254109
 20
18.6294478421
 10
11.5672951704
 20
18.6301578643
  0
LINE
  5
321
100
AcDbEntity
  8
0
100
AcDbLine
 62
7
  6
CONTINUOUS
 10
-27.4314875413
 20
3.8678833133
 11
-27.0072054281
 21
2.9580073853
  0
LINE
  5
322
100
AcDbEntity
  8
0
100
AcDbLine
 62
7
  6
CONTINUOUS
 10
-27.4063557051
 20
3.8144423676
 11
-27.0319891347
 21
3.0116106665
  0
LINE
  5
323
100
AcDbEntity
  8
0
100
AcDbLine
 62
7
  6
CONTINUOUS
 10
-26.9854746607
 20
3.0333007219
 11
-27.3598412311
 21
3.836132423
  0
LINE
  5
324
100
AcDbEntity
  8
0
100
AcDbLine
 62
7
  6
CONTINUOUS
 10
-27.3585967265
 20
3.8367127451
 11
-26.9842301561
 21
3.033881044
  0
LINE
  5
325
100
AcDbEntity
  8
0
100
AcDbLine
 62
7
  6
CONTINUOUS
 10
-26.9759864262
 20
3.0377251583
 11
-27.3503529966
 21
3.8405568595
  0
LINE
  5
326
100
AcDbEntity
  8
0
100
AcDbLine
 62
7
  6
CONTINUOUS
 10
-26.9724269771
 20
3.0393849567
 11
-27.3467935475
 21
3.8422166578
  0
LINE
  5
327
100
AcDbEntity
  8
0
100
AcDbLine
 62
7
  6
CONTINUOUS
 10
-26.9437356918
 20
2.9876038094
 11
-27.368017805
 21
3.8974797374
  0
LINE
  5
328
100
AcDbEntity
  8
0
100
AcDbLine
 62
7
  6
CONTINUOUS
 10
-26.9401762428
 20
2.9892636078
 11
-27.3644583559
 21
3.8991395357
  0
LINE
  5
329
100
AcDbEntity
  8
LAY0001
100
AcDbLine
 62
7
  6
CONTINUOUS
 10
-26.4098194777
 20
2.1263652378
 11
-26.4092195235
 21
2.1250751695
  0
LINE
  5
32A
100
AcDbEntity
  8
LAY0001
100
AcDbLine
 62
7
  6
CONTINUOUS
 10
-26.4045209117
 20
2.1200506527
 11
-26.4039209575
 21
2.1187605844
  0
LINE
  5
32B
100
AcDbEntity
  8
LAY0001
100
AcDbLine
 62
7
  6
CONTINUOUS
 10
-26.3258311132
 20
2.0264634934
 11
-26.3252311794
 21
2.025173449
  0
LINE
  5
32C
100
AcDbEntity
  8
LAY0001
100
AcDbLine
 62
7
  6
CONTINUOUS
 10
-26.2628789645
 20
2.0239893696
 11
-26.2682110783
 21
2.0362335359
  0
LINE
  5
32D
100
AcDbEntity
  8
LAY0001
100
AcDbLine
 62
7
  6
CONTINUOUS
 10
-26.4283874444
 20
2.2226131121
 11
-26.4280580275
 21
2.2218445965
  0
LINE
  5
32E
100
AcDbEntity
  8
LAY0001
100
AcDbLine
 62
7
  6
CONTINUOUS
 10
-26.4156689479
 20
2.2082076624
 11
-26.415339531
 21
2.2074391468
  0
LINE
  5
32F
100
AcDbEntity
  8
LAY0001
100
AcDbLine
 62
7
  6
CONTINUOUS
 10
-26.4128913445
 20
2.2074036564
 11
-26.4125619276
 21
2.2066351408
  0
LINE
  5
330
100
AcDbEntity
  8
LAY0001
100
AcDbLine
 62
7
  6
CONTINUOUS
 10
-26.3470329182
 20
2.1257838742
 11
-26.3467035015
 21
2.1250153584
  0
LINE
  5
331
100
AcDbEntity
  8
LAY0001
100
AcDbLine
 62
7
  6
CONTINUOUS
 10
-26.2605740891
 20
2.0217437686
 11
-26.2635386993
 21
2.0286602411
  0
LINE
  5
332
100
AcDbEntity
  8
LAY0001
100
AcDbLine
 62
7
  6
CONTINUOUS
 10
-26.2651240094
 20
2.0325545105
 11
-26.2638064127
 21
2.0294805321
  0
LINE
  5
333
100
AcDbEntity
  8
LAY0001
100
AcDbLine
 62
7
  6
CONTINUOUS
 10
-26.5898763326
 20
2.3411403322
 11
-26.5903818575
 21
2.3425095541
  0
LINE
  5
334
100
AcDbEntity
  8
LAY0001
100
AcDbLine
 62
7
  6
CONTINUOUS
 10
-26.300194175
 20
1.9995526945
 11
-26.30069972
 21
2.0009219405
  0
LINE
  5
335
100
AcDbEntity
  8
LAY0001
100
AcDbLine
 62
7
  6
CONTINUOUS
 10
-26.2622483212
 20
1.9506884725
 11
-26.2627538662
 21
1.9520577185
  0
LINE
  5
336
100
AcDbEntity
  8
LAY0001
100
AcDbLine
 62
7
  6
CONTINUOUS
 10
-26.116254589
 20
1.7772749884
 11
-26.116760129
 21
1.7786442284
  0
LINE
  5
337
100
AcDbEntity
  8
LAY0001
100
AcDbLine
 62
7
  6
CONTINUOUS
 10
-26.1118119148
 20
1.7756225298
 11
-26.1123174547
 21
1.7769917698
  0
LINE
  5
338
100
AcDbEntity
  8
LAY0001
100
AcDbLine
 62
7
  6
CONTINUOUS
 10
-26.4907059543
 20
2.299888876
 11
-26.490438288
 21
2.2990686411
  0
LINE
  5
339
100
AcDbEntity
  8
LAY0001
100
AcDbLine
 62
7
  6
CONTINUOUS
 10
-26.4121907587
 20
2.2038118966
 11
-26.4124584721
 21
2.2046321876
  0
LINE
  5
33A
100
AcDbEntity
  8
LAY0001
100
AcDbLine
 62
7
  6
CONTINUOUS
 10
-26.4094748587
 20
2.2029561153
 11
-26.4097425721
 21
2.2037764063
  0
LINE
  5
33B
100
AcDbEntity
  8
LAY0001
100
AcDbLine
 62
7
  6
CONTINUOUS
 10
-26.3319687426
 20
2.110211991
 11
-26.3322364324
 21
2.1110322539
  0
LINE
  5
33C
100
AcDbEntity
  8
LAY0001
100
AcDbLine
 62
7
  6
CONTINUOUS
 10
-26.0403840648
 20
1.7603340016
 11
-26.0406517635
 21
1.761154275
  0
LINE
  5
33D
100
AcDbEntity
  8
LAY0001
100
AcDbLine
 62
7
  6
CONTINUOUS
 10
-26.0255875879
 20
1.7455823919
 11
-26.0253198892
 21
1.7447621184
  0
LINE
  5
33E
100
AcDbEntity
  8
LAY0001
100
AcDbLine
 62
7
  6
CONTINUOUS
 10
-26.5952692879
 20
2.3473757153
 11
-26.5956804235
 21
2.3488241392
  0
LINE
  5
33F
100
AcDbEntity
  8
LAY0001
100
AcDbLine
 62
7
  6
CONTINUOUS
 10
-26.3307185235
 20
2.0313296305
 11
-26.3311296792
 21
2.0327780785
  0
LINE
  5
340
100
AcDbEntity
  8
LAY0001
100
AcDbLine
 62
7
  6
CONTINUOUS
 10
-26.295306765
 20
1.9946865572
 11
-26.294895609
 21
1.9932381094
  0
LINE
  5
341
100
AcDbEntity
  8
LAY0001
100
AcDbLine
 62
7
  6
CONTINUOUS
 10
-26.2676412765
 20
1.9569238556
 11
-26.2680524322
 21
1.9583723036
  0
LINE
  5
342
100
AcDbEntity
  8
LAY0001
100
AcDbLine
 62
7
  6
CONTINUOUS
 10
-26.4873512191
 20
2.2953896157
 11
-26.487557182
 21
2.2962616258
  0
LINE
  5
343
100
AcDbEntity
  8
LAY0001
100
AcDbLine
 62
7
  6
CONTINUOUS
 10
-26.3499139773
 20
2.1285908332
 11
-26.3501199871
 21
2.1294628997
  0
LINE
  5
344
100
AcDbEntity
  8
LAY0001
100
AcDbLine
 62
7
  6
CONTINUOUS
 10
-26.3290876601
 20
2.1074050038
 11
-26.3288816737
 21
2.1065329656
  0
LINE
  5
345
100
AcDbEntity
  8
LAY0001
100
AcDbLine
 62
7
  6
CONTINUOUS
 10
-26.0435328374
 20
1.7639612516
 11
-26.0437388325
 21
1.7648333005
  0
LINE
  5
346
100
AcDbEntity
  8
LAY0001
100
AcDbLine
 62
7
  6
CONTINUOUS
 10
-26.0224388156
 20
1.7419551417
 11
-26.0222328203
 21
1.741083093
  0
LINE
  5
347
100
AcDbEntity
  8
LAY0001
100
AcDbLine
 62
7
  6
CONTINUOUS
 10
-26.1255238844
 20
1.7856380409
 11
-26.1218027324
 21
1.781586725
  0
LINE
  5
348
100
AcDbEntity
  8
LAY0001
100
AcDbLine
 62
7
  6
CONTINUOUS
 10
-26.1345227936
 20
1.8049885841
 11
-26.1382439456
 21
1.8090398999
  0
LINE
  5
349
100
AcDbEntity
  8
LAY0001
100
AcDbLine
 62
7
  6
CONTINUOUS
 10
-26.3037201686
 20
1.9983874832
 11
-26.3074413105
 21
2.002438787
  0
LINE
  5
34A
100
AcDbEntity
  8
LAY0001
100
AcDbLine
 62
7
  6
CONTINUOUS
 10
-26.3070256227
 20
2.0172741995
 11
-25.931679979
 21
1.599862265
  0
LINE
  5
34B
100
AcDbEntity
  8
LAY0001
100
AcDbLine
 62
7
  6
CONTINUOUS
 10
-26.1258406413
 20
1.7871656784
 11
-26.1285843133
 21
1.7902437691
  0
LINE
  5
34C
100
AcDbEntity
  8
LAY0001
100
AcDbLine
 62
7
  6
CONTINUOUS
 10
-26.3983728444
 20
2.1144488839
 11
-26.4011165164
 21
2.1175269746
  0
LINE
  5
34D
100
AcDbEntity
  8
LAY0001
100
AcDbLine
 62
7
  6
CONTINUOUS
 10
-26.029887841
 20
1.7471985356
 11
-26.0320075914
 21
1.7495994451
  0
LINE
  5
34E
100
AcDbEntity
  8
LAY0001
100
AcDbLine
 62
7
  6
CONTINUOUS
 10
-26.0360838119
 20
1.7587178577
 11
-26.0339640615
 21
1.7563169482
  0
LINE
  5
34F
100
AcDbEntity
  8
LAY0001
100
AcDbLine
 62
7
  6
CONTINUOUS
 10
-26.3386564359
 20
2.1150493072
 11
-26.3365366943
 21
2.1126484083
  0
LINE
  5
350
100
AcDbEntity
  8
LAY0001
100
AcDbLine
 62
7
  6
CONTINUOUS
 10
-26.4198049755
 20
2.211006507
 11
-26.4176852104
 21
2.20860558
  0
LINE
  5
351
100
AcDbEntity
  8
LAY0001
100
AcDbLine
 62
7
  6
CONTINUOUS
 10
-26.3411274185
 20
2.1223799824
 11
-26.34324716
 21
2.1247808814
  0
LINE
  5
352
100
AcDbEntity
  8
LAY0001
100
AcDbLine
 62
7
  6
CONTINUOUS
 10
-26.422481921
 20
2.2192091924
 11
-26.420362203
 21
2.2168083215
  0
LINE
  5
353
100
AcDbEntity
  8
LAY0001
100
AcDbLine
 62
7
  6
CONTINUOUS
 10
-26.4991441637
 20
2.3105716956
 11
-26.4970243986
 21
2.3081707686
  0
LINE
  5
354
100
AcDbEntity
  8
LAY0001
100
AcDbLine
 62
7
  6
CONTINUOUS
 10
-26.1291506473
 20
1.7897685584
 11
-26.1255238844
 21
1.7856380409
  0
LINE
  5
355
100
AcDbEntity
  8
LAY0001
100
AcDbLine
 62
7
  6
CONTINUOUS
 10
-26.1342060367
 20
1.8034609465
 11
-26.1305792636
 21
1.7993304169
  0
LINE
  5
356
100
AcDbEntity
  8
LAY0001
100
AcDbLine
 62
7
  6
CONTINUOUS
 10
-26.3113848506
 20
2.0080969662
 11
-26.3077580775
 21
2.0039664365
  0
LINE
  5
357
100
AcDbEntity
  8
LAY0001
100
AcDbLine
 62
7
  6
CONTINUOUS
 10
-26.2551899639
 20
1.9476439764
 11
-26.2515631908
 21
1.9435134467
  0
LINE
  5
358
100
AcDbEntity
  8
LAY0001
100
AcDbLine
 62
7
  6
CONTINUOUS
 10
-26.3160290839
 20
2.0203409065
 11
-26.3196558368
 21
2.024471412
  0
LINE
  5
359
100
AcDbEntity
  8
LAY0001
100
AcDbLine
 62
7
  6
CONTINUOUS
 10
-26.5828179551
 20
2.338095812
 11
-26.5791912022
 21
2.3339653064
  0
LINE
  5
35A
100
AcDbEntity
  8
LAY0001
100
AcDbLine
 62
7
  6
CONTINUOUS
 10
-26.0297435492
 20
1.7462747115
 11
-26.032377812
 21
1.7492887931
  0
LINE
  5
35B
100
AcDbEntity
  8
LAY0001
100
AcDbLine
 62
7
  6
CONTINUOUS
 10
-26.0362281007
 20
1.7596416783
 11
-26.0335938408
 21
1.7566276003
  0
LINE
  5
35C
100
AcDbEntity
  8
LAY0001
100
AcDbLine
 62
7
  6
CONTINUOUS
 10
-26.3363923878
 20
2.1117245666
 11
-26.3390266565
 21
2.1147386552
  0
LINE
  5
35D
100
AcDbEntity
  8
LAY0001
100
AcDbLine
 62
7
  6
CONTINUOUS
 10
-26.3433914665
 20
2.125704723
 11
-26.3407571978
 21
2.1226906344
  0
LINE
  5
35E
100
AcDbEntity
  8
LAY0001
100
AcDbLine
 62
7
  6
CONTINUOUS
 10
-26.4199919823
 20
2.2171189735
 11
-26.4226262275
 21
2.220133034
  0
LINE
  5
35F
100
AcDbEntity
  8
LAY0001
100
AcDbLine
 62
7
  6
CONTINUOUS
 10
-26.496654178
 20
2.3084814206
 11
-26.4992884231
 21
2.3114954811
  0
LINE
  5
360
100
AcDbEntity
  8
LAY0001
100
AcDbLine
 62
7
  6
CONTINUOUS
 10
-26.3074413105
 20
2.002438787
 11
-26.3119511846
 21
2.0076217555
  0
LINE
  5
361
100
AcDbEntity
  8
LAY0001
100
AcDbLine
 62
7
  6
CONTINUOUS
 10
-26.1300129295
 20
1.7998056276
 11
-26.1345227936
 21
1.8049885841
  0
LINE
  5
362
100
AcDbEntity
  8
LAY0001
100
AcDbLine
 62
7
  6
CONTINUOUS
 10
-26.2555067106
 20
1.9491716019
 11
-26.2509968567
 21
1.9439886575
  0
LINE
  5
363
100
AcDbEntity
  8
LAY0001
100
AcDbLine
 62
7
  6
CONTINUOUS
 10
-26.3199726038
 20
2.0259990616
 11
-26.3154627498
 21
2.0208161172
  0
LINE
  5
364
100
AcDbEntity
  8
LAY0001
100
AcDbLine
 62
7
  6
CONTINUOUS
 10
-26.5831347019
 20
2.3396234375
 11
-26.5786248681
 21
2.3344405172
  0
LINE
  5
365
100
AcDbEntity
  8
1_ALL_PLANES
100
AcDbLine
 62
7
  6
CONTINUOUS
 10
-25.9751287328
 20
1.5838163433
 11
-26.6760161087
 21
2.4191013915
  0
LINE
  5
366
100
AcDbEntity
  8
0
100
AcDbLine
 62
7
  6
CONTINUOUS
 10
-25.9161919087
 20
1.5144128862
 11
-26.7284595828
 21
2.482435805
  0
LINE
  5
367
100
AcDbEntity
  8
LAY0001
100
AcDbLine
 62
7
  6
CONTINUOUS
 10
-26.3993775035
 20
2.1118123851
 11
-26.3781832395
 21
2.0865540448
  0
LINE
  5
368
100
AcDbEntity
  8
LAY0001
100
AcDbLine
 62
7
  6
CONTINUOUS
 10
-26.1335661224
 20
1.7950307167
 11
-26.1291506473
 21
1.7897685584
  0
LINE
  5
369
100
AcDbEntity
  8
LAY0001
100
AcDbLine
 62
7
  6
CONTINUOUS
 10
-26.0355426513
 20
1.6782108928
 11
-26.0691002368
 21
1.718203266
  0
LINE
  5
36A
100
AcDbEntity
  8
LAY0001
100
AcDbLine
 62
7
  6
CONTINUOUS
 10
-26.0761649898
 20
1.7266227107
 11
-26.1079563884
 21
1.7645102242
  0
LINE
  5
36B
100
AcDbEntity
  8
LAY0001
100
AcDbLine
 62
7
  6
CONTINUOUS
 10
-26.1547603864
 20
1.820289057
 11
-26.1883179745
 21
1.8602814331
  0
LINE
  5
36C
100
AcDbEntity
  8
LAY0001
100
AcDbLine
 62
7
  6
CONTINUOUS
 10
-26.1953827224
 20
1.8687008718
 11
-26.2271741286
 21
1.9065883943
  0
LINE
  5
36D
100
AcDbEntity
  8
LAY0001
100
AcDbLine
 62
7
  6
CONTINUOUS
 10
-26.2342388765
 20
1.9150078331
 11
-26.2554331405
 21
1.9402661733
  0
LINE
  5
36E
100
AcDbEntity
  8
LAY0001
100
AcDbLine
 62
7
  6
CONTINUOUS
 10
-26.3119511846
 20
2.0076217555
 11
-26.3198990336
 21
2.0170936331
  0
LINE
  5
36F
100
AcDbEntity
  8
LAY0001
100
AcDbLine
 62
7
  6
CONTINUOUS
 10
-26.3393270955
 20
2.0402470956
 11
-26.3711184916
 21
2.0781346061
  0
LINE
  5
370
100
AcDbEntity
  8
LAY0001
100
AcDbLine
 62
7
  6
CONTINUOUS
 10
-26.4188056058
 20
2.1349658958
 11
-26.4523631636
 21
2.1749582358
  0
LINE
  5
371
100
AcDbEntity
  8
LAY0001
100
AcDbLine
 62
7
  6
CONTINUOUS
 10
-26.4594279317
 20
2.1833776986
 11
-26.4647264977
 21
2.1896922837
  0
LINE
  5
372
100
AcDbEntity
  8
LAY0001
100
AcDbLine
 62
7
  6
CONTINUOUS
 10
-26.4717912659
 20
2.1981117465
 11
-26.5035826619
 21
2.235999257
  0
LINE
  5
373
100
AcDbEntity
  8
LAY0001
100
AcDbLine
 62
7
  6
CONTINUOUS
 10
-26.5106473896
 20
2.2444186716
 11
-26.5159459556
 21
2.2507332567
  0
LINE
  5
374
100
AcDbEntity
  8
LAY0001
100
AcDbLine
 62
7
  6
CONTINUOUS
 10
-26.5230107238
 20
2.2591527195
 11
-26.5548021198
 21
2.2970402299
  0
LINE
  5
375
100
AcDbEntity
  8
LAY0001
100
AcDbLine
 62
7
  6
CONTINUOUS
 10
-26.5618668879
 20
2.3054596927
 11
-26.583061152
 21
2.330718033
  0
LINE
  5
376
100
AcDbEntity
  8
LAY0001
100
AcDbLine
 62
7
  6
CONTINUOUS
 10
-26.4518912185
 20
2.1753542447
 11
-26.4377617227
 21
2.1585153672
  0
LINE
  5
377
100
AcDbEntity
  8
LAY0001
100
AcDbLine
 62
7
  6
CONTINUOUS
 10
-26.4324631566
 20
2.1522007822
 11
-26.4183336608
 21
2.1353619047
  0
LINE
  5
378
100
AcDbEntity
  8
LAY0001
100
AcDbLine
 62
7
  6
CONTINUOUS
 10
-26.3997886798
 20
2.1132608569
 11
-26.3830098605
 21
2.0932646388
  0
LINE
  5
379
100
AcDbEntity
  8
LAY0001
100
AcDbLine
 62
7
  6
CONTINUOUS
 10
-26.1878460294
 20
1.860677442
 11
-26.1737165134
 21
1.8438385405
  0
LINE
  5
37A
100
AcDbEntity
  8
LAY0001
100
AcDbLine
 62
7
  6
CONTINUOUS
 10
-26.1684179474
 20
1.8375239554
 11
-26.1542884414
 21
1.8206850659
  0
LINE
  5
37B
100
AcDbEntity
  8
LAY0001
100
AcDbLine
 62
7
  6
CONTINUOUS
 10
-26.0686282918
 20
1.7185992749
 11
-26.054498782
 21
1.7017603808
  0
LINE
  5
37C
100
AcDbEntity
  8
LAY0001
100
AcDbLine
 62
7
  6
CONTINUOUS
 10
-26.049200216
 20
1.6954457958
 11
-26.0350707063
 21
1.6786069017
  0
LINE
  5
37D
100
AcDbEntity
  8
LAY0001
100
AcDbLine
 62
7
  6
CONTINUOUS
 10
-26.5542357858
 20
2.2975154406
 11
-26.5277429557
 21
2.2659425152
  0
LINE
  5
37E
100
AcDbEntity
  8
LAY0001
100
AcDbLine
 62
7
  6
CONTINUOUS
 10
-26.5030163279
 20
2.2364744676
 11
-26.4765234978
 21
2.2049015423
  0
LINE
  5
37F
100
AcDbEntity
  8
LAY0001
100
AcDbLine
 62
7
  6
CONTINUOUS
 10
-26.3705521575
 20
2.0786098167
 11
-26.3440593275
 21
2.0470368914
  0
LINE
  5
380
100
AcDbEntity
  8
LAY0001
100
AcDbLine
 62
7
  6
CONTINUOUS
 10
-26.3193326996
 20
2.0175688438
 11
-26.3113848506
 21
2.0080969662
  0
LINE
  5
381
100
AcDbEntity
  8
LAY0001
100
AcDbLine
 62
7
  6
CONTINUOUS
 10
-26.2266077945
 20
1.907063605
 11
-26.2001149544
 21
1.8754906676
  0
LINE
  5
382
100
AcDbEntity
  8
LAY0001
100
AcDbLine
 62
7
  6
CONTINUOUS
 10
-26.1073900543
 20
1.7649854349
 11
-26.0808972243
 21
1.7334125095
  0
LINE
  5
383
100
AcDbEntity
  8
LAY0001
100
AcDbLine
 62
7
  6
CONTINUOUS
 10
-26.1285843133
 20
1.7902437691
 11
-26.1338828793
 21
1.7965583542
  0
LINE
  5
384
100
AcDbEntity
  8
LAY0001
100
AcDbLine
 62
7
  6
CONTINUOUS
 10
-26.2389711085
 20
1.9217976288
 11
-26.2548668065
 21
1.940741384
  0
LINE
  5
385
100
AcDbEntity
  8
LAY0001
100
AcDbLine
 62
7
  6
CONTINUOUS
 10
-26.5665991199
 20
2.3122494885
 11
-26.5824948179
 21
2.3311932437
  0
LINE
  5
386
100
AcDbEntity
  8
LAY0001
100
AcDbLine
 62
7
  6
CONTINUOUS
 10
-26.1387095003
 20
1.8032689482
 11
-26.1440080663
 21
1.8095835332
  0
LINE
  5
387
100
AcDbEntity
  8
LAY0001
100
AcDbLine
 62
7
  6
CONTINUOUS
 10
-26.3311296792
 20
2.0327780785
 11
-26.3258311132
 21
2.0264634934
  0
LINE
  5
388
100
AcDbEntity
  8
LAY0001
100
AcDbLine
 62
7
  6
CONTINUOUS
 10
-26.079670167
 20
1.7344421329
 11
-26.102630618
 21
1.7618053328
  0
LINE
  5
389
100
AcDbEntity
  8
LAY0001
100
AcDbLine
 62
7
  6
CONTINUOUS
 10
-26.198887897
 20
1.876520291
 11
-26.2218483531
 21
1.903883497
  0
LINE
  5
38A
100
AcDbEntity
  8
LAY0001
100
AcDbLine
 62
7
  6
CONTINUOUS
 10
-26.3428322701
 20
2.0480665147
 11
-26.3657927363
 21
2.0754297328
  0
LINE
  5
38B
100
AcDbEntity
  8
LAY0001
100
AcDbLine
 62
7
  6
CONTINUOUS
 10
-26.4752964405
 20
2.2059311656
 11
-26.4982568662
 21
2.2332943355
  0
LINE
  5
38C
100
AcDbEntity
  8
LAY0001
100
AcDbLine
 62
7
  6
CONTINUOUS
 10
-26.5265158984
 20
2.2669721386
 11
-26.5494763646
 21
2.2943353567
  0
LINE
  5
38D
100
AcDbEntity
  8
LAY0001
100
AcDbLine
 62
7
  6
CONTINUOUS
 10
-26.132561433
 20
1.7976671793
 11
-26.127262867
 21
1.7913525943
  0
LINE
  5
38E
100
AcDbEntity
  8
LAY0001
100
AcDbLine
 62
7
  6
CONTINUOUS
 10
-26.3815940251
 20
2.0944526657
 11
-26.3983728444
 21
2.1144488839
  0
LINE
  5
38F
100
AcDbEntity
  8
LAY0001
100
AcDbLine
 62
7
  6
CONTINUOUS
 10
-26.5489100305
 20
2.2948105673
 11
-26.5259495644
 21
2.2674473493
  0
LINE
  5
390
100
AcDbEntity
  8
LAY0001
100
AcDbLine
 62
7
  6
CONTINUOUS
 10
-26.4976905322
 20
2.2337695462
 11
-26.4747301064
 21
2.2064063763
  0
LINE
  5
391
100
AcDbEntity
  8
LAY0001
100
AcDbLine
 62
7
  6
CONTINUOUS
 10
-26.3652264023
 20
2.0759049435
 11
-26.3422659361
 21
2.0485417254
  0
LINE
  5
392
100
AcDbEntity
  8
LAY0001
100
AcDbLine
 62
7
  6
CONTINUOUS
 10
-26.2212820191
 20
1.9043587076
 11
-26.198321563
 21
1.8769955016
  0
LINE
  5
393
100
AcDbEntity
  8
LAY0001
100
AcDbLine
 62
7
  6
CONTINUOUS
 10
-26.1020642839
 20
1.7622805435
 11
-26.0791038329
 21
1.7349173435
  0
LINE
  5
394
100
AcDbEntity
  8
LAY0001
100
AcDbLine
 62
7
  6
CONTINUOUS
 10
-26.1266965329
 20
1.791827805
 11
-26.1319950989
 21
1.79814239
  0
LINE
  5
395
100
AcDbEntity
  8
LAY0001
100
AcDbLine
 62
7
  6
CONTINUOUS
 10
-26.3810276911
 20
2.0949278764
 11
-26.3960403082
 21
2.1128192168
  0
LINE
  5
396
100
AcDbEntity
  8
LAY0001
100
AcDbLine
 62
7
  6
CONTINUOUS
 10
-26.1171104808
 20
1.7819371149
 11
-26.1118119148
 21
1.7756225298
  0
LINE
  5
397
100
AcDbEntity
  8
LAY0001
100
AcDbLine
 62
7
  6
CONTINUOUS
 10
-26.323660166
 20
2.0282851345
 11
-26.328958732
 21
2.0345997195
  0
LINE
  5
398
100
AcDbEntity
  8
LAY0001
100
AcDbLine
 62
7
  6
CONTINUOUS
 10
-26.5791912022
 20
2.3339653064
 11
-26.5632955042
 21
2.3150215512
  0
LINE
  5
399
100
AcDbEntity
  8
LAY0001
100
AcDbLine
 62
7
  6
CONTINUOUS
 10
-26.2515631908
 20
1.9435134467
 11
-26.2356674928
 21
1.9245696915
  0
LINE
  5
39A
100
AcDbEntity
  8
LAY0001
100
AcDbLine
 62
7
  6
CONTINUOUS
 10
-26.1305792636
 20
1.7993304169
 11
-26.1235145157
 21
1.7909109782
  0
LINE
  5
39B
100
AcDbEntity
  8
LAY0001
100
AcDbLine
 62
7
  6
CONTINUOUS
 10
-26.0775936086
 20
1.7361845722
 11
-26.1040864387
 21
1.7677574976
  0
LINE
  5
39C
100
AcDbEntity
  8
LAY0001
100
AcDbLine
 62
7
  6
CONTINUOUS
 10
-26.1968113387
 20
1.8782627303
 11
-26.2233041788
 21
1.9098356677
  0
LINE
  5
39D
100
AcDbEntity
  8
LAY0001
100
AcDbLine
 62
7
  6
CONTINUOUS
 10
-26.3080812349
 20
2.0108690289
 11
-26.3160290839
 21
2.0203409065
  0
LINE
  5
39E
100
AcDbEntity
  8
LAY0001
100
AcDbLine
 62
7
  6
CONTINUOUS
 10
-26.3407557118
 20
2.0498089541
 11
-26.3672485418
 21
2.0813818794
  0
LINE
  5
39F
100
AcDbEntity
  8
LAY0001
100
AcDbLine
 62
7
  6
CONTINUOUS
 10
-26.5244393401
 20
2.268714578
 11
-26.5509321701
 21
2.3002875033
  0
LINE
  5
3A0
100
AcDbEntity
  8
LAY0001
100
AcDbLine
 62
7
  6
CONTINUOUS
 10
-26.5786248681
 20
2.3344405172
 11
-26.5574306041
 21
2.3091821769
  0
LINE
  5
3A1
100
AcDbEntity
  8
LAY0001
100
AcDbLine
 62
7
  6
CONTINUOUS
 10
-26.550365836
 20
2.3007627141
 11
-26.5185744399
 21
2.2628752036
  0
LINE
  5
3A2
100
AcDbEntity
  8
LAY0001
100
AcDbLine
 62
7
  6
CONTINUOUS
 10
-26.5115096718
 20
2.2544557408
 11
-26.5062111058
 21
2.2481411557
  0
LINE
  5
3A3
100
AcDbEntity
  8
LAY0001
100
AcDbLine
 62
7
  6
CONTINUOUS
 10
-26.472653548
 20
2.2081488157
 11
-26.467354982
 21
2.2018342306
  0
LINE
  5
3A4
100
AcDbEntity
  8
LAY0001
100
AcDbLine
 62
7
  6
CONTINUOUS
 10
-26.4602902139
 20
2.1934147678
 11
-26.4549916479
 21
2.1871001827
  0
LINE
  5
3A5
100
AcDbEntity
  8
LAY0001
100
AcDbLine
 62
7
  6
CONTINUOUS
 10
-26.4337973839
 20
2.1618418425
 11
-26.4284988179
 21
2.1555272574
  0
LINE
  5
3A6
100
AcDbEntity
  8
LAY0001
100
AcDbLine
 62
7
  6
CONTINUOUS
 10
-26.3666822077
 20
2.0818570902
 11
-26.3348908117
 21
2.0439695797
  0
LINE
  5
3A7
100
AcDbEntity
  8
LAY0001
100
AcDbLine
 62
7
  6
CONTINUOUS
 10
-26.3154627498
 20
2.0208161172
 11
-26.3075149008
 21
2.0113442396
  0
LINE
  5
3A8
100
AcDbEntity
  8
LAY0001
100
AcDbLine
 62
7
  6
CONTINUOUS
 10
-26.2509968567
 20
1.9439886575
 11
-26.2298025927
 21
1.9187303172
  0
LINE
  5
3A9
100
AcDbEntity
  8
LAY0001
100
AcDbLine
 62
7
  6
CONTINUOUS
 10
-26.2227378447
 20
1.9103108784
 11
-26.1909464386
 21
1.872423356
  0
LINE
  5
3AA
100
AcDbEntity
  8
LAY0001
100
AcDbLine
 62
7
  6
CONTINUOUS
 10
-26.1697521746
 20
1.8471650157
 11
-26.1644536086
 21
1.8408504306
  0
LINE
  5
3AB
100
AcDbEntity
  8
LAY0001
100
AcDbLine
 62
7
  6
CONTINUOUS
 10
-26.1035201046
 20
1.7682327083
 11
-26.071728706
 21
1.7303451949
  0
LINE
  5
3AC
100
AcDbEntity
  8
LAY0001
100
AcDbLine
 62
7
  6
CONTINUOUS
 10
-26.0505344432
 20
1.7050868561
 11
-26.0452358772
 21
1.698772271
  0
LINE
  5
3AD
100
AcDbEntity
  8
LAY0001
100
AcDbLine
 62
7
  6
CONTINUOUS
 10
-26.1229481816
 20
1.7913861889
 11
-26.1300129295
 21
1.7998056276
  0
LINE
  5
3AE
100
AcDbEntity
  8
LAY0001
100
AcDbLine
 62
7
  6
CONTINUOUS
 10
-26.3737469557
 20
2.0902765289
 11
-26.3790455217
 21
2.096591114
  0
LINE
  5
3AF
100
AcDbEntity
  8
LAY0001
100
AcDbLine
 62
7
  6
CONTINUOUS
 10
-26.401122907
 20
2.1229019172
 11
-26.4073045538
 21
2.1302689171
  0
LINE
  5
3B0
100
AcDbEntity
  8
LAY0001
100
AcDbLine
 62
7
  6
CONTINUOUS
 10
-25.931679979
 20
1.599862265
 11
-26.6529180449
 21
2.4594003213
  0
LINE
  5
3B1
100
AcDbEntity
  8
LAY0001
100
AcDbLine
 62
7
  6
CONTINUOUS
 10
-25.9550526973
 20
1.630858484
 11
-25.9914797808
 21
1.6742705916
  0
LINE
  5
3B2
100
AcDbEntity
  8
LAY0001
100
AcDbLine
 62
7
  6
CONTINUOUS
 10
-26.161472797
 20
1.8768603794
 11
-26.1978998685
 21
1.9202724726
  0
LINE
  5
3B3
100
AcDbEntity
  8
LAY0001
100
AcDbLine
 62
7
  6
CONTINUOUS
 10
-26.2464693021
 20
1.9781552696
 11
-26.2828963765
 21
2.0215673665
  0
LINE
  5
3B4
100
AcDbEntity
  8
LAY0001
100
AcDbLine
 62
7
  6
CONTINUOUS
 10
-26.4528893927
 20
2.2241571542
 11
-26.4893164762
 21
2.2675692619
  0
LINE
  5
3B5
100
AcDbEntity
  8
LAY0001
100
AcDbLine
 62
7
  6
CONTINUOUS
 10
-26.5378859129
 20
2.3254520625
 11
-26.5682418077
 21
2.3616288093
  0
LINE
  5
3B6
100
AcDbEntity
  8
LAY0001
100
AcDbLine
 62
7
  6
CONTINUOUS
 10
-26.5669620574
 20
2.3627026473
 11
-26.5366061626
 21
2.3265259005
  0
LINE
  5
3B7
100
AcDbEntity
  8
LAY0001
100
AcDbLine
 62
7
  6
CONTINUOUS
 10
-26.5340466617
 20
2.3286735767
 11
-26.5644025566
 21
2.3648503235
  0
LINE
  5
3B8
100
AcDbEntity
  8
LAY0001
100
AcDbLine
 62
7
  6
CONTINUOUS
 10
-25.9866167292
 20
1.6783511765
 11
-26.1566097454
 21
1.8809409642
  0
LINE
  5
3B9
100
AcDbEntity
  8
LAY0001
100
AcDbLine
 62
7
  6
CONTINUOUS
 10
-26.1550740449
 20
1.8822295699
 11
-25.9850810288
 21
1.6796397821
  0
LINE
  5
3BA
100
AcDbEntity
  8
LAY0001
100
AcDbLine
 62
7
  6
CONTINUOUS
 10
-26.5562121539
 20
2.3717228873
 11
-26.5258562591
 21
2.3355461405
  0
LINE
  5
3BB
100
AcDbEntity
  8
LAY0001
100
AcDbLine
 62
7
  6
CONTINUOUS
 10
-26.3801479491
 20
2.1618977387
 11
-26.3315785125
 21
2.1040149381
  0
LINE
  5
3BC
100
AcDbEntity
  8
LAY0001
100
AcDbLine
 62
7
  6
CONTINUOUS
 10
-26.1858702147
 20
1.9303665507
 11
-26.1494431432
 21
1.8869544574
  0
LINE
  5
3BD
100
AcDbEntity
  8
LAY0001
100
AcDbLine
 62
7
  6
CONTINUOUS
 10
-25.979450127
 20
1.6843646697
 11
-25.9430230435
 21
1.640952562
  0
LINE
  5
3BE
100
AcDbEntity
  8
LAY0001
100
AcDbLine
 62
7
  6
CONTINUOUS
 10
-26.5077864395
 20
2.3158587329
 11
-26.5046993706
 21
2.3121797074
  0
LINE
  5
3BF
100
AcDbEntity
  8
LAY0001
100
AcDbLine
 62
7
  6
CONTINUOUS
 10
-26.492351095
 20
2.2974636055
 11
-26.4892640261
 21
2.2937845801
  0
LINE
  5
3C0
100
AcDbEntity
  8
LAY0001
100
AcDbLine
 62
7
  6
CONTINUOUS
 10
-26.4223775172
 20
2.2140723429
 11
-26.4198049755
 21
2.211006507
  0
LINE
  5
3C1
100
AcDbEntity
  8
LAY0001
100
AcDbLine
 62
7
  6
CONTINUOUS
 10
-25.999449076
 20
1.7100458536
 11
-26.0025361449
 21
1.7137248791
  0
LINE
  5
3C2
100
AcDbEntity
  8
LAY0001
100
AcDbLine
 62
7
  6
CONTINUOUS
 10
-26.016942466
 20
1.730893664
 11
-26.0200295349
 21
1.7345726895
  0
LINE
  5
3C3
100
AcDbEntity
  8
LAY0001
100
AcDbLine
 62
7
  6
CONTINUOUS
 10
-26.032377812
 20
1.7492887931
 11
-26.0364939029
 21
1.7541941592
  0
LINE
  5
3C4
100
AcDbEntity
  8
LAY0001
100
AcDbLine
 62
7
  6
CONTINUOUS
 10
-26.0488421786
 20
1.7689102611
 11
-26.053472782
 21
1.7744287993
  0
LINE
  5
3C5
100
AcDbEntity
  8
LAY0001
100
AcDbLine
 62
7
  6
CONTINUOUS
 10
-26.0689081265
 20
1.7928239267
 11
-26.0735387299
 21
1.7983424649
  0
LINE
  5
3C6
100
AcDbEntity
  8
LAY0001
100
AcDbLine
 62
7
  6
CONTINUOUS
 10
-26.0776548238
 20
1.8032478345
 11
-26.0961772372
 21
1.8253219873
  0
LINE
  5
3C7
100
AcDbEntity
  8
LAY0001
100
AcDbLine
 62
7
  6
CONTINUOUS
 10
-26.1249898824
 20
1.8596595607
 11
-26.1280769513
 21
1.8633385862
  0
LINE
  5
3C8
100
AcDbEntity
  8
LAY0001
100
AcDbLine
 62
7
  6
CONTINUOUS
 10
-26.1424832651
 20
1.8805073623
 11
-26.145570334
 21
1.8841863878
  0
LINE
  5
3C9
100
AcDbEntity
  8
LAY0001
100
AcDbLine
 62
7
  6
CONTINUOUS
 10
-26.1496864337
 20
1.8890917644
 11
-26.1682088472
 21
1.9111659173
  0
LINE
  5
3CA
100
AcDbEntity
  8
LAY0001
100
AcDbLine
 62
7
  6
CONTINUOUS
 10
-26.1723249352
 20
1.9160712799
 11
-26.1769555385
 21
1.9215898181
  0
LINE
  5
3CB
100
AcDbEntity
  8
LAY0001
100
AcDbLine
 62
7
  6
CONTINUOUS
 10
-26.1898183296
 20
1.9369190955
 11
-26.1929053985
 21
1.940598121
  0
LINE
  5
3CC
100
AcDbEntity
  8
LAY0001
100
AcDbLine
 62
7
  6
CONTINUOUS
 10
-26.1970214865
 20
1.9455034836
 11
-26.2165729308
 21
1.9688039876
  0
LINE
  5
3CD
100
AcDbEntity
  8
LAY0001
100
AcDbLine
 62
7
  6
CONTINUOUS
 10
-26.220689007
 20
1.9737093362
 11
-26.2237760759
 21
1.9773883617
  0
LINE
  5
3CE
100
AcDbEntity
  8
LAY0001
100
AcDbLine
 62
7
  6
CONTINUOUS
 10
-26.2278921756
 20
1.9822937383
 11
-26.2309792445
 21
1.9859727638
  0
LINE
  5
3CF
100
AcDbEntity
  8
LAY0001
100
AcDbLine
 62
7
  6
CONTINUOUS
 10
-26.2587628648
 20
2.019083993
 11
-26.2628789645
 21
2.0239893696
  0
LINE
  5
3D0
100
AcDbEntity
  8
LAY0001
100
AcDbLine
 62
7
  6
CONTINUOUS
 10
-26.2752272402
 20
2.0387054715
 11
-26.2947786609
 21
2.0620059474
  0
LINE
  5
3D1
100
AcDbEntity
  8
LAY0001
100
AcDbLine
 62
7
  6
CONTINUOUS
 10
-26.2988947606
 20
2.0669113241
 11
-26.3019818296
 21
2.0705903496
  0
LINE
  5
3D2
100
AcDbEntity
  8
LAY0001
100
AcDbLine
 62
7
  6
CONTINUOUS
 10
-26.3060979293
 20
2.0754957262
 11
-26.3107285327
 21
2.0810142644
  0
LINE
  5
3D3
100
AcDbEntity
  8
LAY0001
100
AcDbLine
 62
7
  6
CONTINUOUS
 10
-26.323591312
 20
2.0963435278
 11
-26.3266783809
 21
2.1000225533
  0
LINE
  5
3D4
100
AcDbEntity
  8
LAY0001
100
AcDbLine
 62
7
  6
CONTINUOUS
 10
-26.3390266565
 20
2.1147386552
 11
-26.3436572599
 21
2.1202571934
  0
LINE
  5
3D5
100
AcDbEntity
  8
LAY0001
100
AcDbLine
 62
7
  6
CONTINUOUS
 10
-26.379673056
 20
2.1631791478
 11
-26.382760125
 21
2.1668581733
  0
LINE
  5
3D6
100
AcDbEntity
  8
LAY0001
100
AcDbLine
 62
7
  6
CONTINUOUS
 10
-26.3868762247
 20
2.17176355
 11
-26.3915068281
 21
2.1772820882
  0
LINE
  5
3D7
100
AcDbEntity
  8
LAY0001
100
AcDbLine
 62
7
  6
CONTINUOUS
 10
-26.4043696309
 20
2.1926113797
 11
-26.4074566998
 21
2.1962904051
  0
LINE
  5
3D8
100
AcDbEntity
  8
LAY0001
100
AcDbLine
 62
7
  6
CONTINUOUS
 10
-26.4347257929
 20
2.2287884447
 11
-26.4542772136
 21
2.2520889207
  0
LINE
  5
3D9
100
AcDbEntity
  8
LAY0001
100
AcDbLine
 62
7
  6
CONTINUOUS
 10
-26.4583933369
 20
2.2569943254
 11
-26.4614804058
 21
2.2606733508
  0
LINE
  5
3DA
100
AcDbEntity
  8
LAY0001
100
AcDbLine
 62
7
  6
CONTINUOUS
 10
-26.465596482
 20
2.2655786994
 11
-26.4851479028
 21
2.2888791753
  0
LINE
  5
3DB
100
AcDbEntity
  8
LAY0001
100
AcDbLine
 62
7
  6
CONTINUOUS
 10
-26.5119025157
 20
2.3207640815
 11
-26.5314539365
 21
2.3440645574
  0
LINE
  5
3DC
100
AcDbEntity
  8
LAY0001
100
AcDbLine
 62
7
  6
CONTINUOUS
 10
-26.5355700598
 20
2.3489699621
 11
-26.5540924733
 21
2.3710441149
  0
LINE
  5
3DD
100
AcDbEntity
  8
LAY0001
100
AcDbLine
 62
7
  6
CONTINUOUS
 10
-26.5311454193
 20
2.3443234341
 11
-26.5229132669
 21
2.3345127369
  0
LINE
  5
3DE
100
AcDbEntity
  8
LAY0001
100
AcDbLine
 62
7
  6
CONTINUOUS
 10
-26.519826198
 20
2.3308337114
 11
-26.5115939985
 21
2.3210229581
  0
LINE
  5
3DF
100
AcDbEntity
  8
LAY0001
100
AcDbLine
 62
7
  6
CONTINUOUS
 10
-26.4848393856
 20
2.289138052
 11
-26.4766072332
 21
2.2793273549
  0
LINE
  5
3E0
100
AcDbEntity
  8
LAY0001
100
AcDbLine
 62
7
  6
CONTINUOUS
 10
-26.4735201643
 20
2.2756483294
 11
-26.4652879648
 21
2.2658375761
  0
LINE
  5
3E1
100
AcDbEntity
  8
LAY0001
100
AcDbLine
 62
7
  6
CONTINUOUS
 10
-26.4539686964
 20
2.2523477973
 11
-26.445736544
 21
2.2425371002
  0
LINE
  5
3E2
100
AcDbEntity
  8
LAY0001
100
AcDbLine
 62
7
  6
CONTINUOUS
 10
-26.4426494751
 20
2.2388580747
 11
-26.4344172757
 21
2.2290473214
  0
LINE
  5
3E3
100
AcDbEntity
  8
LAY0001
100
AcDbLine
 62
7
  6
CONTINUOUS
 10
-26.2944701437
 20
2.0622648241
 11
-26.2862379678
 21
2.0524540989
  0
LINE
  5
3E4
100
AcDbEntity
  8
LAY0001
100
AcDbLine
 62
7
  6
CONTINUOUS
 10
-26.2831508989
 20
2.0487750734
 11
-26.2749187229
 21
2.0389643482
  0
LINE
  5
3E5
100
AcDbEntity
  8
LAY0001
100
AcDbLine
 62
7
  6
CONTINUOUS
 10
-26.2162644136
 20
1.9690628643
 11
-26.2080322141
 21
1.959252111
  0
LINE
  5
3E6
100
AcDbEntity
  8
LAY0001
100
AcDbLine
 62
7
  6
CONTINUOUS
 10
-26.2049451452
 20
1.9555730855
 11
-26.1967129693
 21
1.9457623603
  0
LINE
  5
3E7
100
AcDbEntity
  8
LAY0001
100
AcDbLine
 62
7
  6
CONTINUOUS
 10
-26.5537222526
 20
2.3713547669
 11
-26.538286908
 21
2.3529596396
  0
LINE
  5
3E8
100
AcDbEntity
  8
LAY0001
100
AcDbLine
 62
7
  6
CONTINUOUS
 10
-26.3432870392
 20
2.1205678454
 11
-26.3386564359
 21
2.1150493072
  0
LINE
  5
3E9
100
AcDbEntity
  8
LAY0001
100
AcDbLine
 62
7
  6
CONTINUOUS
 10
-26.1678386266
 20
1.9114765693
 11
-26.152403282
 21
1.8930814419
  0
LINE
  5
3EA
100
AcDbEntity
  8
LAY0001
100
AcDbLine
 62
7
  6
CONTINUOUS
 10
-26.0958070166
 20
1.8256326393
 11
-26.080371672
 21
1.807237512
  0
LINE
  5
3EB
100
AcDbEntity
  8
LAY0001
100
AcDbLine
 62
7
  6
CONTINUOUS
 10
-26.0320075914
 20
1.7495994451
 11
-26.0361236823
 21
1.7545048112
  0
LINE
  5
3EC
100
AcDbEntity
  8
LAY0001
100
AcDbLine
 62
7
  6
CONTINUOUS
 10
-26.4194347548
 20
2.211317159
 11
-26.4225218237
 21
2.2149961845
  0
LINE
  5
3ED
100
AcDbEntity
  8
LAY0001
100
AcDbLine
 62
7
  6
CONTINUOUS
 10
-26.4253003755
 20
2.2189340866
 11
-26.4283874444
 21
2.2226131121
  0
LINE
  5
3EE
100
AcDbEntity
  8
LAY0001
100
AcDbLine
 62
7
  6
CONTINUOUS
 10
-26.3501199871
 20
2.1294628997
 11
-26.3470329182
 21
2.1257838742
  0
LINE
  5
3EF
100
AcDbEntity
  8
LAY0001
100
AcDbLine
 62
7
  6
CONTINUOUS
 10
-26.0013637793
 20
1.7147086106
 11
-26.0157701004
 21
1.7318773955
  0
LINE
  5
3F0
100
AcDbEntity
  8
LAY0001
100
AcDbLine
 62
7
  6
CONTINUOUS
 10
-26.0795695271
 20
1.8079105915
 11
-26.0929468218
 21
1.8238530305
  0
LINE
  5
3F1
100
AcDbEntity
  8
LAY0001
100
AcDbLine
 62
7
  6
CONTINUOUS
 10
-26.1516011371
 20
1.8937545214
 11
-26.1649784318
 21
1.9096969604
  0
LINE
  5
3F2
100
AcDbEntity
  8
LAY0001
100
AcDbLine
 62
7
  6
CONTINUOUS
 10
-26.5374847631
 20
2.3536327191
 11
-26.550862046
 21
2.3695751441
  0
LINE
  5
3F3
100
AcDbEntity
  8
LAY0001
100
AcDbLine
 62
7
  6
CONTINUOUS
 10
-26.4216579754
 20
2.2157210393
 11
-26.4185709065
 21
2.2120420139
  0
LINE
  5
3F4
100
AcDbEntity
  8
LAY0001
100
AcDbLine
 62
7
  6
CONTINUOUS
 10
-26.3418469838
 20
2.120731314
 11
-26.3495646561
 21
2.1299288777
  0
LINE
  5
3F5
100
AcDbEntity
  8
LAY0001
100
AcDbLine
 62
7
  6
CONTINUOUS
 10
-26.5504918254
 20
2.3698857961
 11
-26.5371145425
 21
2.3539433711
  0
LINE
  5
3F6
100
AcDbEntity
  8
LAY0001
100
AcDbLine
 62
7
  6
CONTINUOUS
 10
-26.1646082111
 20
1.9100076125
 11
-26.1512309164
 21
1.8940651734
  0
LINE
  5
3F7
100
AcDbEntity
  8
LAY0001
100
AcDbLine
 62
7
  6
CONTINUOUS
 10
-26.0925766012
 20
1.8241636825
 11
-26.0791993065
 21
1.8082212435
  0
LINE
  5
3F8
100
AcDbEntity
  8
LAY0001
100
AcDbLine
 62
7
  6
CONTINUOUS
 10
-26.0153998798
 20
1.7321880475
 11
-26.0009935587
 21
1.7150192626
  0
LINE
  5
3F9
100
AcDbEntity
  8
LAY0001
100
AcDbLine
 62
7
  6
CONTINUOUS
 10
-26.4182006858
 20
2.2123526659
 11
-26.4212877547
 21
2.2160316913
  0
LINE
  5
3FA
100
AcDbEntity
  8
LAY0001
100
AcDbLine
 62
7
  6
CONTINUOUS
 10
-26.3461073665
 20
2.1265605042
 11
-26.3414767632
 21
2.121041966
  0
LINE
  5
3FB
100
AcDbEntity
  8
LAY0001
100
AcDbLine
 62
7
  6
CONTINUOUS
 10
-26.2635386993
 20
2.0286602411
 11
-26.2542774925
 21
2.0176231647
  0
LINE
  5
3FC
100
AcDbEntity
  8
LAY0001
100
AcDbLine
 62
7
  6
CONTINUOUS
 10
-26.4125619276
 20
2.2066351408
 11
-26.4094748587
 21
2.2029561153
  0
LINE
  5
3FD
100
AcDbEntity
  8
LAY0001
100
AcDbLine
 62
7
  6
CONTINUOUS
 10
-26.2638064127
 20
2.0294805321
 11
-26.2535161751
 21
2.0172171045
  0
LINE
  5
3FE
100
AcDbEntity
  8
LAY0001
100
AcDbLine
 62
7
  6
CONTINUOUS
 10
-26.4970243986
 20
2.3081707686
 11
-26.494966337
 21
2.3057180662
  0
LINE
  5
3FF
100
AcDbEntity
  8
LAY0001
100
AcDbLine
 62
7
  6
CONTINUOUS
 10
-26.420362203
 20
2.2168083215
 11
-26.4162460797
 21
2.2119029168
  0
LINE
  5
400
100
AcDbEntity
  8
LAY0001
100
AcDbLine
 62
7
  6
CONTINUOUS
 10
-26.0339640615
 20
1.7563169482
 11
-26.0298479706
 21
1.7514115821
  0
LINE
  5
401
100
AcDbEntity
  8
LAY0001
100
AcDbLine
 62
7
  6
CONTINUOUS
 10
-26.0782120513
 20
1.809049649
 11
-26.0936473958
 21
1.8274447763
  0
LINE
  5
402
100
AcDbEntity
  8
LAY0001
100
AcDbLine
 62
7
  6
CONTINUOUS
 10
-26.1502436612
 20
1.8948935789
 11
-26.1656790058
 21
1.9132887063
  0
LINE
  5
403
100
AcDbEntity
  8
LAY0001
100
AcDbLine
 62
7
  6
CONTINUOUS
 10
-26.2284494031
 20
1.9880955528
 11
-26.2438847477
 21
2.0064906801
  0
LINE
  5
404
100
AcDbEntity
  8
LAY0001
100
AcDbLine
 62
7
  6
CONTINUOUS
 10
-26.3364968151
 20
2.1168614442
 11
-26.3411274185
 21
2.1223799824
  0
LINE
  5
405
100
AcDbEntity
  8
LAY0001
100
AcDbLine
 62
7
  6
CONTINUOUS
 10
-26.5361272873
 20
2.3547717766
 11
-26.5515626318
 21
2.3731669039
  0
LINE
  5
406
100
AcDbEntity
  8
LAY0001
100
AcDbLine
 62
7
  6
CONTINUOUS
 10
-26.5511924111
 20
2.373477556
 11
-26.5326699977
 21
2.3514034032
  0
LINE
  5
407
100
AcDbEntity
  8
LAY0001
100
AcDbLine
 62
7
  6
CONTINUOUS
 10
-26.520321722
 20
2.3366873013
 11
-26.5172346531
 21
2.3330082758
  0
LINE
  5
408
100
AcDbEntity
  8
LAY0001
100
AcDbLine
 62
7
  6
CONTINUOUS
 10
-26.4740156883
 20
2.2815019192
 11
-26.4709286194
 21
2.2778228938
  0
LINE
  5
409
100
AcDbEntity
  8
LAY0001
100
AcDbLine
 62
7
  6
CONTINUOUS
 10
-26.4585803437
 20
2.2631067919
 11
-26.4554932748
 21
2.2594277664
  0
LINE
  5
40A
100
AcDbEntity
  8
LAY0001
100
AcDbLine
 62
7
  6
CONTINUOUS
 10
-26.4431449991
 20
2.2447116645
 11
-26.4400579302
 21
2.2410326391
  0
LINE
  5
40B
100
AcDbEntity
  8
LAY0001
100
AcDbLine
 62
7
  6
CONTINUOUS
 10
-26.4045566377
 20
2.1987238462
 11
-26.3999260343
 21
2.193205308
  0
LINE
  5
40C
100
AcDbEntity
  8
LAY0001
100
AcDbLine
 62
7
  6
CONTINUOUS
 10
-26.3870632315
 20
2.1778760165
 11
-26.3839761626
 21
2.174196991
  0
LINE
  5
40D
100
AcDbEntity
  8
LAY0001
100
AcDbLine
 62
7
  6
CONTINUOUS
 10
-26.3798600628
 20
2.1692916144
 11
-26.3767729939
 21
2.1656125889
  0
LINE
  5
40E
100
AcDbEntity
  8
LAY0001
100
AcDbLine
 62
7
  6
CONTINUOUS
 10
-26.3407571978
 20
2.1226906344
 11
-26.3361265944
 21
2.1171720962
  0
LINE
  5
40F
100
AcDbEntity
  8
LAY0001
100
AcDbLine
 62
7
  6
CONTINUOUS
 10
-26.3237783188
 20
2.1024559944
 11
-26.3191477154
 21
2.0969374562
  0
LINE
  5
410
100
AcDbEntity
  8
LAY0001
100
AcDbLine
 62
7
  6
CONTINUOUS
 10
-26.2990817674
 20
2.0730237906
 11
-26.2959946985
 21
2.0693447651
  0
LINE
  5
411
100
AcDbEntity
  8
LAY0001
100
AcDbLine
 62
7
  6
CONTINUOUS
 10
-26.3062849361
 20
2.0816081927
 11
-26.3031978672
 21
2.0779291673
  0
LINE
  5
412
100
AcDbEntity
  8
LAY0001
100
AcDbLine
 62
7
  6
CONTINUOUS
 10
-26.2836464229
 20
2.0546286633
 11
-26.280559354
 21
2.0509496378
  0
LINE
  5
413
100
AcDbEntity
  8
LAY0001
100
AcDbLine
 62
7
  6
CONTINUOUS
 10
-26.2682110783
 20
2.0362335359
 11
-26.2651240094
 21
2.0325545105
  0
LINE
  5
414
100
AcDbEntity
  8
LAY0001
100
AcDbLine
 62
7
  6
CONTINUOUS
 10
-26.243514527
 20
2.0068013322
 11
-26.2249921135
 21
1.9847271794
  0
LINE
  5
415
100
AcDbEntity
  8
LAY0001
100
AcDbLine
 62
7
  6
CONTINUOUS
 10
-26.2507176956
 20
2.0153857343
 11
-26.2476306267
 21
2.0117067088
  0
LINE
  5
416
100
AcDbEntity
  8
LAY0001
100
AcDbLine
 62
7
  6
CONTINUOUS
 10
-26.2208760138
 20
1.9798218027
 11
-26.2177889449
 21
1.9761427772
  0
LINE
  5
417
100
AcDbEntity
  8
LAY0001
100
AcDbLine
 62
7
  6
CONTINUOUS
 10
-26.2054406692
 20
1.9614266754
 11
-26.2023536003
 21
1.9577476499
  0
LINE
  5
418
100
AcDbEntity
  8
LAY0001
100
AcDbLine
 62
7
  6
CONTINUOUS
 10
-26.1900053364
 20
1.9430315621
 11
-26.185374733
 21
1.9375130239
  0
LINE
  5
419
100
AcDbEntity
  8
LAY0001
100
AcDbLine
 62
7
  6
CONTINUOUS
 10
-26.172511942
 20
1.9221837464
 11
-26.169424873
 21
1.9185047209
  0
LINE
  5
41A
100
AcDbEntity
  8
LAY0001
100
AcDbLine
 62
7
  6
CONTINUOUS
 10
-26.1653087851
 20
1.9135993583
 11
-26.1467863716
 21
1.8915252055
  0
LINE
  5
41B
100
AcDbEntity
  8
LAY0001
100
AcDbLine
 62
7
  6
CONTINUOUS
 10
-26.1344380959
 20
1.8768091036
 11
-26.1303219962
 21
1.871903727
  0
LINE
  5
41C
100
AcDbEntity
  8
LAY0001
100
AcDbLine
 62
7
  6
CONTINUOUS
 10
-26.0932771751
 20
1.8277554284
 11
-26.0747547616
 21
1.8056812755
  0
LINE
  5
41D
100
AcDbEntity
  8
LAY0001
100
AcDbLine
 62
7
  6
CONTINUOUS
 10
-26.0706386678
 20
1.8007759059
 11
-26.0675515989
 21
1.7970968804
  0
LINE
  5
41E
100
AcDbEntity
  8
LAY0001
100
AcDbLine
 62
7
  6
CONTINUOUS
 10
-26.0603484361
 20
1.7885124853
 11
-26.0562323482
 21
1.7836071227
  0
LINE
  5
41F
100
AcDbEntity
  8
LAY0001
100
AcDbLine
 62
7
  6
CONTINUOUS
 10
-26.0490291854
 20
1.7750227276
 11
-26.0459421165
 21
1.7713437022
  0
LINE
  5
420
100
AcDbEntity
  8
LAY0001
100
AcDbLine
 62
7
  6
CONTINUOUS
 10
-26.0335938408
 20
1.7566276003
 11
-26.0294777499
 21
1.7517222342
  0
LINE
  5
421
100
AcDbEntity
  8
LAY0001
100
AcDbLine
 62
7
  6
CONTINUOUS
 10
-26.0171294728
 20
1.7370061305
 11
-26.0140424039
 21
1.7333271051
  0
LINE
  5
422
100
AcDbEntity
  8
LAY0001
100
AcDbLine
 62
7
  6
CONTINUOUS
 10
-25.9996360828
 20
1.7161583201
 11
-25.9965490139
 21
1.7124792946
  0
LINE
  5
423
100
AcDbEntity
  8
LAY0001
100
AcDbLine
 62
7
  6
CONTINUOUS
 10
-26.415875859
 20
2.2122135688
 11
-26.4199919823
 21
2.2171189735
  0
LINE
  5
424
100
AcDbEntity
  8
LAY0001
100
AcDbLine
 62
7
  6
CONTINUOUS
 10
-26.4945961163
 20
2.3060287183
 11
-26.496654178
 21
2.3084814206
  0
LINE
  5
425
100
AcDbEntity
  8
0
100
AcDbLine
 62
7
  6
CONTINUOUS
 10
-26.6643409859
 20
2.536237696
 11
-25.8520733118
 21
1.5682147772
  0
LINE
  5
426
100
AcDbEntity
  8
1_ALL_PLANES
100
AcDbLine
 62
7
  6
CONTINUOUS
 10
-26.6092204098
 20
2.4751496378
 11
-25.9085819152
 21
1.6401611948
  0
LINE
  5
427
100
AcDbEntity
  8
LAY0001
100
AcDbLine
 62
7
  6
CONTINUOUS
 10
-26.583061152
 20
2.330718033
 11
-26.5873822077
 21
2.3360593569
  0
LINE
  5
428
100
AcDbEntity
  8
LAY0001
100
AcDbLine
 62
7
  6
CONTINUOUS
 10
-26.4036985996
 20
2.1171537571
 11
-26.3993775035
 21
2.1118123851
  0
LINE
  5
429
100
AcDbEntity
  8
LAY0001
100
AcDbLine
 62
7
  6
CONTINUOUS
 10
-26.3198990336
 20
2.0170936331
 11
-26.3242201096
 21
2.0224349811
  0
LINE
  5
42A
100
AcDbEntity
  8
LAY0001
100
AcDbLine
 62
7
  6
CONTINUOUS
 10
-26.2554331405
 20
1.9402661733
 11
-26.2597542164
 21
1.9456075213
  0
LINE
  5
42B
100
AcDbEntity
  8
LAY0001
100
AcDbLine
 62
7
  6
CONTINUOUS
 10
-26.1378872084
 20
1.8003720767
 11
-26.1335661224
 21
1.7950307167
  0
LINE
  5
42C
100
AcDbEntity
  8
LAY0001
100
AcDbLine
 62
7
  6
CONTINUOUS
 10
-26.3075149008
 20
2.0113442396
 11
-26.3031938047
 21
2.0060028675
  0
LINE
  5
42D
100
AcDbEntity
  8
LAY0001
100
AcDbLine
 62
7
  6
CONTINUOUS
 10
-26.136882519
 20
1.8030085394
 11
-26.132561433
 21
1.7976671793
  0
LINE
  5
42E
100
AcDbEntity
  8
LAY0001
100
AcDbLine
 62
7
  6
CONTINUOUS
 10
-26.1186270956
 20
1.7860448289
 11
-26.1229481816
 21
1.7913861889
  0
LINE
  5
42F
100
AcDbEntity
  8
LAY0001
100
AcDbLine
 62
7
  6
CONTINUOUS
 10
-26.4248883555
 20
2.217189954
 11
-26.4223775172
 21
2.2140723429
  0
LINE
  5
430
100
AcDbEntity
  8
LAY0001
100
AcDbLine
 62
7
  6
CONTINUOUS
 10
-26.492085278
 20
2.3029111071
 11
-26.4945961163
 21
2.3060287183
  0
LINE
  5
431
100
AcDbEntity
  8
LAY0001
100
AcDbLine
 62
7
  6
CONTINUOUS
 10
-26.4241688137
 20
2.2188386505
 11
-26.4216579754
 21
2.2157210393
  0
LINE
  5
432
100
AcDbEntity
  8
LAY0001
100
AcDbLine
 62
7
  6
CONTINUOUS
 10
-26.3436572599
 20
2.1202571934
 11
-26.3461681217
 21
2.1233748326
  0
LINE
  5
433
100
AcDbEntity
  8
LAY0001
100
AcDbLine
 62
7
  6
CONTINUOUS
 10
-26.4133650207
 20
2.2090959576
 11
-26.415875859
 21
2.2122135688
  0
LINE
  5
434
100
AcDbEntity
  8
LAY0001
100
AcDbLine
 62
7
  6
CONTINUOUS
 10
-26.3361265944
 20
2.1171720962
 11
-26.3336157326
 21
2.114054457
  0
LINE
  5
435
100
AcDbEntity
  8
LAY0001
100
AcDbLine
 62
7
  6
CONTINUOUS
 10
-26.0364939029
 20
1.7541941592
 11
-26.0390047559
 21
1.757311788
  0
LINE
  5
436
100
AcDbEntity
  8
LAY0001
100
AcDbLine
 62
7
  6
CONTINUOUS
 10
-26.0294777499
 20
1.7517222342
 11
-26.026966894
 21
1.7486046019
  0
LINE
  5
437
100
AcDbEntity
  8
LAY0001
100
AcDbLine
 62
7
  6
CONTINUOUS
 10
-26.5824948179
 20
2.3311932437
 11
-26.5859327928
 21
2.3354821528
  0
LINE
  5
438
100
AcDbEntity
  8
LAY0001
100
AcDbLine
 62
7
  6
CONTINUOUS
 10
-26.3227706745
 20
2.0218577529
 11
-26.3193326996
 21
2.0175688438
  0
LINE
  5
439
100
AcDbEntity
  8
LAY0001
100
AcDbLine
 62
7
  6
CONTINUOUS
 10
-26.2548668065
 20
1.940741384
 11
-26.2583048015
 21
1.9450303172
  0
LINE
  5
43A
100
AcDbEntity
  8
LAY0001
100
AcDbLine
 62
7
  6
CONTINUOUS
 10
-26.3046432398
 20
2.0065800957
 11
-26.3080812349
 21
2.0108690289
  0
LINE
  5
43B
100
AcDbEntity
  8
LAY0001
100
AcDbLine
 62
7
  6
CONTINUOUS
 10
-26.1319950989
 20
1.79814239
 11
-26.135433094
 21
1.8024313232
  0
LINE
  5
43C
100
AcDbEntity
  8
LAY0001
100
AcDbLine
 62
7
  6
CONTINUOUS
 10
-26.123258548
 20
1.7875388838
 11
-26.1266965329
 21
1.791827805
  0
LINE
  5
43D
100
AcDbEntity
  8
LAY0001
100
AcDbLine
 62
7
  6
CONTINUOUS
 10
-26.1235145157
 20
1.7909109782
 11
-26.1200765206
 21
1.786622045
  0
LINE
  5
43E
100
AcDbEntity
  8
LAY0001
100
AcDbLine
 62
7
  6
CONTINUOUS
 10
-26.494966337
 20
2.3057180662
 11
-26.4929700259
 21
2.3032136447
  0
LINE
  5
43F
100
AcDbEntity
  8
LAY0001
100
AcDbLine
 62
7
  6
CONTINUOUS
 10
-26.4212877547
 20
2.2160316913
 11
-26.4232840658
 21
2.2185361129
  0
LINE
  5
440
100
AcDbEntity
  8
LAY0001
100
AcDbLine
 62
7
  6
CONTINUOUS
 10
-26.4162043276
 20
2.2098481882
 11
-26.4182006858
 21
2.2123526659
  0
LINE
  5
441
100
AcDbEntity
  8
LAY0001
100
AcDbLine
 62
7
  6
CONTINUOUS
 10
-26.4162460797
 20
2.2119029168
 11
-26.4142497686
 21
2.2093984952
  0
LINE
  5
442
100
AcDbEntity
  8
LAY0001
100
AcDbLine
 62
7
  6
CONTINUOUS
 10
-26.3452833739
 20
2.123072295
 11
-26.3432870392
 21
2.1205678454
  0
LINE
  5
443
100
AcDbEntity
  8
LAY0001
100
AcDbLine
 62
7
  6
CONTINUOUS
 10
-26.3345004805
 20
2.1143569946
 11
-26.3364968151
 21
2.1168614442
  0
LINE
  5
444
100
AcDbEntity
  8
LAY0001
100
AcDbLine
 62
7
  6
CONTINUOUS
 10
-26.0361236823
 20
1.7545048112
 11
-26.0381200258
 21
1.7570092714
  0
LINE
  5
445
100
AcDbEntity
  8
LAY0001
100
AcDbLine
 62
7
  6
CONTINUOUS
 10
-26.0298479706
 20
1.7514115821
 11
-26.0278516271
 21
1.748907122
  0
LINE
  5
446
100
AcDbEntity
  8
LAY0001
100
AcDbLine
 62
7
  6
CONTINUOUS
 10
-26.4023435738
 20
2.1164973513
 11
-26.3997886798
 21
2.1132608569
  0
LINE
  5
447
100
AcDbEntity
  8
LAY0001
100
AcDbLine
 62
7
  6
CONTINUOUS
 10
-26.1338828793
 20
1.7965583542
 11
-26.1364377733
 21
1.7997948485
  0
LINE
  5
448
100
AcDbEntity
  8
LAY0001
100
AcDbLine
 62
7
  6
CONTINUOUS
 10
-26.127262867
 20
1.7913525943
 11
-26.124707973
 21
1.7881161
  0
LINE
  5
449
100
AcDbEntity
  8
LAY0001
100
AcDbLine
 62
7
  6
CONTINUOUS
 10
-26.4225218237
 20
2.2149961845
 11
-26.4240036548
 21
2.2168874726
  0
LINE
  5
44A
100
AcDbEntity
  8
LAY0001
100
AcDbLine
 62
7
  6
CONTINUOUS
 10
-26.4185709065
 20
2.2120420139
 11
-26.4170890755
 21
2.2101507258
  0
LINE
  5
44B
100
AcDbEntity
  8
LAY0001
100
AcDbLine
 62
7
  6
CONTINUOUS
 10
-26.6529180449
 20
2.4594003213
 11
-26.3070256227
 21
2.0172741995
  0
LINE
  5
44C
100
AcDbEntity
  8
LAY0001
100
AcDbLine
 62
7
  6
CONTINUOUS
 10
-26.5873822077
 20
2.3360593569
 11
-26.590725834
 21
2.340427516
  0
LINE
  5
44D
100
AcDbEntity
  8
LAY0001
100
AcDbLine
 62
7
  6
CONTINUOUS
 10
-26.3242201096
 20
2.0224349811
 11
-26.3275637156
 21
2.026803116
  0
LINE
  5
44E
100
AcDbEntity
  8
LAY0001
100
AcDbLine
 62
7
  6
CONTINUOUS
 10
-26.2597542164
 20
1.9456075213
 11
-26.2630978225
 21
1.9499756563
  0
LINE
  5
44F
100
AcDbEntity
  8
LAY0001
100
AcDbLine
 62
7
  6
CONTINUOUS
 10
-26.3031938047
 20
2.0060028675
 11
-26.2998502188
 21
2.0016347566
  0
LINE
  5
450
100
AcDbEntity
  8
LAY0001
100
AcDbLine
 62
7
  6
CONTINUOUS
 10
-26.140226115
 20
1.8073766623
 11
-26.136882519
 21
1.8030085394
  0
LINE
  5
451
100
AcDbEntity
  8
LAY0001
100
AcDbLine
 62
7
  6
CONTINUOUS
 10
-26.119914952
 20
1.7831707609
 11
-26.123258548
 21
1.7875388838
  0
LINE
  5
452
100
AcDbEntity
  8
LAY0001
100
AcDbLine
 62
7
  6
CONTINUOUS
 10
-26.4901506233
 20
2.300354854
 11
-26.492085278
 21
2.3029111071
  0
LINE
  5
453
100
AcDbEntity
  8
LAY0001
100
AcDbLine
 62
7
  6
CONTINUOUS
 10
-26.4261034684
 20
2.2213949035
 11
-26.4241688137
 21
2.2188386505
  0
LINE
  5
454
100
AcDbEntity
  8
LAY0001
100
AcDbLine
 62
7
  6
CONTINUOUS
 10
-26.4142696729
 20
2.2072919352
 11
-26.4162043276
 21
2.2098481882
  0
LINE
  5
455
100
AcDbEntity
  8
LAY0001
100
AcDbLine
 62
7
  6
CONTINUOUS
 10
-26.3461681217
 20
2.1233748326
 11
-26.3481027529
 21
2.1259310576
  0
LINE
  5
456
100
AcDbEntity
  8
LAY0001
100
AcDbLine
 62
7
  6
CONTINUOUS
 10
-26.3336157326
 20
2.114054457
 11
-26.3316811014
 21
2.111498232
  0
LINE
  5
457
100
AcDbEntity
  8
LAY0001
100
AcDbLine
 62
7
  6
CONTINUOUS
 10
-26.0390047559
 20
1.757311788
 11
-26.040939396
 21
1.7598680234
  0
LINE
  5
458
100
AcDbEntity
  8
LAY0001
100
AcDbLine
 62
7
  6
CONTINUOUS
 10
-26.026966894
 20
1.7486046019
 11
-26.0250322569
 21
1.7460483699
  0
LINE
  5
459
100
AcDbEntity
  8
LAY0001
100
AcDbLine
 62
7
  6
CONTINUOUS
 10
-26.1144947926
 20
1.7805450713
 11
-26.1186270956
 21
1.7860448289
  0
LINE
  5
45A
100
AcDbEntity
  8
LAY0001
100
AcDbLine
 62
7
  6
CONTINUOUS
 10
-26.5859327928
 20
2.3354821528
 11
-26.5883932978
 21
2.3387978489
  0
LINE
  5
45B
100
AcDbEntity
  8
LAY0001
100
AcDbLine
 62
7
  6
CONTINUOUS
 10
-26.3252311794
 20
2.025173449
 11
-26.3227706745
 21
2.0218577529
  0
LINE
  5
45C
100
AcDbEntity
  8
LAY0001
100
AcDbLine
 62
7
  6
CONTINUOUS
 10
-26.2871637475
 20
1.9799981405
 11
-26.2896242523
 21
1.9833138368
  0
LINE
  5
45D
100
AcDbEntity
  8
LAY0001
100
AcDbLine
 62
7
  6
CONTINUOUS
 10
-26.3021827349
 20
2.0032643995
 11
-26.3046432398
 21
2.0065800957
  0
LINE
  5
45E
100
AcDbEntity
  8
LAY0001
100
AcDbLine
 62
7
  6
CONTINUOUS
 10
-26.2583048015
 20
1.9450303172
 11
-26.2607653065
 21
1.9483460133
  0
LINE
  5
45F
100
AcDbEntity
  8
LAY0001
100
AcDbLine
 62
7
  6
CONTINUOUS
 10
-26.2757842939
 20
1.9716122724
 11
-26.2733237889
 21
1.9682965763
  0
LINE
  5
460
100
AcDbEntity
  8
LAY0001
100
AcDbLine
 62
7
  6
CONTINUOUS
 10
-26.135433094
 20
1.8024313232
 11
-26.137893599
 21
1.8057470193
  0
LINE
  5
461
100
AcDbEntity
  8
LAY0001
100
AcDbLine
 62
7
  6
CONTINUOUS
 10
-26.124707973
 20
1.7881161
 11
-26.122247468
 21
1.7848004039
  0
LINE
  5
462
100
AcDbEntity
  8
LAY0001
100
AcDbLine
 62
7
  6
CONTINUOUS
 10
-26.4109775893
 20
2.2058747958
 11
-26.4133650207
 21
2.2090959576
  0
LINE
  5
463
100
AcDbEntity
  8
LAY0001
100
AcDbLine
 62
7
  6
CONTINUOUS
 10
-26.4929700259
 20
2.3032136447
 11
-26.4915498984
 21
2.3012705812
  0
LINE
  5
464
100
AcDbEntity
  8
LAY0001
100
AcDbLine
 62
7
  6
CONTINUOUS
 10
-26.4232840658
 20
2.2185361129
 11
-26.4247041934
 21
2.2204791763
  0
LINE
  5
465
100
AcDbEntity
  8
LAY0001
100
AcDbLine
 62
7
  6
CONTINUOUS
 10
-26.4170890755
 20
2.2101507258
 11
-26.4156689479
 21
2.2082076624
  0
LINE
  5
466
100
AcDbEntity
  8
LAY0001
100
AcDbLine
 62
7
  6
CONTINUOUS
 10
-26.3467035015
 20
2.1250153584
 11
-26.3452833739
 21
2.123072295
  0
LINE
  5
467
100
AcDbEntity
  8
LAY0001
100
AcDbLine
 62
7
  6
CONTINUOUS
 10
-26.3330803529
 20
2.1124139311
 11
-26.3345004805
 21
2.1143569946
  0
LINE
  5
468
100
AcDbEntity
  8
LAY0001
100
AcDbLine
 62
7
  6
CONTINUOUS
 10
-26.0381200258
 20
1.7570092714
 11
-26.0395401533
 21
1.7589523348
  0
LINE
  5
469
100
AcDbEntity
  8
LAY0001
100
AcDbLine
 62
7
  6
CONTINUOUS
 10
-26.0278516271
 20
1.748907122
 11
-26.0264314996
 21
1.7469640585
  0
LINE
  5
46A
100
AcDbEntity
  8
LAY0001
100
AcDbLine
 62
7
  6
CONTINUOUS
 10
-26.4069477965
 20
2.1216010698
 11
-26.4036985996
 21
2.1171537571
  0
LINE
  5
46B
100
AcDbEntity
  8
LAY0001
100
AcDbLine
 62
7
  6
CONTINUOUS
 10
-26.1411364154
 20
1.8048194014
 11
-26.1378872084
 21
1.8003720767
  0
LINE
  5
46C
100
AcDbEntity
  8
LAY0001
100
AcDbLine
 62
7
  6
CONTINUOUS
 10
-26.4267613068
 20
2.2197979824
 11
-26.4248883555
 21
2.217189954
  0
LINE
  5
46D
100
AcDbEntity
  8
LAY0001
100
AcDbLine
 62
7
  6
CONTINUOUS
 10
-26.590725834
 20
2.340427516
 11
-26.5938806418
 21
2.3449540304
  0
LINE
  5
46E
100
AcDbEntity
  8
LAY0001
100
AcDbLine
 62
7
  6
CONTINUOUS
 10
-26.4039209575
 20
2.1187605844
 11
-26.4023435738
 21
2.1164973513
  0
LINE
  5
46F
100
AcDbEntity
  8
LAY0001
100
AcDbLine
 62
7
  6
CONTINUOUS
 10
-26.3275637156
 20
2.026803116
 11
-26.3307185235
 21
2.0313296305
  0
LINE
  5
470
100
AcDbEntity
  8
LAY0001
100
AcDbLine
 62
7
  6
CONTINUOUS
 10
-26.2998502188
 20
2.0016347566
 11
-26.2966953908
 21
1.9971082181
  0
LINE
  5
471
100
AcDbEntity
  8
LAY0001
100
AcDbLine
 62
7
  6
CONTINUOUS
 10
-26.2630978225
 20
1.9499756563
 11
-26.2662526505
 21
1.9545021948
  0
LINE
  5
472
100
AcDbEntity
  8
LAY0001
100
AcDbLine
 62
7
  6
CONTINUOUS
 10
-26.1364377733
 20
1.7997948485
 11
-26.1380151873
 21
1.8020581178
  0
LINE
  5
473
100
AcDbEntity
  8
LAY0001
100
AcDbLine
 62
7
  6
CONTINUOUS
 10
-26.143380943
 20
1.8119032008
 11
-26.140226115
 21
1.8073766623
  0
LINE
  5
474
100
AcDbEntity
  8
LAY0001
100
AcDbLine
 62
7
  6
CONTINUOUS
 10
-26.116760129
 20
1.7786442284
 11
-26.119914952
 21
1.7831707609
  0
LINE
  5
475
100
AcDbEntity
  8
LAY0001
100
AcDbLine
 62
7
  6
CONTINUOUS
 10
-26.1200765206
 20
1.786622045
 11
-26.1177104047
 21
1.783227147
  0
LINE
  5
476
100
AcDbEntity
  8
LAY0001
100
AcDbLine
 62
7
  6
CONTINUOUS
 10
-26.4883394225
 20
2.2976951065
 11
-26.4901506233
 21
2.300354854
  0
LINE
  5
477
100
AcDbEntity
  8
LAY0001
100
AcDbLine
 62
7
  6
CONTINUOUS
 10
-26.4240036548
 20
2.2168874726
 11
-26.4249092551
 21
2.2182173463
  0
LINE
  5
478
100
AcDbEntity
  8
LAY0001
100
AcDbLine
 62
7
  6
CONTINUOUS
 10
-26.4279146692
 20
2.2240546511
 11
-26.4261034684
 21
2.2213949035
  0
LINE
  5
479
100
AcDbEntity
  8
LAY0001
100
AcDbLine
 62
7
  6
CONTINUOUS
 10
-26.4124584721
 20
2.2046321876
 11
-26.4142696729
 21
2.2072919352
  0
LINE
  5
47A
100
AcDbEntity
  8
LAY0001
100
AcDbLine
 62
7
  6
CONTINUOUS
 10
-26.4142497686
 20
2.2093984952
 11
-26.4128913445
 21
2.2074036564
  0
LINE
  5
47B
100
AcDbEntity
  8
LAY0001
100
AcDbLine
 62
7
  6
CONTINUOUS
 10
-26.3481027529
 20
2.1259310576
 11
-26.3499139773
 21
2.1285908332
  0
LINE
  5
47C
100
AcDbEntity
  8
LAY0001
100
AcDbLine
 62
7
  6
CONTINUOUS
 10
-26.3316811014
 20
2.111498232
 11
-26.3298698771
 21
2.1088384564
  0
LINE
  5
47D
100
AcDbEntity
  8
LAY0001
100
AcDbLine
 62
7
  6
CONTINUOUS
 10
-26.040939396
 20
1.7598680234
 11
-26.0427506291
 21
1.7625278096
  0
LINE
  5
47E
100
AcDbEntity
  8
LAY0001
100
AcDbLine
 62
7
  6
CONTINUOUS
 10
-26.0250322569
 20
1.7460483699
 11
-26.0232210238
 21
1.7433885838
  0
LINE
  5
47F
100
AcDbEntity
  8
LAY0001
100
AcDbLine
 62
7
  6
CONTINUOUS
 10
-26.2828963765
 20
2.0215673665
 11
-26.3573989318
 21
2.1316677323
  0
LINE
  5
480
100
AcDbEntity
  8
LAY0001
100
AcDbLine
 62
7
  6
CONTINUOUS
 10
-26.3315785125
 20
2.1040149381
 11
-26.2464693021
 21
1.9781552696
  0
LINE
  5
481
100
AcDbEntity
  8
LAY0001
100
AcDbLine
 62
7
  6
CONTINUOUS
 10
-26.4092195235
 20
2.1250751695
 11
-26.4069477965
 21
2.1216010698
  0
LINE
  5
482
100
AcDbEntity
  8
LAY0001
100
AcDbLine
 62
7
  6
CONTINUOUS
 10
-26.1434081423
 20
1.8082935011
 11
-26.1411364154
 21
1.8048194014
  0
LINE
  5
483
100
AcDbEntity
  8
LAY0001
100
AcDbLine
 62
7
  6
CONTINUOUS
 10
-26.4280580275
 20
2.2218445965
 11
-26.4267613068
 21
2.2197979824
  0
LINE
  5
484
100
AcDbEntity
  8
LAY0001
100
AcDbLine
 62
7
  6
CONTINUOUS
 10
-26.5883932978
 20
2.3387978489
 11
-26.5898763326
 21
2.3411403322
  0
LINE
  5
485
100
AcDbEntity
  8
LAY0001
100
AcDbLine
 62
7
  6
CONTINUOUS
 10
-26.30069972
 20
2.0009219405
 11
-26.3021827349
 21
2.0032643995
  0
LINE
  5
486
100
AcDbEntity
  8
LAY0001
100
AcDbLine
 62
7
  6
CONTINUOUS
 10
-26.2607653065
 20
1.9483460133
 11
-26.2622483212
 21
1.9506884725
  0
LINE
  5
487
100
AcDbEntity
  8
LAY0001
100
AcDbLine
 62
7
  6
CONTINUOUS
 10
-26.137893599
 20
1.8057470193
 11
-26.1393766138
 21
1.8080894784
  0
LINE
  5
488
100
AcDbEntity
  8
LAY0001
100
AcDbLine
 62
7
  6
CONTINUOUS
 10
-26.1123174547
 20
1.7769917698
 11
-26.1144947926
 21
1.7805450713
  0
LINE
  5
489
100
AcDbEntity
  8
LAY0001
100
AcDbLine
 62
7
  6
CONTINUOUS
 10
-26.4915498984
 20
2.3012705812
 11
-26.4907059543
 21
2.299888876
  0
LINE
  5
48A
100
AcDbEntity
  8
LAY0001
100
AcDbLine
 62
7
  6
CONTINUOUS
 10
-26.4247041934
 20
2.2204791763
 11
-26.4255481374
 21
2.2218608816
  0
LINE
  5
48B
100
AcDbEntity
  8
LAY0001
100
AcDbLine
 62
7
  6
CONTINUOUS
 10
-26.3322364324
 20
2.1110322539
 11
-26.3330803529
 21
2.1124139311
  0
LINE
  5
48C
100
AcDbEntity
  8
LAY0001
100
AcDbLine
 62
7
  6
CONTINUOUS
 10
-26.0395401533
 20
1.7589523348
 11
-26.0403840648
 21
1.7603340016
  0
LINE
  5
48D
100
AcDbEntity
  8
LAY0001
100
AcDbLine
 62
7
  6
CONTINUOUS
 10
-26.0264314996
 20
1.7469640585
 11
-26.0255875879
 21
1.7455823919
  0
LINE
  5
48E
100
AcDbEntity
  8
LAY0001
100
AcDbLine
 62
7
  6
CONTINUOUS
 10
-26.3915068281
 20
2.1772820882
 11
-26.4019014929
 21
2.1946823933
  0
LINE
  5
48F
100
AcDbEntity
  8
LAY0001
100
AcDbLine
 62
7
  6
CONTINUOUS
 10
-26.3107285327
 20
2.0810142644
 11
-26.321123174
 21
2.0984145415
  0
LINE
  5
490
100
AcDbEntity
  8
LAY0001
100
AcDbLine
 62
7
  6
CONTINUOUS
 10
-26.1769555385
 20
1.9215898181
 11
-26.1873501916
 21
1.9389901092
  0
LINE
  5
491
100
AcDbEntity
  8
LAY0001
100
AcDbLine
 62
7
  6
CONTINUOUS
 10
-26.3999260343
 20
2.193205308
 11
-26.389593073
 21
2.1757532274
  0
LINE
  5
492
100
AcDbEntity
  8
LAY0001
100
AcDbLine
 62
7
  6
CONTINUOUS
 10
-26.3191477154
 20
2.0969374562
 11
-26.3088147776
 21
2.0794854037
  0
LINE
  5
493
100
AcDbEntity
  8
LAY0001
100
AcDbLine
 62
7
  6
CONTINUOUS
 10
-26.185374733
 20
1.9375130239
 11
-26.1750417834
 21
1.9200609573
  0
LINE
  5
494
100
AcDbEntity
  8
LAY0001
100
AcDbLine
 62
7
  6
CONTINUOUS
 10
-26.4097425721
 20
2.2037764063
 11
-26.4109775893
 21
2.2058747958
  0
LINE
  5
495
100
AcDbEntity
  8
LAY0001
100
AcDbLine
 62
7
  6
CONTINUOUS
 10
-26.5938806418
 20
2.3449540304
 11
-26.5952692879
 21
2.3473757153
  0
LINE
  5
496
100
AcDbEntity
  8
LAY0001
100
AcDbLine
 62
7
  6
CONTINUOUS
 10
-26.2966953908
 20
1.9971082181
 11
-26.295306765
 21
1.9946865572
  0
LINE
  5
497
100
AcDbEntity
  8
LAY0001
100
AcDbLine
 62
7
  6
CONTINUOUS
 10
-26.2662526505
 20
1.9545021948
 11
-26.2676412765
 21
1.9569238556
  0
LINE
  5
498
100
AcDbEntity
  8
LAY0001
100
AcDbLine
 62
7
  6
CONTINUOUS
 10
-26.1380151873
 20
1.8020581178
 11
-26.1387095003
 21
1.8032689482
  0
LINE
  5
499
100
AcDbEntity
  8
LAY0001
100
AcDbLine
 62
7
  6
CONTINUOUS
 10
-26.1447695688
 20
1.8143248617
 11
-26.143380943
 21
1.8119032008
  0
LINE
  5
49A
100
AcDbEntity
  8
LAY0001
100
AcDbLine
 62
7
  6
CONTINUOUS
 10
-26.487557182
 20
2.2962616258
 11
-26.4883394225
 21
2.2976951065
  0
LINE
  5
49B
100
AcDbEntity
  8
LAY0001
100
AcDbLine
 62
7
  6
CONTINUOUS
 10
-26.4249092551
 20
2.2182173463
 11
-26.4253003755
 21
2.2189340866
  0
LINE
  5
49C
100
AcDbEntity
  8
LAY0001
100
AcDbLine
 62
7
  6
CONTINUOUS
 10
-26.4286969097
 20
2.2254881318
 11
-26.4279146692
 21
2.2240546511
  0
LINE
  5
49D
100
AcDbEntity
  8
LAY0001
100
AcDbLine
 62
7
  6
CONTINUOUS
 10
-26.3298698771
 20
2.1088384564
 11
-26.3290876601
 21
2.1074050038
  0
LINE
  5
49E
100
AcDbEntity
  8
LAY0001
100
AcDbLine
 62
7
  6
CONTINUOUS
 10
-26.0427506291
 20
1.7625278096
 11
-26.0435328374
 21
1.7639612516
  0
LINE
  5
49F
100
AcDbEntity
  8
LAY0001
100
AcDbLine
 62
7
  6
CONTINUOUS
 10
-26.0232210238
 20
1.7433885838
 11
-26.0224388156
 21
1.7419551417
  0
LINE
  5
4A0
100
AcDbEntity
  8
LAY0001
100
AcDbLine
 62
7
  6
CONTINUOUS
 10
-26.4073045538
 20
2.1302689171
 11
-26.4015276522
 21
2.1189753983
  0
LINE
  5
4A1
100
AcDbEntity
  8
LAY0001
100
AcDbLine
 62
7
  6
CONTINUOUS
 10
-26.3960403082
 20
2.1128192168
 11
-26.401122907
 21
2.1229019172
  0
LINE
  5
4A2
100
AcDbEntity
  8
LAY0001
100
AcDbLine
 62
7
  6
CONTINUOUS
 10
-26.0562323482
 20
1.7836071227
 11
-26.0513122131
 21
1.7731070399
  0
LINE
  5
4A3
100
AcDbEntity
  8
LAY0001
100
AcDbLine
 62
7
  6
CONTINUOUS
 10
-26.1440080663
 20
1.8095835332
 11
-26.1434081423
 21
1.8082935011
  0
LINE
  5
4A4
100
AcDbEntity
  8
LAY0001
100
AcDbLine
 62
7
  6
CONTINUOUS
 10
-26.122247468
 20
1.7848004039
 11
-26.121647544
 21
1.7835103717
  0
LINE
  5
4A5
100
AcDbEntity
  8
LAY0001
100
AcDbLine
 62
7
  6
CONTINUOUS
 10
-26.1177104047
 20
1.783227147
 11
-26.1171104808
 21
1.7819371149
  0
LINE
  5
4A6
100
AcDbEntity
  8
LAY0001
100
AcDbLine
 62
7
  6
CONTINUOUS
 10
-26.053472782
 20
1.7744287993
 11
-26.0585989094
 21
1.7858009273
  0
LINE
  5
4A7
100
AcDbEntity
  8
LAY0001
100
AcDbLine
 62
7
  6
CONTINUOUS
 10
-26.1280769513
 20
1.8633385862
 11
-26.1327502668
 21
1.8740457632
  0
LINE
  5
4A8
100
AcDbEntity
  8
LAY0001
100
AcDbLine
 62
7
  6
CONTINUOUS
 10
-26.1303219962
 20
1.871903727
 11
-26.1249898824
 21
1.8596595607
  0
LINE
  5
4A9
100
AcDbEntity
  8
0
100
AcDbLine
 62
7
  6
CONTINUOUS
 10
-25.6556261757
 20
1.2834537034
 11
-25.6516987582
 21
1.29025619
  0
LINE
  5
4AA
100
AcDbEntity
  8
0
100
AcDbLine
 62
3
  6
CONTINUOUS
 10
-25.6556261757
 20
1.2834537034
 11
-25.7111704545
 21
1.1872481904
  0
LINE
  5
4AB
100
AcDbEntity
  8
0
100
AcDbLine
 62
7
  6
CONTINUOUS
 10
-23.2213373915
 20
-2.3205911089
 11
-22.4987395671
 21
-2.3758114051
  0
LINE
  5
4AC
100
AcDbEntity
  8
03___PRT_ALL_CURVES
100
AcDbLine
 62
4
  6
CONTINUOUS
 10
-24.2541822564
 20
0.3597840753
 11
-24.257849908
 21
0.3622649171
  0
LINE
  5
4AD
100
AcDbEntity
  8
03___PRT_ALL_CURVES
100
AcDbLine
 62
4
  6
CONTINUOUS
 10
-24.2267513121
 20
0.3476708644
 11
-24.2230837043
 21
0.3451900479
  0
LINE
  5
4AE
100
AcDbEntity
  8
03___PRT_ALL_CURVES
100
AcDbLine
 62
4
  6
CONTINUOUS
 10
-24.0474385656
 20
0.2408747024
 11
-24.0456047398
 21
0.2396342815
  0
LINE
  5
4AF
100
AcDbEntity
  8
03___PRT_ALL_CURVES
100
AcDbLine
 62
4
  6
CONTINUOUS
 10
-24.0046045822
 20
0.2156903379
 11
-24.0082721901
 21
0.2181711544
  0
LINE
  5
4B0
100
AcDbEntity
  8
03___PRT_ALL_CURVES
100
AcDbLine
 62
4
  6
CONTINUOUS
 10
-24.0531759839
 20
0.2441872024
 11
-24.0504645978
 21
0.2422584608
  0
LINE
  5
4B1
100
AcDbEntity
  8
03___PRT_ALL_CURVES
100
AcDbLine
 62
4
  6
CONTINUOUS
 10
-23.9191802884
 20
0.17373288
 11
-23.9164689023
 21
0.1718041384
  0
LINE
  5
4B2
100
AcDbEntity
  8
03___PRT_ALL_CURVES
100
AcDbLine
 62
4
  6
CONTINUOUS
 10
-23.8313291357
 20
0.1161038649
 11
-23.8286177496
 21
0.1141751233
  0
LINE
  5
4B3
100
AcDbEntity
  8
03___PRT_ALL_CURVES
100
AcDbLine
 62
4
  6
CONTINUOUS
 10
-24.076369319
 20
0.2658484673
 11
-24.0610179156
 21
0.254896228
  0
LINE
  5
4B4
100
AcDbEntity
  8
03___PRT_ALL_CURVES
100
AcDbLine
 62
4
  6
CONTINUOUS
 10
-24.0667553339
 20
0.258208728
 11
-24.0793953512
 21
0.2672322257
  0
LINE
  5
4B5
100
AcDbEntity
  8
03___PRT_ALL_CURVES
100
AcDbLine
 62
4
  6
CONTINUOUS
 10
-24.0916814134
 20
0.2768688421
 11
-24.0790413742
 21
0.2678453318
  0
LINE
  5
4B6
100
AcDbEntity
  8
03___PRT_ALL_CURVES
100
AcDbLine
 62
4
  6
CONTINUOUS
 10
-24.0821067373
 20
0.2691609673
 11
-24.0974188317
 21
0.2801813421
  0
LINE
  5
4B7
100
AcDbEntity
  8
03___PRT_ALL_CURVES
100
AcDbLine
 62
4
  6
CONTINUOUS
 10
-24.2271052891
 20
0.3470577583
 11
-24.2288997842
 21
0.3483663021
  0
LINE
  5
4B8
100
AcDbEntity
  8
03___PRT_ALL_CURVES
100
AcDbLine
 62
4
  6
CONTINUOUS
 10
-24.0024561102
 20
0.2149949002
 11
-24.0042506051
 21
0.2163034442
  0
LINE
  5
4B9
100
AcDbEntity
  8
03___PRT_ALL_CURVES
100
AcDbLine
 62
4
  6
CONTINUOUS
 10
-23.8684604256
 20
0.1445405841
 11
-23.8702549041
 21
0.1458491186
  0
LINE
  5
4BA
100
AcDbEntity
  8
03___PRT_ALL_CURVES
100
AcDbLine
 62
4
  6
CONTINUOUS
 10
-23.8266782447
 20
0.1153261131
 11
-23.8284727233
 21
0.1166346475
  0
LINE
  5
4BB
100
AcDbEntity
  8
03___PRT_ALL_CURVES
100
AcDbLine
 62
4
  6
CONTINUOUS
 10
-23.8462826308
 20
0.134370314
 11
-23.8444881522
 21
0.1330617797
  0
LINE
  5
4BC
100
AcDbEntity
  8
03___PRT_ALL_CURVES
100
AcDbLine
 62
4
  6
CONTINUOUS
 10
-24.1844950073
 20
0.3192776317
 11
-24.2068276712
 21
0.3358046228
  0
LINE
  5
4BD
100
AcDbEntity
  8
03___PRT_ALL_CURVES
100
AcDbLine
 62
4
  6
CONTINUOUS
 10
-24.2036836466
 20
0.3346252331
 11
-24.1813903135
 21
0.3180301191
  0
LINE
  5
4BE
100
AcDbEntity
  8
03___PRT_ALL_CURVES
100
AcDbLine
 62
4
  6
CONTINUOUS
 10
-23.7995496481
 20
0.1004808854
 11
-23.8022217034
 21
0.10247775
  0
LINE
  5
4BF
100
AcDbEntity
  8
03___PRT_ALL_CURVES
100
AcDbLine
 62
4
  6
CONTINUOUS
 10
-24.2230837043
 20
0.3451900479
 11
-24.2213285401
 21
0.3438133812
  0
LINE
  5
4C0
100
AcDbEntity
  8
03___PRT_ALL_CURVES
100
AcDbLine
 62
4
  6
CONTINUOUS
 10
-24.0082721901
 20
0.2181711544
 11
-24.0100273543
 21
0.2195478211
  0
LINE
  5
4C1
100
AcDbEntity
  8
03___PRT_ALL_CURVES
100
AcDbLine
 62
4
  6
CONTINUOUS
 10
-23.8742765055
 20
0.1477168383
 11
-23.8760316533
 21
0.1490934955
  0
LINE
  5
4C2
100
AcDbEntity
  8
03___PRT_ALL_CURVES
100
AcDbLine
 62
4
  6
CONTINUOUS
 10
-23.8255523866
 20
0.1128594878
 11
-23.8264299605
 21
0.1135478164
  0
LINE
  5
4C3
100
AcDbEntity
  8
03___PRT_ALL_CURVES
100
AcDbLine
 62
4
  6
CONTINUOUS
 10
-23.8342494723
 20
0.1198790246
 11
-23.8324943245
 21
0.1185023673
  0
LINE
  5
4C4
100
AcDbEntity
  8
03___PRT_ALL_CURVES
100
AcDbLine
 62
4
  6
CONTINUOUS
 10
-23.8404665536
 20
0.1311940615
 11
-23.8387114031
 21
0.1298174026
  0
LINE
  5
4C5
100
AcDbEntity
  8
LAY0001
100
AcDbLine
 62
7
  6
CONTINUOUS
 10
-26.0239814019
 20
1.7406607581
 11
-26.0252572376
 21
1.7416799974
  0
LINE
  5
4C6
100
AcDbEntity
  8
LAY0001
100
AcDbLine
 62
7
  6
CONTINUOUS
 10
-26.0419902511
 20
1.7652556352
 11
-26.0407144153
 21
1.7642363959
  0
LINE
  5
4C7
100
AcDbEntity
  8
LAY0001
100
AcDbLine
 62
7
  6
CONTINUOUS
 10
-26.3306302464
 20
2.1061106202
 11
-26.331906091
 21
2.10712987
  0
LINE
  5
4C8
100
AcDbEntity
  8
LAY0001
100
AcDbLine
 62
7
  6
CONTINUOUS
 10
-26.4271125243
 20
2.2247277306
 11
-26.4283883925
 21
2.2257470084
  0
LINE
  5
4C9
100
AcDbEntity
  8
LAY0001
100
AcDbLine
 62
7
  6
CONTINUOUS
 10
-26.5037747671
 20
2.3160902338
 11
-26.5050505882
 21
2.3171094555
  0
LINE
  5
4CA
100
AcDbEntity
  8
LAY0001
100
AcDbLine
 62
7
  6
CONTINUOUS
 10
-26.1421538857
 20
1.8129328241
 11
-26.1442976237
 21
1.8147208706
  0
LINE
  5
4CB
100
AcDbEntity
  8
LAY0001
100
AcDbLine
 62
7
  6
CONTINUOUS
 10
-26.2652815509
 20
1.9589039005
 11
-26.2631378129
 21
1.957115854
  0
LINE
  5
4CC
100
AcDbEntity
  8
LAY0001
100
AcDbLine
 62
7
  6
CONTINUOUS
 10
-26.2976664906
 20
1.9927065124
 11
-26.2998102285
 21
1.9944945589
  0
LINE
  5
4CD
100
AcDbEntity
  8
LAY0001
100
AcDbLine
 62
7
  6
CONTINUOUS
 10
-26.5929095624
 20
2.3493557601
 11
-26.5907658041
 21
2.3475676896
  0
LINE
  5
4CE
100
AcDbEntity
  8
LAY0001
100
AcDbLine
 62
7
  6
CONTINUOUS
 10
-26.2733237889
 20
1.9682965763
 11
-26.2871637475
 21
1.9799981405
  0
LINE
  5
4CF
100
AcDbEntity
  8
LAY0001
100
AcDbLine
 62
7
  6
CONTINUOUS
 10
-26.2896242523
 20
1.9833138368
 11
-26.2757842939
 21
1.9716122724
  0
LINE
  5
4D0
100
AcDbEntity
  8
03___PRT_ALL_CURVES
100
AcDbLine
 62
4
  6
CONTINUOUS
 10
-24.053554549
 20
0.2479481582
 11
-24.0458530294
 21
0.2414125814
  0
LINE
  5
4D1
100
AcDbEntity
  8
03___PRT_ALL_CURVES
100
AcDbLine
 62
4
  6
CONTINUOUS
 10
-23.9195588535
 20
0.1774938358
 11
-23.9118573339
 21
0.170958259
  0
LINE
  5
4D2
100
AcDbEntity
  8
03___PRT_ALL_CURVES
100
AcDbLine
 62
4
  6
CONTINUOUS
 10
-24.0400369496
 20
0.2382363272
 11
-24.046860887
 21
0.2440835707
  0
LINE
  5
4D3
100
AcDbEntity
  8
03___PRT_ALL_CURVES
100
AcDbLine
 62
4
  6
CONTINUOUS
 10
-23.9060412541
 20
0.1677820048
 11
-23.9128652024
 21
0.1736292546
  0
LINE
  5
4D4
100
AcDbEntity
  8
LAY0001
100
AcDbLine
 62
7
  6
CONTINUOUS
 10
-26.0270067672
 20
1.7443915591
 11
-26.0282208997
 21
1.7454625736
  0
LINE
  5
4D5
100
AcDbEntity
  8
LAY0001
100
AcDbLine
 62
7
  6
CONTINUOUS
 10
-26.0389648856
 20
1.7615248344
 11
-26.0377507533
 21
1.7604538197
  0
LINE
  5
4D6
100
AcDbEntity
  8
LAY0001
100
AcDbLine
 62
7
  6
CONTINUOUS
 10
-26.334869753
 20
2.1109124462
 11
-26.3336556117
 21
2.1098414212
  0
LINE
  5
4D7
100
AcDbEntity
  8
LAY0001
100
AcDbLine
 62
7
  6
CONTINUOUS
 10
-26.425363027
 20
2.2220162076
 11
-26.4241488623
 21
2.2209451544
  0
LINE
  5
4D8
100
AcDbEntity
  8
LAY0001
100
AcDbLine
 62
7
  6
CONTINUOUS
 10
-26.5020252227
 20
2.3133786547
 11
-26.5008111051
 21
2.3123076576
  0
LINE
  5
4D9
100
AcDbEntity
  8
03___PRT_ALL_CURVES
100
AcDbLine
 62
4
  6
CONTINUOUS
 10
-24.0860026525
 20
0.2624130441
 11
-24.0994538954
 21
0.2744481582
  0
LINE
  5
4DA
100
AcDbEntity
  8
03___PRT_ALL_CURVES
100
AcDbLine
 62
4
  6
CONTINUOUS
 10
-24.2528720575
 20
0.3598451066
 11
-24.2520338282
 21
0.3590886628
  0
LINE
  5
4DB
100
AcDbEntity
  8
03___PRT_ALL_CURVES
100
AcDbLine
 62
4
  6
CONTINUOUS
 10
-24.0820203985
 20
0.2604772108
 11
-24.0895645949
 21
0.2672852793
  0
LINE
  5
4DC
100
AcDbEntity
  8
03___PRT_ALL_CURVES
100
AcDbLine
 62
4
  6
CONTINUOUS
 10
-24.0937164771
 20
0.2711356582
 11
-24.0903634936
 21
0.2681098458
  0
LINE
  5
4DD
100
AcDbEntity
  8
03___PRT_ALL_CURVES
100
AcDbLine
 62
4
  6
CONTINUOUS
 10
-24.0540142134
 20
0.244943646
 11
-24.0531759839
 21
0.2441872024
  0
LINE
  5
4DE
100
AcDbEntity
  8
03___PRT_ALL_CURVES
100
AcDbLine
 62
4
  6
CONTINUOUS
 10
-24.0482767951
 20
0.241631146
 11
-24.0474385656
 21
0.2408747024
  0
LINE
  5
4DF
100
AcDbEntity
  8
03___PRT_ALL_CURVES
100
AcDbLine
 62
4
  6
CONTINUOUS
 10
-23.9200185288
 20
0.1744893299
 11
-23.9191802884
 21
0.17373288
  0
LINE
  5
4E0
100
AcDbEntity
  8
03___PRT_ALL_CURVES
100
AcDbLine
 62
4
  6
CONTINUOUS
 10
-23.9142811105
 20
0.1711768299
 11
-23.9134428701
 21
0.17042038
  0
LINE
  5
4E1
100
AcDbEntity
  8
03___PRT_ALL_CURVES
100
AcDbLine
 62
4
  6
CONTINUOUS
 10
-23.8321673788
 20
0.1168603164
 11
-23.8313291357
 21
0.1161038649
  0
LINE
  5
4E2
100
AcDbEntity
  8
03___PRT_ALL_CURVES
100
AcDbLine
 62
4
  6
CONTINUOUS
 10
-23.8089817216
 20
0.1040190543
 11
-23.8081434777
 21
0.1032626024
  0
LINE
  5
4E3
100
AcDbEntity
  8
03___PRT_ALL_CURVES
100
AcDbLine
 62
4
  6
CONTINUOUS
 10
-23.8053263969
 20
0.1037252624
 11
-23.8044881531
 21
0.1029688105
  0
LINE
  5
4E4
100
AcDbEntity
  8
LAY0001
100
AcDbLine
 62
7
  6
CONTINUOUS
 10
-26.1390934467
 20
1.8083270838
 11
-26.1370440978
 21
1.8064598354
  0
LINE
  5
4E5
100
AcDbEntity
  8
LAY0001
100
AcDbLine
 62
7
  6
CONTINUOUS
 10
-26.2600773739
 20
1.9525101136
 11
-26.2580280249
 21
1.9506428653
  0
LINE
  5
4E6
100
AcDbEntity
  8
LAY0001
100
AcDbLine
 62
7
  6
CONTINUOUS
 10
-26.3049200165
 20
2.0009675476
 11
-26.3028706673
 21
1.9991002995
  0
LINE
  5
4E7
100
AcDbEntity
  8
LAY0001
100
AcDbLine
 62
7
  6
CONTINUOUS
 10
-26.5877053854
 20
2.3429619733
 11
-26.5856560162
 21
2.3410947009
  0
LINE
  5
4E8
100
AcDbEntity
  8
LAY0001
100
AcDbLine
 62
7
  6
CONTINUOUS
 10
-26.4052487941
 20
2.1230267021
 11
-26.4082756331
 21
2.1258671875
  0
LINE
  5
4E9
100
AcDbEntity
  8
LAY0001
100
AcDbLine
 62
7
  6
CONTINUOUS
 10
-26.4893164762
 20
2.2675692619
 11
-26.3801479491
 21
2.1618977387
  0
LINE
  5
4EA
100
AcDbEntity
  8
LAY0001
100
AcDbLine
 62
7
  6
CONTINUOUS
 10
-26.3573989318
 20
2.1316677323
 11
-26.4528893927
 21
2.2241571542
  0
LINE
  5
4EB
100
AcDbEntity
  8
LAY0001
100
AcDbLine
 62
7
  6
CONTINUOUS
 10
-26.0252572376
 20
1.7416799974
 11
-26.0275620983
 21
1.7439255809
  0
LINE
  5
4EC
100
AcDbEntity
  8
LAY0001
100
AcDbLine
 62
7
  6
CONTINUOUS
 10
-26.0407144153
 20
1.7642363959
 11
-26.0384095545
 21
1.7619908125
  0
LINE
  5
4ED
100
AcDbEntity
  8
LAY0001
100
AcDbLine
 62
7
  6
CONTINUOUS
 10
-26.331906091
 20
2.10712987
 11
-26.3342109428
 21
2.109375443
  0
LINE
  5
4EE
100
AcDbEntity
  8
LAY0001
100
AcDbLine
 62
7
  6
CONTINUOUS
 10
-26.3478777634
 20
2.1302994196
 11
-26.3455729115
 21
2.1280538466
  0
LINE
  5
4EF
100
AcDbEntity
  8
LAY0001
100
AcDbLine
 62
7
  6
CONTINUOUS
 10
-26.4155037419
 20
2.2062564283
 11
-26.4131989136
 21
2.2040108834
  0
LINE
  5
4F0
100
AcDbEntity
  8
LAY0001
100
AcDbLine
 62
7
  6
CONTINUOUS
 10
-26.424807696
 20
2.2224821857
 11
-26.4271125243
 21
2.2247277306
  0
LINE
  5
4F1
100
AcDbEntity
  8
LAY0001
100
AcDbLine
 62
7
  6
CONTINUOUS
 10
-26.5014698917
 20
2.3138446328
 11
-26.5037747671
 21
2.3160902338
  0
LINE
  5
4F2
100
AcDbEntity
  8
LAY0001
100
AcDbLine
 62
7
  6
CONTINUOUS
 10
-26.1218027324
 20
1.781586725
 11
-26.1178927973
 21
1.7776938068
  0
LINE
  5
4F3
100
AcDbEntity
  8
LAY0001
100
AcDbLine
 62
7
  6
CONTINUOUS
 10
-26.1382439456
 20
1.8090398999
 11
-26.1421538857
 21
1.8129328241
  0
LINE
  5
4F4
100
AcDbEntity
  8
LAY0001
100
AcDbLine
 62
7
  6
CONTINUOUS
 10
-26.2631378129
 20
1.957115854
 11
-26.2592278727
 21
1.9532229297
  0
LINE
  5
4F5
100
AcDbEntity
  8
LAY0001
100
AcDbLine
 62
7
  6
CONTINUOUS
 10
-26.2998102285
 20
1.9944945589
 11
-26.3037201686
 21
1.9983874832
  0
LINE
  5
4F6
100
AcDbEntity
  8
LAY0001
100
AcDbLine
 62
7
  6
CONTINUOUS
 10
-26.3276036858
 20
2.0339432896
 11
-26.3236937659
 21
2.0300503894
  0
LINE
  5
4F7
100
AcDbEntity
  8
LAY0001
100
AcDbLine
 62
7
  6
CONTINUOUS
 10
-26.4011165164
 20
2.1175269746
 11
-26.4030714561
 21
2.1194734006
  0
LINE
  5
4F8
100
AcDbEntity
  8
LAY0001
100
AcDbLine
 62
7
  6
CONTINUOUS
 10
-26.5907658041
 20
2.3475676896
 11
-26.5868558842
 21
2.3436747894
  0
LINE
  5
4F9
100
AcDbEntity
  8
03___PRT_ALL_CURVES
100
AcDbLine
 62
4
  6
CONTINUOUS
 10
-24.2263063904
 20
0.3462331918
 11
-24.2271052891
 21
0.3470577583
  0
LINE
  5
4FA
100
AcDbEntity
  8
03___PRT_ALL_CURVES
100
AcDbLine
 62
4
  6
CONTINUOUS
 10
-24.0042506051
 20
0.2163034442
 11
-24.0050495038
 21
0.2171280107
  0
LINE
  5
4FB
100
AcDbEntity
  8
03___PRT_ALL_CURVES
100
AcDbLine
 62
4
  6
CONTINUOUS
 10
-23.8702549041
 20
0.1458491186
 11
-23.8710538192
 21
0.1466736946
  0
LINE
  5
4FC
100
AcDbEntity
  8
03___PRT_ALL_CURVES
100
AcDbLine
 62
4
  6
CONTINUOUS
 10
-23.8444881522
 20
0.1330617797
 11
-23.843689237
 21
0.1322372038
  0
LINE
  5
4FD
100
AcDbEntity
  8
03___PRT_ALL_CURVES
100
AcDbLine
 62
4
  6
CONTINUOUS
 10
-23.8023667286
 20
0.1000182253
 11
-23.8031656421
 21
0.1008428003
  0
LINE
  5
4FE
100
AcDbEntity
  8
03___PRT_ALL_CURVES
100
AcDbLine
 62
4
  6
CONTINUOUS
 10
-23.7987507348
 20
0.0996563105
 11
-23.7995496481
 21
0.1004808854
  0
LINE
  5
4FF
100
AcDbEntity
  8
LAY0001
100
AcDbLine
 62
7
  6
CONTINUOUS
 10
-26.0282208997
 20
1.7454625736
 11
-26.029887841
 21
1.7471985356
  0
LINE
  5
500
100
AcDbEntity
  8
LAY0001
100
AcDbLine
 62
7
  6
CONTINUOUS
 10
-26.0377507533
 20
1.7604538197
 11
-26.0360838119
 21
1.7587178577
  0
LINE
  5
501
100
AcDbEntity
  8
LAY0001
100
AcDbLine
 62
7
  6
CONTINUOUS
 10
-26.3365366943
 20
2.1126484083
 11
-26.334869753
 21
2.1109124462
  0
LINE
  5
502
100
AcDbEntity
  8
LAY0001
100
AcDbLine
 62
7
  6
CONTINUOUS
 10
-26.34324716
 20
2.1247808814
 11
-26.3449141014
 21
2.1265168434
  0
LINE
  5
503
100
AcDbEntity
  8
LAY0001
100
AcDbLine
 62
7
  6
CONTINUOUS
 10
-26.4161625756
 20
2.2077934596
 11
-26.4178295169
 21
2.2095294216
  0
LINE
  5
504
100
AcDbEntity
  8
LAY0001
100
AcDbLine
 62
7
  6
CONTINUOUS
 10
-26.4241488623
 20
2.2209451544
 11
-26.422481921
 21
2.2192091924
  0
LINE
  5
505
100
AcDbEntity
  8
LAY0001
100
AcDbLine
 62
7
  6
CONTINUOUS
 10
-26.5008111051
 20
2.3123076576
 11
-26.4991441637
 21
2.3105716956
  0
LINE
  5
506
100
AcDbEntity
  8
LAY0001
100
AcDbLine
 62
7
  6
CONTINUOUS
 10
-26.1230025803
 20
1.7841667894
 11
-26.1258406413
 21
1.7871656784
  0
LINE
  5
507
100
AcDbEntity
  8
LAY0001
100
AcDbLine
 62
7
  6
CONTINUOUS
 10
-26.1370440978
 20
1.8064598354
 11
-26.1342060367
 21
1.8034609465
  0
LINE
  5
508
100
AcDbEntity
  8
LAY0001
100
AcDbLine
 62
7
  6
CONTINUOUS
 10
-26.2580280249
 20
1.9506428653
 11
-26.2551899639
 21
1.9476439764
  0
LINE
  5
509
100
AcDbEntity
  8
LAY0001
100
AcDbLine
 62
7
  6
CONTINUOUS
 10
-26.3077580775
 20
2.0039664365
 11
-26.3049200165
 21
2.0009675476
  0
LINE
  5
50A
100
AcDbEntity
  8
LAY0001
100
AcDbLine
 62
7
  6
CONTINUOUS
 10
-26.3196558368
 20
2.024471412
 11
-26.3224938979
 21
2.0274703009
  0
LINE
  5
50B
100
AcDbEntity
  8
LAY0001
100
AcDbLine
 62
7
  6
CONTINUOUS
 10
-26.5856560162
 20
2.3410947009
 11
-26.5828179551
 21
2.338095812
  0
LINE
  5
50C
100
AcDbEntity
  8
LAY0001
100
AcDbLine
 62
7
  6
CONTINUOUS
 10
-26.0275620983
 20
1.7439255809
 11
-26.0297435492
 21
1.7462747115
  0
LINE
  5
50D
100
AcDbEntity
  8
LAY0001
100
AcDbLine
 62
7
  6
CONTINUOUS
 10
-26.0384095545
 20
1.7619908125
 11
-26.0362281007
 21
1.7596416783
  0
LINE
  5
50E
100
AcDbEntity
  8
LAY0001
100
AcDbLine
 62
7
  6
CONTINUOUS
 10
-26.3342109428
 20
2.109375443
 11
-26.3363923878
 21
2.1117245666
  0
LINE
  5
50F
100
AcDbEntity
  8
LAY0001
100
AcDbLine
 62
7
  6
CONTINUOUS
 10
-26.3455729115
 20
2.1280538466
 11
-26.3433914665
 21
2.125704723
  0
LINE
  5
510
100
AcDbEntity
  8
LAY0001
100
AcDbLine
 62
7
  6
CONTINUOUS
 10
-26.4176852104
 20
2.20860558
 11
-26.4155037419
 21
2.2062564283
  0
LINE
  5
511
100
AcDbEntity
  8
LAY0001
100
AcDbLine
 62
7
  6
CONTINUOUS
 10
-26.4226262275
 20
2.220133034
 11
-26.424807696
 21
2.2224821857
  0
LINE
  5
512
100
AcDbEntity
  8
LAY0001
100
AcDbLine
 62
7
  6
CONTINUOUS
 10
-26.4992884231
 20
2.3114954811
 11
-26.5014698917
 21
2.3138446328
  0
LINE
  5
513
100
AcDbEntity
  8
LAY0001
100
AcDbLine
 62
7
  6
CONTINUOUS
 10
-26.2592278727
 20
1.9532229297
 11
-26.2555067106
 21
1.9491716019
  0
LINE
  5
514
100
AcDbEntity
  8
LAY0001
100
AcDbLine
 62
7
  6
CONTINUOUS
 10
-26.3236937659
 20
2.0300503894
 11
-26.3199726038
 21
2.0259990616
  0
LINE
  5
515
100
AcDbEntity
  8
LAY0001
100
AcDbLine
 62
7
  6
CONTINUOUS
 10
-26.4015276522
 20
2.1189753983
 11
-26.4052487941
 21
2.1230267021
  0
LINE
  5
516
100
AcDbEntity
  8
LAY0001
100
AcDbLine
 62
7
  6
CONTINUOUS
 10
-26.5868558842
 20
2.3436747894
 11
-26.5831347019
 21
2.3396234375
  0
LINE
  5
517
100
AcDbEntity
  8
03___PRT_ALL_CURVES
100
AcDbLine
 62
4
  6
CONTINUOUS
 10
-24.1357269518
 20
0.2911213817
 11
-24.1419609275
 21
0.2979904687
  0
LINE
  5
518
100
AcDbEntity
  8
LAY0001
100
AcDbLine
 62
7
  6
CONTINUOUS
 10
-26.4178295169
 20
2.2095294216
 11
-26.4194347548
 21
2.211317159
  0
LINE
  5
519
100
AcDbEntity
  8
03___PRT_ALL_CURVES
100
AcDbLine
 62
4
  6
CONTINUOUS
 10
-24.137703358
 20
0.2965314958
 11
-24.131548022
 21
0.2895261502
  0
LINE
  5
51A
100
AcDbEntity
  8
03___PRT_ALL_CURVES
100
AcDbLine
 62
4
  6
CONTINUOUS
 10
-24.257849908
 20
0.3622649171
 11
-24.2586094758
 21
0.3631576066
  0
LINE
  5
51B
100
AcDbEntity
  8
03___PRT_ALL_CURVES
100
AcDbLine
 62
4
  6
CONTINUOUS
 10
-24.2213285401
 20
0.3438133812
 11
-24.2205689721
 21
0.3429206918
  0
LINE
  5
51C
100
AcDbEntity
  8
03___PRT_ALL_CURVES
100
AcDbLine
 62
4
  6
CONTINUOUS
 10
-24.0100273543
 20
0.2195478211
 11
-24.0107869221
 21
0.2204405107
  0
LINE
  5
51D
100
AcDbEntity
  8
03___PRT_ALL_CURVES
100
AcDbLine
 62
4
  6
CONTINUOUS
 10
-23.8760316533
 20
0.1490934955
 11
-23.8767912375
 21
0.1499861946
  0
LINE
  5
51E
100
AcDbEntity
  8
03___PRT_ALL_CURVES
100
AcDbLine
 62
4
  6
CONTINUOUS
 10
-23.8387114031
 20
0.1298174026
 11
-23.8379518215
 21
0.1289247053
  0
LINE
  5
51F
100
AcDbEntity
  8
03___PRT_ALL_CURVES
100
AcDbLine
 62
4
  6
CONTINUOUS
 10
-24.1147536848
 20
0.2832814958
 11
-24.1089523257
 21
0.2756630441
  0
LINE
  5
520
100
AcDbEntity
  8
03___PRT_ALL_CURVES
100
AcDbLine
 62
4
  6
CONTINUOUS
 10
-24.114689744
 20
0.2789755441
 11
-24.1190112543
 21
0.2847404687
  0
LINE
  5
521
100
AcDbEntity
  8
0
100
AcDbLine
 62
7
  6
CONTINUOUS
 10
-23.3429290393
 20
-0.7731526159
 11
-23.3304434893
 21
-2.2038549376
  0
LINE
  5
522
100
AcDbEntity
  8
0
100
AcDbLine
 62
7
  6
CONTINUOUS
 10
-22.851215348
 20
-0.363703797
 11
-22.8531643421
 21
-0.140371196
  0
LINE
  5
523
100
AcDbEntity
  8
0
100
AcDbLine
 62
7
  6
CONTINUOUS
 10
-22.6531944762
 20
4.6636011205
 11
-22.6531944762
 21
4.7990525855
  0
LINE
  5
524
100
AcDbEntity
  8
0
100
AcDbLine
 62
7
  6
CONTINUOUS
 10
-22.6531944762
 20
7.4351816089
 11
-22.6531944762
 21
7.5787080544
  0
LINE
  5
525
100
AcDbEntity
  8
0
100
AcDbLine
 62
7
  6
CONTINUOUS
 10
-23.3408591794
 20
-0.4885886429
 11
-23.3432039013
 21
-0.7572671586
  0
LINE
  5
526
100
AcDbEntity
  8
0
100
AcDbLine
 62
7
  6
CONTINUOUS
 10
-22.9081345721
 20
-0.1345651865
 11
-22.9101342344
 21
-0.363703797
  0
LINE
  5
527
100
AcDbEntity
  8
0
100
AcDbLine
 62
7
  6
CONTINUOUS
 10
-26.6261320661
 20
2.5682987866
 11
-26.7284595828
 21
2.482435805
  0
LINE
  5
528
100
AcDbEntity
  8
1_ALL_PLANES
100
AcDbLine
 62
7
  6
CONTINUOUS
 10
-26.7231641927
 20
2.4839720347
 11
-26.6649183433
 21
2.5328461054
  0
LINE
  5
529
100
AcDbEntity
  8
LAY0001
100
AcDbLine
 62
7
  6
CONTINUOUS
 10
-26.5956804235
 20
2.3488241392
 11
-26.5942645882
 21
2.350012166
  0
LINE
  5
52A
100
AcDbEntity
  8
LAY0001
100
AcDbLine
 62
7
  6
CONTINUOUS
 10
-26.5682418077
 20
2.3616288093
 11
-26.5669620574
 21
2.3627026473
  0
LINE
  5
52B
100
AcDbEntity
  8
LAY0001
100
AcDbLine
 62
7
  6
CONTINUOUS
 10
-26.5644025566
 20
2.3648503235
 11
-26.5562121539
 21
2.3717228873
  0
LINE
  5
52C
100
AcDbEntity
  8
LAY0001
100
AcDbLine
 62
7
  6
CONTINUOUS
 10
-26.5903818575
 20
2.3425095541
 11
-26.5889660222
 21
2.343697581
  0
LINE
  5
52D
100
AcDbEntity
  8
LAY0001
100
AcDbLine
 62
7
  6
CONTINUOUS
 10
-26.5540924733
 20
2.3710441149
 11
-26.5537222526
 21
2.3713547669
  0
LINE
  5
52E
100
AcDbEntity
  8
LAY0001
100
AcDbLine
 62
7
  6
CONTINUOUS
 10
-26.5515626318
 20
2.3731669039
 11
-26.5511924111
 21
2.373477556
  0
LINE
  5
52F
100
AcDbEntity
  8
LAY0001
100
AcDbLine
 62
7
  6
CONTINUOUS
 10
-26.550862046
 20
2.3695751441
 11
-26.5504918254
 21
2.3698857961
  0
LINE
  5
530
100
AcDbEntity
  8
LAY0001
100
AcDbLine
 62
7
  6
CONTINUOUS
 10
-26.5371145425
 20
2.3539433711
 11
-26.5361272873
 21
2.3547717766
  0
LINE
  5
531
100
AcDbEntity
  8
LAY0001
100
AcDbLine
 62
7
  6
CONTINUOUS
 10
-26.538286908
 20
2.3529596396
 11
-26.5374847631
 21
2.3536327191
  0
LINE
  5
532
100
AcDbEntity
  8
LAY0001
100
AcDbLine
 62
7
  6
CONTINUOUS
 10
-26.5326699977
 20
2.3514034032
 11
-26.5355700598
 21
2.3489699621
  0
LINE
  5
533
100
AcDbEntity
  8
LAY0001
100
AcDbLine
 62
7
  6
CONTINUOUS
 10
-26.5314539365
 20
2.3440645574
 11
-26.5311454193
 21
2.3443234341
  0
LINE
  5
534
100
AcDbEntity
  8
LAY0001
100
AcDbLine
 62
7
  6
CONTINUOUS
 10
-26.5632955042
 20
2.3150215512
 11
-26.5665991199
 21
2.3122494885
  0
LINE
  5
535
100
AcDbEntity
  8
LAY0001
100
AcDbLine
 62
7
  6
CONTINUOUS
 10
-26.5574306041
 20
2.3091821769
 11
-26.5618668879
 21
2.3054596927
  0
LINE
  5
536
100
AcDbEntity
  8
LAY0001
100
AcDbLine
 62
7
  6
CONTINUOUS
 10
-26.5258562591
 20
2.3355461405
 11
-26.5340466617
 21
2.3286735767
  0
LINE
  5
537
100
AcDbEntity
  8
LAY0001
100
AcDbLine
 62
7
  6
CONTINUOUS
 10
-26.5366061626
 20
2.3265259005
 11
-26.5378859129
 21
2.3254520625
  0
LINE
  5
538
100
AcDbEntity
  8
LAY0001
100
AcDbLine
 62
7
  6
CONTINUOUS
 10
-26.5229132669
 20
2.3345127369
 11
-26.520321722
 21
2.3366873013
  0
LINE
  5
539
100
AcDbEntity
  8
LAY0001
100
AcDbLine
 62
7
  6
CONTINUOUS
 10
-26.5172346531
 20
2.3330082758
 11
-26.519826198
 21
2.3308337114
  0
LINE
  5
53A
100
AcDbEntity
  8
LAY0001
100
AcDbLine
 62
7
  6
CONTINUOUS
 10
-26.5548021198
 20
2.2970402299
 11
-26.5542357858
 21
2.2975154406
  0
LINE
  5
53B
100
AcDbEntity
  8
LAY0001
100
AcDbLine
 62
7
  6
CONTINUOUS
 10
-26.5509321701
 20
2.3002875033
 11
-26.550365836
 21
2.3007627141
  0
LINE
  5
53C
100
AcDbEntity
  8
LAY0001
100
AcDbLine
 62
7
  6
CONTINUOUS
 10
-26.5494763646
 20
2.2943353567
 11
-26.5489100305
 21
2.2948105673
  0
LINE
  5
53D
100
AcDbEntity
  8
LAY0001
100
AcDbLine
 62
7
  6
CONTINUOUS
 10
-26.5115939985
 20
2.3210229581
 11
-26.5119025157
 21
2.3207640815
  0
LINE
  5
53E
100
AcDbEntity
  8
LAY0001
100
AcDbLine
 62
7
  6
CONTINUOUS
 10
-26.5058736326
 20
2.3174637685
 11
-26.5077864395
 21
2.3158587329
  0
LINE
  5
53F
100
AcDbEntity
  8
LAY0001
100
AcDbLine
 62
7
  6
CONTINUOUS
 10
-26.5046993706
 20
2.3121797074
 11
-26.5027865637
 21
2.313784743
  0
LINE
  5
540
100
AcDbEntity
  8
LAY0001
100
AcDbLine
 62
7
  6
CONTINUOUS
 10
-26.490438288
 20
2.2990686411
 11
-26.492351095
 21
2.2974636055
  0
LINE
  5
541
100
AcDbEntity
  8
LAY0001
100
AcDbLine
 62
7
  6
CONTINUOUS
 10
-26.5259495644
 20
2.2674473493
 11
-26.5244393401
 21
2.268714578
  0
LINE
  5
542
100
AcDbEntity
  8
LAY0001
100
AcDbLine
 62
7
  6
CONTINUOUS
 10
-26.5277429557
 20
2.2659425152
 11
-26.5265158984
 21
2.2669721386
  0
LINE
  5
543
100
AcDbEntity
  8
LAY0001
100
AcDbLine
 62
7
  6
CONTINUOUS
 10
-26.4892640261
 20
2.2937845801
 11
-26.4873512191
 21
2.2953896157
  0
LINE
  5
544
100
AcDbEntity
  8
LAY0001
100
AcDbLine
 62
7
  6
CONTINUOUS
 10
-26.5185744399
 20
2.2628752036
 11
-26.5230107238
 21
2.2591527195
  0
LINE
  5
545
100
AcDbEntity
  8
LAY0001
100
AcDbLine
 62
7
  6
CONTINUOUS
 10
-26.4851479028
 20
2.2888791753
 11
-26.4848393856
 21
2.289138052
  0
LINE
  5
546
100
AcDbEntity
  8
LAY0001
100
AcDbLine
 62
7
  6
CONTINUOUS
 10
-26.5159459556
 20
2.2507332567
 11
-26.5115096718
 21
2.2544557408
  0
LINE
  5
547
100
AcDbEntity
  8
LAY0001
100
AcDbLine
 62
7
  6
CONTINUOUS
 10
-26.4766072332
 20
2.2793273549
 11
-26.4740156883
 21
2.2815019192
  0
LINE
  5
548
100
AcDbEntity
  8
LAY0001
100
AcDbLine
 62
7
  6
CONTINUOUS
 10
-26.4709286194
 20
2.2778228938
 11
-26.4735201643
 21
2.2756483294
  0
LINE
  5
549
100
AcDbEntity
  8
LAY0001
100
AcDbLine
 62
7
  6
CONTINUOUS
 10
-26.5062111058
 20
2.2481411557
 11
-26.5106473896
 21
2.2444186716
  0
LINE
  5
54A
100
AcDbEntity
  8
LAY0001
100
AcDbLine
 62
7
  6
CONTINUOUS
 10
-26.5035826619
 20
2.235999257
 11
-26.5030163279
 21
2.2364744676
  0
LINE
  5
54B
100
AcDbEntity
  8
LAY0001
100
AcDbLine
 62
7
  6
CONTINUOUS
 10
-26.4652879648
 20
2.2658375761
 11
-26.465596482
 21
2.2655786994
  0
LINE
  5
54C
100
AcDbEntity
  8
LAY0001
100
AcDbLine
 62
7
  6
CONTINUOUS
 10
-26.4982568662
 20
2.2332943355
 11
-26.4976905322
 21
2.2337695462
  0
LINE
  5
54D
100
AcDbEntity
  8
LAY0001
100
AcDbLine
 62
7
  6
CONTINUOUS
 10
-26.4614804058
 20
2.2606733508
 11
-26.4585803437
 21
2.2631067919
  0
LINE
  5
54E
100
AcDbEntity
  8
LAY0001
100
AcDbLine
 62
7
  6
CONTINUOUS
 10
-26.4554932748
 20
2.2594277664
 11
-26.4583933369
 21
2.2569943254
  0
LINE
  5
54F
100
AcDbEntity
  8
LAY0001
100
AcDbLine
 62
7
  6
CONTINUOUS
 10
-26.4542772136
 20
2.2520889207
 11
-26.4539686964
 21
2.2523477973
  0
LINE
  5
550
100
AcDbEntity
  8
LAY0001
100
AcDbLine
 62
7
  6
CONTINUOUS
 10
-26.445736544
 20
2.2425371002
 11
-26.4431449991
 21
2.2447116645
  0
LINE
  5
551
100
AcDbEntity
  8
LAY0001
100
AcDbLine
 62
7
  6
CONTINUOUS
 10
-26.4400579302
 20
2.2410326391
 11
-26.4426494751
 21
2.2388580747
  0
LINE
  5
552
100
AcDbEntity
  8
LAY0001
100
AcDbLine
 62
7
  6
CONTINUOUS
 10
-26.4747301064
 20
2.2064063763
 11
-26.472653548
 21
2.2081488157
  0
LINE
  5
553
100
AcDbEntity
  8
LAY0001
100
AcDbLine
 62
7
  6
CONTINUOUS
 10
-26.4765234978
 20
2.2049015423
 11
-26.4752964405
 21
2.2059311656
  0
LINE
  5
554
100
AcDbEntity
  8
LAY0001
100
AcDbLine
 62
7
  6
CONTINUOUS
 10
-26.467354982
 20
2.2018342306
 11
-26.4717912659
 21
2.1981117465
  0
LINE
  5
555
100
AcDbEntity
  8
LAY0001
100
AcDbLine
 62
7
  6
CONTINUOUS
 10
-26.4344172757
 20
2.2290473214
 11
-26.4347257929
 21
2.2287884447
  0
LINE
  5
556
100
AcDbEntity
  8
LAY0001
100
AcDbLine
 62
7
  6
CONTINUOUS
 10
-26.4283883925
 20
2.2257470084
 11
-26.4286969097
 21
2.2254881318
  0
LINE
  5
557
100
AcDbEntity
  8
LAY0001
100
AcDbLine
 62
7
  6
CONTINUOUS
 10
-26.4647264977
 20
2.1896922837
 11
-26.4602902139
 21
2.1934147678
  0
LINE
  5
558
100
AcDbEntity
  8
LAY0001
100
AcDbLine
 62
7
  6
CONTINUOUS
 10
-26.4255481374
 20
2.2218608816
 11
-26.425363027
 21
2.2220162076
  0
LINE
  5
559
100
AcDbEntity
  8
LAY0001
100
AcDbLine
 62
7
  6
CONTINUOUS
 10
-26.4549916479
 20
2.1871001827
 11
-26.4594279317
 21
2.1833776986
  0
LINE
  5
55A
100
AcDbEntity
  8
LAY0001
100
AcDbLine
 62
7
  6
CONTINUOUS
 10
-26.415339531
 20
2.2074391468
 11
-26.4154629379
 21
2.2073355961
  0
LINE
  5
55B
100
AcDbEntity
  8
LAY0001
100
AcDbLine
 62
7
  6
CONTINUOUS
 10
-26.4523631636
 20
2.1749582358
 11
-26.4518912185
 21
2.1753542447
  0
LINE
  5
55C
100
AcDbEntity
  8
LAY0001
100
AcDbLine
 62
7
  6
CONTINUOUS
 10
-26.4124375726
 20
2.2036047951
 11
-26.4121907587
 21
2.2038118966
  0
LINE
  5
55D
100
AcDbEntity
  8
LAY0001
100
AcDbLine
 62
7
  6
CONTINUOUS
 10
-26.4074566998
 20
2.1962904051
 11
-26.4045566377
 21
2.1987238462
  0
LINE
  5
55E
100
AcDbEntity
  8
LAY0001
100
AcDbLine
 62
7
  6
CONTINUOUS
 10
-26.4019014929
 20
2.1946823933
 11
-26.4043696309
 21
2.1926113797
  0
LINE
  5
55F
100
AcDbEntity
  8
LAY0001
100
AcDbLine
 62
7
  6
CONTINUOUS
 10
-26.4377617227
 20
2.1585153672
 11
-26.4337973839
 21
2.1618418425
  0
LINE
  5
560
100
AcDbEntity
  8
LAY0001
100
AcDbLine
 62
7
  6
CONTINUOUS
 10
-26.4284988179
 20
2.1555272574
 11
-26.4324631566
 21
2.1522007822
  0
LINE
  5
561
100
AcDbEntity
  8
LAY0001
100
AcDbLine
 62
7
  6
CONTINUOUS
 10
-26.389593073
 20
2.1757532274
 11
-26.3870632315
 21
2.1778760165
  0
LINE
  5
562
100
AcDbEntity
  8
LAY0001
100
AcDbLine
 62
7
  6
CONTINUOUS
 10
-26.3839761626
 20
2.174196991
 11
-26.3868762247
 21
2.17176355
  0
LINE
  5
563
100
AcDbEntity
  8
LAY0001
100
AcDbLine
 62
7
  6
CONTINUOUS
 10
-26.382760125
 20
2.1668581733
 11
-26.3798600628
 21
2.1692916144
  0
LINE
  5
564
100
AcDbEntity
  8
LAY0001
100
AcDbLine
 62
7
  6
CONTINUOUS
 10
-26.4183336608
 20
2.1353619047
 11
-26.4188056058
 21
2.1349658958
  0
LINE
  5
565
100
AcDbEntity
  8
LAY0001
100
AcDbLine
 62
7
  6
CONTINUOUS
 10
-26.3767729939
 20
2.1656125889
 11
-26.379673056
 21
2.1631791478
  0
LINE
  5
566
100
AcDbEntity
  8
LAY0001
100
AcDbLine
 62
7
  6
CONTINUOUS
 10
-26.4094419214
 20
2.1266820451
 11
-26.4098194777
 21
2.1263652378
  0
LINE
  5
567
100
AcDbEntity
  8
LAY0001
100
AcDbLine
 62
7
  6
CONTINUOUS
 10
-26.4042377444
 20
2.1202882583
 11
-26.4045209117
 21
2.1200506527
  0
LINE
  5
568
100
AcDbEntity
  8
LAY0001
100
AcDbLine
 62
7
  6
CONTINUOUS
 10
-26.3495646561
 20
2.1299288777
 11
-26.3486391044
 21
2.1307055078
  0
LINE
  5
569
100
AcDbEntity
  8
LAY0001
100
AcDbLine
 62
7
  6
CONTINUOUS
 10
-26.3456137389
 20
2.126974707
 11
-26.3461073665
 21
2.1265605042
  0
LINE
  5
56A
100
AcDbEntity
  8
LAY0001
100
AcDbLine
 62
7
  6
CONTINUOUS
 10
-26.3830098605
 20
2.0932646388
 11
-26.3815940251
 21
2.0944526657
  0
LINE
  5
56B
100
AcDbEntity
  8
LAY0001
100
AcDbLine
 62
7
  6
CONTINUOUS
 10
-26.3790455217
 20
2.096591114
 11
-26.3810276911
 21
2.0949278764
  0
LINE
  5
56C
100
AcDbEntity
  8
LAY0001
100
AcDbLine
 62
7
  6
CONTINUOUS
 10
-26.3414767632
 20
2.121041966
 11
-26.3418469838
 21
2.120731314
  0
LINE
  5
56D
100
AcDbEntity
  8
LAY0001
100
AcDbLine
 62
7
  6
CONTINUOUS
 10
-26.3781832395
 20
2.0865540448
 11
-26.3737469557
 21
2.0902765289
  0
LINE
  5
56E
100
AcDbEntity
  8
LAY0001
100
AcDbLine
 62
7
  6
CONTINUOUS
 10
-26.3711184916
 20
2.0781346061
 11
-26.3705521575
 21
2.0786098167
  0
LINE
  5
56F
100
AcDbEntity
  8
LAY0001
100
AcDbLine
 62
7
  6
CONTINUOUS
 10
-26.3672485418
 20
2.0813818794
 11
-26.3666822077
 21
2.0818570902
  0
LINE
  5
570
100
AcDbEntity
  8
LAY0001
100
AcDbLine
 62
7
  6
CONTINUOUS
 10
-26.3328942943
 20
2.1094353609
 11
-26.3319687426
 21
2.110211991
  0
LINE
  5
571
100
AcDbEntity
  8
LAY0001
100
AcDbLine
 62
7
  6
CONTINUOUS
 10
-26.3288816737
 20
2.1065329656
 11
-26.3298072254
 21
2.1057563355
  0
LINE
  5
572
100
AcDbEntity
  8
LAY0001
100
AcDbLine
 62
7
  6
CONTINUOUS
 10
-26.3657927363
 20
2.0754297328
 11
-26.3652264023
 21
2.0759049435
  0
LINE
  5
573
100
AcDbEntity
  8
LAY0001
100
AcDbLine
 62
7
  6
CONTINUOUS
 10
-26.3266783809
 20
2.1000225533
 11
-26.3237783188
 21
2.1024559944
  0
LINE
  5
574
100
AcDbEntity
  8
LAY0001
100
AcDbLine
 62
7
  6
CONTINUOUS
 10
-26.321123174
 20
2.0984145415
 11
-26.323591312
 21
2.0963435278
  0
LINE
  5
575
100
AcDbEntity
  8
LAY0001
100
AcDbLine
 62
7
  6
CONTINUOUS
 10
-26.3088147776
 20
2.0794854037
 11
-26.3062849361
 21
2.0816081927
  0
LINE
  5
576
100
AcDbEntity
  8
LAY0001
100
AcDbLine
 62
7
  6
CONTINUOUS
 10
-26.3422659361
 20
2.0485417254
 11
-26.3407557118
 21
2.0498089541
  0
LINE
  5
577
100
AcDbEntity
  8
LAY0001
100
AcDbLine
 62
7
  6
CONTINUOUS
 10
-26.3440593275
 20
2.0470368914
 11
-26.3428322701
 21
2.0480665147
  0
LINE
  5
578
100
AcDbEntity
  8
LAY0001
100
AcDbLine
 62
7
  6
CONTINUOUS
 10
-26.3031978672
 20
2.0779291673
 11
-26.3060979293
 21
2.0754957262
  0
LINE
  5
579
100
AcDbEntity
  8
LAY0001
100
AcDbLine
 62
7
  6
CONTINUOUS
 10
-26.3348908117
 20
2.0439695797
 11
-26.3393270955
 21
2.0402470956
  0
LINE
  5
57A
100
AcDbEntity
  8
LAY0001
100
AcDbLine
 62
7
  6
CONTINUOUS
 10
-26.3019818296
 20
2.0705903496
 11
-26.2990817674
 21
2.0730237906
  0
LINE
  5
57B
100
AcDbEntity
  8
LAY0001
100
AcDbLine
 62
7
  6
CONTINUOUS
 10
-26.2959946985
 20
2.0693447651
 11
-26.2988947606
 21
2.0669113241
  0
LINE
  5
57C
100
AcDbEntity
  8
LAY0001
100
AcDbLine
 62
7
  6
CONTINUOUS
 10
-26.2947786609
 20
2.0620059474
 11
-26.2944701437
 21
2.0622648241
  0
LINE
  5
57D
100
AcDbEntity
  8
LAY0001
100
AcDbLine
 62
7
  6
CONTINUOUS
 10
-26.2862379678
 20
2.0524540989
 11
-26.2836464229
 21
2.0546286633
  0
LINE
  5
57E
100
AcDbEntity
  8
LAY0001
100
AcDbLine
 62
7
  6
CONTINUOUS
 10
-26.280559354
 20
2.0509496378
 11
-26.2831508989
 21
2.0487750734
  0
LINE
  5
57F
100
AcDbEntity
  8
LAY0001
100
AcDbLine
 62
7
  6
CONTINUOUS
 10
-26.2749187229
 20
2.0389643482
 11
-26.2752272402
 21
2.0387054715
  0
LINE
  5
580
100
AcDbEntity
  8
LAY0001
100
AcDbLine
 62
7
  6
CONTINUOUS
 10
-26.3016100102
 20
1.9983646677
 11
-26.300194175
 21
1.9995526945
  0
LINE
  5
581
100
AcDbEntity
  8
LAY0001
100
AcDbLine
 62
7
  6
CONTINUOUS
 10
-26.294895609
 20
1.9932381094
 11
-26.2963114442
 21
1.9920500826
  0
LINE
  5
582
100
AcDbEntity
  8
LAY0001
100
AcDbLine
 62
7
  6
CONTINUOUS
 10
-26.2438847477
 20
2.0064906801
 11
-26.243514527
 21
2.0068013322
  0
LINE
  5
583
100
AcDbEntity
  8
LAY0001
100
AcDbLine
 62
7
  6
CONTINUOUS
 10
-26.2680524322
 20
1.9583723036
 11
-26.266636597
 21
1.9595603304
  0
LINE
  5
584
100
AcDbEntity
  8
LAY0001
100
AcDbLine
 62
7
  6
CONTINUOUS
 10
-26.2309792445
 20
1.9859727638
 11
-26.2284494031
 21
1.9880955528
  0
LINE
  5
585
100
AcDbEntity
  8
LAY0001
100
AcDbLine
 62
7
  6
CONTINUOUS
 10
-26.2249921135
 20
1.9847271794
 11
-26.2278921756
 21
1.9822937383
  0
LINE
  5
586
100
AcDbEntity
  8
LAY0001
100
AcDbLine
 62
7
  6
CONTINUOUS
 10
-26.2627538662
 20
1.9520577185
 11
-26.261338031
 21
1.9532457454
  0
LINE
  5
587
100
AcDbEntity
  8
LAY0001
100
AcDbLine
 62
7
  6
CONTINUOUS
 10
-26.2237760759
 20
1.9773883617
 11
-26.2208760138
 21
1.9798218027
  0
LINE
  5
588
100
AcDbEntity
  8
LAY0001
100
AcDbLine
 62
7
  6
CONTINUOUS
 10
-26.2177889449
 20
1.9761427772
 11
-26.220689007
 21
1.9737093362
  0
LINE
  5
589
100
AcDbEntity
  8
LAY0001
100
AcDbLine
 62
7
  6
CONTINUOUS
 10
-26.2165729308
 20
1.9688039876
 11
-26.2162644136
 21
1.9690628643
  0
LINE
  5
58A
100
AcDbEntity
  8
LAY0001
100
AcDbLine
 62
7
  6
CONTINUOUS
 10
-26.2080322141
 20
1.959252111
 11
-26.2054406692
 21
1.9614266754
  0
LINE
  5
58B
100
AcDbEntity
  8
LAY0001
100
AcDbLine
 62
7
  6
CONTINUOUS
 10
-26.2023536003
 20
1.9577476499
 11
-26.2049451452
 21
1.9555730855
  0
LINE
  5
58C
100
AcDbEntity
  8
LAY0001
100
AcDbLine
 62
7
  6
CONTINUOUS
 10
-26.2356674928
 20
1.9245696915
 11
-26.2389711085
 21
1.9217976288
  0
LINE
  5
58D
100
AcDbEntity
  8
LAY0001
100
AcDbLine
 62
7
  6
CONTINUOUS
 10
-26.2298025927
 20
1.9187303172
 11
-26.2342388765
 21
1.9150078331
  0
LINE
  5
58E
100
AcDbEntity
  8
LAY0001
100
AcDbLine
 62
7
  6
CONTINUOUS
 10
-26.1967129693
 20
1.9457623603
 11
-26.1970214865
 21
1.9455034836
  0
LINE
  5
58F
100
AcDbEntity
  8
LAY0001
100
AcDbLine
 62
7
  6
CONTINUOUS
 10
-26.1929053985
 20
1.940598121
 11
-26.1900053364
 21
1.9430315621
  0
LINE
  5
590
100
AcDbEntity
  8
LAY0001
100
AcDbLine
 62
7
  6
CONTINUOUS
 10
-26.2271741286
 20
1.9065883943
 11
-26.2266077945
 21
1.907063605
  0
LINE
  5
591
100
AcDbEntity
  8
LAY0001
100
AcDbLine
 62
7
  6
CONTINUOUS
 10
-26.2233041788
 20
1.9098356677
 11
-26.2227378447
 21
1.9103108784
  0
LINE
  5
592
100
AcDbEntity
  8
LAY0001
100
AcDbLine
 62
7
  6
CONTINUOUS
 10
-26.1873501916
 20
1.9389901092
 11
-26.1898183296
 21
1.9369190955
  0
LINE
  5
593
100
AcDbEntity
  8
LAY0001
100
AcDbLine
 62
7
  6
CONTINUOUS
 10
-26.2218483531
 20
1.903883497
 11
-26.2212820191
 21
1.9043587076
  0
LINE
  5
594
100
AcDbEntity
  8
LAY0001
100
AcDbLine
 62
7
  6
CONTINUOUS
 10
-26.1978998685
 20
1.9202724726
 11
-26.1858702147
 21
1.9303665507
  0
LINE
  5
595
100
AcDbEntity
  8
LAY0001
100
AcDbLine
 62
7
  6
CONTINUOUS
 10
-26.1750417834
 20
1.9200609573
 11
-26.172511942
 21
1.9221837464
  0
LINE
  5
596
100
AcDbEntity
  8
LAY0001
100
AcDbLine
 62
7
  6
CONTINUOUS
 10
-26.169424873
 20
1.9185047209
 11
-26.1723249352
 21
1.9160712799
  0
LINE
  5
597
100
AcDbEntity
  8
LAY0001
100
AcDbLine
 62
7
  6
CONTINUOUS
 10
-26.1682088472
 20
1.9111659173
 11
-26.1678386266
 21
1.9114765693
  0
LINE
  5
598
100
AcDbEntity
  8
LAY0001
100
AcDbLine
 62
7
  6
CONTINUOUS
 10
-26.1656790058
 20
1.9132887063
 11
-26.1653087851
 21
1.9135993583
  0
LINE
  5
599
100
AcDbEntity
  8
LAY0001
100
AcDbLine
 62
7
  6
CONTINUOUS
 10
-26.1649784318
 20
1.9096969604
 11
-26.1646082111
 21
1.9100076125
  0
LINE
  5
59A
100
AcDbEntity
  8
LAY0001
100
AcDbLine
 62
7
  6
CONTINUOUS
 10
-26.198321563
 20
1.8769955016
 11
-26.1968113387
 21
1.8782627303
  0
LINE
  5
59B
100
AcDbEntity
  8
LAY0001
100
AcDbLine
 62
7
  6
CONTINUOUS
 10
-26.2001149544
 20
1.8754906676
 11
-26.198887897
 21
1.876520291
  0
LINE
  5
59C
100
AcDbEntity
  8
LAY0001
100
AcDbLine
 62
7
  6
CONTINUOUS
 10
-26.1909464386
 20
1.872423356
 11
-26.1953827224
 21
1.8687008718
  0
LINE
  5
59D
100
AcDbEntity
  8
LAY0001
100
AcDbLine
 62
7
  6
CONTINUOUS
 10
-26.1512309164
 20
1.8940651734
 11
-26.1502436612
 21
1.8948935789
  0
LINE
  5
59E
100
AcDbEntity
  8
LAY0001
100
AcDbLine
 62
7
  6
CONTINUOUS
 10
-26.152403282
 20
1.8930814419
 11
-26.1516011371
 21
1.8937545214
  0
LINE
  5
59F
100
AcDbEntity
  8
LAY0001
100
AcDbLine
 62
7
  6
CONTINUOUS
 10
-26.1883179745
 20
1.8602814331
 11
-26.1878460294
 21
1.860677442
  0
LINE
  5
5A0
100
AcDbEntity
  8
LAY0001
100
AcDbLine
 62
7
  6
CONTINUOUS
 10
-26.1467863716
 20
1.8915252055
 11
-26.1496864337
 21
1.8890917644
  0
LINE
  5
5A1
100
AcDbEntity
  8
LAY0001
100
AcDbLine
 62
7
  6
CONTINUOUS
 10
-26.1494431432
 20
1.8869544574
 11
-26.1550740449
 21
1.8822295699
  0
LINE
  5
5A2
100
AcDbEntity
  8
LAY0001
100
AcDbLine
 62
7
  6
CONTINUOUS
 10
-26.1566097454
 20
1.8809409642
 11
-26.161472797
 21
1.8768603794
  0
LINE
  5
5A3
100
AcDbEntity
  8
LAY0001
100
AcDbLine
 62
7
  6
CONTINUOUS
 10
-26.1737165134
 20
1.8438385405
 11
-26.1697521746
 21
1.8471650157
  0
LINE
  5
5A4
100
AcDbEntity
  8
0
100
AcDbLine
 62
7
  6
CONTINUOUS
 10
-27.3644583559
 20
3.8991395357
 11
-27.4314875413
 21
3.8678833133
  0
LINE
  5
5A5
100
AcDbEntity
  8
0
100
AcDbLine
 62
7
  6
CONTINUOUS
 10
-27.3467935475
 20
3.8422166578
 11
-27.4063557051
 21
3.8144423676
  0
LINE
  5
5A6
100
AcDbEntity
  8
0
100
AcDbLine
 62
7
  6
CONTINUOUS
 10
-20.3689092279
 20
-2.3758114051
 11
-19.6463114035
 21
-2.3205911089
  0
LINE
  5
5A7
100
AcDbEntity
  8
0
100
AcDbLine
 62
7
  6
CONTINUOUS
 10
-20.5470133739
 20
-2.3911941392
 11
-22.2970133739
 21
-2.3911941392
  0
LINE
  5
5A8
100
AcDbEntity
  8
0
100
AcDbLine
 62
7
  6
CONTINUOUS
 10
-20.5470133739
 20
-2.3872571313
 11
-22.2970133739
 21
-2.3872571313
  0
LINE
  5
5A9
100
AcDbEntity
  8
03___PRT_ALL_CURVES
100
AcDbLine
 62
4
  6
CONTINUOUS
 10
-23.8082221393
 20
0.1031263566
 11
-23.8092963679
 21
0.103474071
  0
LINE
  5
5AA
100
AcDbEntity
  8
03___PRT_ALL_CURVES
100
AcDbLine
 62
4
  6
CONTINUOUS
 10
-23.913088893
 20
0.1710334863
 11
-23.914163118
 21
0.1713811988
  0
LINE
  5
5AB
100
AcDbEntity
  8
03___PRT_ALL_CURVES
100
AcDbLine
 62
4
  6
CONTINUOUS
 10
-23.8319830244
 20
0.1193879651
 11
-23.8340528185
 21
0.1202196391
  0
LINE
  5
5AC
100
AcDbEntity
  8
03___PRT_ALL_CURVES
100
AcDbLine
 62
4
  6
CONTINUOUS
 10
-23.8396946726
 20
0.1281143299
 11
-23.8417644693
 21
0.1289460055
  0
LINE
  5
5AD
100
AcDbEntity
  8
03___PRT_ALL_CURVES
100
AcDbLine
 62
4
  6
CONTINUOUS
 10
-23.8750483838
 20
0.1507965682
 11
-23.8729785898
 21
0.1499648943
  0
LINE
  5
5AE
100
AcDbEntity
  8
03___PRT_ALL_CURVES
100
AcDbLine
 62
4
  6
CONTINUOUS
 10
-24.0090440848
 20
0.2212508938
 11
-24.0069742744
 21
0.2204192104
  0
LINE
  5
5AF
100
AcDbEntity
  8
03___PRT_ALL_CURVES
100
AcDbLine
 62
4
  6
CONTINUOUS
 10
-24.2223118095
 20
0.3421103085
 11
-24.22438162
 21
0.342941992
  0
LINE
  5
5B0
100
AcDbEntity
  8
03___PRT_ALL_CURVES
100
AcDbLine
 62
4
  6
CONTINUOUS
 10
-23.828354731
 20
0.1168390162
 11
-23.8263242677
 21
0.1159392193
  0
LINE
  5
5B1
100
AcDbEntity
  8
03___PRT_ALL_CURVES
100
AcDbLine
 62
4
  6
CONTINUOUS
 10
-23.84539276
 20
0.131494953
 11
-23.8474232234
 21
0.1323947497
  0
LINE
  5
5B2
100
AcDbEntity
  8
03___PRT_ALL_CURVES
100
AcDbLine
 62
4
  6
CONTINUOUS
 10
-23.8693502963
 20
0.1474159453
 11
-23.867319833
 21
0.1465161484
  0
LINE
  5
5B3
100
AcDbEntity
  8
03___PRT_ALL_CURVES
100
AcDbLine
 62
4
  6
CONTINUOUS
 10
-24.0033459973
 20
0.2178702709
 11
-24.0013155176
 21
0.2169704645
  0
LINE
  5
5B4
100
AcDbEntity
  8
03___PRT_ALL_CURVES
100
AcDbLine
 62
4
  6
CONTINUOUS
 10
-24.2300403768
 20
0.3463907378
 11
-24.228009897
 21
0.3454909315
  0
LINE
  5
5B5
100
AcDbEntity
  8
03___PRT_ALL_CURVES
100
AcDbLine
 62
4
  6
CONTINUOUS
 10
-24.0591693691
 20
0.2580980046
 11
-24.076369319
 21
0.2658484673
  0
LINE
  5
5B6
100
AcDbEntity
  8
03___PRT_ALL_CURVES
100
AcDbLine
 62
4
  6
CONTINUOUS
 10
-24.0793953512
 20
0.2672322257
 11
-24.09352996
 21
0.2736670656
  0
LINE
  5
5B7
100
AcDbEntity
  8
03___PRT_ALL_CURVES
100
AcDbLine
 62
4
  6
CONTINUOUS
 10
-24.0790413742
 20
0.2678453318
 11
-24.0649067874
 21
0.2614105046
  0
LINE
  5
5B8
100
AcDbEntity
  8
03___PRT_ALL_CURVES
100
AcDbLine
 62
4
  6
CONTINUOUS
 10
-24.0992673783
 20
0.2769795656
 11
-24.0821067373
 21
0.2691609673
  0
LINE
  5
5B9
100
AcDbEntity
  8
03___PRT_ALL_CURVES
100
AcDbLine
 62
4
  6
CONTINUOUS
 10
-23.9157609483
 20
0.1730303507
 11
-23.9187869805
 21
0.1744141092
  0
LINE
  5
5BA
100
AcDbEntity
  8
03___PRT_ALL_CURVES
100
AcDbLine
 62
4
  6
CONTINUOUS
 10
-24.0497566438
 20
0.2434846732
 11
-24.0527826761
 21
0.2448684316
  0
LINE
  5
5BB
100
AcDbEntity
  8
LAY0001
100
AcDbLine
 62
7
  6
CONTINUOUS
 10
-26.266636597
 20
1.9595603304
 11
-26.2652815509
 21
1.9589039005
  0
LINE
  5
5BC
100
AcDbEntity
  8
LAY0001
100
AcDbLine
 62
7
  6
CONTINUOUS
 10
-26.2963114442
 20
1.9920500826
 11
-26.2976664906
 21
1.9927065124
  0
LINE
  5
5BD
100
AcDbEntity
  8
03___PRT_ALL_CURVES
100
AcDbLine
 62
4
  6
CONTINUOUS
 10
-23.8076198802
 20
0.1019611672
 11
-23.8036376114
 21
0.1000253254
  0
LINE
  5
5BE
100
AcDbEntity
  8
03___PRT_ALL_CURVES
100
AcDbLine
 62
4
  6
CONTINUOUS
 10
-23.828000754
 20
0.1174521223
 11
-23.8319830244
 21
0.1193879651
  0
LINE
  5
5BF
100
AcDbEntity
  8
03___PRT_ALL_CURVES
100
AcDbLine
 62
4
  6
CONTINUOUS
 10
-23.8417644693
 20
0.1289460055
 11
-23.8457467371
 21
0.1308818467
  0
LINE
  5
5C0
100
AcDbEntity
  8
03___PRT_ALL_CURVES
100
AcDbLine
 62
4
  6
CONTINUOUS
 10
-23.8729785898
 20
0.1499648943
 11
-23.8689963193
 21
0.1480290515
  0
LINE
  5
5C1
100
AcDbEntity
  8
03___PRT_ALL_CURVES
100
AcDbLine
 62
4
  6
CONTINUOUS
 10
-23.911097755
 20
0.1700655633
 11
-23.913088893
 21
0.1710334863
  0
LINE
  5
5C2
100
AcDbEntity
  8
03___PRT_ALL_CURVES
100
AcDbLine
 62
4
  6
CONTINUOUS
 10
-24.0069742744
 20
0.2204192104
 11
-24.0029920203
 21
0.2184833771
  0
LINE
  5
5C3
100
AcDbEntity
  8
03___PRT_ALL_CURVES
100
AcDbLine
 62
4
  6
CONTINUOUS
 10
-24.0450934396
 20
0.2405198794
 11
-24.0470845885
 21
0.2414878087
  0
LINE
  5
5C4
100
AcDbEntity
  8
03___PRT_ALL_CURVES
100
AcDbLine
 62
4
  6
CONTINUOUS
 10
-24.22438162
 20
0.342941992
 11
-24.228363874
 21
0.3448778253
  0
LINE
  5
5C5
100
AcDbEntity
  8
03___PRT_ALL_CURVES
100
AcDbLine
 62
4
  6
CONTINUOUS
 10
-24.2565519923
 20
0.364512973
 11
-24.2525696945
 21
0.3625771144
  0
LINE
  5
5C6
100
AcDbEntity
  8
03___PRT_ALL_CURVES
100
AcDbLine
 62
4
  6
CONTINUOUS
 10
-23.8092963679
 20
0.103474071
 11
-23.8122437392
 21
0.1049940756
  0
LINE
  5
5C7
100
AcDbEntity
  8
03___PRT_ALL_CURVES
100
AcDbLine
 62
4
  6
CONTINUOUS
 10
-23.8263242677
 20
0.1159392193
 11
-23.823376897
 21
0.1144192151
  0
LINE
  5
5C8
100
AcDbEntity
  8
03___PRT_ALL_CURVES
100
AcDbLine
 62
4
  6
CONTINUOUS
 10
-23.8474232234
 20
0.1323947497
 11
-23.8503705941
 21
0.1339147539
  0
LINE
  5
5C9
100
AcDbEntity
  8
03___PRT_ALL_CURVES
100
AcDbLine
 62
4
  6
CONTINUOUS
 10
-23.867319833
 20
0.1465161484
 11
-23.8643724623
 21
0.1449961443
  0
LINE
  5
5CA
100
AcDbEntity
  8
03___PRT_ALL_CURVES
100
AcDbLine
 62
4
  6
CONTINUOUS
 10
-24.0013155176
 20
0.2169704645
 11
-23.9983681469
 21
0.2154504604
  0
LINE
  5
5CB
100
AcDbEntity
  8
03___PRT_ALL_CURVES
100
AcDbLine
 62
4
  6
CONTINUOUS
 10
-24.2329877474
 20
0.347910742
 11
-24.2300403768
 21
0.3463907378
  0
LINE
  5
5CC
100
AcDbEntity
  8
03___PRT_ALL_CURVES
100
AcDbLine
 62
4
  6
CONTINUOUS
 10
-24.2479458649
 20
0.359544223
 11
-24.2508932356
 21
0.3610642272
  0
LINE
  5
5CD
100
AcDbEntity
  8
03___PRT_ALL_CURVES
100
AcDbLine
 62
4
  6
CONTINUOUS
 10
-23.811523487
 20
0.1040332546
 11
-23.8076198802
 21
0.1019611672
  0
LINE
  5
5CE
100
AcDbEntity
  8
03___PRT_ALL_CURVES
100
AcDbLine
 62
4
  6
CONTINUOUS
 10
-23.8240971478
 20
0.1153800353
 11
-23.828000754
 21
0.1174521223
  0
LINE
  5
5CF
100
AcDbEntity
  8
03___PRT_ALL_CURVES
100
AcDbLine
 62
4
  6
CONTINUOUS
 10
-23.8457467371
 20
0.1308818467
 11
-23.849650346
 21
0.1329539353
  0
LINE
  5
5D0
100
AcDbEntity
  8
03___PRT_ALL_CURVES
100
AcDbLine
 62
4
  6
CONTINUOUS
 10
-24.0029920203
 20
0.2184833771
 11
-23.9990884059
 21
0.2164112853
  0
LINE
  5
5D1
100
AcDbEntity
  8
03___PRT_ALL_CURVES
100
AcDbLine
 62
4
  6
CONTINUOUS
 10
-24.0458530294
 20
0.2414125814
 11
-24.0497566438
 21
0.2434846732
  0
LINE
  5
5D2
100
AcDbEntity
  8
03___PRT_ALL_CURVES
100
AcDbLine
 62
4
  6
CONTINUOUS
 10
-23.8689963193
 20
0.1480290515
 11
-23.8650927159
 21
0.1459569661
  0
LINE
  5
5D3
100
AcDbEntity
  8
03___PRT_ALL_CURVES
100
AcDbLine
 62
4
  6
CONTINUOUS
 10
-23.9118573339
 20
0.170958259
 11
-23.9157609483
 21
0.1730303507
  0
LINE
  5
5D4
100
AcDbEntity
  8
03___PRT_ALL_CURVES
100
AcDbLine
 62
4
  6
CONTINUOUS
 10
-24.228363874
 20
0.3448778253
 11
-24.2322675103
 21
0.3469499297
  0
LINE
  5
5D5
100
AcDbEntity
  8
03___PRT_ALL_CURVES
100
AcDbLine
 62
4
  6
CONTINUOUS
 10
-24.2525696945
 20
0.3625771144
 11
-24.248666102
 21
0.3605050353
  0
LINE
  5
5D6
100
AcDbEntity
  8
LAY0001
100
AcDbLine
 62
7
  6
CONTINUOUS
 10
-26.026245441
 20
1.7439854883
 11
-26.0270067672
 21
1.7443915591
  0
LINE
  5
5D7
100
AcDbEntity
  8
LAY0001
100
AcDbLine
 62
7
  6
CONTINUOUS
 10
-26.0397262118
 20
1.7619309051
 11
-26.0389648856
 21
1.7615248344
  0
LINE
  5
5D8
100
AcDbEntity
  8
LAY0001
100
AcDbLine
 62
7
  6
CONTINUOUS
 10
-26.3336556117
 20
2.1098414212
 11
-26.3328942943
 21
2.1094353609
  0
LINE
  5
5D9
100
AcDbEntity
  8
LAY0001
100
AcDbLine
 62
7
  6
CONTINUOUS
 10
-26.3486391044
 20
2.1307055078
 11
-26.3478777634
 21
2.1302994196
  0
LINE
  5
5DA
100
AcDbEntity
  8
LAY0001
100
AcDbLine
 62
7
  6
CONTINUOUS
 10
-26.4131989136
 20
2.2040108834
 11
-26.4124375726
 21
2.2036047951
  0
LINE
  5
5DB
100
AcDbEntity
  8
LAY0001
100
AcDbLine
 62
7
  6
CONTINUOUS
 10
-26.5027865637
 20
2.313784743
 11
-26.5020252227
 21
2.3133786547
  0
LINE
  5
5DC
100
AcDbEntity
  8
03___PRT_ALL_CURVES
100
AcDbLine
 62
4
  6
CONTINUOUS
 10
-23.8122437392
 20
0.1049940756
 11
-23.8151517792
 21
0.1065822027
  0
LINE
  5
5DD
100
AcDbEntity
  8
03___PRT_ALL_CURVES
100
AcDbLine
 62
4
  6
CONTINUOUS
 10
-24.0421853997
 20
0.2389317523
 11
-24.0450934396
 21
0.2405198794
  0
LINE
  5
5DE
100
AcDbEntity
  8
03___PRT_ALL_CURVES
100
AcDbLine
 62
4
  6
CONTINUOUS
 10
-23.9081897151
 20
0.1684774362
 11
-23.911097755
 21
0.1700655633
  0
LINE
  5
5DF
100
AcDbEntity
  8
03___PRT_ALL_CURVES
100
AcDbLine
 62
4
  6
CONTINUOUS
 10
-23.8153877638
 20
0.1061734653
 11
-23.811523487
 21
0.1040332546
  0
LINE
  5
5E0
100
AcDbEntity
  8
03___PRT_ALL_CURVES
100
AcDbLine
 62
4
  6
CONTINUOUS
 10
-23.823376897
 20
0.1144192151
 11
-23.8195126202
 21
0.1122790044
  0
LINE
  5
5E1
100
AcDbEntity
  8
03___PRT_ALL_CURVES
100
AcDbLine
 62
4
  6
CONTINUOUS
 10
-23.9983681469
 20
0.2154504604
 11
-23.9945038852
 21
0.2133102583
  0
LINE
  5
5E2
100
AcDbEntity
  8
03___PRT_ALL_CURVES
100
AcDbLine
 62
4
  6
CONTINUOUS
 10
-23.8503705941
 20
0.1339147539
 11
-23.8542348722
 21
0.1360549654
  0
LINE
  5
5E3
100
AcDbEntity
  8
03___PRT_ALL_CURVES
100
AcDbLine
 62
4
  6
CONTINUOUS
 10
-24.2368520092
 20
0.350050944
 11
-24.2329877474
 21
0.347910742
  0
LINE
  5
5E4
100
AcDbEntity
  8
03___PRT_ALL_CURVES
100
AcDbLine
 62
4
  6
CONTINUOUS
 10
-23.8643724623
 20
0.1449961443
 11
-23.8605081842
 21
0.1428559328
  0
LINE
  5
5E5
100
AcDbEntity
  8
03___PRT_ALL_CURVES
100
AcDbLine
 62
4
  6
CONTINUOUS
 10
-24.2440815594
 20
0.3574039957
 11
-24.2479458649
 21
0.359544223
  0
LINE
  5
5E6
100
AcDbEntity
  8
03___PRT_ALL_CURVES
100
AcDbLine
 62
4
  6
CONTINUOUS
 10
-23.8192766355
 20
0.1126877418
 11
-23.8240971478
 21
0.1153800353
  0
LINE
  5
5E7
100
AcDbEntity
  8
03___PRT_ALL_CURVES
100
AcDbLine
 62
4
  6
CONTINUOUS
 10
-23.9990884059
 20
0.2164112853
 11
-23.9942679005
 21
0.2137189958
  0
LINE
  5
5E8
100
AcDbEntity
  8
03___PRT_ALL_CURVES
100
AcDbLine
 62
4
  6
CONTINUOUS
 10
-23.849650346
 20
0.1329539353
 11
-23.8544708568
 21
0.135646228
  0
LINE
  5
5E9
100
AcDbEntity
  8
03___PRT_ALL_CURVES
100
AcDbLine
 62
4
  6
CONTINUOUS
 10
-24.2322675103
 20
0.3469499297
 11
-24.2370879938
 21
0.3496422066
  0
LINE
  5
5EA
100
AcDbEntity
  8
03___PRT_ALL_CURVES
100
AcDbLine
 62
4
  6
CONTINUOUS
 10
-23.8650927159
 20
0.1459569661
 11
-23.8602721995
 21
0.1432646702
  0
LINE
  5
5EB
100
AcDbEntity
  8
03___PRT_ALL_CURVES
100
AcDbLine
 62
4
  6
CONTINUOUS
 10
-24.248666102
 20
0.3605050353
 11
-24.2438455747
 21
0.3578127331
  0
LINE
  5
5EC
100
AcDbEntity
  8
0
100
AcDbLine
 62
3
  6
CONTINUOUS
 10
-23.6170442396
 20
-0.0281384929
 11
-25.6457257957
 21
1.1431213496
  0
LINE
  5
5ED
100
AcDbEntity
  8
0
100
AcDbLine
 62
7
  6
CONTINUOUS
 10
-24.3056315777
 20
0.3717129371
 11
-23.7643657003
 21
0.0592129371
  0
LINE
  5
5EE
100
AcDbEntity
  8
03___PRT_ALL_CURVES
100
AcDbLine
 62
4
  6
CONTINUOUS
 10
-24.0420157935
 20
0.2370172192
 11
-24.0190661203
 21
0.2237672192
  0
LINE
  5
5EF
100
AcDbEntity
  8
03___PRT_ALL_CURVES
100
AcDbLine
 62
4
  6
CONTINUOUS
 10
-23.8201689453
 20
0.1089338817
 11
-23.8153877638
 21
0.1061734653
  0
LINE
  5
5F0
100
AcDbEntity
  8
03___PRT_ALL_CURVES
100
AcDbLine
 62
4
  6
CONTINUOUS
 10
-23.8431186185
 20
0.1221838817
 11
-23.8775431283
 21
0.1420588817
  0
LINE
  5
5F1
100
AcDbEntity
  8
03___PRT_ALL_CURVES
100
AcDbLine
 62
4
  6
CONTINUOUS
 10
-23.8851930175
 20
0.1464755473
 11
-23.9196175328
 21
0.1663505505
  0
LINE
  5
5F2
100
AcDbEntity
  8
03___PRT_ALL_CURVES
100
AcDbLine
 62
4
  6
CONTINUOUS
 10
-23.9731667629
 20
0.1972672129
 11
-23.9961164471
 21
0.2105172192
  0
LINE
  5
5F3
100
AcDbEntity
  8
03___PRT_ALL_CURVES
100
AcDbLine
 62
4
  6
CONTINUOUS
 10
-24.0783527688
 20
0.2579963817
 11
-24.0860026525
 21
0.2624130441
  0
LINE
  5
5F4
100
AcDbEntity
  8
03___PRT_ALL_CURVES
100
AcDbLine
 62
4
  6
CONTINUOUS
 10
-24.1089523257
 20
0.2756630441
 11
-24.114689744
 21
0.2789755441
  0
LINE
  5
5F5
100
AcDbEntity
  8
03___PRT_ALL_CURVES
100
AcDbLine
 62
4
  6
CONTINUOUS
 10
-24.128077068
 20
0.2867047192
 11
-24.1357269518
 21
0.2911213817
  0
LINE
  5
5F6
100
AcDbEntity
  8
03___PRT_ALL_CURVES
100
AcDbLine
 62
4
  6
CONTINUOUS
 10
-24.1491142538
 20
0.2988505441
 11
-24.1548516721
 21
0.3021630441
  0
LINE
  5
5F7
100
AcDbEntity
  8
03___PRT_ALL_CURVES
100
AcDbLine
 62
4
  6
CONTINUOUS
 10
-24.1625015778
 20
0.3065797192
 11
-24.1682389742
 21
0.3098922066
  0
LINE
  5
5F8
100
AcDbEntity
  8
03___PRT_ALL_CURVES
100
AcDbLine
 62
4
  6
CONTINUOUS
 10
-24.1758888799
 20
0.3143088817
 11
-24.1844950073
 21
0.3192776317
  0
LINE
  5
5F9
100
AcDbEntity
  8
03___PRT_ALL_CURVES
100
AcDbLine
 62
4
  6
CONTINUOUS
 10
-24.2084009023
 20
0.3330797066
 11
-24.2141383206
 21
0.3363922066
  0
LINE
  5
5FA
100
AcDbEntity
  8
03___PRT_ALL_CURVES
100
AcDbLine
 62
4
  6
CONTINUOUS
 10
-24.2370879938
 20
0.3496422066
 11
-24.2456941213
 21
0.3546109566
  0
LINE
  5
5FB
100
AcDbEntity
  8
03___PRT_ALL_CURVES
100
AcDbLine
 62
4
  6
CONTINUOUS
 10
-24.0427753614
 20
0.2379099086
 11
-24.0246068847
 21
0.2274203337
  0
LINE
  5
5FC
100
AcDbEntity
  8
03___PRT_ALL_CURVES
100
AcDbLine
 62
4
  6
CONTINUOUS
 10
-24.2454581366
 20
0.355019694
 11
-24.2368520092
 21
0.350050944
  0
LINE
  5
5FD
100
AcDbEntity
  8
03___PRT_ALL_CURVES
100
AcDbLine
 62
4
  6
CONTINUOUS
 10
-23.9193815481
 20
0.1667592878
 11
-23.8906944512
 21
0.1501967847
  0
LINE
  5
5FE
100
AcDbEntity
  8
03___PRT_ALL_CURVES
100
AcDbLine
 62
4
  6
CONTINUOUS
 10
-23.8773071436
 20
0.1424676191
 11
-23.8486200521
 21
0.1259051191
  0
LINE
  5
5FF
100
AcDbEntity
  8
03___PRT_ALL_CURVES
100
AcDbLine
 62
4
  6
CONTINUOUS
 10
-23.8151517792
 20
0.1065822027
 11
-23.8208891975
 21
0.1098947027
  0
LINE
  5
600
100
AcDbEntity
  8
03___PRT_ALL_CURVES
100
AcDbLine
 62
4
  6
CONTINUOUS
 10
-23.9786681966
 20
0.2009884503
 11
-23.9958804624
 21
0.2109259566
  0
LINE
  5
601
100
AcDbEntity
  8
03___PRT_ALL_CURVES
100
AcDbLine
 62
4
  6
CONTINUOUS
 10
-23.8264299605
 20
0.1135478164
 11
-23.8321673788
 21
0.1168603164
  0
LINE
  5
602
100
AcDbEntity
  8
03___PRT_ALL_CURVES
100
AcDbLine
 62
4
  6
CONTINUOUS
 10
-24.2586094758
 20
0.3631576066
 11
-24.2528720575
 21
0.3598451066
  0
LINE
  5
603
100
AcDbEntity
  8
03___PRT_ALL_CURVES
100
AcDbLine
 62
4
  6
CONTINUOUS
 10
-23.848108752
 20
0.1267907169
 11
-23.8729708961
 21
0.1411448825
  0
LINE
  5
604
100
AcDbEntity
  8
03___PRT_ALL_CURVES
100
AcDbLine
 62
4
  6
CONTINUOUS
 10
-23.890183151
 20
0.1510823825
 11
-23.9150452951
 21
0.1654365481
  0
LINE
  5
605
100
AcDbEntity
  8
03___PRT_ALL_CURVES
100
AcDbLine
 62
4
  6
CONTINUOUS
 10
-23.8203385665
 20
0.1108484234
 11
-23.8146011482
 21
0.1075359234
  0
LINE
  5
606
100
AcDbEntity
  8
03___PRT_ALL_CURVES
100
AcDbLine
 62
4
  6
CONTINUOUS
 10
-24.024016923
 20
0.2284421774
 11
-24.0421853997
 21
0.2389317523
  0
LINE
  5
607
100
AcDbEntity
  8
03___PRT_ALL_CURVES
100
AcDbLine
 62
4
  6
CONTINUOUS
 10
-24.2439119531
 20
0.3554894627
 11
-24.2582554989
 21
0.3637707127
  0
LINE
  5
608
100
AcDbEntity
  8
03___PRT_ALL_CURVES
100
AcDbLine
 62
4
  6
CONTINUOUS
 10
-23.9148093105
 20
0.1658452855
 11
-23.8899471664
 21
0.1514911199
  0
LINE
  5
609
100
AcDbEntity
  8
03___PRT_ALL_CURVES
100
AcDbLine
 62
4
  6
CONTINUOUS
 10
-23.8727349115
 20
0.1415536199
 11
-23.8478727673
 21
0.1271994543
  0
LINE
  5
60A
100
AcDbEntity
  8
03___PRT_ALL_CURVES
100
AcDbLine
 62
4
  6
CONTINUOUS
 10
-23.8143651636
 20
0.1079446608
 11
-23.8201025819
 21
0.1112571608
  0
LINE
  5
60B
100
AcDbEntity
  8
03___PRT_ALL_CURVES
100
AcDbLine
 62
4
  6
CONTINUOUS
 10
-24.0237809384
 20
0.2288509147
 11
-24.0400369496
 21
0.2382363272
  0
LINE
  5
60C
100
AcDbEntity
  8
03___PRT_ALL_CURVES
100
AcDbLine
 62
4
  6
CONTINUOUS
 10
-24.2522820959
 20
0.3608669501
 11
-24.2436759685
 21
0.3558982001
  0
LINE
  5
60D
100
AcDbEntity
  8
03___PRT_ALL_CURVES
100
AcDbLine
 62
4
  6
CONTINUOUS
 10
-24.0895645949
 20
0.2672852793
 11
-24.07235234
 21
0.2573477793
  0
LINE
  5
60E
100
AcDbEntity
  8
03___PRT_ALL_CURVES
100
AcDbLine
 62
4
  6
CONTINUOUS
 10
-23.8044881531
 20
0.1029688105
 11
-23.7987507348
 21
0.0996563105
  0
LINE
  5
60F
100
AcDbEntity
  8
03___PRT_ALL_CURVES
100
AcDbLine
 62
4
  6
CONTINUOUS
 10
-24.0903634936
 20
0.2681098458
 11
-24.0712387732
 21
0.2570681834
  0
LINE
  5
610
100
AcDbEntity
  8
03___PRT_ALL_CURVES
100
AcDbLine
 62
4
  6
CONTINUOUS
 10
-23.9945038852
 20
0.2133102583
 11
-23.9772916194
 21
0.203372752
  0
LINE
  5
611
100
AcDbEntity
  8
03___PRT_ALL_CURVES
100
AcDbLine
 62
4
  6
CONTINUOUS
 10
-23.8195126202
 20
0.1122790044
 11
-23.8118627282
 21
0.1078623372
  0
LINE
  5
612
100
AcDbEntity
  8
03___PRT_ALL_CURVES
100
AcDbLine
 62
4
  6
CONTINUOUS
 10
-23.8472434749
 20
0.1282894208
 11
-23.8759305664
 21
0.1448519208
  0
LINE
  5
613
100
AcDbEntity
  8
03___PRT_ALL_CURVES
100
AcDbLine
 62
4
  6
CONTINUOUS
 10
-23.8893178739
 20
0.1525810864
 11
-23.9180049709
 21
0.1691435896
  0
LINE
  5
614
100
AcDbEntity
  8
03___PRT_ALL_CURVES
100
AcDbLine
 62
4
  6
CONTINUOUS
 10
-24.2354754319
 20
0.3524352457
 11
-24.2440815594
 21
0.3574039957
  0
LINE
  5
615
100
AcDbEntity
  8
03___PRT_ALL_CURVES
100
AcDbLine
 62
4
  6
CONTINUOUS
 10
-24.2438455747
 20
0.3578127331
 11
-24.2352394472
 21
0.3528439831
  0
LINE
  5
616
100
AcDbEntity
  8
03___PRT_ALL_CURVES
100
AcDbLine
 62
4
  6
CONTINUOUS
 10
-24.212289774
 20
0.3395939831
 11
-24.2036836466
 21
0.3346252331
  0
LINE
  5
617
100
AcDbEntity
  8
03___PRT_ALL_CURVES
100
AcDbLine
 62
4
  6
CONTINUOUS
 10
-24.1797777516
 20
0.3208231582
 11
-24.1740403333
 21
0.3175106582
  0
LINE
  5
618
100
AcDbEntity
  8
03___PRT_ALL_CURVES
100
AcDbLine
 62
4
  6
CONTINUOUS
 10
-24.1663904276
 20
0.3130939831
 11
-24.1606530312
 21
0.3097814958
  0
LINE
  5
619
100
AcDbEntity
  8
03___PRT_ALL_CURVES
100
AcDbLine
 62
4
  6
CONTINUOUS
 10
-24.1453532418
 20
0.3009481582
 11
-24.137703358
 21
0.2965314958
  0
LINE
  5
61A
100
AcDbEntity
  8
03___PRT_ALL_CURVES
100
AcDbLine
 62
4
  6
CONTINUOUS
 10
-24.1224035686
 20
0.2876981582
 11
-24.1147536848
 21
0.2832814958
  0
LINE
  5
61B
100
AcDbEntity
  8
03___PRT_ALL_CURVES
100
AcDbLine
 62
4
  6
CONTINUOUS
 10
-24.0994538954
 20
0.2744481582
 11
-24.0937164771
 21
0.2711356582
  0
LINE
  5
61C
100
AcDbEntity
  8
03___PRT_ALL_CURVES
100
AcDbLine
 62
4
  6
CONTINUOUS
 10
-24.0669418511
 20
0.2556773207
 11
-24.0612044328
 21
0.2523648207
  0
LINE
  5
61D
100
AcDbEntity
  8
03___PRT_ALL_CURVES
100
AcDbLine
 62
4
  6
CONTINUOUS
 10
-23.9942679005
 20
0.2137189958
 11
-23.9713182164
 21
0.2004689895
  0
LINE
  5
61E
100
AcDbEntity
  8
03___PRT_ALL_CURVES
100
AcDbLine
 62
4
  6
CONTINUOUS
 10
-23.9177689862
 20
0.169552327
 11
-23.8833444709
 21
0.1496773238
  0
LINE
  5
61F
100
AcDbEntity
  8
03___PRT_ALL_CURVES
100
AcDbLine
 62
4
  6
CONTINUOUS
 10
-23.8756945817
 20
0.1452606582
 11
-23.8412700719
 21
0.1253856582
  0
LINE
  5
620
100
AcDbEntity
  8
03___PRT_ALL_CURVES
100
AcDbLine
 62
4
  6
CONTINUOUS
 10
-23.8116267436
 20
0.1082710746
 11
-23.8192766355
 21
0.1126877418
  0
LINE
  5
621
100
AcDbEntity
  8
03___PRT_ALL_CURVES
100
AcDbLine
 62
4
  6
CONTINUOUS
 10
-24.0172175737
 20
0.2269689958
 11
-24.022954992
 21
0.2302814958
  0
LINE
  5
622
100
AcDbEntity
  8
03___PRT_ALL_CURVES
100
AcDbLine
 62
4
  6
CONTINUOUS
 10
-24.046860887
 20
0.2440835707
 11
-24.053554549
 21
0.2479481582
  0
LINE
  5
623
100
AcDbEntity
  8
03___PRT_ALL_CURVES
100
AcDbLine
 62
4
  6
CONTINUOUS
 10
-23.9080200979
 20
0.1665628968
 11
-23.8850704193
 21
0.1533128937
  0
LINE
  5
624
100
AcDbEntity
  8
03___PRT_ALL_CURVES
100
AcDbLine
 62
4
  6
CONTINUOUS
 10
-23.7970966738
 20
0.102521228
 11
-23.8315211836
 21
0.122396228
  0
LINE
  5
625
100
AcDbEntity
  8
03___PRT_ALL_CURVES
100
AcDbLine
 62
4
  6
CONTINUOUS
 10
-23.8544708568
 20
0.135646228
 11
-23.8621207461
 21
0.1400628937
  0
LINE
  5
626
100
AcDbEntity
  8
03___PRT_ALL_CURVES
100
AcDbLine
 62
4
  6
CONTINUOUS
 10
-23.9749566411
 20
0.205208728
 11
-24.0112936164
 21
0.2261878905
  0
LINE
  5
627
100
AcDbEntity
  8
03___PRT_ALL_CURVES
100
AcDbLine
 62
4
  6
CONTINUOUS
 10
-24.0189435221
 20
0.2306045656
 11
-24.0533680319
 21
0.2504795656
  0
LINE
  5
628
100
AcDbEntity
  8
03___PRT_ALL_CURVES
100
AcDbLine
 62
4
  6
CONTINUOUS
 10
-24.0610179156
 20
0.254896228
 11
-24.0667553339
 21
0.258208728
  0
LINE
  5
629
100
AcDbEntity
  8
03___PRT_ALL_CURVES
100
AcDbLine
 62
4
  6
CONTINUOUS
 10
-24.09352996
 20
0.2736670656
 11
-24.0992673783
 21
0.2769795656
  0
LINE
  5
62A
100
AcDbEntity
  8
03___PRT_ALL_CURVES
100
AcDbLine
 62
4
  6
CONTINUOUS
 10
-24.106917262
 20
0.281396228
 11
-24.1432542373
 21
0.3023753905
  0
LINE
  5
62B
100
AcDbEntity
  8
03___PRT_ALL_CURVES
100
AcDbLine
 62
4
  6
CONTINUOUS
 10
-24.1430575834
 20
0.302716005
 11
-24.1277578159
 21
0.2938826801
  0
LINE
  5
62C
100
AcDbEntity
  8
03___PRT_ALL_CURVES
100
AcDbLine
 62
4
  6
CONTINUOUS
 10
-24.1220203976
 20
0.2905701801
 11
-24.1067206082
 21
0.2817368425
  0
LINE
  5
62D
100
AcDbEntity
  8
03___PRT_ALL_CURVES
100
AcDbLine
 62
4
  6
CONTINUOUS
 10
-24.0110969625
 20
0.226528505
 11
-23.995797195
 21
0.2176951801
  0
LINE
  5
62E
100
AcDbEntity
  8
03___PRT_ALL_CURVES
100
AcDbLine
 62
4
  6
CONTINUOUS
 10
-23.9900597767
 20
0.2143826801
 11
-23.9747599873
 21
0.2055493425
  0
LINE
  5
62F
100
AcDbEntity
  8
03___PRT_ALL_CURVES
100
AcDbLine
 62
4
  6
CONTINUOUS
 10
-23.9087796768
 20
0.1674555925
 11
-23.8906111892
 21
0.1569660113
  0
LINE
  5
630
100
AcDbEntity
  8
03___PRT_ALL_CURVES
100
AcDbLine
 62
4
  6
CONTINUOUS
 10
-24.0531320472
 20
0.250888303
 11
-24.0244449557
 21
0.234325803
  0
LINE
  5
631
100
AcDbEntity
  8
03___PRT_ALL_CURVES
100
AcDbLine
 62
4
  6
CONTINUOUS
 10
-23.831285199
 20
0.1228049654
 11
-23.8025981075
 21
0.1062424654
  0
LINE
  5
632
100
AcDbEntity
  8
03___PRT_ALL_CURVES
100
AcDbLine
 62
4
  6
CONTINUOUS
 10
-23.8542348722
 20
0.1360549654
 11
-23.8618847614
 21
0.140471631
  0
LINE
  5
633
100
AcDbEntity
  8
03___PRT_ALL_CURVES
100
AcDbLine
 62
4
  6
CONTINUOUS
 10
-23.8020868073
 20
0.1071280633
 11
-23.8269489542
 21
0.1214822305
  0
LINE
  5
634
100
AcDbEntity
  8
03___PRT_ALL_CURVES
100
AcDbLine
 62
4
  6
CONTINUOUS
 10
-24.0239336556
 20
0.2352114008
 11
-24.0487957942
 21
0.2495655633
  0
LINE
  5
635
100
AcDbEntity
  8
03___PRT_ALL_CURVES
100
AcDbLine
 62
4
  6
CONTINUOUS
 10
-23.8900212275
 20
0.1579878549
 11
-23.9081897151
 21
0.1684774362
  0
LINE
  5
636
100
AcDbEntity
  8
03___PRT_ALL_CURVES
100
AcDbLine
 62
4
  6
CONTINUOUS
 10
-24.0485598096
 20
0.2499743007
 11
-24.0236976709
 21
0.2356201382
  0
LINE
  5
637
100
AcDbEntity
  8
03___PRT_ALL_CURVES
100
AcDbLine
 62
4
  6
CONTINUOUS
 10
-23.8267129696
 20
0.1218909679
 11
-23.8018508227
 21
0.1075368007
  0
LINE
  5
638
100
AcDbEntity
  8
03___PRT_ALL_CURVES
100
AcDbLine
 62
4
  6
CONTINUOUS
 10
-23.8897852428
 20
0.1583965923
 11
-23.9060412541
 21
0.1677820048
  0
LINE
  5
639
100
AcDbEntity
  8
03___PRT_ALL_CURVES
100
AcDbLine
 62
4
  6
CONTINUOUS
 10
-23.8605081842
 20
0.1428559328
 11
-23.8528582949
 21
0.1384392672
  0
LINE
  5
63A
100
AcDbEntity
  8
03___PRT_ALL_CURVES
100
AcDbLine
 62
4
  6
CONTINUOUS
 10
-24.0230683785
 20
0.2367101047
 11
-24.05175547
 21
0.2532726047
  0
LINE
  5
63B
100
AcDbEntity
  8
03___PRT_ALL_CURVES
100
AcDbLine
 62
4
  6
CONTINUOUS
 10
-24.1261059232
 20
0.2967438421
 11
-24.1203685049
 21
0.2934313421
  0
LINE
  5
63C
100
AcDbEntity
  8
03___PRT_ALL_CURVES
100
AcDbLine
 62
4
  6
CONTINUOUS
 10
-24.0974188317
 20
0.2801813421
 11
-24.0916814134
 21
0.2768688421
  0
LINE
  5
63D
100
AcDbEntity
  8
03___PRT_ALL_CURVES
100
AcDbLine
 62
4
  6
CONTINUOUS
 10
-24.0649067874
 20
0.2614105046
 11
-24.0591693691
 21
0.2580980046
  0
LINE
  5
63E
100
AcDbEntity
  8
03___PRT_ALL_CURVES
100
AcDbLine
 62
4
  6
CONTINUOUS
 10
-24.0515194853
 20
0.2536813421
 11
-24.0170949755
 21
0.2338063421
  0
LINE
  5
63F
100
AcDbEntity
  8
03___PRT_ALL_CURVES
100
AcDbLine
 62
4
  6
CONTINUOUS
 10
-23.9941453023
 20
0.2205563421
 11
-23.988407884
 21
0.2172438421
  0
LINE
  5
640
100
AcDbEntity
  8
03___PRT_ALL_CURVES
100
AcDbLine
 62
4
  6
CONTINUOUS
 10
-23.8602721995
 20
0.1432646702
 11
-23.8526223103
 21
0.1388480046
  0
LINE
  5
641
100
AcDbEntity
  8
03___PRT_ALL_CURVES
100
AcDbLine
 62
4
  6
CONTINUOUS
 10
-23.8009855456
 20
0.1090355046
 11
-23.7952481273
 21
0.1057230046
  0
LINE
  5
642
100
AcDbEntity
  8
03___PRT_ALL_CURVES
100
AcDbLine
 62
4
  6
CONTINUOUS
 10
-23.8832218727
 20
0.1565146702
 11
-23.8889592965
 21
0.1598271734
  0
LINE
  5
643
100
AcDbEntity
  8
03___PRT_ALL_CURVES
100
AcDbLine
 62
4
  6
CONTINUOUS
 10
-23.9128652024
 20
0.1736292546
 11
-23.9195588535
 21
0.1774938358
  0
LINE
  5
644
100
AcDbEntity
  8
0
100
AcDbLine
 62
7
  6
CONTINUOUS
 10
-23.7425668023
 20
0.0969697361
 11
-24.2838326796
 21
0.4094697361
  0
LINE
  5
645
100
AcDbEntity
  8
0
100
AcDbLine
 62
7
  6
CONTINUOUS
 10
-23.7400728922
 20
0.1012893151
 11
-24.2813387695
 21
0.4137893151
  0
LINE
  5
646
100
AcDbEntity
  8
0
100
AcDbLine
 62
3
  6
CONTINUOUS
 10
-23.5560073251
 20
0.0775805442
 11
-25.5846888812
 21
1.2488403867
  0
LINE
  5
647
100
AcDbEntity
  8
0
100
AcDbLine
 62
7
  6
CONTINUOUS
 10
-23.5520799076
 20
0.0843830309
 11
-25.5807614637
 21
1.2556428734
  0
LINE
  5
648
100
AcDbEntity
  8
LAY0001
100
AcDbLine
 62
7
  6
CONTINUOUS
 10
-26.1178927973
 20
1.7776938068
 11
-26.1166321453
 21
1.776958181
  0
LINE
  5
649
100
AcDbEntity
  8
LAY0001
100
AcDbLine
 62
7
  6
CONTINUOUS
 10
-26.261338031
 20
1.9532457454
 11
-26.2600773739
 21
1.9525101136
  0
LINE
  5
64A
100
AcDbEntity
  8
LAY0001
100
AcDbLine
 62
7
  6
CONTINUOUS
 10
-26.3028706673
 20
1.9991002995
 11
-26.3016100102
 21
1.9983646677
  0
LINE
  5
64B
100
AcDbEntity
  8
LAY0001
100
AcDbLine
 62
7
  6
CONTINUOUS
 10
-26.5889660222
 20
2.343697581
 11
-26.5877053854
 21
2.3429619733
  0
LINE
  5
64C
100
AcDbEntity
  8
03___PRT_ALL_CURVES
100
AcDbLine
 62
4
  6
CONTINUOUS
 10
-24.2456941213
 20
0.3546109566
 11
-24.250435987
 21
0.3574395046
  0
LINE
  5
64D
100
AcDbEntity
  8
03___PRT_ALL_CURVES
100
AcDbLine
 62
4
  6
CONTINUOUS
 10
-24.0467576373
 20
0.2398457546
 11
-24.0420157935
 21
0.2370172192
  0
LINE
  5
64E
100
AcDbEntity
  8
03___PRT_ALL_CURVES
100
AcDbLine
 62
4
  6
CONTINUOUS
 10
-24.2352394472
 20
0.3528439831
 11
-24.2304976253
 21
0.3500154604
  0
LINE
  5
64F
100
AcDbEntity
  8
03___PRT_ALL_CURVES
100
AcDbLine
 62
4
  6
CONTINUOUS
 10
-23.9961164471
 20
0.2105172192
 11
-24.0008582909
 21
0.2133457546
  0
LINE
  5
650
100
AcDbEntity
  8
03___PRT_ALL_CURVES
100
AcDbLine
 62
4
  6
CONTINUOUS
 10
-23.8249107973
 20
0.1117624218
 11
-23.8201689453
 21
0.1089338817
  0
LINE
  5
651
100
AcDbEntity
  8
03___PRT_ALL_CURVES
100
AcDbLine
 62
4
  6
CONTINUOUS
 10
-23.8250804172
 20
0.1136769627
 11
-23.8203385665
 21
0.1108484234
  0
LINE
  5
652
100
AcDbEntity
  8
03___PRT_ALL_CURVES
100
AcDbLine
 62
4
  6
CONTINUOUS
 10
-23.8068848929
 20
0.1054425353
 11
-23.8116267436
 21
0.1082710746
  0
LINE
  5
653
100
AcDbEntity
  8
03___PRT_ALL_CURVES
100
AcDbLine
 62
4
  6
CONTINUOUS
 10
-23.9127619418
 20
0.1693914322
 11
-23.9080200979
 21
0.1665628968
  0
LINE
  5
654
100
AcDbEntity
  8
03___PRT_ALL_CURVES
100
AcDbLine
 62
4
  6
CONTINUOUS
 10
-23.8621207461
 20
0.1400628937
 11
-23.8668626009
 21
0.1428914353
  0
LINE
  5
655
100
AcDbEntity
  8
03___PRT_ALL_CURVES
100
AcDbLine
 62
4
  6
CONTINUOUS
 10
-23.8526223103
 20
0.1388480046
 11
-23.847880461
 21
0.1360194661
  0
LINE
  5
656
100
AcDbEntity
  8
03___PRT_ALL_CURVES
100
AcDbLine
 62
4
  6
CONTINUOUS
 10
-24.2492437806
 20
0.3572961671
 11
-24.2454581366
 21
0.355019694
  0
LINE
  5
657
100
AcDbEntity
  8
03___PRT_ALL_CURVES
100
AcDbLine
 62
4
  6
CONTINUOUS
 10
-24.2316898317
 20
0.3501587979
 11
-24.2354754319
 21
0.3524352457
  0
LINE
  5
658
100
AcDbEntity
  8
03___PRT_ALL_CURVES
100
AcDbLine
 62
4
  6
CONTINUOUS
 10
-23.9958804624
 20
0.2109259566
 11
-23.9996660626
 21
0.2132024044
  0
LINE
  5
659
100
AcDbEntity
  8
03___PRT_ALL_CURVES
100
AcDbLine
 62
4
  6
CONTINUOUS
 10
-23.8201025819
 20
0.1112571608
 11
-23.8238881971
 21
0.1135336173
  0
LINE
  5
65A
100
AcDbEntity
  8
03___PRT_ALL_CURVES
100
AcDbLine
 62
4
  6
CONTINUOUS
 10
-23.8105795484
 20
0.1056682043
 11
-23.8143651636
 21
0.1079446608
  0
LINE
  5
65B
100
AcDbEntity
  8
03___PRT_ALL_CURVES
100
AcDbLine
 62
4
  6
CONTINUOUS
 10
-23.8118627282
 20
0.1078623372
 11
-23.8080771137
 21
0.1055858811
  0
LINE
  5
65C
100
AcDbEntity
  8
03___PRT_ALL_CURVES
100
AcDbLine
 62
4
  6
CONTINUOUS
 10
-23.8618847614
 20
0.140471631
 11
-23.865670378
 21
0.1427480883
  0
LINE
  5
65D
100
AcDbEntity
  8
03___PRT_ALL_CURVES
100
AcDbLine
 62
4
  6
CONTINUOUS
 10
-23.8528582949
 20
0.1384392672
 11
-23.8490726784
 21
0.1361628099
  0
LINE
  5
65E
100
AcDbEntity
  8
03___PRT_ALL_CURVES
100
AcDbLine
 62
4
  6
CONTINUOUS
 10
-24.0456047398
 20
0.2396342815
 11
-24.0427753614
 21
0.2379099086
  0
LINE
  5
65F
100
AcDbEntity
  8
03___PRT_ALL_CURVES
100
AcDbLine
 62
4
  6
CONTINUOUS
 10
-23.8208891975
 20
0.1098947027
 11
-23.8237185745
 21
0.1116190748
  0
LINE
  5
660
100
AcDbEntity
  8
03___PRT_ALL_CURVES
100
AcDbLine
 62
4
  6
CONTINUOUS
 10
-23.8146011482
 20
0.1075359234
 11
-23.8117717698
 21
0.1058115505
  0
LINE
  5
661
100
AcDbEntity
  8
03___PRT_ALL_CURVES
100
AcDbLine
 62
4
  6
CONTINUOUS
 10
-23.9116090552
 20
0.1691799654
 11
-23.9087796768
 21
0.1674555925
  0
LINE
  5
662
100
AcDbEntity
  8
03___PRT_ALL_CURVES
100
AcDbLine
 62
4
  6
CONTINUOUS
 10
-24.250435987
 20
0.3574395046
 11
-24.2541822564
 21
0.3597840753
  0
LINE
  5
663
100
AcDbEntity
  8
03___PRT_ALL_CURVES
100
AcDbLine
 62
4
  6
CONTINUOUS
 10
-24.2304976253
 20
0.3500154604
 11
-24.2267513121
 21
0.3476708644
  0
LINE
  5
664
100
AcDbEntity
  8
03___PRT_ALL_CURVES
100
AcDbLine
 62
4
  6
CONTINUOUS
 10
-24.0008582909
 20
0.2133457546
 11
-24.0046045822
 21
0.2156903379
  0
LINE
  5
665
100
AcDbEntity
  8
03___PRT_ALL_CURVES
100
AcDbLine
 62
4
  6
CONTINUOUS
 10
-23.8288267003
 20
0.1160215413
 11
-23.8250804172
 21
0.1136769627
  0
LINE
  5
666
100
AcDbEntity
  8
03___PRT_ALL_CURVES
100
AcDbLine
 62
4
  6
CONTINUOUS
 10
-23.8068332646
 20
0.1033236253
 11
-23.8105795484
 21
0.1056682043
  0
LINE
  5
667
100
AcDbEntity
  8
03___PRT_ALL_CURVES
100
AcDbLine
 62
4
  6
CONTINUOUS
 10
-23.8668626009
 20
0.1428914353
 11
-23.8706088812
 21
0.1452360123
  0
LINE
  5
668
100
AcDbEntity
  8
03___PRT_ALL_CURVES
100
AcDbLine
 62
4
  6
CONTINUOUS
 10
-23.847880461
 20
0.1360194661
 11
-23.8441341752
 21
0.1336748859
  0
LINE
  5
669
100
AcDbEntity
  8
03___PRT_ALL_CURVES
100
AcDbLine
 62
4
  6
CONTINUOUS
 10
-23.8022217034
 20
0.10247775
 11
-23.8068848929
 21
0.1054425353
  0
LINE
  5
66A
100
AcDbEntity
  8
03___PRT_ALL_CURVES
100
AcDbLine
 62
4
  6
CONTINUOUS
 10
-24.2520338282
 20
0.3590886628
 11
-24.2492437806
 21
0.3572961671
  0
LINE
  5
66B
100
AcDbEntity
  8
03___PRT_ALL_CURVES
100
AcDbLine
 62
4
  6
CONTINUOUS
 10
-24.2288997842
 20
0.3483663021
 11
-24.2316898317
 21
0.3501587979
  0
LINE
  5
66C
100
AcDbEntity
  8
03___PRT_ALL_CURVES
100
AcDbLine
 62
4
  6
CONTINUOUS
 10
-23.9996660626
 20
0.2132024044
 11
-24.0024561102
 21
0.2149949002
  0
LINE
  5
66D
100
AcDbEntity
  8
03___PRT_ALL_CURVES
100
AcDbLine
 62
4
  6
CONTINUOUS
 10
-23.8238881971
 20
0.1135336173
 11
-23.8266782447
 21
0.1153261131
  0
LINE
  5
66E
100
AcDbEntity
  8
03___PRT_ALL_CURVES
100
AcDbLine
 62
4
  6
CONTINUOUS
 10
-23.8117717698
 20
0.1058115505
 11
-23.8089817216
 21
0.1040190543
  0
LINE
  5
66F
100
AcDbEntity
  8
03___PRT_ALL_CURVES
100
AcDbLine
 62
4
  6
CONTINUOUS
 10
-23.865670378
 20
0.1427480883
 11
-23.8684604256
 21
0.1445405841
  0
LINE
  5
670
100
AcDbEntity
  8
03___PRT_ALL_CURVES
100
AcDbLine
 62
4
  6
CONTINUOUS
 10
-23.8490726784
 20
0.1361628099
 11
-23.8462826308
 21
0.134370314
  0
LINE
  5
671
100
AcDbEntity
  8
03___PRT_ALL_CURVES
100
AcDbLine
 62
4
  6
CONTINUOUS
 10
-24.0504645978
 20
0.2422584608
 11
-24.0467576373
 21
0.2398457546
  0
LINE
  5
672
100
AcDbEntity
  8
03___PRT_ALL_CURVES
100
AcDbLine
 62
4
  6
CONTINUOUS
 10
-23.8286177496
 20
0.1141751233
 11
-23.8249107973
 21
0.1117624218
  0
LINE
  5
673
100
AcDbEntity
  8
03___PRT_ALL_CURVES
100
AcDbLine
 62
4
  6
CONTINUOUS
 10
-23.9164689023
 20
0.1718041384
 11
-23.9127619418
 21
0.1693914322
  0
LINE
  5
674
100
AcDbEntity
  8
LAY0001
100
AcDbLine
 62
7
  6
CONTINUOUS
 10
-26.2542774925
 20
2.0176231647
 11
-26.2605740891
 21
2.0217437686
  0
LINE
  5
675
100
AcDbEntity
  8
LAY0001
100
AcDbLine
 62
7
  6
CONTINUOUS
 10
-26.2535161751
 20
2.0172171045
 11
-26.2507176956
 21
2.0153857343
  0
LINE
  5
676
100
AcDbEntity
  8
LAY0001
100
AcDbLine
 62
7
  6
CONTINUOUS
 10
-26.3449141014
 20
2.1265168434
 11
-26.3456137389
 21
2.126974707
  0
LINE
  5
677
100
AcDbEntity
  8
LAY0001
100
AcDbLine
 62
7
  6
CONTINUOUS
 10
-26.4154629379
 20
2.2073355961
 11
-26.4161625756
 21
2.2077934596
  0
LINE
  5
678
100
AcDbEntity
  8
LAY0001
100
AcDbLine
 62
7
  6
CONTINUOUS
 10
-26.145570334
 20
1.8841863878
 11
-26.1344380959
 21
1.8768091036
  0
LINE
  5
679
100
AcDbEntity
  8
LAY0001
100
AcDbLine
 62
7
  6
CONTINUOUS
 10
-26.2476306267
 20
2.0117067088
 11
-26.2587628648
 21
2.019083993
  0
LINE
  5
67A
100
AcDbEntity
  8
LAY0001
100
AcDbLine
 62
7
  6
CONTINUOUS
 10
-26.1327502668
 20
1.8740457632
 11
-26.1424832651
 21
1.8805073623
  0
LINE
  5
67B
100
AcDbEntity
  8
03___PRT_ALL_CURVES
100
AcDbLine
 62
4
  6
CONTINUOUS
 10
-23.9134428701
 20
0.17042038
 11
-23.9116090552
 21
0.1691799654
  0
LINE
  5
67C
100
AcDbEntity
  8
03___PRT_ALL_CURVES
100
AcDbLine
 62
4
  6
CONTINUOUS
 10
-23.8237185745
 20
0.1116190748
 11
-23.8255523866
 21
0.1128594878
  0
LINE
  5
67D
100
AcDbEntity
  8
03___PRT_ALL_CURVES
100
AcDbLine
 62
4
  6
CONTINUOUS
 10
-23.8324943245
 20
0.1185023673
 11
-23.8288267003
 21
0.1160215413
  0
LINE
  5
67E
100
AcDbEntity
  8
03___PRT_ALL_CURVES
100
AcDbLine
 62
4
  6
CONTINUOUS
 10
-23.8706088812
 20
0.1452360123
 11
-23.8742765055
 21
0.1477168383
  0
LINE
  5
67F
100
AcDbEntity
  8
03___PRT_ALL_CURVES
100
AcDbLine
 62
4
  6
CONTINUOUS
 10
-23.8031656421
 20
0.1008428003
 11
-23.8068332646
 21
0.1033236253
  0
LINE
  5
680
100
AcDbEntity
  8
03___PRT_ALL_CURVES
100
AcDbLine
 62
4
  6
CONTINUOUS
 10
-23.8080771137
 20
0.1055858811
 11
-23.8053263969
 21
0.1037252624
  0
LINE
  5
681
100
AcDbEntity
  8
03___PRT_ALL_CURVES
100
AcDbLine
 62
4
  6
CONTINUOUS
 10
-23.8441341752
 20
0.1336748859
 11
-23.8404665536
 21
0.1311940615
  0
LINE
  5
682
100
AcDbEntity
  8
LAY0001
100
AcDbLine
 62
7
  6
CONTINUOUS
 10
-26.0585989094
 20
1.7858009273
 11
-26.0689081265
 21
1.7928239267
  0
LINE
  5
683
100
AcDbEntity
  8
LAY0001
100
AcDbLine
 62
7
  6
CONTINUOUS
 10
-26.121836322
 20
1.7833519681
 11
-26.1230025803
 21
1.7841667894
  0
LINE
  5
684
100
AcDbEntity
  8
LAY0001
100
AcDbLine
 62
7
  6
CONTINUOUS
 10
-26.3224938979
 20
2.0274703009
 11
-26.323660166
 21
2.0282851345
  0
LINE
  5
685
100
AcDbEntity
  8
LAY0001
100
AcDbLine
 62
7
  6
CONTINUOUS
 10
-26.4030714561
 20
2.1194734006
 11
-26.4042377444
 21
2.1202882583
  0
LINE
  5
686
100
AcDbEntity
  8
LAY0001
100
AcDbLine
 62
7
  6
CONTINUOUS
 10
-26.4082756331
 20
2.1258671875
 11
-26.4094419214
 21
2.1266820451
  0
LINE
  5
687
100
AcDbEntity
  8
LAY0001
100
AcDbLine
 62
7
  6
CONTINUOUS
 10
-26.0698346266
 20
1.7951811927
 11
-26.0603484361
 21
1.7885124853
  0
LINE
  5
688
100
AcDbEntity
  8
0
100
AcDbLine
 62
7
  6
CONTINUOUS
 10
-23.9197145773
 20
4.3649162192
 11
-23.9206298175
 21
4.3704531571
  0
LINE
  5
689
100
AcDbEntity
  8
0
100
AcDbLine
 62
7
  6
CONTINUOUS
 10
-21.9358119971
 20
-0.2975000751
 11
-21.9352342459
 21
-0.363703797
  0
LINE
  5
68A
100
AcDbEntity
  8
0
100
AcDbLine
 62
7
  6
CONTINUOUS
 10
-22.2970133739
 20
-2.3872571313
 11
-22.2970133739
 21
-2.3911941392
  0
LINE
  5
68B
100
AcDbEntity
  8
0
100
AcDbLine
 62
7
  6
CONTINUOUS
 10
-21.8588243975
 20
-0.1215090998
 11
-21.8588243975
 21
-0.3715090998
  0
LINE
  5
68C
100
AcDbEntity
  8
0
100
AcDbLine
 62
7
  6
CONTINUOUS
 10
-21.9231349415
 20
-0.3202592846
 11
-21.923514076
 21
-0.363703797
  0
LINE
  5
68D
100
AcDbEntity
  8
0
100
AcDbLine
 62
7
  6
CONTINUOUS
 10
-21.9163067188
 20
-0.3202592846
 11
-21.9176092739
 21
-0.363703797
  0
LINE
  5
68E
100
AcDbEntity
  8
0
100
AcDbLine
 62
7
  6
CONTINUOUS
 10
-24.2813387695
 20
0.4137893151
 11
-24.3056315777
 21
0.3717129371
  0
LINE
  5
68F
100
AcDbEntity
  8
03___PRT_ALL_CURVES
100
AcDbLine
 62
4
  6
CONTINUOUS
 10
-24.2582554989
 20
0.3637707127
 11
-24.2576655372
 21
0.3647925563
  0
LINE
  5
690
100
AcDbEntity
  8
03___PRT_ALL_CURVES
100
AcDbLine
 62
4
  6
CONTINUOUS
 10
-24.2519674497
 20
0.3614119334
 11
-24.2522820959
 21
0.3608669501
  0
LINE
  5
691
100
AcDbEntity
  8
03___PRT_ALL_CURVES
100
AcDbLine
 62
4
  6
CONTINUOUS
 10
-24.2436759685
 20
0.3558982001
 11
-24.2439119531
 21
0.3554894627
  0
LINE
  5
692
100
AcDbEntity
  8
03___PRT_ALL_CURVES
100
AcDbLine
 62
4
  6
CONTINUOUS
 10
-24.2268963521
 20
0.3452113482
 11
-24.2263063904
 21
0.3462331918
  0
LINE
  5
693
100
AcDbEntity
  8
03___PRT_ALL_CURVES
100
AcDbLine
 62
4
  6
CONTINUOUS
 10
-24.2205689721
 20
0.3429206918
 11
-24.2211589338
 21
0.3418988482
  0
LINE
  5
694
100
AcDbEntity
  8
03___PRT_ALL_CURVES
100
AcDbLine
 62
4
  6
CONTINUOUS
 10
-24.2141383206
 20
0.3363922066
 11
-24.212289774
 21
0.3395939831
  0
LINE
  5
695
100
AcDbEntity
  8
03___PRT_ALL_CURVES
100
AcDbLine
 62
4
  6
CONTINUOUS
 10
-24.2068276712
 20
0.3358046228
 11
-24.2084009023
 21
0.3330797066
  0
LINE
  5
696
100
AcDbEntity
  8
03___PRT_ALL_CURVES
100
AcDbLine
 62
4
  6
CONTINUOUS
 10
-24.1813903135
 20
0.3180301191
 11
-24.1797777516
 21
0.3208231582
  0
LINE
  5
697
100
AcDbEntity
  8
03___PRT_ALL_CURVES
100
AcDbLine
 62
4
  6
CONTINUOUS
 10
-24.1740403333
 20
0.3175106582
 11
-24.1758888799
 21
0.3143088817
  0
LINE
  5
698
100
AcDbEntity
  8
03___PRT_ALL_CURVES
100
AcDbLine
 62
4
  6
CONTINUOUS
 10
-24.1682389742
 20
0.3098922066
 11
-24.1663904276
 21
0.3130939831
  0
LINE
  5
699
100
AcDbEntity
  8
03___PRT_ALL_CURVES
100
AcDbLine
 62
4
  6
CONTINUOUS
 10
-24.1606530312
 20
0.3097814958
 11
-24.1625015778
 21
0.3065797192
  0
LINE
  5
69A
100
AcDbEntity
  8
03___PRT_ALL_CURVES
100
AcDbLine
 62
4
  6
CONTINUOUS
 10
-24.1432542373
 20
0.3023753905
 11
-24.1430575834
 21
0.302716005
  0
LINE
  5
69B
100
AcDbEntity
  8
03___PRT_ALL_CURVES
100
AcDbLine
 62
4
  6
CONTINUOUS
 10
-24.1277578159
 20
0.2938826801
 11
-24.1261059232
 21
0.2967438421
  0
LINE
  5
69C
100
AcDbEntity
  8
03___PRT_ALL_CURVES
100
AcDbLine
 62
4
  6
CONTINUOUS
 10
-24.1203685049
 20
0.2934313421
 11
-24.1220203976
 21
0.2905701801
  0
LINE
  5
69D
100
AcDbEntity
  8
03___PRT_ALL_CURVES
100
AcDbLine
 62
4
  6
CONTINUOUS
 10
-24.1067206082
 20
0.2817368425
 11
-24.106917262
 21
0.281396228
  0
LINE
  5
69E
100
AcDbEntity
  8
03___PRT_ALL_CURVES
100
AcDbLine
 62
4
  6
CONTINUOUS
 10
-24.0533680319
 20
0.2504795656
 11
-24.0531320472
 21
0.250888303
  0
LINE
  5
69F
100
AcDbEntity
  8
03___PRT_ALL_CURVES
100
AcDbLine
 62
4
  6
CONTINUOUS
 10
-24.05175547
 20
0.2532726047
 11
-24.0515194853
 21
0.2536813421
  0
LINE
  5
6A0
100
AcDbEntity
  8
03___PRT_ALL_CURVES
100
AcDbLine
 62
4
  6
CONTINUOUS
 10
-24.0538568902
 20
0.2452161378
 11
-24.0540142134
 21
0.244943646
  0
LINE
  5
6A1
100
AcDbEntity
  8
03___PRT_ALL_CURVES
100
AcDbLine
 62
4
  6
CONTINUOUS
 10
-24.0487957942
 20
0.2495655633
 11
-24.0485598096
 21
0.2499743007
  0
LINE
  5
6A2
100
AcDbEntity
  8
03___PRT_ALL_CURVES
100
AcDbLine
 62
4
  6
CONTINUOUS
 10
-24.0481588026
 20
0.2418355149
 11
-24.0482767951
 21
0.241631146
  0
LINE
  5
6A3
100
AcDbEntity
  8
03___PRT_ALL_CURVES
100
AcDbLine
 62
4
  6
CONTINUOUS
 10
-24.0236976709
 20
0.2356201382
 11
-24.0230683785
 21
0.2367101047
  0
LINE
  5
6A4
100
AcDbEntity
  8
03___PRT_ALL_CURVES
100
AcDbLine
 62
4
  6
CONTINUOUS
 10
-24.0244449557
 20
0.234325803
 11
-24.0239336556
 21
0.2352114008
  0
LINE
  5
6A5
100
AcDbEntity
  8
03___PRT_ALL_CURVES
100
AcDbLine
 62
4
  6
CONTINUOUS
 10
-24.0246068847
 20
0.2274203337
 11
-24.024016923
 21
0.2284421774
  0
LINE
  5
6A6
100
AcDbEntity
  8
03___PRT_ALL_CURVES
100
AcDbLine
 62
4
  6
CONTINUOUS
 10
-24.022954992
 20
0.2302814958
 11
-24.0237809384
 21
0.2288509147
  0
LINE
  5
6A7
100
AcDbEntity
  8
03___PRT_ALL_CURVES
100
AcDbLine
 62
4
  6
CONTINUOUS
 10
-24.0170949755
 20
0.2338063421
 11
-24.0189435221
 21
0.2306045656
  0
LINE
  5
6A8
100
AcDbEntity
  8
03___PRT_ALL_CURVES
100
AcDbLine
 62
4
  6
CONTINUOUS
 10
-24.0190661203
 20
0.2237672192
 11
-24.0172175737
 21
0.2269689958
  0
LINE
  5
6A9
100
AcDbEntity
  8
03___PRT_ALL_CURVES
100
AcDbLine
 62
4
  6
CONTINUOUS
 10
-24.0112936164
 20
0.2261878905
 11
-24.0110969625
 21
0.226528505
  0
LINE
  5
6AA
100
AcDbEntity
  8
03___PRT_ALL_CURVES
100
AcDbLine
 62
4
  6
CONTINUOUS
 10
-24.0107869221
 20
0.2204405107
 11
-24.0101969605
 21
0.2214623542
  0
LINE
  5
6AB
100
AcDbEntity
  8
03___PRT_ALL_CURVES
100
AcDbLine
 62
4
  6
CONTINUOUS
 10
-24.0050495038
 20
0.2171280107
 11
-24.0044595422
 21
0.2181498542
  0
LINE
  5
6AC
100
AcDbEntity
  8
03___PRT_ALL_CURVES
100
AcDbLine
 62
4
  6
CONTINUOUS
 10
-23.995797195
 20
0.2176951801
 11
-23.9941453023
 21
0.2205563421
  0
LINE
  5
6AD
100
AcDbEntity
  8
03___PRT_ALL_CURVES
100
AcDbLine
 62
4
  6
CONTINUOUS
 10
-23.988407884
 20
0.2172438421
 11
-23.9900597767
 21
0.2143826801
  0
LINE
  5
6AE
100
AcDbEntity
  8
03___PRT_ALL_CURVES
100
AcDbLine
 62
4
  6
CONTINUOUS
 10
-23.9772916194
 20
0.203372752
 11
-23.9786681966
 21
0.2009884503
  0
LINE
  5
6AF
100
AcDbEntity
  8
03___PRT_ALL_CURVES
100
AcDbLine
 62
4
  6
CONTINUOUS
 10
-23.9747599873
 20
0.2055493425
 11
-23.9749566411
 21
0.205208728
  0
LINE
  5
6B0
100
AcDbEntity
  8
03___PRT_ALL_CURVES
100
AcDbLine
 62
4
  6
CONTINUOUS
 10
-23.9713182164
 20
0.2004689895
 11
-23.9731667629
 21
0.1972672129
  0
LINE
  5
6B1
100
AcDbEntity
  8
03___PRT_ALL_CURVES
100
AcDbLine
 62
4
  6
CONTINUOUS
 10
-23.9198612056
 20
0.1747618217
 11
-23.9200185288
 21
0.1744893299
  0
LINE
  5
6B2
100
AcDbEntity
  8
03___PRT_ALL_CURVES
100
AcDbLine
 62
4
  6
CONTINUOUS
 10
-23.9196175328
 20
0.1663505505
 11
-23.9193815481
 21
0.1667592878
  0
LINE
  5
6B3
100
AcDbEntity
  8
03___PRT_ALL_CURVES
100
AcDbLine
 62
4
  6
CONTINUOUS
 10
-23.9180049709
 20
0.1691435896
 11
-23.9177689862
 21
0.169552327
  0
LINE
  5
6B4
100
AcDbEntity
  8
03___PRT_ALL_CURVES
100
AcDbLine
 62
4
  6
CONTINUOUS
 10
-23.914163118
 20
0.1713811988
 11
-23.9142811105
 21
0.1711768299
  0
LINE
  5
6B5
100
AcDbEntity
  8
03___PRT_ALL_CURVES
100
AcDbLine
 62
4
  6
CONTINUOUS
 10
-23.9150452951
 20
0.1654365481
 11
-23.9148093105
 21
0.1658452855
  0
LINE
  5
6B6
100
AcDbEntity
  8
03___PRT_ALL_CURVES
100
AcDbLine
 62
4
  6
CONTINUOUS
 10
-23.8906111892
 20
0.1569660113
 11
-23.8900212275
 21
0.1579878549
  0
LINE
  5
6B7
100
AcDbEntity
  8
03___PRT_ALL_CURVES
100
AcDbLine
 62
4
  6
CONTINUOUS
 10
-23.8889592965
 20
0.1598271734
 11
-23.8897852428
 21
0.1583965923
  0
LINE
  5
6B8
100
AcDbEntity
  8
03___PRT_ALL_CURVES
100
AcDbLine
 62
4
  6
CONTINUOUS
 10
-23.8899471664
 20
0.1514911199
 11
-23.8893178739
 21
0.1525810864
  0
LINE
  5
6B9
100
AcDbEntity
  8
03___PRT_ALL_CURVES
100
AcDbLine
 62
4
  6
CONTINUOUS
 10
-23.8906944512
 20
0.1501967847
 11
-23.890183151
 21
0.1510823825
  0
LINE
  5
6BA
100
AcDbEntity
  8
03___PRT_ALL_CURVES
100
AcDbLine
 62
4
  6
CONTINUOUS
 10
-23.8850704193
 20
0.1533128937
 11
-23.8832218727
 21
0.1565146702
  0
LINE
  5
6BB
100
AcDbEntity
  8
03___PRT_ALL_CURVES
100
AcDbLine
 62
4
  6
CONTINUOUS
 10
-23.8833444709
 20
0.1496773238
 11
-23.8851930175
 21
0.1464755473
  0
LINE
  5
6BC
100
AcDbEntity
  8
03___PRT_ALL_CURVES
100
AcDbLine
 62
4
  6
CONTINUOUS
 10
-23.8767912375
 20
0.1499861946
 11
-23.8762012759
 21
0.1510080381
  0
LINE
  5
6BD
100
AcDbEntity
  8
03___PRT_ALL_CURVES
100
AcDbLine
 62
4
  6
CONTINUOUS
 10
-23.8775431283
 20
0.1420588817
 11
-23.8773071436
 21
0.1424676191
  0
LINE
  5
6BE
100
AcDbEntity
  8
03___PRT_ALL_CURVES
100
AcDbLine
 62
4
  6
CONTINUOUS
 10
-23.8759305664
 20
0.1448519208
 11
-23.8756945817
 21
0.1452606582
  0
LINE
  5
6BF
100
AcDbEntity
  8
03___PRT_ALL_CURVES
100
AcDbLine
 62
4
  6
CONTINUOUS
 10
-23.8710538192
 20
0.1466736946
 11
-23.8704638576
 21
0.1476955381
  0
LINE
  5
6C0
100
AcDbEntity
  8
03___PRT_ALL_CURVES
100
AcDbLine
 62
4
  6
CONTINUOUS
 10
-23.8729708961
 20
0.1411448825
 11
-23.8727349115
 21
0.1415536199
  0
LINE
  5
6C1
100
AcDbEntity
  8
03___PRT_ALL_CURVES
100
AcDbLine
 62
4
  6
CONTINUOUS
 10
-23.8478727673
 20
0.1271994543
 11
-23.8472434749
 21
0.1282894208
  0
LINE
  5
6C2
100
AcDbEntity
  8
03___PRT_ALL_CURVES
100
AcDbLine
 62
4
  6
CONTINUOUS
 10
-23.8486200521
 20
0.1259051191
 11
-23.848108752
 21
0.1267907169
  0
LINE
  5
6C3
100
AcDbEntity
  8
03___PRT_ALL_CURVES
100
AcDbLine
 62
4
  6
CONTINUOUS
 10
-23.843689237
 20
0.1322372038
 11
-23.8442791987
 21
0.1312153602
  0
LINE
  5
6C4
100
AcDbEntity
  8
03___PRT_ALL_CURVES
100
AcDbLine
 62
4
  6
CONTINUOUS
 10
-23.8412700719
 20
0.1253856582
 11
-23.8431186185
 21
0.1221838817
  0
LINE
  5
6C5
100
AcDbEntity
  8
03___PRT_ALL_CURVES
100
AcDbLine
 62
4
  6
CONTINUOUS
 10
-23.8379518215
 20
0.1289247053
 11
-23.8385417831
 21
0.1279028618
  0
LINE
  5
6C6
100
AcDbEntity
  8
03___PRT_ALL_CURVES
100
AcDbLine
 62
4
  6
CONTINUOUS
 10
-23.8340528185
 20
0.1202196391
 11
-23.8342494723
 21
0.1198790246
  0
LINE
  5
6C7
100
AcDbEntity
  8
03___PRT_ALL_CURVES
100
AcDbLine
 62
4
  6
CONTINUOUS
 10
-23.8315211836
 20
0.122396228
 11
-23.831285199
 21
0.1228049654
  0
LINE
  5
6C8
100
AcDbEntity
  8
03___PRT_ALL_CURVES
100
AcDbLine
 62
4
  6
CONTINUOUS
 10
-23.8269489542
 20
0.1214822305
 11
-23.8267129696
 21
0.1218909679
  0
LINE
  5
6C9
100
AcDbEntity
  8
03___PRT_ALL_CURVES
100
AcDbLine
 62
4
  6
CONTINUOUS
 10
-23.8284727233
 20
0.1166346475
 11
-23.828354731
 21
0.1168390162
  0
LINE
  5
6CA
100
AcDbEntity
  8
03___PRT_ALL_CURVES
100
AcDbLine
 62
4
  6
CONTINUOUS
 10
-23.8081434777
 20
0.1032626024
 11
-23.8082221393
 21
0.1031263566
  0
LINE
  5
6CB
100
AcDbEntity
  8
03___PRT_ALL_CURVES
100
AcDbLine
 62
4
  6
CONTINUOUS
 10
-23.8018508227
 20
0.1075368007
 11
-23.8009855456
 21
0.1090355046
  0
LINE
  5
6CC
100
AcDbEntity
  8
03___PRT_ALL_CURVES
100
AcDbLine
 62
4
  6
CONTINUOUS
 10
-23.8025981075
 20
0.1062424654
 11
-23.8020868073
 21
0.1071280633
  0
LINE
  5
6CD
100
AcDbEntity
  8
03___PRT_ALL_CURVES
100
AcDbLine
 62
4
  6
CONTINUOUS
 10
-23.8025240518
 20
0.0997457335
 11
-23.8023667286
 21
0.1000182253
  0
LINE
  5
6CE
100
AcDbEntity
  8
03___PRT_ALL_CURVES
100
AcDbLine
 62
4
  6
CONTINUOUS
 10
-23.7952481273
 20
0.1057230046
 11
-23.7970966738
 21
0.102521228
  0
LINE
  5
6CF
100
AcDbEntity
  8
0
100
AcDbLine
 62
7
  6
CONTINUOUS
 10
-23.7400728922
 20
0.1012893151
 11
-23.7643657003
 21
0.0592129371
  0
LINE
  5
6D0
100
AcDbEntity
  8
LAY0001
100
AcDbLine
 62
7
  6
CONTINUOUS
 10
-26.1644536086
 20
1.8408504306
 11
-26.1684179474
 21
1.8375239554
  0
LINE
  5
6D1
100
AcDbEntity
  8
LAY0001
100
AcDbLine
 62
7
  6
CONTINUOUS
 10
-26.1542884414
 20
1.8206850659
 11
-26.1547603864
 21
1.820289057
  0
LINE
  5
6D2
100
AcDbEntity
  8
LAY0001
100
AcDbLine
 62
7
  6
CONTINUOUS
 10
-26.1442976237
 20
1.8147208706
 11
-26.1447695688
 21
1.8143248617
  0
LINE
  5
6D3
100
AcDbEntity
  8
LAY0001
100
AcDbLine
 62
7
  6
CONTINUOUS
 10
-26.1393766138
 20
1.8080894784
 11
-26.1390934467
 21
1.8083270838
  0
LINE
  5
6D4
100
AcDbEntity
  8
LAY0001
100
AcDbLine
 62
7
  6
CONTINUOUS
 10
-26.0961772372
 20
1.8253219873
 11
-26.0958070166
 21
1.8256326393
  0
LINE
  5
6D5
100
AcDbEntity
  8
LAY0001
100
AcDbLine
 62
7
  6
CONTINUOUS
 10
-26.0936473958
 20
1.8274447763
 11
-26.0932771751
 21
1.8277554284
  0
LINE
  5
6D6
100
AcDbEntity
  8
LAY0001
100
AcDbLine
 62
7
  6
CONTINUOUS
 10
-26.0929468218
 20
1.8238530305
 11
-26.0925766012
 21
1.8241636825
  0
LINE
  5
6D7
100
AcDbEntity
  8
LAY0001
100
AcDbLine
 62
7
  6
CONTINUOUS
 10
-26.121647544
 20
1.7835103717
 11
-26.121836322
 21
1.7833519681
  0
LINE
  5
6D8
100
AcDbEntity
  8
LAY0001
100
AcDbLine
 62
7
  6
CONTINUOUS
 10
-26.1166321453
 20
1.776958181
 11
-26.116254589
 21
1.7772749884
  0
LINE
  5
6D9
100
AcDbEntity
  8
LAY0001
100
AcDbLine
 62
7
  6
CONTINUOUS
 10
-26.0791993065
 20
1.8082212435
 11
-26.0782120513
 21
1.809049649
  0
LINE
  5
6DA
100
AcDbEntity
  8
LAY0001
100
AcDbLine
 62
7
  6
CONTINUOUS
 10
-26.080371672
 20
1.807237512
 11
-26.0795695271
 21
1.8079105915
  0
LINE
  5
6DB
100
AcDbEntity
  8
LAY0001
100
AcDbLine
 62
7
  6
CONTINUOUS
 10
-26.0747547616
 20
1.8056812755
 11
-26.0776548238
 21
1.8032478345
  0
LINE
  5
6DC
100
AcDbEntity
  8
LAY0001
100
AcDbLine
 62
7
  6
CONTINUOUS
 10
-26.0735387299
 20
1.7983424649
 11
-26.0706386678
 21
1.8007759059
  0
LINE
  5
6DD
100
AcDbEntity
  8
LAY0001
100
AcDbLine
 62
7
  6
CONTINUOUS
 10
-26.1079563884
 20
1.7645102242
 11
-26.1073900543
 21
1.7649854349
  0
LINE
  5
6DE
100
AcDbEntity
  8
LAY0001
100
AcDbLine
 62
7
  6
CONTINUOUS
 10
-26.1040864387
 20
1.7677574976
 11
-26.1035201046
 21
1.7682327083
  0
LINE
  5
6DF
100
AcDbEntity
  8
LAY0001
100
AcDbLine
 62
7
  6
CONTINUOUS
 10
-26.0675515989
 20
1.7970968804
 11
-26.0698346266
 21
1.7951811927
  0
LINE
  5
6E0
100
AcDbEntity
  8
LAY0001
100
AcDbLine
 62
7
  6
CONTINUOUS
 10
-26.102630618
 20
1.7618053328
 11
-26.1020642839
 21
1.7622805435
  0
LINE
  5
6E1
100
AcDbEntity
  8
LAY0001
100
AcDbLine
 62
7
  6
CONTINUOUS
 10
-26.0513122131
 20
1.7731070399
 11
-26.0490291854
 21
1.7750227276
  0
LINE
  5
6E2
100
AcDbEntity
  8
LAY0001
100
AcDbLine
 62
7
  6
CONTINUOUS
 10
-26.0459421165
 20
1.7713437022
 11
-26.0488421786
 21
1.7689102611
  0
LINE
  5
6E3
100
AcDbEntity
  8
LAY0001
100
AcDbLine
 62
7
  6
CONTINUOUS
 10
-26.0437388325
 20
1.7648333005
 11
-26.0428132807
 21
1.7656099306
  0
LINE
  5
6E4
100
AcDbEntity
  8
LAY0001
100
AcDbLine
 62
7
  6
CONTINUOUS
 10
-26.0791038329
 20
1.7349173435
 11
-26.0775936086
 21
1.7361845722
  0
LINE
  5
6E5
100
AcDbEntity
  8
LAY0001
100
AcDbLine
 62
7
  6
CONTINUOUS
 10
-26.0808972243
 20
1.7334125095
 11
-26.079670167
 21
1.7344421329
  0
LINE
  5
6E6
100
AcDbEntity
  8
LAY0001
100
AcDbLine
 62
7
  6
CONTINUOUS
 10
-26.0406517635
 20
1.761154275
 11
-26.0397262118
 21
1.7619309051
  0
LINE
  5
6E7
100
AcDbEntity
  8
LAY0001
100
AcDbLine
 62
7
  6
CONTINUOUS
 10
-26.071728706
 20
1.7303451949
 11
-26.0761649898
 21
1.7266227107
  0
LINE
  5
6E8
100
AcDbEntity
  8
LAY0001
100
AcDbLine
 62
7
  6
CONTINUOUS
 10
-26.0691002368
 20
1.718203266
 11
-26.0686282918
 21
1.7185992749
  0
LINE
  5
6E9
100
AcDbEntity
  8
LAY0001
100
AcDbLine
 62
7
  6
CONTINUOUS
 10
-26.0253198892
 20
1.7447621184
 11
-26.026245441
 21
1.7439854883
  0
LINE
  5
6EA
100
AcDbEntity
  8
LAY0001
100
AcDbLine
 62
7
  6
CONTINUOUS
 10
-26.0222328203
 20
1.741083093
 11
-26.023158372
 21
1.7403064629
  0
LINE
  5
6EB
100
AcDbEntity
  8
LAY0001
100
AcDbLine
 62
7
  6
CONTINUOUS
 10
-26.0200295349
 20
1.7345726895
 11
-26.0171294728
 21
1.7370061305
  0
LINE
  5
6EC
100
AcDbEntity
  8
LAY0001
100
AcDbLine
 62
7
  6
CONTINUOUS
 10
-26.054498782
 20
1.7017603808
 11
-26.0505344432
 21
1.7050868561
  0
LINE
  5
6ED
100
AcDbEntity
  8
LAY0001
100
AcDbLine
 62
7
  6
CONTINUOUS
 10
-26.0140424039
 20
1.7333271051
 11
-26.0153998798
 21
1.7321880475
  0
LINE
  5
6EE
100
AcDbEntity
  8
LAY0001
100
AcDbLine
 62
7
  6
CONTINUOUS
 10
-26.0157701004
 20
1.7318773955
 11
-26.016942466
 21
1.730893664
  0
LINE
  5
6EF
100
AcDbEntity
  8
LAY0001
100
AcDbLine
 62
7
  6
CONTINUOUS
 10
-26.0452358772
 20
1.698772271
 11
-26.049200216
 21
1.6954457958
  0
LINE
  5
6F0
100
AcDbEntity
  8
LAY0001
100
AcDbLine
 62
7
  6
CONTINUOUS
 10
-26.0009935587
 20
1.7150192626
 11
-25.9996360828
 21
1.7161583201
  0
LINE
  5
6F1
100
AcDbEntity
  8
LAY0001
100
AcDbLine
 62
7
  6
CONTINUOUS
 10
-26.0025361449
 20
1.7137248791
 11
-26.0013637793
 21
1.7147086106
  0
LINE
  5
6F2
100
AcDbEntity
  8
LAY0001
100
AcDbLine
 62
7
  6
CONTINUOUS
 10
-25.9965490139
 20
1.7124792946
 11
-25.999449076
 21
1.7100458536
  0
LINE
  5
6F3
100
AcDbEntity
  8
LAY0001
100
AcDbLine
 62
7
  6
CONTINUOUS
 10
-26.0350707063
 20
1.6786069017
 11
-26.0355426513
 21
1.6782108928
  0
LINE
  5
6F4
100
AcDbEntity
  8
LAY0001
100
AcDbLine
 62
7
  6
CONTINUOUS
 10
-25.9914797808
 20
1.6742705916
 11
-25.9866167292
 21
1.6783511765
  0
LINE
  5
6F5
100
AcDbEntity
  8
LAY0001
100
AcDbLine
 62
7
  6
CONTINUOUS
 10
-25.9850810288
 20
1.6796397821
 11
-25.979450127
 21
1.6843646697
  0
LINE
  5
6F6
100
AcDbEntity
  8
LAY0001
100
AcDbLine
 62
7
  6
CONTINUOUS
 10
-25.9430230435
 20
1.640952562
 11
-25.9550526973
 21
1.630858484
  0
LINE
  5
6F7
100
AcDbEntity
  8
1_ALL_PLANES
100
AcDbLine
 62
7
  6
CONTINUOUS
 10
-25.8614338312
 20
1.5752905515
 11
-25.9197003707
 21
1.5263991197
  0
LINE
  5
6F8
100
AcDbEntity
  8
0
100
AcDbLine
 62
7
  6
CONTINUOUS
 10
-25.8138643919
 20
1.6002758678
 11
-25.9161919087
 21
1.5144128862
  0
LINE
  5
6F9
100
AcDbEntity
  8
0
100
AcDbLine
 62
7
  6
CONTINUOUS
 10
-26.9724269771
 20
3.0393849567
 11
-27.0319891347
 21
3.0116106665
  0
LINE
  5
6FA
100
AcDbEntity
  8
0
100
AcDbLine
 62
7
  6
CONTINUOUS
 10
-26.9401762428
 20
2.9892636078
 11
-27.0072054281
 21
2.9580073853
  0
LINE
  5
6FB
100
AcDbEntity
  8
0
100
AcDbLine
 62
7
  6
CONTINUOUS
 10
-19.5323186097
 20
-0.7652098872
 11
-23.3353301853
 21
-0.7652098872
  0
LINE
  5
6FC
100
AcDbEntity
  8
0
100
AcDbLine
 62
7
  6
CONTINUOUS
 10
-19.6448953546
 20
-0.3715090998
 11
-23.2227534404
 21
-0.3715090998
  0
LINE
  5
6FD
100
AcDbEntity
  8
03___PRT_ALL_CURVES
100
AcDbLine
 62
4
  6
CONTINUOUS
 10
-24.1419609275
 20
0.2979904687
 11
-24.1491142538
 21
0.2988505441
  0
LINE
  5
6FE
100
AcDbEntity
  8
03___PRT_ALL_CURVES
100
AcDbLine
 62
4
  6
CONTINUOUS
 10
-24.1548516721
 20
0.3021630441
 11
-24.1453532418
 21
0.3009481582
  0
LINE
  5
6FF
100
AcDbEntity
  8
03___PRT_ALL_CURVES
100
AcDbLine
 62
4
  6
CONTINUOUS
 10
-23.8385417831
 20
0.1279028618
 11
-23.8396946726
 21
0.1281143299
  0
LINE
  5
700
100
AcDbEntity
  8
03___PRT_ALL_CURVES
100
AcDbLine
 62
4
  6
CONTINUOUS
 10
-23.8762012759
 20
0.1510080381
 11
-23.8750483838
 21
0.1507965682
  0
LINE
  5
701
100
AcDbEntity
  8
03___PRT_ALL_CURVES
100
AcDbLine
 62
4
  6
CONTINUOUS
 10
-24.0101969605
 20
0.2214623542
 11
-24.0090440848
 21
0.2212508938
  0
LINE
  5
702
100
AcDbEntity
  8
03___PRT_ALL_CURVES
100
AcDbLine
 62
4
  6
CONTINUOUS
 10
-24.2211589338
 20
0.3418988482
 11
-24.2223118095
 21
0.3421103085
  0
LINE
  5
703
100
AcDbEntity
  8
03___PRT_ALL_CURVES
100
AcDbLine
 62
4
  6
CONTINUOUS
 10
-24.131548022
 20
0.2895261502
 11
-24.1224035686
 21
0.2876981582
  0
LINE
  5
704
100
AcDbEntity
  8
03___PRT_ALL_CURVES
100
AcDbLine
 62
4
  6
CONTINUOUS
 10
-24.1190112543
 20
0.2847404687
 11
-24.128077068
 21
0.2867047192
  0
LINE
  5
705
100
AcDbEntity
  8
03___PRT_ALL_CURVES
100
AcDbLine
 62
4
  6
CONTINUOUS
 10
-23.8036376114
 20
0.1000253254
 11
-23.8025240518
 21
0.0997457335
  0
LINE
  5
706
100
AcDbEntity
  8
03___PRT_ALL_CURVES
100
AcDbLine
 62
4
  6
CONTINUOUS
 10
-23.8442791987
 20
0.1312153602
 11
-23.84539276
 21
0.131494953
  0
LINE
  5
707
100
AcDbEntity
  8
03___PRT_ALL_CURVES
100
AcDbLine
 62
4
  6
CONTINUOUS
 10
-23.8704638576
 20
0.1476955381
 11
-23.8693502963
 21
0.1474159453
  0
LINE
  5
708
100
AcDbEntity
  8
03___PRT_ALL_CURVES
100
AcDbLine
 62
4
  6
CONTINUOUS
 10
-24.0044595422
 20
0.2181498542
 11
-24.0033459973
 21
0.2178702709
  0
LINE
  5
709
100
AcDbEntity
  8
03___PRT_ALL_CURVES
100
AcDbLine
 62
4
  6
CONTINUOUS
 10
-24.228009897
 20
0.3454909315
 11
-24.2268963521
 21
0.3452113482
  0
LINE
  5
70A
100
AcDbEntity
  8
03___PRT_ALL_CURVES
100
AcDbLine
 62
4
  6
CONTINUOUS
 10
-24.2576655372
 20
0.3647925563
 11
-24.2565519923
 21
0.364512973
  0
LINE
  5
70B
100
AcDbEntity
  8
03___PRT_ALL_CURVES
100
AcDbLine
 62
4
  6
CONTINUOUS
 10
-23.9187869805
 20
0.1744141092
 11
-23.9198612056
 21
0.1747618217
  0
LINE
  5
70C
100
AcDbEntity
  8
03___PRT_ALL_CURVES
100
AcDbLine
 62
4
  6
CONTINUOUS
 10
-24.0470845885
 20
0.2414878087
 11
-24.0481588026
 21
0.2418355149
  0
LINE
  5
70D
100
AcDbEntity
  8
03___PRT_ALL_CURVES
100
AcDbLine
 62
4
  6
CONTINUOUS
 10
-24.0527826761
 20
0.2448684316
 11
-24.0538568902
 21
0.2452161378
  0
LINE
  5
70E
100
AcDbEntity
  8
03___PRT_ALL_CURVES
100
AcDbLine
 62
4
  6
CONTINUOUS
 10
-24.07235234
 20
0.2573477793
 11
-24.0820203985
 21
0.2604772108
  0
LINE
  5
70F
100
AcDbEntity
  8
03___PRT_ALL_CURVES
100
AcDbLine
 62
4
  6
CONTINUOUS
 10
-24.0712387732
 20
0.2570681834
 11
-24.0669418511
 21
0.2556773207
  0
LINE
  5
710
100
AcDbEntity
  8
03___PRT_ALL_CURVES
100
AcDbLine
 62
4
  6
CONTINUOUS
 10
-24.2508932356
 20
0.3610642272
 11
-24.2519674497
 21
0.3614119334
  0
LINE
  5
711
100
AcDbEntity
  8
03___PRT_ALL_CURVES
100
AcDbLine
 62
4
  6
CONTINUOUS
 10
-24.0612044328
 20
0.2523648207
 11
-24.0783527688
 21
0.2579963817
  0
LINE
  5
712
100
AcDbEntity
  8
LAY0001
100
AcDbLine
 62
7
  6
CONTINUOUS
 10
-26.023158372
 20
1.7403064629
 11
-26.0239814019
 21
1.7406607581
  0
LINE
  5
713
100
AcDbEntity
  8
LAY0001
100
AcDbLine
 62
7
  6
CONTINUOUS
 10
-26.0428132807
 20
1.7656099306
 11
-26.0419902511
 21
1.7652556352
  0
LINE
  5
714
100
AcDbEntity
  8
LAY0001
100
AcDbLine
 62
7
  6
CONTINUOUS
 10
-26.3298072254
 20
2.1057563355
 11
-26.3306302464
 21
2.1061106202
  0
LINE
  5
715
100
AcDbEntity
  8
LAY0001
100
AcDbLine
 62
7
  6
CONTINUOUS
 10
-26.5050505882
 20
2.3171094555
 11
-26.5058736326
 21
2.3174637685
  0
LINE
  5
716
100
AcDbEntity
  8
LAY0001
100
AcDbLine
 62
7
  6
CONTINUOUS
 10
-26.328958732
 20
2.0345997195
 11
-26.3276036858
 21
2.0339432896
  0
LINE
  5
717
100
AcDbEntity
  8
LAY0001
100
AcDbLine
 62
7
  6
CONTINUOUS
 10
-26.5942645882
 20
2.350012166
 11
-26.5929095624
 21
2.3493557601
  0
LINE
  5
718
100
AcDbEntity
  8
02___PRT_ALL_AXES
100
AcDbLine
 62
7
  6
CONTINUOUS
 10
-20.9338243975
 20
-0.1215090998
 11
-20.9338243975
 21
-0.3680156557
  0
LINE
  5
719
100
AcDbEntity
  8
02___PRT_ALL_AXES
100
AcDbLine
 62
7
  6
CONTINUOUS
 10
-20.6838243975
 20
-0.1215090998
 11
-20.6838243975
 21
-0.220190707
  0
LINE
  5
71A
100
AcDbEntity
  8
0
100
AcDbLine
 62
7
  6
CONTINUOUS
 10
-20.5470133739
 20
-2.3872571313
 11
-20.5470133739
 21
-2.3911941392
  0
LINE
  5
71B
100
AcDbEntity
  8
0
100
AcDbLine
 62
7
  6
CONTINUOUS
 10
-20.9324145491
 20
-0.363703797
 11
-20.931836356
 21
-0.2974494313
  0
LINE
  5
71C
100
AcDbEntity
  8
0
100
AcDbLine
 62
7
  6
CONTINUOUS
 10
-20.3332573032
 20
-0.182464009
 11
-20.3348389588
 21
-0.363703797
  0
LINE
  5
71D
100
AcDbEntity
  8
0
100
AcDbLine
 62
7
  6
CONTINUOUS
 10
-23.4905626663
 20
0.0334537034
 11
-23.4866352488
 21
0.04025619
  0
LINE
  5
71E
100
AcDbEntity
  8
0
100
AcDbLine
 62
3
  6
CONTINUOUS
 10
-23.4905626663
 20
0.0334537034
 11
-23.5461069451
 21
-0.0627518096
  0
LINE
  5
71F
100
AcDbEntity
  8
0
100
AcDbLine
 62
7
  6
CONTINUOUS
 10
-21.8588243975
 20
-0.3124539817
 11
-21.9152612255
 21
-0.3124539817
  0
LINE
  5
720
100
AcDbEntity
  8
0
100
AcDbLine
 62
7
  6
CONTINUOUS
 10
-20.1013203259
 20
-0.1746587061
 11
-20.3253835872
 21
-0.1746587061
  0
LINE
  5
721
100
AcDbEntity
  8
0
100
AcDbLine
 62
7
  6
CONTINUOUS
 10
-20.09344661
 20
-0.182464009
 11
-20.0918649543
 21
-0.363703797
  0
LINE
  5
722
100
AcDbEntity
  8
0
100
AcDbLine
 62
7
  6
CONTINUOUS
 10
-19.9575145606
 20
-0.363703797
 11
-19.9595142257
 21
-0.1345648663
  0
LINE
  5
723
100
AcDbEntity
  8
0
100
AcDbLine
 62
7
  6
CONTINUOUS
 10
-19.5244448937
 20
-0.7572671586
 11
-19.5267896156
 21
-0.4885886429
  0
LINE
  5
724
100
AcDbEntity
  8
0
100
AcDbLine
 62
7
  6
CONTINUOUS
 10
-20.1908322715
 20
7.5810258824
 11
-20.1908322715
 21
7.4458071182
  0
LINE
  5
725
100
AcDbEntity
  8
0
100
AcDbLine
 62
7
  6
CONTINUOUS
 10
-20.1908322715
 20
4.7883813697
 11
-20.1908322715
 21
4.6463515193
  0
LINE
  5
726
100
AcDbEntity
  8
0
100
AcDbLine
 62
7
  6
CONTINUOUS
 10
-20.0144844529
 20
-0.140371196
 11
-20.016433447
 21
-0.363703797
  0
LINE
  5
727
100
AcDbEntity
  8
0
100
AcDbLine
 62
7
  6
CONTINUOUS
 10
-19.5372053057
 20
-2.2038549376
 11
-19.5247197557
 21
-0.7731526159
  0
LINE
  5
728
100
AcDbEntity
  8
0
100
AcDbLine
 62
7
  6
CONTINUOUS
 10
-23.2908369376
 20
5.7574205071
 11
-23.1891321301
 21
5.7574205071
  0
LINE
  5
729
100
AcDbEntity
  8
0
100
AcDbLine
 62
7
  6
CONTINUOUS
 10
-19.6426161774
 20
5.7574205071
 11
-19.5371335613
 21
5.7574205071
  0
LINE
  5
72A
100
AcDbEntity
  8
0
100
AcDbLine
 62
7
  6
CONTINUOUS
 10
-23.2168957315
 20
6.7574205071
 11
-23.1093145006
 21
6.7574205071
  0
LINE
  5
72B
100
AcDbEntity
  8
0
100
AcDbLine
 62
7
  6
CONTINUOUS
 10
-19.7224622002
 20
6.7574205071
 11
-19.6168299431
 21
6.7574205071
  0
ARC
  5
72C
100
AcDbEntity
  8
0
100
AcDbCircle
 62
7
  6
CONTINUOUS
 10
-15.5290807532
 20
18.3143574262
 40
0.4015748031
100
AcDbArc
 50
270.0
 51
356.0
  0
ARC
  5
72D
100
AcDbEntity
  8
0
100
AcDbCircle
 62
7
  6
CONTINUOUS
 10
-27.3149459946
 20
18.3143574262
 40
0.4015748031
100
AcDbArc
 50
184.0
 51
270.0
  0
ARC
  5
72E
100
AcDbEntity
  8
0
100
AcDbCircle
 62
7
  6
CONTINUOUS
 10
-16.3787062873
 20
22.6419541842
 40
0.1417322835
100
AcDbArc
 50
180.0
 51
221.5000000006
  0
ARC
  5
72F
100
AcDbEntity
  8
0
100
AcDbCircle
 62
7
  6
CONTINUOUS
 10
-26.4653204605
 20
22.6419541842
 40
0.1417322835
100
AcDbArc
 50
318.4999999995
 51
360.0
  0
ARC
  5
730
100
AcDbEntity
  8
0
100
AcDbCircle
 62
7
  6
CONTINUOUS
 10
-27.685908742
 20
20.8820691894
 40
0.1102362205
100
AcDbArc
 50
138.4999999989
 51
175.9999999999
  0
ARC
  5
731
100
AcDbEntity
  8
0
100
AcDbCircle
 62
7
  6
CONTINUOUS
 10
-15.1581180058
 20
20.8820691894
 40
0.1102362205
100
AcDbArc
 50
4.0000000002
 51
41.5000000011
  0
ARC
  5
732
100
AcDbEntity
  8
0
100
AcDbCircle
 62
7
  6
CONTINUOUS
 10
-14.9216873235
 20
20.0584519144
 40
0.0826771654
100
AcDbArc
 50
90.0
 51
176.0
  0
ARC
  5
733
100
AcDbEntity
  8
0
100
AcDbCircle
 62
7
  6
CONTINUOUS
 10
-27.9223394243
 20
20.0584519144
 40
0.0826771654
100
AcDbArc
 50
4.0
 51
90.0
  0
ARC
  5
734
100
AcDbEntity
  8
0
100
AcDbCircle
 62
7
  6
CONTINUOUS
 10
-16.4416984133
 20
17.8340424656
 40
0.0787401575
100
AcDbArc
 50
90.0
 51
180.0
  0
ARC
  5
735
100
AcDbEntity
  8
0
100
AcDbCircle
 62
7
  6
CONTINUOUS
 10
-26.4023283345
 20
17.8340424656
 40
0.0787401575
100
AcDbArc
 50
0.0
 51
90.0
  0
ARC
  5
736
100
AcDbEntity
  8
0
100
AcDbCircle
 62
7
  6
CONTINUOUS
 10
-16.5794936888
 20
16.7041212057
 40
0.0590551181
100
AcDbArc
 50
270.0
 51
360.0
  0
ARC
  5
737
100
AcDbEntity
  8
0
100
AcDbCircle
 62
7
  6
CONTINUOUS
 10
-26.2645330589
 20
16.7041212057
 40
0.0590551181
100
AcDbArc
 50
180.0
 51
270.0
  0
ARC
  5
738
100
AcDbEntity
  8
0
100
AcDbCircle
 62
7
  6
CONTINUOUS
 10
-14.8590212479
 20
20.1923101821
 40
0.0511811024
100
AcDbArc
 50
270.0
 51
360.0
  0
ARC
  5
739
100
AcDbEntity
  8
0
100
AcDbCircle
 62
7
  6
CONTINUOUS
 10
-27.9850054999
 20
20.1923101821
 40
0.0511811024
100
AcDbArc
 50
180.0
 51
270.0
  0
ARC
  5
73A
100
AcDbEntity
  8
0
100
AcDbCircle
 62
7
  6
CONTINUOUS
 10
-2.7786923186
 20
18.3143574262
 40
0.4015748031
100
AcDbArc
 50
184.0
 51
270.0
  0
ARC
  5
73B
100
AcDbEntity
  8
0
100
AcDbCircle
 62
7
  6
CONTINUOUS
 10
-1.8660746585
 20
17.8340424656
 40
0.0787401575
100
AcDbArc
 50
0.0
 51
90.0
  0
ARC
  5
73C
100
AcDbEntity
  8
0
100
AcDbCircle
 62
7
  6
CONTINUOUS
 10
-1.728279383
 20
16.7041212057
 40
0.0590551181
100
AcDbArc
 50
180.0
 51
270.0
  0
ARC
  5
73D
100
AcDbEntity
  8
0
100
AcDbCircle
 62
7
  6
CONTINUOUS
 10
-1.9290667845
 20
22.6419541842
 40
0.1417322835
100
AcDbArc
 50
318.5
 51
360.0
  0
ARC
  5
73E
100
AcDbEntity
  8
0
100
AcDbCircle
 62
7
  6
CONTINUOUS
 10
-3.149655066
 20
20.8820691894
 40
0.1102362205
100
AcDbArc
 50
138.5
 51
176.0
  0
ARC
  5
73F
100
AcDbEntity
  8
0
100
AcDbCircle
 62
7
  6
CONTINUOUS
 10
-3.3860857483
 20
20.0584519144
 40
0.0826771654
100
AcDbArc
 50
4.0
 51
90.0
  0
ARC
  5
740
100
AcDbEntity
  8
0
100
AcDbCircle
 62
7
  6
CONTINUOUS
 10
-3.4487518239
 20
20.1923101821
 40
0.0511811024
100
AcDbArc
 50
180.0
 51
270.0
  0
ARC
  5
741
100
AcDbEntity
  8
0
100
AcDbCircle
 62
7
  6
CONTINUOUS
 10
7.9567599871
 20
16.7041212057
 40
0.0590551181
100
AcDbArc
 50
270.0
 51
360.0
  0
ARC
  5
742
100
AcDbEntity
  8
0
100
AcDbCircle
 62
7
  6
CONTINUOUS
 10
9.0071729228
 20
18.3143574262
 40
0.4015748031
100
AcDbArc
 50
270.0
 51
354.0910767899
  0
ARC
  5
743
100
AcDbEntity
  8
0
100
AcDbCircle
 62
7
  6
CONTINUOUS
 10
9.7201458139
 20
18.1415701155
 40
0.1181102362
100
AcDbArc
 50
180.0
 51
269.5
  0
ARC
  5
744
100
AcDbEntity
  8
0
100
AcDbCircle
 62
7
  6
CONTINUOUS
 10
9.4332160855
 20
18.4181442741
 40
0.0806569759
100
AcDbArc
 50
255.7763075776
 51
269.4743862725
  0
ARC
  5
745
100
AcDbEntity
  8
0
100
AcDbCircle
 62
7
  6
CONTINUOUS
 10
9.4332169071
 20
18.4178684329
 40
0.080389822
100
AcDbArc
 50
240.3143353165
 51
255.7274340288
  0
ARC
  5
746
100
AcDbEntity
  8
0
100
AcDbCircle
 62
7
  6
CONTINUOUS
 10
9.4330690422
 20
18.4174098018
 40
0.0799182159
100
AcDbArc
 50
223.8468899348
 51
240.2435924959
  0
ARC
  5
747
100
AcDbEntity
  8
0
100
AcDbCircle
 62
7
  6
CONTINUOUS
 10
9.5232954202
 20
18.2579549687
 40
0.0787401575
100
AcDbArc
 50
5.6568005907
 51
89.4981076838
  0
ARC
  5
748
100
AcDbEntity
  8
0
100
AcDbCircle
 62
7
  6
CONTINUOUS
 10
8.0945552627
 20
17.8340424656
 40
0.0787401575
100
AcDbArc
 50
90.0
 51
180.0
  0
ARC
  5
749
100
AcDbEntity
  8
0
100
AcDbCircle
 62
7
  6
CONTINUOUS
 10
9.4318969804
 20
18.4163105689
 40
0.0783114592
100
AcDbArc
 50
180.0465800882
 51
223.8609131843
  0
ARC
  5
74A
100
AcDbEntity
  8
0
100
AcDbCircle
 62
7
  6
CONTINUOUS
 10
9.4130591997
 20
18.2437336933
 40
0.0078740157
100
AcDbArc
 50
179.9837503841
 51
269.4998382142
  0
ARC
  5
74B
100
AcDbEntity
  8
0
100
AcDbCircle
 62
7
  6
CONTINUOUS
 10
11.4996733729
 20
18.1525645946
 40
0.1181102362
100
AcDbArc
 50
270.5
 51
360.0
  0
ARC
  5
74C
100
AcDbEntity
  8
0
100
AcDbCircle
 62
7
  6
CONTINUOUS
 10
10.0036103808
 20
18.0292682326
 40
0.0078740157
100
AcDbArc
 50
180.0
 51
270.499985363
  0
ARC
  5
74D
100
AcDbEntity
  8
0
100
AcDbCircle
 62
7
  6
CONTINUOUS
 10
9.9878623493
 20
18.0289933706
 40
0.0078740157
100
AcDbArc
 50
269.5
 51
360.0
  0
ARC
  5
74E
100
AcDbEntity
  8
0
100
AcDbCircle
 62
7
  6
CONTINUOUS
 10
9.3781356702
 20
20.8820691894
 40
0.1102362205
100
AcDbArc
 50
6.3096858375
 51
38.2949933908
  0
ARC
  5
74F
100
AcDbEntity
  8
0
100
AcDbCircle
 62
7
  6
CONTINUOUS
 10
9.4392034073
 20
20.8125763085
 40
0.0810656913
100
AcDbArc
 50
90.5336186551
 51
105.5589900114
  0
ARC
  5
750
100
AcDbEntity
  8
0
100
AcDbCircle
 62
7
  6
CONTINUOUS
 10
9.4332172728
 20
20.8129284329
 40
0.0806613369
100
AcDbArc
 50
90.5269086907
 51
104.4500686446
  0
ARC
  5
751
100
AcDbEntity
  8
0
100
AcDbCircle
 62
7
  6
CONTINUOUS
 10
9.433215193
 20
20.7094824575
 40
0.0806565586
100
AcDbArc
 50
255.7762251702
 51
269.4743859521
  0
ARC
  5
752
100
AcDbEntity
  8
0
100
AcDbCircle
 62
7
  6
CONTINUOUS
 10
9.4332160411
 20
20.7092067109
 40
0.0803895031
100
AcDbArc
 50
240.3141575388
 51
255.727349377
  0
ARC
  5
753
100
AcDbEntity
  8
0
100
AcDbCircle
 62
7
  6
CONTINUOUS
 10
9.4332186175
 20
20.8132096471
 40
0.0803893862
100
AcDbArc
 50
104.5010111223
 51
120.1074068763
  0
ARC
  5
754
100
AcDbEntity
  8
0
100
AcDbCircle
 62
7
  6
CONTINUOUS
 10
9.4330682307
 20
20.7087481781
 40
0.0799180096
100
AcDbArc
 50
223.8466832981
 51
240.2434144047
  0
ARC
  5
755
100
AcDbEntity
  8
0
100
AcDbCircle
 62
7
  6
CONTINUOUS
 10
9.4330626103
 20
20.8136809573
 40
0.0799034697
100
AcDbArc
 50
120.1801601146
 51
136.6180392213
  0
ARC
  5
756
100
AcDbEntity
  8
0
100
AcDbCircle
 62
7
  6
CONTINUOUS
 10
9.4326191118
 20
20.8142674686
 40
0.079178382
100
AcDbArc
 50
136.7060689913
 51
152.5893402423
  0
ARC
  5
757
100
AcDbEntity
  8
0
100
AcDbCircle
 62
7
  6
CONTINUOUS
 10
9.5232954202
 20
20.9731220884
 40
0.0787401575
100
AcDbArc
 50
270.5011825318
 51
354.3509726986
  0
ARC
  5
758
100
AcDbEntity
  8
0
100
AcDbCircle
 62
7
  6
CONTINUOUS
 10
9.4320193618
 20
20.8146830549
 40
0.0784546997
100
AcDbArc
 50
152.657130265
 51
166.9654612225
  0
ARC
  5
759
100
AcDbEntity
  8
0
100
AcDbCircle
 62
7
  6
CONTINUOUS
 10
9.4318962101
 20
20.7076490349
 40
0.0783113447
100
AcDbArc
 50
180.0464921253
 51
223.860728875
  0
ARC
  5
75A
100
AcDbEntity
  8
0
100
AcDbCircle
 62
7
  6
CONTINUOUS
 10
9.4318620504
 20
20.814793727
 40
0.0782765142
100
AcDbArc
 50
167.0184122869
 51
179.9740084225
  0
ARC
  5
75B
100
AcDbEntity
  8
0
100
AcDbCircle
 62
7
  6
CONTINUOUS
 10
9.4130591997
 20
21.1054710828
 40
0.0078740157
100
AcDbArc
 50
90.5001617858
 51
180.0162496159
  0
ARC
  5
75C
100
AcDbEntity
  8
0
100
AcDbCircle
 62
7
  6
CONTINUOUS
 10
9.5595540866
 20
19.9113274524
 40
0.2038374211
100
AcDbArc
 50
92.2803603404
 51
107.3201987933
  0
ARC
  5
75D
100
AcDbEntity
  8
0
100
AcDbCircle
 62
7
  6
CONTINUOUS
 10
9.5532732765
 20
19.9121711237
 40
0.2029341602
100
AcDbArc
 50
90.5478880284
 51
107.2809470173
  0
ARC
  5
75E
100
AcDbEntity
  8
0
100
AcDbCircle
 62
7
  6
CONTINUOUS
 10
9.5494681054
 20
19.9179554974
 40
0.1958833692
100
AcDbArc
 50
161.7654572629
 51
179.9281976185
  0
ARC
  5
75F
100
AcDbEntity
  8
0
100
AcDbCircle
 62
7
  6
CONTINUOUS
 10
9.6145663525
 20
20.0584519144
 40
0.0826771654
100
AcDbArc
 50
90.0
 51
133.0000156003
  0
ARC
  5
760
100
AcDbEntity
  8
0
100
AcDbCircle
 62
7
  6
CONTINUOUS
 10
9.6138465455
 20
20.1038301279
 40
0.0118109901
100
AcDbArc
 50
90.4997291414
 51
179.9999976363
  0
ARC
  5
761
100
AcDbEntity
  8
0
100
AcDbCircle
 62
7
  6
CONTINUOUS
 10
9.6618780974
 20
20.1239350819
 40
0.0078740157
100
AcDbArc
 50
270.5
 51
330.1666663893
  0
ARC
  5
762
100
AcDbEntity
  8
0
100
AcDbCircle
 62
7
  6
CONTINUOUS
 10
9.7201458139
 20
21.1485620597
 40
0.1181102362
100
AcDbArc
 50
90.5
 51
180.0
  0
ARC
  5
763
100
AcDbEntity
  8
0
100
AcDbCircle
 62
7
  6
CONTINUOUS
 10
9.6138461435
 20
20.6390579563
 40
0.0118107489
100
AcDbArc
 50
180.0000193822
 51
269.5022209757
  0
ARC
  5
764
100
AcDbEntity
  8
0
100
AcDbCircle
 62
7
  6
CONTINUOUS
 10
9.5941615619
 20
21.1228001703
 40
0.0078740157
100
AcDbArc
 50
270.4999655823
 51
315.2499702529
  0
ARC
  5
765
100
AcDbEntity
  8
0
100
AcDbCircle
 62
7
  6
CONTINUOUS
 10
9.6618782169
 20
20.6189529978
 40
0.0078739816
100
AcDbArc
 50
59.6673174806
 51
89.5008699344
  0
ARC
  5
766
100
AcDbEntity
  8
0
100
AcDbCircle
 62
7
  6
CONTINUOUS
 10
8.1575473887
 20
22.6419541842
 40
0.1417322835
100
AcDbArc
 50
180.0
 51
221.5
  0
ARC
  5
767
100
AcDbEntity
  8
0
100
AcDbCircle
 62
7
  6
CONTINUOUS
 10
11.4996733729
 20
21.1375675806
 40
0.1181102362
100
AcDbArc
 50
0.0
 51
89.5
  0
ARC
  5
768
100
AcDbEntity
  8
0
100
AcDbCircle
 62
7
  6
CONTINUOUS
 10
10.0036103808
 20
21.2608639426
 40
0.0078740157
100
AcDbArc
 50
89.5
 51
180.0
  0
ARC
  5
769
100
AcDbEntity
  8
0
100
AcDbCircle
 62
7
  6
CONTINUOUS
 10
9.9878623493
 20
21.2611360415
 40
0.0078740157
100
AcDbArc
 50
0.0201055388
 51
90.4998246098
  0
ARC
  5
76A
100
AcDbEntity
  8
0
100
AcDbCircle
 62
7
  6
CONTINUOUS
 10
-23.2123377503
 20
-2.2028242444
 40
0.1181102362
100
AcDbArc
 50
180.5
 51
265.63
  0
ARC
  5
76B
100
AcDbEntity
  8
0
100
AcDbCircle
 62
7
  6
CONTINUOUS
 10
-23.2227533207
 20
-0.4896193361
 40
0.1181102362
100
AcDbArc
 50
90.0
 51
179.500000507
  0
ARC
  5
76C
100
AcDbEntity
  8
0
100
AcDbCircle
 62
7
  6
CONTINUOUS
 10
-23.3350550928
 20
-0.773083903
 40
0.0078740157
100
AcDbArc
 50
90.0016773479
 51
180.499985363
  0
ARC
  5
76D
100
AcDbEntity
  8
0
100
AcDbCircle
 62
7
  6
CONTINUOUS
 10
-23.3353301853
 20
-0.7573358715
 40
0.0078740157
100
AcDbArc
 50
179.5
 51
270.0
  0
ARC
  5
76E
100
AcDbEntity
  8
0
100
AcDbCircle
 62
7
  6
CONTINUOUS
 10
-22.864974916
 20
-0.1404742653
 40
0.0118110236
100
AcDbArc
 50
0.4999999575
 51
79.622382448
  0
ARC
  5
76F
100
AcDbEntity
  8
0
100
AcDbCircle
 62
7
  6
CONTINUOUS
 10
-22.8963239982
 20
-0.1346682558
 40
0.0118110236
100
AcDbArc
 50
79.3930445302
 51
179.4985958908
  0
ARC
  5
770
100
AcDbEntity
  8
0
100
AcDbCircle
 62
7
  6
CONTINUOUS
 10
-22.1987515276
 20
1.5497507427
 40
3.937007874
100
AcDbArc
 50
265.6299919824
 51
270.0000065308
  0
ARC
  5
771
100
AcDbEntity
  8
0
100
AcDbCircle
 62
7
  6
CONTINUOUS
 10
-22.6123462306
 20
3.2610618354
 40
0.0472163123
100
AcDbArc
 50
77.4987928817
 51
85.8300550285
  0
ARC
  5
772
100
AcDbEntity
  8
0
100
AcDbCircle
 62
7
  6
CONTINUOUS
 10
-22.6125877904
 20
3.2627200627
 40
0.0458339718
100
AcDbArc
 50
51.8206325065
 51
56.5215680169
  0
ARC
  5
773
100
AcDbEntity
  8
0
100
AcDbCircle
 62
7
  6
CONTINUOUS
 10
-22.6121962731
 20
3.2633337498
 40
0.0451096149
100
AcDbArc
 50
42.0671591194
 51
51.729725923
  0
ARC
  5
774
100
AcDbEntity
  8
0
100
AcDbCircle
 62
7
  6
CONTINUOUS
 10
-24.5095389591
 20
6.0201263489
 40
0.0459893
100
AcDbArc
 50
336.6388086492
 51
340.9467361168
  0
ARC
  5
775
100
AcDbEntity
  8
0
100
AcDbCircle
 62
7
  6
CONTINUOUS
 10
-23.9654774807
 20
4.3630177405
 40
0.0454597898
100
AcDbArc
 50
9.4135959276
 51
23.7404470864
  0
ARC
  5
776
100
AcDbEntity
  8
0
100
AcDbCircle
 62
7
  6
CONTINUOUS
 10
-24.070604823
 20
7.7076125242
 40
0.0454590241
100
AcDbArc
 50
303.9599648117
 51
318.2870589792
  0
ARC
  5
777
100
AcDbEntity
  8
0
100
AcDbCircle
 62
7
  6
CONTINUOUS
 10
-22.7892954451
 20
8.8903768327
 40
0.045457796
100
AcDbArc
 50
271.232512163
 51
285.5614070777
  0
ARC
  5
778
100
AcDbEntity
  8
0
100
AcDbCircle
 62
7
  6
CONTINUOUS
 10
-24.5086939363
 20
6.0197622238
 40
0.0450717556
100
AcDbArc
 50
341.0335873287
 51
351.0890601298
  0
ARC
  5
779
100
AcDbEntity
  8
0
100
AcDbCircle
 62
7
  6
CONTINUOUS
 10
-21.9227686785
 20
-0.9533696649
 40
0.6331518479
100
AcDbArc
 50
89.41413704
 51
89.6996881654
  0
ARC
  5
77A
100
AcDbEntity
  8
0
100
AcDbCircle
 62
7
  6
CONTINUOUS
 10
-20.940288265
 20
-0.3636350841
 40
0.0078740157
100
AcDbArc
 50
323.2895248036
 51
359.5
  0
ARC
  5
77B
100
AcDbEntity
  8
0
100
AcDbCircle
 62
7
  6
CONTINUOUS
 10
-21.92736053
 20
-0.3636350841
 40
0.0078740157
100
AcDbArc
 50
180.5
 51
215.832399469
  0
ARC
  5
77C
100
AcDbEntity
  8
0
100
AcDbCircle
 62
7
  6
CONTINUOUS
 10
-21.9313875998
 20
-0.3636350841
 40
0.007873906
100
AcDbArc
 50
298.638295689
 51
359.4999878013
  0
ARC
  5
77D
100
AcDbEntity
  8
0
100
AcDbCircle
 62
7
  6
CONTINUOUS
 10
-21.9948653085
 20
-0.2979647779
 40
0.0590551181
100
AcDbArc
 50
0.4508631504
 51
85.97364614
  0
ARC
  5
77E
100
AcDbEntity
  8
0
100
AcDbCircle
 62
7
  6
CONTINUOUS
 10
-20.8727834865
 20
-0.2979647779
 40
0.0590551181
100
AcDbArc
 50
93.984339817
 51
179.5
  0
ARC
  5
77F
100
AcDbEntity
  8
0
100
AcDbCircle
 62
7
  6
CONTINUOUS
 10
-21.9152612255
 20
-0.3203279975
 40
0.0078740157
100
AcDbArc
 50
90.0
 51
179.5
  0
ARC
  5
780
100
AcDbEntity
  8
0
100
AcDbCircle
 62
7
  6
CONTINUOUS
 10
-21.9172126255
 20
-0.3183594935
 40
0.0059055118
100
AcDbArc
 50
90.0
 51
179.5
  0
ARC
  5
781
100
AcDbEntity
  8
0
100
AcDbCircle
 62
7
  6
CONTINUOUS
 10
-20.0243071629
 20
-0.3636350841
 40
0.0078740157
100
AcDbArc
 50
314.1693059311
 51
359.5
  0
ARC
  5
782
100
AcDbEntity
  8
0
100
AcDbCircle
 62
7
  6
CONTINUOUS
 10
-19.6553110447
 20
-2.2028242444
 40
0.1181102362
100
AcDbArc
 50
274.37
 51
359.5
  0
ARC
  5
783
100
AcDbEntity
  8
0
100
AcDbCircle
 62
7
  6
CONTINUOUS
 10
-19.6448953546
 20
-0.4896193361
 40
0.1181102362
100
AcDbArc
 50
0.5
 51
90.0
  0
ARC
  5
784
100
AcDbEntity
  8
0
100
AcDbCircle
 62
7
  6
CONTINUOUS
 10
-19.5325937022
 20
-0.773083903
 40
0.0078740157
100
AcDbArc
 50
359.5
 51
89.9983226521
  0
ARC
  5
785
100
AcDbEntity
  8
0
100
AcDbCircle
 62
7
  6
CONTINUOUS
 10
-19.5323186097
 20
-0.7573358715
 40
0.0078740157
100
AcDbArc
 50
270.0
 51
0.4998246098
  0
ARC
  5
786
100
AcDbEntity
  8
0
100
AcDbCircle
 62
7
  6
CONTINUOUS
 10
-20.6688972674
 20
1.5497507427
 40
3.937007874
100
AcDbArc
 50
269.9999934704
 51
274.3700080186
  0
ARC
  5
787
100
AcDbEntity
  8
0
100
AcDbCircle
 62
7
  6
CONTINUOUS
 10
-20.002673879
 20
-0.1404742653
 40
0.0118110236
100
AcDbArc
 50
100.3774427117
 51
179.5
  0
ARC
  5
788
100
AcDbEntity
  8
0
100
AcDbCircle
 62
7
  6
CONTINUOUS
 10
-19.9713246485
 20
-0.134685259
 40
0.0118110236
100
AcDbArc
 50
0.5840396611
 51
100.5921306628
  0
ARC
  5
789
100
AcDbEntity
  8
0
100
AcDbCircle
 62
7
  6
CONTINUOUS
 10
-20.1013203259
 20
-0.1825327219
 40
0.0078740157
100
AcDbArc
 50
0.5
 51
90.0
  0
ARC
  5
78A
100
AcDbEntity
  8
0
100
AcDbCircle
 62
7
  6
CONTINUOUS
 10
-20.3253835872
 20
-0.1825327219
 40
0.0078740157
100
AcDbArc
 50
90.0
 51
179.5
  0
ARC
  5
78B
100
AcDbEntity
  8
0
100
AcDbCircle
 62
7
  6
CONTINUOUS
 10
-21.4338243975
 20
7.6744445722
 40
7.9330708661
100
AcDbArc
 50
280.3776175458
 51
280.6075412593
  0
ARC
  5
78C
100
AcDbEntity
  8
0
100
AcDbCircle
 62
7
  6
CONTINUOUS
 10
-21.4338243975
 20
7.6744445722
 40
7.9330708661
100
AcDbArc
 50
274.0257349946
 51
277.9741031471
  0
ARC
  5
78D
100
AcDbEntity
  8
0
100
AcDbCircle
 62
7
  6
CONTINUOUS
 10
-21.4338243975
 20
7.6744445722
 40
7.9330708661
100
AcDbArc
 50
278.3245804608
 51
280.3595846052
  0
ARC
  5
78E
100
AcDbEntity
  8
0
100
AcDbCircle
 62
7
  6
CONTINUOUS
 10
-21.4338243975
 20
7.6744445722
 40
7.9330708661
100
AcDbArc
 50
259.3924587407
 51
259.6223824542
  0
ARC
  5
78F
100
AcDbEntity
  8
0
100
AcDbCircle
 62
7
  6
CONTINUOUS
 10
-21.4338243975
 20
7.6744445722
 40
7.9330708661
100
AcDbArc
 50
259.6403592177
 51
265.974577765
  0
ARC
  5
790
100
AcDbEntity
  8
0
100
AcDbCircle
 62
7
  6
CONTINUOUS
 10
-21.4220133739
 20
6.1162861758
 40
6.6141732283
100
AcDbArc
 50
282.8154298265
 51
256.9757834719
  0
CIRCLE
  5
791
100
AcDbEntity
  8
0
100
AcDbCircle
 62
7
  6
CONTINUOUS
 10
-21.4220133739
 20
6.1162861758
 40
4.9015748031
  0
CIRCLE
  5
792
100
AcDbEntity
  8
0
100
AcDbCircle
 62
7
  6
CONTINUOUS
 10
-21.4220133739
 20
6.1162861758
 40
3.0511811024
  0
CIRCLE
  5
793
100
AcDbEntity
  8
0
100
AcDbCircle
 62
7
  6
CONTINUOUS
 10
-21.4158678363
 20
6.1171072439
 40
1.9980314961
  0
CIRCLE
  5
794
100
AcDbEntity
  8
0
100
AcDbCircle
 62
7
  6
CONTINUOUS
 10
-21.4158678363
 20
6.1171072439
 40
1.9153543307
  0
CIRCLE
  5
795
100
AcDbEntity
  8
0
100
AcDbCircle
 62
7
  6
CONTINUOUS
 10
-21.4158678363
 20
6.1171072439
 40
1.811023622
  0
CIRCLE
  5
796
100
AcDbEntity
  8
0
100
AcDbCircle
 62
7
  6
CONTINUOUS
 10
-21.4158678363
 20
6.1171072439
 40
1.6653543307
  0
CIRCLE
  5
797
100
AcDbEntity
  8
0
100
AcDbCircle
 62
7
  6
CONTINUOUS
 10
-21.4158678363
 20
6.1171072439
 40
1.2007874016
  0
CIRCLE
  5
798
100
AcDbEntity
  8
0
100
AcDbCircle
 62
7
  6
CONTINUOUS
 10
-21.4158678363
 20
6.1171072439
 40
0.6692913386
  0
CIRCLE
  5
799
100
AcDbEntity
  8
0
100
AcDbCircle
 62
7
  6
CONTINUOUS
 10
-21.4158678363
 20
6.1171072439
 40
0.437007874
  0
CIRCLE
  5
79A
100
AcDbEntity
  8
0
100
AcDbCircle
 62
7
  6
CONTINUOUS
 10
-21.4158678363
 20
6.1171072439
 40
0.4133858268
  0
SPLINE
  5
79B
100
AcDbEntity
  8
0
100
AcDbSpline
 62
7
  6
CONTINUOUS
 70
0
 71
3
 72
8
 73
4
 74
0
 42
0.0000001
 43
0.0000001
 44
0.0000000001
 40
0.0
 40
0.0
 40
0.0
 40
0.0
 40
1.0
 40
1.0
 40
1.0
 40
1.0
 10
9.3987991331
 20
20.6395978079
 30
0.0
 10
9.4089929038
 20
20.633693539
 30
0.0
 10
9.4207877856
 20
20.6300158586
 30
0.0
 10
9.4325280954
 20
20.6290471073
 30
0.0
  0
SPLINE
  5
79C
100
AcDbEntity
  8
0
100
AcDbSpline
 62
7
  6
CONTINUOUS
 70
0
 71
3
 72
8
 73
4
 74
0
 42
0.0000001
 43
0.0000001
 44
0.0000000001
 40
0.0
 40
0.0
 40
0.0
 40
0.0
 40
1.0
 40
1.0
 40
1.0
 40
1.0
 10
9.3988008633
 20
18.3482590894
 30
0.0
 10
9.4089944127
 20
18.342355004
 30
0.0
 10
9.4207889677
 20
18.3386773931
 30
0.0
 10
9.4325289857
 20
18.3377085526
 30
0.0
  0
SPLINE
  5
79D
100
AcDbEntity
  8
0
100
AcDbSpline
 62
7
  6
CONTINUOUS
 70
0
 71
3
 72
9
 73
5
 74
0
 42
0.0000001
 43
0.0000001
 44
0.0000000001
 40
0.0
 40
0.0
 40
0.0
 40
0.0
 40
0.4999533392
 40
1.0
 40
1.0
 40
1.0
 40
1.0
 10
9.3634212984
 20
19.9792488894
 30
0.0
 10
9.3731631872
 20
20.0087517359
 30
0.0
 10
9.4075438413
 20
20.0637808088
 30
0.0
 10
9.463323712
 20
20.0966936618
 30
0.0
 10
9.4929901898
 20
20.1059447619
 30
0.0
  0
SPLINE
  5
79E
100
AcDbEntity
  8
0
100
AcDbSpline
 62
7
  6
CONTINUOUS
 70
0
 71
3
 72
13
 73
9
 74
0
 42
0.0000001
 43
0.0000001
 44
0.0000000001
 40
0.0
 40
0.0
 40
0.0
 40
0.0
 40
0.3585304324
 40
0.6714277326
 40
0.8012666457
 40
0.9051755252
 40
0.9746105208
 40
1.0
 40
1.0
 40
1.0
 40
1.0
 10
9.6832954202
 20
20.1044683582
 30
0.0
 10
9.6815730918
 20
20.105736421
 30
0.0
 10
9.6784084208
 20
20.1081849286
 30
0.0
 10
9.6747201453
 20
20.1112548787
 30
0.0
 10
9.6723749976
 20
20.1134871846
 30
0.0
 10
9.6709807132
 20
20.1147142553
 30
0.0
 10
9.670363789
 20
20.1156468253
 30
0.0
 10
9.6697521131
 20
20.1159780229
 30
0.0
 10
9.6697521131
 20
20.1161294818
 30
0.0
  0
SPLINE
  5
79F
100
AcDbEntity
  8
0
100
AcDbSpline
 62
7
  6
CONTINUOUS
 70
0
 71
3
 72
13
 73
9
 74
0
 42
0.0000001
 43
0.0000001
 44
0.0000000001
 40
0.0
 40
0.0
 40
0.0
 40
0.0
 40
0.0258186077
 40
0.09573626
 40
0.1995658651
 40
0.3291617137
 40
0.6417875403
 40
1.0
 40
1.0
 40
1.0
 40
1.0
 10
9.6697521131
 20
20.6267350939
 30
0.0
 10
9.6697521131
 20
20.6268892629
 30
0.0
 10
9.6703582545
 20
20.6272347871
 30
0.0
 10
9.6709774591
 20
20.628173829
 30
0.0
 10
9.6723725432
 20
20.6294034786
 30
0.0
 10
9.6747217736
 20
20.6316311937
 30
0.0
 10
9.6784074338
 20
20.6347032638
 30
0.0
 10
9.6815729906
 20
20.6371514829
 30
0.0
 10
9.6832954202
 20
20.6384197233
 30
0.0
  0
SPLINE
  5
7A0
100
AcDbEntity
  8
1_ALL_PLANES
100
AcDbSpline
 62
7
  6
CONTINUOUS
 70
0
 71
3
 72
10
 73
6
 74
0
 42
0.0000001
 43
0.0000001
 44
0.0000000001
 40
0.0
 40
0.0
 40
0.0
 40
0.0
 40
0.25
 40
0.5
 40
1.0
 40
1.0
 40
1.0
 40
1.0
 10
-25.9751287328
 20
1.5838163433
 30
0.0
 10
-25.9732490699
 20
1.5815878494
 30
0.0
 10
-25.9694902739
 20
1.5771377309
 30
0.0
 10
-25.961957812
 20
1.5683549876
 30
0.0
 10
-25.9565070012
 20
1.5621976747
 30
0.0
 10
-25.9527835413
 20
1.5580202716
 30
0.0
  0
SPLINE
  5
7A1
100
AcDbEntity
  8
1_ALL_PLANES
100
AcDbSpline
 62
7
  6
CONTINUOUS
 70
0
 71
3
 72
56
 73
52
 74
0
 42
0.0000001
 43
0.0000001
 44
0.0000000001
 40
0.0
 40
0.0
 40
0.0
 40
0.0
 40
0.0625
 40
0.125
 40
0.140625
 40
0.15625
 40
0.1640625
 40
0.171875
 40
0.1875
 40
0.21875
 40
0.25
 40
0.28125
 40
0.3125
 40
0.328125
 40
0.3359375
 40
0.34375
 40
0.359375
 40
0.375
 40
0.40625
 40
0.4375
 40
0.453125
 40
0.46875
 40
0.484375
 40
0.4921875
 40
0.5
 40
0.5078125
 40
0.515625
 40
0.53125
 40
0.5625
 40
0.625
 40
0.640625
 40
0.65625
 40
0.6640625
 40
0.66796875
 40
0.671875
 40
0.6796875
 40
0.6875
 40
0.71875
 40
0.75
 40
0.78125
 40
0.8125
 40
0.8203125
 40
0.828125
 40
0.83203125
 40
0.8359375
 40
0.84375
 40
0.859375
 40
0.875
 40
0.90625
 40
0.9375
 40
1.0
 40
1.0
 40
1.0
 40
1.0
 10
-25.9527835415
 20
1.5580202717
 30
0.0
 10
-25.9517170807
 20
1.5568511151
 30
0.0
 10
-25.9495835718
 20
1.5545119047
 30
0.0
 10
-25.9471860167
 20
1.5518843301
 30
0.0
 10
-25.9455837933
 20
1.5501267263
 30
0.0
 10
-25.9449218885
 20
1.5494030823
 30
0.0
 10
-25.944379098
 20
1.5488038977
 30
0.0
 10
-25.9438848234
 20
1.5482788379
 30
0.0
 10
-25.9430424044
 20
1.5473944511
 30
0.0
 10
-25.9418270302
 20
1.546112853
 30
0.0
 10
-25.9403742205
 20
1.5445834556
 30
0.0
 10
-25.9389179229
 20
1.5430490786
 30
0.0
 10
-25.9377112686
 20
1.5417799293
 30
0.0
 10
-25.9368535898
 20
1.5408737571
 30
0.0
 10
-25.9363837308
 20
1.5403835539
 30
0.0
 10
-25.9359900966
 20
1.5399973096
 30
0.0
 10
-25.9354719525
 20
1.5394789061
 30
0.0
 10
-25.9346575208
 20
1.5386693705
 30
0.0
 10
-25.933634395
 20
1.5376505184
 30
0.0
 10
-25.9326133653
 20
1.5366345095
 30
0.0
 10
-25.9317955798
 20
1.5358204246
 30
0.0
 10
-25.9311838684
 20
1.5352119882
 30
0.0
 10
-25.9306690839
 20
1.5346983997
 30
0.0
 10
-25.9302685024
 20
1.5343022047
 30
0.0
 10
-25.9299373429
 20
1.533964966
 30
0.0
 10
-25.9297234537
 20
1.5337807594
 30
0.0
 10
-25.929397364
 20
1.5334817728
 30
0.0
 10
-25.9288457538
 20
1.5329834006
 30
0.0
 10
-25.927728718
 20
1.5319686389
 30
0.0
 10
-25.9266183875
 20
1.5309625628
 30
0.0
 10
-25.9256621753
 20
1.5300944694
 30
0.0
 10
-25.9252680611
 20
1.5297381986
 30
0.0
 10
-25.924983529
 20
1.5294778985
 30
0.0
 10
-25.9248344792
 20
1.5293462289
 30
0.0
 10
-25.9247364286
 20
1.5292788662
 30
0.0
 10
-25.9245964331
 20
1.529172682
 30
0.0
 10
-25.924274795
 20
1.5289359356
 30
0.0
 10
-25.9237862583
 20
1.5285731517
 30
0.0
 10
-25.9231385985
 20
1.5280941243
 30
0.0
 10
-25.9224890183
 20
1.5276127097
 30
0.0
 10
-25.9220048027
 20
1.5272552969
 30
0.0
 10
-25.9216776431
 20
1.5270116875
 30
0.0
 10
-25.9215477503
 20
1.5269180606
 30
0.0
 10
-25.9214288543
 20
1.5268247876
 30
0.0
 10
-25.9213647463
 20
1.5267986988
 30
0.0
 10
-25.9212780131
 20
1.5267842584
 30
0.0
 10
-25.921140827
 20
1.5267473428
 30
0.0
 10
-25.9209287517
 20
1.5266973798
 30
0.0
 10
-25.9206611151
 20
1.5266318081
 30
0.0
 10
-25.9202343239
 20
1.5265286438
 30
0.0
 10
-25.9199139093
 20
1.5264508767
 30
0.0
 10
-25.9197003709
 20
1.5263991195
 30
0.0
  0
SPLINE
  5
7A2
100
AcDbEntity
  8
1_ALL_PLANES
100
AcDbSpline
 62
7
  6
CONTINUOUS
 70
0
 71
3
 72
78
 73
74
 74
0
 42
0.0000001
 43
0.0000001
 44
0.0000000001
 40
0.0
 40
0.0
 40
0.0
 40
0.0
 40
0.03125
 40
0.0625
 40
0.078125
 40
0.09375
 40
0.109375
 40
0.1171875
 40
0.12109375
 40
0.125
 40
0.12890625
 40
0.1328125
 40
0.140625
 40
0.15625
 40
0.171875
 40
0.1875
 40
0.203125
 40
0.21875
 40
0.234375
 40
0.2421875
 40
0.24609375
 40
0.25
 40
0.25390625
 40
0.2578125
 40
0.265625
 40
0.28125
 40
0.296875
 40
0.3125
 40
0.328125
 40
0.34375
 40
0.359375
 40
0.3671875
 40
0.37109375
 40
0.375
 40
0.37890625
 40
0.3828125
 40
0.390625
 40
0.40625
 40
0.421875
 40
0.4375
 40
0.46875
 40
0.484375
 40
0.4921875
 40
0.49609375
 40
0.5
 40
0.50390625
 40
0.5078125
 40
0.515625
 40
0.53125
 40
0.5625
 40
0.59375
 40
0.609375
 40
0.6171875
 40
0.625
 40
0.6328125
 40
0.640625
 40
0.65625
 40
0.6875
 40
0.71875
 40
0.734375
 40
0.7421875
 40
0.75
 40
0.7578125
 40
0.765625
 40
0.78125
 40
0.8125
 40
0.84375
 40
0.859375
 40
0.875
 40
0.890625
 40
0.90625
 40
0.9375
 40
1.0
 40
1.0
 40
1.0
 40
1.0
 10
-25.8614338312
 20
1.5752905515
 30
0.0
 10
-25.8614462484
 20
1.5754458742
 30
0.0
 10
-25.8614711179
 20
1.5757565602
 30
0.0
 10
-25.8615020287
 20
1.5761447137
 30
0.0
 10
-25.8615271272
 20
1.5764556651
 30
0.0
 10
-25.8615449472
 20
1.5766877153
 30
0.0
 10
-25.8615629894
 20
1.5768847897
 30
0.0
 10
-25.8615693546
 20
1.5770154823
 30
0.0
 10
-25.861582773
 20
1.5771014989
 30
0.0
 10
-25.8615652831
 20
1.5771340802
 30
0.0
 10
-25.8616531175
 20
1.5772887183
 30
0.0
 10
-25.8617334916
 20
1.5774523275
 30
0.0
 10
-25.8618912641
 20
1.5777584808
 30
0.0
 10
-25.8621076986
 20
1.5781854654
 30
0.0
 10
-25.8623712767
 20
1.5787023157
 30
0.0
 10
-25.8626337556
 20
1.5792178946
 30
0.0
 10
-25.8628967744
 20
1.5797340901
 30
0.0
 10
-25.8631587331
 20
1.580249091
 30
0.0
 10
-25.8633801155
 20
1.5806817263
 30
0.0
 10
-25.8635290716
 20
1.5809778111
 30
0.0
 10
-25.86362357
 20
1.5811575506
 30
0.0
 10
-25.8636680196
 20
1.5812626419
 30
0.0
 10
-25.8638134756
 20
1.5814813122
 30
0.0
 10
-25.8639721847
 20
1.5817332549
 30
0.0
 10
-25.8642663417
 20
1.582192614
 30
0.0
 10
-25.8646779781
 20
1.5828391847
 30
0.0
 10
-25.8651756409
 20
1.5836192285
 30
0.0
 10
-25.865672248
 20
1.5843980867
 30
0.0
 10
-25.8661693786
 20
1.5851775282
 30
0.0
 10
-25.8666654708
 20
1.585955822
 30
0.0
 10
-25.8670819061
 20
1.5866077398
 30
0.0
 10
-25.8673675124
 20
1.5870575713
 30
0.0
 10
-25.86753992
 20
1.5873247776
 30
0.0
 10
-25.8676432991
 20
1.5874965633
 30
0.0
 10
-25.8678457825
 20
1.5877777454
 30
0.0
 10
-25.8680811917
 20
1.5881144964
 30
0.0
 10
-25.8685092628
 20
1.5887215882
 30
0.0
 10
-25.8691123831
 20
1.5895795779
 30
0.0
 10
-25.8698396834
 20
1.5906130955
 30
0.0
 10
-25.8708083927
 20
1.5919899655
 30
0.0
 10
-25.8717761369
 20
1.5933658963
 30
0.0
 10
-25.8726261189
 20
1.5945730581
 30
0.0
 10
-25.8730467234
 20
1.5951722164
 30
0.0
 10
-25.8732941306
 20
1.5955217139
 30
0.0
 10
-25.8734597538
 20
1.5957637368
 30
0.0
 10
-25.8737015753
 20
1.5960825997
 30
0.0
 10
-25.8739974286
 20
1.5964809512
 30
0.0
 10
-25.8745275188
 20
1.5971905174
 30
0.0
 10
-25.8755790588
 20
1.5986009313
 30
0.0
 10
-25.8770847647
 20
1.6006193885
 30
0.0
 10
-25.8785929049
 20
1.6026401318
 30
0.0
 10
-25.8796410368
 20
1.6040473452
 30
0.0
 10
-25.8802522098
 20
1.6048633075
 30
0.0
 10
-25.8806760298
 20
1.6054418458
 30
0.0
 10
-25.8812319685
 20
1.6061481976
 30
0.0
 10
-25.881927126
 20
1.607045409
 30
0.0
 10
-25.8831652247
 20
1.608636388
 30
0.0
 10
-25.8849218768
 20
1.6108976393
 30
0.0
 10
-25.8866856789
 20
1.6131654626
 30
0.0
 10
-25.8879137676
 20
1.6147472408
 30
0.0
 10
-25.8886246552
 20
1.6156589106
 30
0.0
 10
-25.8891323309
 20
1.6163209013
 30
0.0
 10
-25.8897374053
 20
1.6170660404
 30
0.0
 10
-25.8905102184
 20
1.6180305717
 30
0.0
 10
-25.8918782504
 20
1.6197318509
 30
0.0
 10
-25.8938261127
 20
1.6221565294
 30
0.0
 10
-25.89577012
 20
1.624578662
 30
0.0
 10
-25.8973397531
 20
1.6265270546
 30
0.0
 10
-25.8984760091
 20
1.6279578171
 30
0.0
 10
-25.8997689267
 20
1.6295053641
 30
0.0
 10
-25.9014381561
 20
1.6315280129
 30
0.0
 10
-25.9043849298
 20
1.6350867485
 30
0.0
 10
-25.9069019511
 20
1.6381305447
 30
0.0
 10
-25.9085819175
 20
1.6401611974
 30
0.0
  0
SPLINE
  5
7A3
100
AcDbEntity
  8
1_ALL_PLANES
100
AcDbSpline
 62
7
  6
CONTINUOUS
 70
0
 71
3
 72
78
 73
74
 74
0
 42
0.0000001
 43
0.0000001
 44
0.0000000001
 40
0.0
 40
0.0
 40
0.0
 40
0.0
 40
0.0625
 40
0.09375
 40
0.109375
 40
0.125
 40
0.140625
 40
0.15625
 40
0.1875
 40
0.21875
 40
0.234375
 40
0.2421875
 40
0.25
 40
0.2578125
 40
0.265625
 40
0.28125
 40
0.3125
 40
0.34375
 40
0.359375
 40
0.3671875
 40
0.375
 40
0.3828125
 40
0.390625
 40
0.40625
 40
0.4375
 40
0.453125
 40
0.46875
 40
0.484375
 40
0.4921875
 40
0.49609375
 40
0.5
 40
0.50390625
 40
0.5078125
 40
0.515625
 40
0.53125
 40
0.5625
 40
0.578125
 40
0.59375
 40
0.609375
 40
0.6171875
 40
0.62109375
 40
0.625
 40
0.62890625
 40
0.6328125
 40
0.640625
 40
0.65625
 40
0.6875
 40
0.703125
 40
0.71875
 40
0.734375
 40
0.7421875
 40
0.74609375
 40
0.75
 40
0.75390625
 40
0.7578125
 40
0.765625
 40
0.78125
 40
0.796875
 40
0.8125
 40
0.828125
 40
0.84375
 40
0.859375
 40
0.8671875
 40
0.87109375
 40
0.875
 40
0.87890625
 40
0.8828125
 40
0.890625
 40
0.90625
 40
0.921875
 40
0.9375
 40
0.96875
 40
1.0
 40
1.0
 40
1.0
 40
1.0
 10
-26.6092204098
 20
2.4751496378
 30
0.0
 10
-26.6108986648
 20
2.4771221471
 30
0.0
 10
-26.6134151575
 20
2.4800785427
 30
0.0
 10
-26.6163541799
 20
2.4835359604
 30
0.0
 10
-26.6180291724
 20
2.4854997856
 30
0.0
 10
-26.6192978737
 20
2.4870058121
 30
0.0
 10
-26.6205189716
 20
2.4883851293
 30
0.0
 10
-26.6221636631
 20
2.4902683669
 30
0.0
 10
-26.6242143288
 20
2.4926080775
 30
0.0
 10
-26.6262650878
 20
2.4949499486
 30
0.0
 10
-26.6277040623
 20
2.4965947568
 30
0.0
 10
-26.6285204028
 20
2.4975245732
 30
0.0
 10
-26.6291494665
 20
2.4982505864
 30
0.0
 10
-26.629714262
 20
2.4988670331
 30
0.0
 10
-26.6304897487
 20
2.4997271935
 30
0.0
 10
-26.631836316
 20
2.5012145275
 30
0.0
 10
-26.6337661815
 20
2.5033497506
 30
0.0
 10
-26.635691321
 20
2.505477317
 30
0.0
 10
-26.6370445045
 20
2.5069753705
 30
0.0
 10
-26.6378095942
 20
2.507818686
 30
0.0
 10
-26.6384062897
 20
2.5084868159
 30
0.0
 10
-26.6389155513
 20
2.5090187301
 30
0.0
 10
-26.639625069
 20
2.5097754689
 30
0.0
 10
-26.6408524706
 20
2.5110775579
 30
0.0
 10
-26.6422614521
 20
2.5125753549
 30
0.0
 10
-26.643668014
 20
2.5140694419
 30
0.0
 10
-26.6447239575
 20
2.5151914422
 30
0.0
 10
-26.6456015114
 20
2.5161232045
 30
0.0
 10
-26.64622039
 20
2.5167816099
 30
0.0
 10
-26.6465668846
 20
2.5171482328
 30
0.0
 10
-26.6468468948
 20
2.5174502629
 30
0.0
 10
-26.6470499229
 20
2.5176488458
 30
0.0
 10
-26.6473474769
 20
2.5179497033
 30
0.0
 10
-26.6478557106
 20
2.5184594258
 30
0.0
 10
-26.6488810449
 20
2.5194907865
 30
0.0
 10
-26.6500491319
 20
2.5206644773
 30
0.0
 10
-26.6512182561
 20
2.5218395716
 30
0.0
 10
-26.6520957111
 20
2.5227216889
 30
0.0
 10
-26.6528244521
 20
2.5234535467
 30
0.0
 10
-26.6533394933
 20
2.5239723025
 30
0.0
 10
-26.6536261054
 20
2.5242586401
 30
0.0
 10
-26.6538627496
 20
2.5245018318
 30
0.0
 10
-26.6540165021
 20
2.5246363166
 30
0.0
 10
-26.6542504164
 20
2.5248535444
 30
0.0
 10
-26.6546463224
 20
2.5252160619
 30
0.0
 10
-26.6554476809
 20
2.5259536175
 30
0.0
 10
-26.656359516
 20
2.5267912827
 30
0.0
 10
-26.6572724503
 20
2.5276304053
 30
0.0
 10
-26.6579578565
 20
2.5282606303
 30
0.0
 10
-26.6585262189
 20
2.5287822672
 30
0.0
 10
-26.6589296637
 20
2.529154483
 30
0.0
 10
-26.6591514616
 20
2.5293561229
 30
0.0
 10
-26.6593424388
 20
2.5295384973
 30
0.0
 10
-26.6594392716
 20
2.5296018214
 30
0.0
 10
-26.6596012208
 20
2.5297277797
 30
0.0
 10
-26.659869331
 20
2.5299288582
 30
0.0
 10
-26.6602603503
 20
2.5302262354
 30
0.0
 10
-26.6607261241
 20
2.5305787265
 30
0.0
 10
-26.6611928878
 20
2.530932468
 30
0.0
 10
-26.6616591411
 20
2.5312855696
 30
0.0
 10
-26.6621264464
 20
2.5316399802
 30
0.0
 10
-26.6625127862
 20
2.5319314925
 30
0.0
 10
-26.6627892344
 20
2.532143021
 30
0.0
 10
-26.6629378258
 20
2.5322522379
 30
0.0
 10
-26.663075689
 20
2.532366986
 30
0.0
 10
-26.6631125632
 20
2.5323562207
 30
0.0
 10
-26.6631969548
 20
2.5323856475
 30
0.0
 10
-26.6633282277
 20
2.5324167463
 30
0.0
 10
-26.6635243411
 20
2.5324718375
 30
0.0
 10
-26.6637560043
 20
2.532533382
 30
0.0
 10
-26.6640661719
 20
2.5326170366
 30
0.0
 10
-26.6644534382
 20
2.5327210538
 30
0.0
 10
-26.6647633863
 20
2.5328044354
 30
0.0
 10
-26.6649183435
 20
2.5328461053
 30
0.0
  0
SPLINE
  5
7A4
100
AcDbEntity
  8
1_ALL_PLANES
100
AcDbSpline
 62
7
  6
CONTINUOUS
 70
0
 71
3
 72
57
 73
53
 74
0
 42
0.0000001
 43
0.0000001
 44
0.0000000001
 40
0.0
 40
0.0
 40
0.0
 40
0.0
 40
0.0625
 40
0.09375
 40
0.125
 40
0.140625
 40
0.15625
 40
0.1640625
 40
0.16796875
 40
0.171875
 40
0.1796875
 40
0.1875
 40
0.21875
 40
0.25
 40
0.28125
 40
0.3125
 40
0.3203125
 40
0.328125
 40
0.33203125
 40
0.3359375
 40
0.34375
 40
0.359375
 40
0.375
 40
0.4375
 40
0.46875
 40
0.484375
 40
0.4921875
 40
0.5
 40
0.5078125
 40
0.515625
 40
0.53125
 40
0.546875
 40
0.5625
 40
0.59375
 40
0.625
 40
0.640625
 40
0.65625
 40
0.6640625
 40
0.671875
 40
0.6875
 40
0.71875
 40
0.75
 40
0.78125
 40
0.8125
 40
0.828125
 40
0.8359375
 40
0.84375
 40
0.859375
 40
0.875
 40
0.90625
 40
0.9375
 40
1.0
 40
1.0
 40
1.0
 40
1.0
 10
-26.7231641927
 20
2.4839720347
 30
0.0
 10
-26.7231528005
 20
2.4837588307
 30
0.0
 10
-26.723135602
 20
2.4834388949
 30
0.0
 10
-26.7231131116
 20
2.4830128329
 30
0.0
 10
-26.7230981363
 20
2.4827454627
 30
0.0
 10
-26.723088251
 20
2.4825340324
 30
0.0
 10
-26.7230772949
 20
2.4823962643
 30
0.0
 10
-26.7230792006
 20
2.4823110981
 30
0.0
 10
-26.7230653087
 20
2.4822447964
 30
0.0
 10
-26.7229949913
 20
2.4821120716
 30
0.0
 10
-26.7229263815
 20
2.4819688697
 30
0.0
 10
-26.7227458404
 20
2.4816064945
 30
0.0
 10
-26.7224817495
 20
2.4810708408
 30
0.0
 10
-26.7221255391
 20
2.4803518358
 30
0.0
 10
-26.7217713479
 20
2.4796351585
 30
0.0
 10
-26.7215027137
 20
2.4790942673
 30
0.0
 10
-26.721327978
 20
2.4787385845
 30
0.0
 10
-26.721248746
 20
2.4785831375
 30
0.0
 10
-26.7212003461
 20
2.4784756789
 30
0.0
 10
-26.7210971438
 20
2.4783064209
 30
0.0
 10
-26.7208910779
 20
2.4779815066
 30
0.0
 10
-26.7206099807
 20
2.4775323212
 30
0.0
 10
-26.7199242308
 20
2.4764417472
 30
0.0
 10
-26.7191299111
 20
2.4751757892
 30
0.0
 10
-26.7183281528
 20
2.4739016593
 30
0.0
 10
-26.7179349984
 20
2.4732730251
 30
0.0
 10
-26.717698159
 20
2.4729005202
 30
0.0
 10
-26.7175548618
 20
2.4726585888
 30
0.0
 10
-26.7172803249
 20
2.4722735111
 30
0.0
 10
-26.71696012
 20
2.4718100775
 30
0.0
 10
-26.7165441314
 20
2.4712136259
 30
0.0
 10
-26.7160516943
 20
2.4705052448
 30
0.0
 10
-26.7153926785
 20
2.4695580866
 30
0.0
 10
-26.7145702829
 20
2.468375612
 30
0.0
 10
-26.7137454322
 20
2.4671905571
 30
0.0
 10
-26.7130903445
 20
2.4662475276
 30
0.0
 10
-26.71267016
 20
2.4656468882
 30
0.0
 10
-26.7123586255
 20
2.4651921133
 30
0.0
 10
-26.7119572424
 20
2.4646433887
 30
0.0
 10
-26.7112130602
 20
2.4636394535
 30
0.0
 10
-26.7101719053
 20
2.4622282191
 30
0.0
 10
-26.7089125546
 20
2.4605243464
 30
0.0
 10
-26.7076579231
 20
2.4588253055
 30
0.0
 10
-26.7066049704
 20
2.4574019913
 30
0.0
 10
-26.7058814345
 20
2.4564191958
 30
0.0
 10
-26.7054470172
 20
2.4558366477
 30
0.0
 10
-26.7049336639
 20
2.4551752312
 30
0.0
 10
-26.7043189999
 20
2.4543754649
 30
0.0
 10
-26.7033204329
 20
2.4530807474
 30
0.0
 10
-26.7020773982
 20
2.45146752
 30
0.0
 10
-26.7000856379
 20
2.448883454
 30
0.0
 10
-26.6985924712
 20
2.4469460575
 30
0.0
 10
-26.6975968815
 20
2.4456543147
 30
0.0
  0
SPLINE
  5
7A5
100
AcDbEntity
  8
1_ALL_PLANES
100
AcDbSpline
 62
7
  6
CONTINUOUS
 70
0
 71
3
 72
15
 73
11
 74
0
 42
0.0000001
 43
0.0000001
 44
0.0000000001
 40
0.0
 40
0.0
 40
0.0
 40
0.0
 40
0.125
 40
0.25
 40
0.5
 40
0.625
 40
0.75
 40
0.8125
 40
0.875
 40
1.0
 40
1.0
 40
1.0
 40
1.0
 10
-26.6975968831
 20
2.4456543167
 30
0.0
 10
-26.6967619082
 20
2.4445965213
 30
0.0
 10
-26.6951071552
 20
2.442493577
 30
0.0
 10
-26.6916760743
 20
2.4381865161
 30
0.0
 10
-26.688157661
 20
2.433806862
 30
0.0
 10
-26.6845039909
 20
2.4293378545
 30
0.0
 10
-26.6821914081
 20
2.4265306177
 30
0.0
 10
-26.6803494163
 20
2.4242964641
 30
0.0
 10
-26.6784347357
 20
2.4219973465
 30
0.0
 10
-26.676981226
 20
2.420257737
 30
0.0
 10
-26.6760161083
 20
2.419101391
 30
0.0
  0
SPLINE
  5
7A6
100
AcDbEntity
  8
0
100
AcDbSpline
 62
7
  6
CONTINUOUS
 70
0
 71
3
 72
27
 73
23
 74
0
 42
0.0000001
 43
0.0000001
 44
0.0000000001
 40
0.0
 40
0.0
 40
0.0
 40
0.0
 40
0.001719606
 40
0.0036369007
 40
0.0058957047
 40
0.0085843339
 40
0.0154297262
 40
0.0243932572
 40
0.0355534166
 40
0.0489407801
 40
0.0645489929
 40
0.0823503685
 40
0.1023110633
 40
0.1243937359
 40
0.1747542951
 40
0.2329736766
 40
0.2985028751
 40
0.3707539105
 40
0.4490097506
 40
0.620503763
 40
0.8066293734
 40
1.0
 40
1.0
 40
1.0
 40
1.0
 10
-23.4866352488
 20
0.04025619
 30
0.0
 10
-23.4866124879
 20
0.0402956131
 30
0.0
 10
-23.4865798865
 20
0.0403886293
 30
0.0
 10
-23.4865777132
 20
0.0405465584
 30
0.0
 10
-23.4866170819
 20
0.0407251105
 30
0.0
 10
-23.4867332131
 20
0.0410158892
 30
0.0
 10
-23.4869940232
 20
0.0414337479
 30
0.0
 10
-23.487440632
 20
0.0419913399
 30
0.0
 10
-23.4880470122
 20
0.0426398896
 30
0.0
 10
-23.4888125662
 20
0.0433777758
 30
0.0
 10
-23.4897364426
 20
0.0442034375
 30
0.0
 10
-23.4908163006
 20
0.0451146906
 30
0.0
 10
-23.4920496093
 20
0.046109203
 30
0.0
 10
-23.4939813857
 20
0.0476099823
 30
0.0
 10
-23.4967616303
 20
0.049668486
 30
0.0
 10
-23.5005232027
 20
0.0523323215
 30
0.0
 10
-23.5048066784
 20
0.055260618
 30
0.0
 10
-23.50957107
 20
0.0584242591
 30
0.0
 10
-23.5167250022
 20
0.0630593009
 30
0.0
 10
-23.5265020175
 20
0.0691883018
 30
0.0
 10
-23.5389803784
 20
0.0767416624
 30
0.0
 10
-23.5476467672
 20
0.0818235561
 30
0.0
 10
-23.5520799076
 20
0.0843830309
 30
0.0
  0
SPLINE
  5
7A7
100
AcDbEntity
  8
0
100
AcDbSpline
 62
7
  6
CONTINUOUS
 70
0
 71
3
 72
27
 73
23
 74
0
 42
0.0000001
 43
0.0000001
 44
0.0000000001
 40
0.0
 40
0.0
 40
0.0
 40
0.0
 40
0.1933706266
 40
0.379496237
 40
0.5509902494
 40
0.6292460895
 40
0.7014971249
 40
0.7670263234
 40
0.8252457049
 40
0.8756062641
 40
0.8976889367
 40
0.9176496315
 40
0.9354510071
 40
0.9510592199
 40
0.9644465834
 40
0.9756067428
 40
0.9845702738
 40
0.9914156661
 40
0.9941042953
 40
0.9963630993
 40
0.998280394
 40
1.0
 40
1.0
 40
1.0
 40
1.0
 10
-25.5807614637
 20
1.2556428734
 30
0.0
 10
-25.585194604
 20
1.2582023481
 30
0.0
 10
-25.5939288475
 20
1.2631667142
 30
0.0
 10
-25.6067094301
 20
1.2701966114
 30
0.0
 10
-25.6169058082
 20
1.2755992546
 30
0.0
 10
-25.6244968383
 20
1.2794772207
 30
0.0
 10
-25.6296188276
 20
1.2820214844
 30
0.0
 10
-25.6342965446
 20
1.2842669348
 30
0.0
 10
-25.63848428
 20
1.2861926343
 30
0.0
 10
-25.6416571189
 20
1.2875711449
 30
0.0
 10
-25.64392272
 20
1.2884937227
 30
0.0
 10
-25.6454006474
 20
1.2890645431
 30
0.0
 10
-25.6467297447
 20
1.2895441011
 30
0.0
 10
-25.6479067269
 20
1.2899313706
 30
0.0
 10
-25.6489285321
 20
1.2902254168
 30
0.0
 10
-25.6497933828
 20
1.2904262826
 30
0.0
 10
-25.6504995759
 20
1.2905342612
 30
0.0
 10
-25.6509918573
 20
1.2905512
 30
0.0
 10
-25.6513017446
 20
1.2905063832
 30
0.0
 10
-25.6514760596
 20
1.2904512015
 30
0.0
 10
-25.6516117436
 20
1.2903703547
 30
0.0
 10
-25.6516759973
 20
1.2902956131
 30
0.0
 10
-25.6516987582
 20
1.29025619
 30
0.0
  0
LINE
  5
7A8
100
AcDbEntity
  8
0
100
AcDbLine
 62
7
  6
CONTINUOUS
 10
-21.923132302
 20
-0.32024349
 11
-21.9194500724
 21
-0.3202265141
  0
SPLINE
  5
7A9
100
AcDbEntity
  8
0
100
AcDbSpline
 62
7
  6
CONTINUOUS
 70
0
 71
3
 72
8
 73
4
 74
0
 42
0.0000001
 43
0.0000001
 44
0.0000000001
 40
0.0
 40
0.0
 40
0.0
 40
0.0
 40
1.0
 40
1.0
 40
1.0
 40
1.0
 10
-22.602125779
 20
3.3071587173
 30
0.0
 10
-22.5968970652
 20
3.3059980332
 30
0.0
 10
-22.5917717934
 20
3.3039068172
 30
0.0
 10
-22.5873055838
 20
3.3009505346
 30
0.0
  0
SPLINE
  5
7AA
100
AcDbEntity
  8
0
100
AcDbSpline
 62
7
  6
CONTINUOUS
 70
0
 71
3
 72
8
 73
4
 74
0
 42
0.0000001
 43
0.0000001
 44
0.0000000001
 40
0.0
 40
0.0
 40
0.0
 40
0.0
 40
1.0
 40
1.0
 40
1.0
 40
1.0
 10
-24.4656193609
 20
6.032531089
 30
0.0
 10
-24.4637259366
 20
6.0262075446
 30
0.0
 10
-24.4631383733
 20
6.0193021735
 30
0.0
 10
-24.4641659156
 20
6.0127817114
 30
0.0
  0
SPLINE
  5
7AB
100
AcDbEntity
  8
0
100
AcDbSpline
 62
7
  6
CONTINUOUS
 70
0
 71
3
 72
10
 73
6
 74
0
 42
0.0000001
 43
0.0000001
 44
0.0000000001
 40
0.0
 40
0.0
 40
0.0
 40
0.0
 40
0.2512822554
 40
0.5020496435
 40
1.0
 40
1.0
 40
1.0
 40
1.0
 10
-24.0361000461
 20
7.7367012801
 30
0.0
 10
-24.033456233
 20
7.733645952
 30
0.0
 10
-24.0289116909
 20
7.7268180648
 30
0.0
 10
-24.0241813392
 20
7.711276037
 30
0.0
 10
-24.0255930767
 20
7.698601901
 30
0.0
 10
-24.0284292262
 20
7.6911144569
 30
0.0
  0
SPLINE
  5
7AC
100
AcDbEntity
  8
0
100
AcDbSpline
 62
7
  6
CONTINUOUS
 70
0
 71
3
 72
8
 73
4
 74
0
 42
0.0000001
 43
0.0000001
 44
0.0000000001
 40
0.0
 40
0.0
 40
0.0
 40
0.0
 40
1.0
 40
1.0
 40
1.0
 40
1.0
 10
-24.0284292262
 20
7.6911144569
 30
0.0
 10
-24.0303219431
 20
7.686117678
 30
0.0
 10
-24.0331161832
 20
7.6813554495
 30
0.0
 10
-24.0366694457
 20
7.6773648977
 30
0.0
  0
SPLINE
  5
7AD
100
AcDbEntity
  8
0
100
AcDbSpline
 62
7
  6
CONTINUOUS
 70
0
 71
3
 72
8
 73
4
 74
0
 42
0.0000001
 43
0.0000001
 44
0.0000000001
 40
0.0
 40
0.0
 40
0.0
 40
0.0
 40
1.0
 40
1.0
 40
1.0
 40
1.0
 10
-23.9411294813
 20
4.4011274938
 30
0.0
 10
-23.9337451454
 20
4.3964179169
 30
0.0
 10
-23.9273953867
 20
4.3893358642
 30
0.0
 10
-23.9238649808
 20
4.381320581
 30
0.0
  0
LINE
  5
7AE
100
AcDbEntity
  8
0
100
AcDbLine
 62
7
  6
CONTINUOUS
 10
-22.586686359
 20
3.3002842107
 11
-22.5873056115
 21
3.3009505529
  0
SPLINE
  5
7AF
100
AcDbEntity
  8
0
100
AcDbSpline
 62
7
  6
CONTINUOUS
 70
0
 71
3
 72
9
 73
5
 74
0
 42
0.0000001
 43
0.0000001
 44
0.0000000001
 40
0.0
 40
0.0
 40
0.0
 40
0.0
 40
0.2839936552
 40
1.0
 40
1.0
 40
1.0
 40
1.0
 10
-24.465128919
 20
6.0111201169
 30
0.0
 10
-24.4650072746
 20
6.0112564922
 30
0.0
 10
-24.4645988272
 20
6.0117504744
 30
0.0
 10
-24.4642662198
 20
6.012332059
 30
0.0
 10
-24.4641659105
 20
6.0127817438
 30
0.0
  0
SPLINE
  5
7B0
100
AcDbEntity
  8
0
100
AcDbSpline
 62
7
  6
CONTINUOUS
 70
0
 71
3
 72
9
 73
5
 74
0
 42
0.0000001
 43
0.0000001
 44
0.0000000001
 40
0.0
 40
0.0
 40
0.0
 40
0.0
 40
0.5923041547
 40
1.0
 40
1.0
 40
1.0
 40
1.0
 10
-23.9253498458
 20
4.3749784105
 30
0.0
 10
-23.9247809506
 20
4.3761522284
 30
0.0
 10
-23.9239253436
 20
4.3781364848
 30
0.0
 10
-23.9235556739
 20
4.3804777207
 30
0.0
 10
-23.9238649942
 20
4.3813206114
 30
0.0
  0
SPLINE
  5
7B1
100
AcDbEntity
  8
0
100
AcDbSpline
 62
3
  6
CONTINUOUS
 70
0
 71
3
 72
27
 73
23
 74
0
 42
0.0000001
 43
0.0000001
 44
0.0000000001
 40
0.0
 40
0.0
 40
0.0
 40
0.0
 40
0.1933706266
 40
0.379496237
 40
0.5509902494
 40
0.6292460895
 40
0.7014971249
 40
0.7670263234
 40
0.8252457049
 40
0.8756062641
 40
0.8976889367
 40
0.9176496315
 40
0.9354510071
 40
0.9510592199
 40
0.9644465834
 40
0.9756067428
 40
0.9845702738
 40
0.9914156661
 40
0.9941042953
 40
0.9963630993
 40
0.998280394
 40
1.0
 40
1.0
 40
1.0
 40
1.0
 10
-23.6170442396
 20
-0.0281384929
 30
0.0
 10
-23.6126110993
 20
-0.0306979677
 30
0.0
 10
-23.6038768558
 20
-0.0356623338
 30
0.0
 10
-23.5910962732
 20
-0.042692231
 30
0.0
 10
-23.5808998951
 20
-0.0480948741
 30
0.0
 10
-23.573308865
 20
-0.0519728403
 30
0.0
 10
-23.5681868757
 20
-0.0545171039
 30
0.0
 10
-23.5635091587
 20
-0.0567625544
 30
0.0
 10
-23.5593214233
 20
-0.0586882539
 30
0.0
 10
-23.5561485844
 20
-0.0600667645
 30
0.0
 10
-23.5538829833
 20
-0.0609893423
 30
0.0
 10
-23.5524050559
 20
-0.0615601627
 30
0.0
 10
-23.5510759586
 20
-0.0620397207
 30
0.0
 10
-23.5498989764
 20
-0.0624269902
 30
0.0
 10
-23.5488771712
 20
-0.0627210364
 30
0.0
 10
-23.5480123205
 20
-0.0629219022
 30
0.0
 10
-23.5473061274
 20
-0.0630298808
 30
0.0
 10
-23.546813846
 20
-0.0630468196
 30
0.0
 10
-23.5465039587
 20
-0.0630020028
 30
0.0
 10
-23.5463296437
 20
-0.0629468211
 30
0.0
 10
-23.5461939597
 20
-0.0628659743
 30
0.0
 10
-23.546129706
 20
-0.0627912326
 30
0.0
 10
-23.5461069451
 20
-0.0627518096
 30
0.0
  0
SPLINE
  5
7B2
100
AcDbEntity
  8
0
100
AcDbSpline
 62
3
  6
CONTINUOUS
 70
0
 71
3
 72
27
 73
23
 74
0
 42
0.0000001
 43
0.0000001
 44
0.0000000001
 40
0.0
 40
0.0
 40
0.0
 40
0.0
 40
0.001719606
 40
0.0036369007
 40
0.0058957047
 40
0.0085843339
 40
0.0154297262
 40
0.0243932572
 40
0.0355534166
 40
0.0489407801
 40
0.0645489929
 40
0.0823503685
 40
0.1023110633
 40
0.1243937359
 40
0.1747542951
 40
0.2329736766
 40
0.2985028751
 40
0.3707539105
 40
0.4490097506
 40
0.620503763
 40
0.8066293734
 40
1.0
 40
1.0
 40
1.0
 40
1.0
 10
-25.7111704545
 20
1.1872481904
 30
0.0
 10
-25.7111932154
 20
1.1872087674
 30
0.0
 10
-25.7112258168
 20
1.1871157512
 30
0.0
 10
-25.7112279901
 20
1.186957822
 30
0.0
 10
-25.7111886214
 20
1.1867792699
 30
0.0
 10
-25.7110724902
 20
1.1864884912
 30
0.0
 10
-25.7108116801
 20
1.1860706325
 30
0.0
 10
-25.7103650713
 20
1.1855130406
 30
0.0
 10
-25.7097586911
 20
1.1848644909
 30
0.0
 10
-25.7089931371
 20
1.1841266047
 30
0.0
 10
-25.7080692607
 20
1.1833009429
 30
0.0
 10
-25.7069894027
 20
1.1823896899
 30
0.0
 10
-25.705756094
 20
1.1813951775
 30
0.0
 10
-25.7038243176
 20
1.1798943982
 30
0.0
 10
-25.701044073
 20
1.1778358944
 30
0.0
 10
-25.6972825006
 20
1.1751720589
 30
0.0
 10
-25.6929990249
 20
1.1722437624
 30
0.0
 10
-25.6882346333
 20
1.1690801214
 30
0.0
 10
-25.6810807011
 20
1.1644450796
 30
0.0
 10
-25.6713036858
 20
1.1583160787
 30
0.0
 10
-25.6588253249
 20
1.1507627181
 30
0.0
 10
-25.6501589361
 20
1.1456808244
 30
0.0
 10
-25.6457257957
 20
1.1431213496
 30
0.0
  0
SPLINE
  5
7B3
100
AcDbEntity
  8
0
100
AcDbSpline
 62
3
  6
CONTINUOUS
 70
0
 71
3
 72
27
 73
23
 74
0
 42
0.0000001
 43
0.0000001
 44
0.0000000001
 40
0.0
 40
0.0
 40
0.0
 40
0.0
 40
0.1933706266
 40
0.379496237
 40
0.5509902494
 40
0.6292460895
 40
0.7014971249
 40
0.7670263234
 40
0.8252457049
 40
0.8756062641
 40
0.8976889367
 40
0.9176496315
 40
0.9354510071
 40
0.9510592199
 40
0.9644465834
 40
0.9756067428
 40
0.9845702738
 40
0.9914156661
 40
0.9941042953
 40
0.9963630993
 40
0.998280394
 40
1.0
 40
1.0
 40
1.0
 40
1.0
 10
-25.5846888812
 20
1.2488403867
 30
0.0
 10
-25.5891220215
 20
1.2513998615
 30
0.0
 10
-25.597856265
 20
1.2563642275
 30
0.0
 10
-25.6106368476
 20
1.2633941247
 30
0.0
 10
-25.6208332257
 20
1.2687967679
 30
0.0
 10
-25.6284242558
 20
1.272674734
 30
0.0
 10
-25.6335462451
 20
1.2752189977
 30
0.0
 10
-25.6382239621
 20
1.2774644482
 30
0.0
 10
-25.6424116975
 20
1.2793901476
 30
0.0
 10
-25.6455845364
 20
1.2807686582
 30
0.0
 10
-25.6478501376
 20
1.281691236
 30
0.0
 10
-25.6493280649
 20
1.2822620565
 30
0.0
 10
-25.6506571622
 20
1.2827416144
 30
0.0
 10
-25.6518341445
 20
1.283128884
 30
0.0
 10
-25.6528559497
 20
1.2834229301
 30
0.0
 10
-25.6537208003
 20
1.2836237959
 30
0.0
 10
-25.6544269935
 20
1.2837317745
 30
0.0
 10
-25.6549192748
 20
1.2837487134
 30
0.0
 10
-25.6552291621
 20
1.2837038965
 30
0.0
 10
-25.6554034772
 20
1.2836487148
 30
0.0
 10
-25.6555391611
 20
1.2835678681
 30
0.0
 10
-25.6556034148
 20
1.2834931264
 30
0.0
 10
-25.6556261757
 20
1.2834537034
 30
0.0
  0
SPLINE
  5
7B4
100
AcDbEntity
  8
0
100
AcDbSpline
 62
3
  6
CONTINUOUS
 70
0
 71
3
 72
27
 73
23
 74
0
 42
0.0000001
 43
0.0000001
 44
0.0000000001
 40
0.0
 40
0.0
 40
0.0
 40
0.0
 40
0.001719606
 40
0.0036369007
 40
0.0058957047
 40
0.0085843339
 40
0.0154297262
 40
0.0243932572
 40
0.0355534166
 40
0.0489407801
 40
0.0645489929
 40
0.0823503685
 40
0.1023110633
 40
0.1243937359
 40
0.1747542951
 40
0.2329736766
 40
0.2985028751
 40
0.3707539105
 40
0.4490097506
 40
0.620503763
 40
0.8066293734
 40
1.0
 40
1.0
 40
1.0
 40
1.0
 10
-23.4905626663
 20
0.0334537034
 30
0.0
 10
-23.4905399054
 20
0.0334931264
 30
0.0
 10
-23.4905073041
 20
0.0335861426
 30
0.0
 10
-23.4905051307
 20
0.0337440717
 30
0.0
 10
-23.4905444994
 20
0.0339226239
 30
0.0
 10
-23.4906606306
 20
0.0342134025
 30
0.0
 10
-23.4909214407
 20
0.0346312613
 30
0.0
 10
-23.4913680495
 20
0.0351888532
 30
0.0
 10
-23.4919744297
 20
0.0358374029
 30
0.0
 10
-23.4927399838
 20
0.0365752891
 30
0.0
 10
-23.4936638601
 20
0.0374009508
 30
0.0
 10
-23.4947437182
 20
0.0383122039
 30
0.0
 10
-23.4959770268
 20
0.0393067163
 30
0.0
 10
-23.4979088033
 20
0.0408074956
 30
0.0
 10
-23.5006890479
 20
0.0428659993
 30
0.0
 10
-23.5044506202
 20
0.0455298348
 30
0.0
 10
-23.5087340959
 20
0.0484581314
 30
0.0
 10
-23.5134984875
 20
0.0516217724
 30
0.0
 10
-23.5206524197
 20
0.0562568142
 30
0.0
 10
-23.530429435
 20
0.0623858151
 30
0.0
 10
-23.5429077959
 20
0.0699391757
 30
0.0
 10
-23.5515741848
 20
0.0750210694
 30
0.0
 10
-23.5560073251
 20
0.0775805442
 30
0.0
  0
ENDSEC
  0
SECTION
  2
OBJECTS
  0
DICTIONARY
  5
C
100
AcDbDictionary
280
0
281
1
  3
ACAD_GROUP
350
D
  3
ACAD_MLINESTYLE
350
17
  3
ACAD_LAYOUT
350
1A
  3
ACAD_PLOTSETTINGS
350
19
  3
ACAD_PLOTSTYLENAME
350
E
  0
DICTIONARY
  5
D
102
{ACAD_REACTORS
330
C
102
}
100
AcDbDictionary
280
0
281
1
  0
ACDBDICTIONARYWDFLT
  5
E
102
{ACAD_REACTORS
330
C
102
}
100
AcDbDictionary
281
1
  3
Normal
350
F
100
AcDbDictionaryWithDefault
340
F
  0
DICTIONARY
  5
17
102
{ACAD_REACTORS
330
C
102
}
100
AcDbDictionary
280
0
281
1
  3
Standard
350
18
  0
DICTIONARY
  5
19
102
{ACAD_REACTORS
330
C
102
}
100
AcDbDictionary
281
1
  0
DICTIONARY
  5
1A
102
{ACAD_REACTORS
330
C
102
}
100
AcDbDictionary
281
1
  3
Model
350
7B5
  3
Layout1
350
7B6
  0
ACDBPLACEHOLDER
  5
F
102
{ACAD_REACTORS
330
E
102
}
  0
MLINESTYLE
  5
18
102
{ACAD_REACTORS
330
17
102
}
100
AcDbMlineStyle
  2
STANDARD
 70
0
  3

 62
256
 51
90.0
 52
90.0
 71
2
 49
0.5
 62
256
  6
BYLAYER
 49
-0.5
 62
256
  6
BYLAYER
  0
LAYOUT
  5
7B5
102
{ACAD_REACTORS
330
1A
102
}
100
AcDbPlotSettings
  1

  2
none_device
  4

  6

 40
0.0
 41
0.0
 42
0.0
 43
0.0
 44
431.8
 45
279.4
 46
0.0
 47
0.0
 48
0.0
 49
0.0
140
0.0
141
0.0
142
1.0
143
1.0
 70
1024
 72
0
 73
0
 74
0
  7

 75
0
147
1.0
148
0.0
149
0.0
100
AcDbLayout
  1
Model
 70
0
 71
0
 10
0.0
 20
0.0
 11
17.0
 21
11.0
 12
0.0
 22
0.0
 32
0.0
 14
0.0
 24
0.0
 34
0.0
 15
0.0
 25
0.0
 35
0.0
146
0.0
 13
0.0
 23
0.0
 33
0.0
 16
1.0
 26
0.0
 36
0.0
 17
0.0
 27
1.0
 37
0.0
 76
0
330
249
345
0
346
0
  0
LAYOUT
  5
7B6
102
{ACAD_REACTORS
330
1A
102
}
100
AcDbPlotSettings
  1

  2
none_device
  4

  6

 40
0.0
 41
0.0
 42
0.0
 43
0.0
 44
431.8
 45
279.4
 46
0.0
 47
0.0
 48
0.0
 49
0.0
140
0.0
141
0.0
142
1.0
143
1.0
 70
0
 72
0
 73
0
 74
0
  7

 75
0
147
1.0
148
0.0
149
0.0
100
AcDbLayout
  1
Layout1
 70
0
 71
1
 10
0.0
 20
0.0
 11
17.0
 21
11.0
 12
0.0
 22
0.0
 32
0.0
 14
0.0
 24
0.0
 34
0.0
 15
0.0
 25
0.0
 35
0.0
146
0.0
 13
0.0
 23
0.0
 33
0.0
 16
1.0
 26
0.0
 36
0.0
 17
0.0
 27
1.0
 37
0.0
 76
0
330
24A
345
0
346
0
  0
ENDSEC
  0
EOF
