999
DXF file: N:\Master\master\M3_ProE_files\Lenexa\MADAM DXF\40275.dxf
999
Pro/ENGINEER 2010280 by Parametric Technology Corporation
  0
SECTION
  2
HEADER
  9
$ACADVER
  1
AC1021
  9
$DWGCODEPAGE
  3
ANSI_1252
  9
$EXTMAX
 10
17.0
 20
11.0
 30
0.0
  9
$EXTMIN
 10
0.0
 20
-0.0
 30
0.0
  9
$LIMMIN
 10
0.0
 20
-0.0
  9
$LIMMAX
 10
17.0
 20
11.0
  9
$VIEWCTR
 10
8.5
 20
5.5
  9
$VIEWSIZE
 40
11.0
  9
$CLAYER
  8
0
  9
$LTSCALE
 40
0.935
  9
$CELTYPE
  6
BYLAYER
  9
$DIMSCALE
 40
1.0
  9
$DIMASZ
 40
0.125
  9
$DIMEXO
 40
0.10625
  9
$DIMDLI
 40
0.646
  9
$DIMEXE
 40
0.306
  9
$DIMCEN
 40
0.153
  9
$DIMLFAC
 40
1.0
  9
$DIMBLK
  1
_FILLED
  9
$DIMTXT
 40
0.125
  9
$DIMTOL
 70
1
  9
$DIMLIM
 70
0
  9
$DIMTFAC
 40
1.0
  9
$DIMTP
 40
0.01
  9
$DIMTM
 40
0.01
  9
$PDMODE
 70
3
  9
$PDSIZE
 40
0.3125
  9
$HANDSEED
  5
80D
  9
$TILEMODE
 70
1
  9
$MEASUREMENT
 70
0
  9
$INSUNITS
 70
1
  0
ENDSEC
  0
SECTION
  2
CLASSES
  0
CLASS
  1
ACDBDICTIONARYWDFLT
  2
AcDbDictionaryWithDefault
  3
AutoCAD 2000
 90
0
 91
1
280
0
281
0
  0
CLASS
  1
ACDBPLACEHOLDER
  2
AcDbPlaceHolder
  3
AutoCAD 2000
 90
0
 91
1
280
0
281
0
  0
CLASS
  1
LAYOUT
  2
AcDbLayout
  3
AutoCAD 2000
 90
0
 91
0
280
0
281
0
  0
ENDSEC
  0
SECTION
  2
TABLES
  0
TABLE
  2
VPORT
  5
8
100
AcDbSymbolTable
 70
2
  0
VPORT
  5
1F4
100
AcDbSymbolTableRecord
100
AcDbViewportTableRecord
  2
*ACTIVE
 70
0
 10
0.0
 20
0.0
 11
1.0
 21
1.0
 12
8.5
 22
5.5
 13
0.0
 23
0.0
 14
1.0
 24
1.0
 15
0.0
 25
0.0
 16
0.0
 26
0.0
 36
1.0
 17
0.0
 27
0.0
 37
0.0
 40
11.0
 41
1.5454545455
 42
50.0
 43
0.0
 44
0.0
 50
0.0
 51
0.0
 71
0
 72
100
 73
1
 74
1
 75
0
 76
0
 77
0
 78
0
  0
ENDTAB
  0
TABLE
  2
LTYPE
  5
5
100
AcDbSymbolTable
 70
6
  0
LTYPE
  5
14
100
AcDbSymbolTableRecord
100
AcDbLinetypeTableRecord
  2
BYBLOCK
 70
0
  3

 72
65
 73
0
 40
0.0
  0
LTYPE
  5
15
100
AcDbSymbolTableRecord
100
AcDbLinetypeTableRecord
  2
BYLAYER
 70
0
  3

 72
65
 73
0
 40
0.0
  0
LTYPE
  5
16
100
AcDbSymbolTableRecord
100
AcDbLinetypeTableRecord
  2
CONTINUOUS
 70
64
  3
Solid line
 72
65
 73
0
 40
0.0
  0
LTYPE
  5
1F5
100
AcDbSymbolTableRecord
100
AcDbLinetypeTableRecord
  2
CENTER
 70
64
  3
____ _ ____ _ ____ _ ____ _ ____ _ ____ _ ____
 72
65
 73
4
 40
0.6
 49
0.375
 74
0
 49
-0.075
 74
0
 49
0.075
 74
0
 49
-0.075
 74
0
  0
LTYPE
  5
1F6
100
AcDbSymbolTableRecord
100
AcDbLinetypeTableRecord
  2
HIDDEN
 70
64
  3
- - - - - - - - - - - - - - - - - - - -
 72
65
 73
2
 40
0.2
 49
0.1
 74
0
 49
-0.1
 74
0
  0
LTYPE
  5
1F7
100
AcDbSymbolTableRecord
100
AcDbLinetypeTableRecord
  2
PHANTOM
 70
64
  3
_____ _ _ _____ _ _ _____ _ _ _____
 72
65
 73
6
 40
0.8
 49
0.45
 74
0
 49
-0.05
 74
0
 49
0.1
 74
0
 49
-0.05
 74
0
 49
0.1
 74
0
 49
-0.05
 74
0
  0
LTYPE
  5
1F8
100
AcDbSymbolTableRecord
100
AcDbLinetypeTableRecord
  2
DOT
 70
64
  3
. . . . . . . . . . . . . . . . . . . .
 72
65
 73
2
 40
0.2
 49
0.1
 74
0
 49
-0.1
 74
0
  0
LTYPE
  5
1F9
100
AcDbSymbolTableRecord
100
AcDbLinetypeTableRecord
  2
DASHED
 70
64
  3
- - - - - - - - - - - - - - - - - - - -
 72
65
 73
2
 40
0.2
 49
0.1
 74
0
 49
-0.1
 74
0
  0
ENDTAB
  0
TABLE
  2
LAYER
  5
2
100
AcDbSymbolTable
 70
36
  0
LAYER
  5
10
100
AcDbSymbolTableRecord
100
AcDbLayerTableRecord
  2
0
 70
0
 62
7
  6
CONTINUOUS
370
-3
390
F
  0
LAYER
  5
1FA
100
AcDbSymbolTableRecord
100
AcDbLayerTableRecord
  2
DEFAULT_1
 70
0
 62
7
  6
CENTER
370
-3
390
F
  0
LAYER
  5
1FB
100
AcDbSymbolTableRecord
100
AcDbLayerTableRecord
  2
DEFAULT_2
 70
0
 62
8
  6
HIDDEN
370
-3
390
F
  0
LAYER
  5
1FC
100
AcDbSymbolTableRecord
100
AcDbLayerTableRecord
  2
DEFAULT_3
 70
0
 62
7
  6
PHANTOM
370
-3
390
F
  0
LAYER
  5
1FD
100
AcDbSymbolTableRecord
100
AcDbLayerTableRecord
  2
01_ALL_DTM_PLN
 70
0
 62
7
  6
CONTINUOUS
370
-3
390
F
  0
LAYER
  5
1FE
100
AcDbSymbolTableRecord
100
AcDbLayerTableRecord
  2
01__ASM_ALL_DTM_PLN
 70
0
 62
7
  6
CONTINUOUS
370
-3
390
F
  0
LAYER
  5
1FF
100
AcDbSymbolTableRecord
100
AcDbLayerTableRecord
  2
01__ASM_DEF_DTM_PLN
 70
0
 62
7
  6
CONTINUOUS
370
-3
390
F
  0
LAYER
  5
200
100
AcDbSymbolTableRecord
100
AcDbLayerTableRecord
  2
01___PRT_ALL_DTM_PLN
 70
0
 62
7
  6
CONTINUOUS
370
-3
390
F
  0
LAYER
  5
201
100
AcDbSymbolTableRecord
100
AcDbLayerTableRecord
  2
01___PRT_DEF_DTM_PLN
 70
0
 62
7
  6
CONTINUOUS
370
-3
390
F
  0
LAYER
  5
202
100
AcDbSymbolTableRecord
100
AcDbLayerTableRecord
  2
02_ALL_AXES
 70
0
 62
7
  6
CONTINUOUS
370
-3
390
F
  0
LAYER
  5
203
100
AcDbSymbolTableRecord
100
AcDbLayerTableRecord
  2
02__ASM_ALL_AXES
 70
0
 62
7
  6
CONTINUOUS
370
-3
390
F
  0
LAYER
  5
204
100
AcDbSymbolTableRecord
100
AcDbLayerTableRecord
  2
02___PRT_ALL_AXES
 70
0
 62
7
  6
CONTINUOUS
370
-3
390
F
  0
LAYER
  5
205
100
AcDbSymbolTableRecord
100
AcDbLayerTableRecord
  2
03_ALL_CURVES
 70
0
 62
7
  6
CONTINUOUS
370
-3
390
F
  0
LAYER
  5
206
100
AcDbSymbolTableRecord
100
AcDbLayerTableRecord
  2
03__ASM_ALL_CURVES
 70
0
 62
7
  6
CONTINUOUS
370
-3
390
F
  0
LAYER
  5
207
100
AcDbSymbolTableRecord
100
AcDbLayerTableRecord
  2
03___PRT_ALL_CURVES
 70
0
 62
7
  6
CONTINUOUS
370
-3
390
F
  0
LAYER
  5
208
100
AcDbSymbolTableRecord
100
AcDbLayerTableRecord
  2
04_ALL_DTM_PNT
 70
0
 62
7
  6
CONTINUOUS
370
-3
390
F
  0
LAYER
  5
209
100
AcDbSymbolTableRecord
100
AcDbLayerTableRecord
  2
04__ASM_ALL_DTM_PNT
 70
0
 62
7
  6
CONTINUOUS
370
-3
390
F
  0
LAYER
  5
20A
100
AcDbSymbolTableRecord
100
AcDbLayerTableRecord
  2
04___PRT_ALL_DTM_PNT
 70
0
 62
7
  6
CONTINUOUS
370
-3
390
F
  0
LAYER
  5
20B
100
AcDbSymbolTableRecord
100
AcDbLayerTableRecord
  2
05_ALL_DTM_CSYS
 70
0
 62
7
  6
CONTINUOUS
370
-3
390
F
  0
LAYER
  5
20C
100
AcDbSymbolTableRecord
100
AcDbLayerTableRecord
  2
05__ASM_ALL_DTM_CSYS
 70
0
 62
7
  6
CONTINUOUS
370
-3
390
F
  0
LAYER
  5
20D
100
AcDbSymbolTableRecord
100
AcDbLayerTableRecord
  2
05__ASM_DEF_DTM_CSYS
 70
0
 62
7
  6
CONTINUOUS
370
-3
390
F
  0
LAYER
  5
20E
100
AcDbSymbolTableRecord
100
AcDbLayerTableRecord
  2
05___PRT_ALL_DTM_CSYS
 70
0
 62
7
  6
CONTINUOUS
370
-3
390
F
  0
LAYER
  5
20F
100
AcDbSymbolTableRecord
100
AcDbLayerTableRecord
  2
05___PRT_DEF_DTM_CSYS
 70
0
 62
7
  6
CONTINUOUS
370
-3
390
F
  0
LAYER
  5
210
100
AcDbSymbolTableRecord
100
AcDbLayerTableRecord
  2
06_ALL_SURFS
 70
0
 62
7
  6
CONTINUOUS
370
-3
390
F
  0
LAYER
  5
211
100
AcDbSymbolTableRecord
100
AcDbLayerTableRecord
  2
06__ASM_ALL_SURFS
 70
0
 62
7
  6
CONTINUOUS
370
-3
390
F
  0
LAYER
  5
212
100
AcDbSymbolTableRecord
100
AcDbLayerTableRecord
  2
06___PRT_ALL_SURFS
 70
0
 62
7
  6
CONTINUOUS
370
-3
390
F
  0
LAYER
  5
213
100
AcDbSymbolTableRecord
100
AcDbLayerTableRecord
  2
07__ASM_ALL_SKELETONS
 70
0
 62
7
  6
CONTINUOUS
370
-3
390
F
  0
LAYER
  5
214
100
AcDbSymbolTableRecord
100
AcDbLayerTableRecord
  2
1_ALL_PLANES
 70
0
 62
7
  6
CONTINUOUS
370
-3
390
F
  0
LAYER
  5
215
100
AcDbSymbolTableRecord
100
AcDbLayerTableRecord
  2
1__DEF_PLANES
 70
0
 62
7
  6
CONTINUOUS
370
-3
390
F
  0
LAYER
  5
216
100
AcDbSymbolTableRecord
100
AcDbLayerTableRecord
  2
2_ALL_CSYS
 70
0
 62
7
  6
CONTINUOUS
370
-3
390
F
  0
LAYER
  5
217
100
AcDbSymbolTableRecord
100
AcDbLayerTableRecord
  2
2__DEF_CSYS
 70
0
 62
7
  6
CONTINUOUS
370
-3
390
F
  0
ENDTAB
  0
TABLE
  2
STYLE
  5
3
100
AcDbSymbolTable
 70
1
  0
STYLE
  5
11
100
AcDbSymbolTableRecord
100
AcDbTextStyleTableRecord
  2
STANDARD
 70
0
 40
0.0
 41
0.8
 50
0.0
 71
0
 42
0.2
  3
txt
  4

  0
STYLE
  5
218
100
AcDbSymbolTableRecord
100
AcDbTextStyleTableRecord
  2
TEXTSTYLE_1
 70
0
 40
0.0
 41
0.8
 50
0.0
 71
0
 42
0.2
  3
gdt
  4

  0
ENDTAB
  0
TABLE
  2
VIEW
  5
6
100
AcDbSymbolTable
 70
0
  0
ENDTAB
  0
TABLE
  2
UCS
  5
7
100
AcDbSymbolTable
 70
0
  0
ENDTAB
  0
TABLE
  2
APPID
  5
9
100
AcDbSymbolTable
 70
1
  0
APPID
  5
219
100
AcDbSymbolTableRecord
100
AcDbRegAppTableRecord
  2
ACAD
 70
0
  0
ENDTAB
  0
TABLE
  2
BLOCK_RECORD
  5
1
100
AcDbSymbolTable
 70
0
  0
BLOCK_RECORD
  5
21A
100
AcDbSymbolTableRecord
100
AcDbBlockTableRecord
  2
*Model_Space
  0
BLOCK_RECORD
  5
21B
100
AcDbSymbolTableRecord
100
AcDbBlockTableRecord
  2
*Paper_Space
  0
ENDTAB
  0
TABLE
  2
DIMSTYLE
  5
A
100
AcDbSymbolTable
 70
1
100
AcDbDimStyleTable
 71
0
  0
DIMSTYLE
105
21C
100
AcDbSymbolTableRecord
100
AcDbDimStyleTableRecord
  2
STANDARD
 70
0
  3

  4

 40
1.0
 41
0.125
 42
0.0625
 43
0.38
 44
0.18
 45
0.0
 46
0.0
 47
0.01
 48
0.01
140
0.125
141
0.09
142
0.0
143
25.4
144
1.0
145
0.0
146
1.0
147
0.09
 71
1.0
 72
0.0
 73
1
 74
1
 75
0
 76
0
 77
0
 78
4
170
0
171
2
172
0
173
0
174
0
175
0
176
0
177
0
178
0
270
2
271
2
272
2
273
2
274
2
275
0
280
0
281
0
282
0
283
1
284
4
285
0
286
0
287
3
288
0
340
11
  0
ENDTAB
  0
ENDSEC
  0
SECTION
  2
BLOCKS
  0
BLOCK
  5
20
100
AcDbEntity
  8
0
100
AcDbBlockBegin
  2
*Model_Space
 70
0
 10
0.0
 20
0.0
 30
0.0
  3
*Model_Space
  1

  0
ENDBLK
  5
21
100
AcDbEntity
  8
0
100
AcDbBlockEnd
  0
BLOCK
  5
1C
100
AcDbEntity
  8
0
100
AcDbBlockBegin
  2
*Paper_Space
 70
0
 10
0.0
 20
0.0
 30
0.0
  3
*Paper_Space
  1

  0
ENDBLK
  5
1D
100
AcDbEntity
  8
0
100
AcDbBlockEnd
  0
ENDSEC
  0
SECTION
  2
ENTITIES
  0
MTEXT
  5
21D
100
AcDbEntity
  8
0
100
AcDbMText
 62
2
  6
CONTINUOUS
  7
STANDARD
 71
1
 72
1
 10
1.315028984
 20
-14.1424063183
 30
0.0
 11
1.0
 21
0.0
 31
0.0
 44
0.9
  1
40275
 40
3.0
 41
12.0
  0
LINE
  5
21E
100
AcDbEntity
  8
0
100
AcDbLine
 62
7
  6
CONTINUOUS
 10
-10.1141708012
 20
-4.9657276273
 11
-8.1141708012
 21
-4.9657276273
  0
LINE
  5
21F
100
AcDbEntity
  8
0
100
AcDbLine
 62
7
  6
CONTINUOUS
 10
-20.7323692752
 20
-4.9657276273
 11
-22.1123692752
 21
-4.9657276273
  0
LINE
  5
220
100
AcDbEntity
  8
0
100
AcDbLine
 62
7
  6
CONTINUOUS
 10
-14.5572554263
 20
-4.4648715107
 11
-14.7772554263
 21
-4.4648715107
  0
LINE
  5
221
100
AcDbEntity
  8
06___PRT_ALL_SURFS
100
AcDbLine
 62
7
  6
CONTINUOUS
 10
-15.2172554263
 20
-4.4548715107
 11
-14.2172554263
 21
-4.4548715107
  0
LINE
  5
222
100
AcDbEntity
  8
0
100
AcDbLine
 62
7
  6
CONTINUOUS
 10
-14.2172554263
 20
-4.4342315643
 11
-12.7853747383
 21
-4.4342315643
  0
LINE
  5
223
100
AcDbEntity
  8
0
100
AcDbLine
 62
7
  6
CONTINUOUS
 10
-15.2172554263
 20
-4.4342315643
 11
-16.6829668642
 21
-4.4342315643
  0
LINE
  5
224
100
AcDbEntity
  8
06___PRT_ALL_SURFS
100
AcDbLine
 62
7
  6
CONTINUOUS
 10
-15.2172554263
 20
-3.4548715107
 11
-14.2172554263
 21
-3.4548715107
  0
LINE
  5
225
100
AcDbEntity
  8
0
100
AcDbLine
 62
7
  6
CONTINUOUS
 10
-22.1123692752
 20
-4.9657276273
 11
-22.1123692752
 21
-0.9657276273
  0
LINE
  5
226
100
AcDbEntity
  8
0
100
AcDbLine
 62
7
  6
CONTINUOUS
 10
-12.1368907273
 20
-3.3161213281
 11
-17.3314508752
 21
-3.3161213281
  0
LINE
  5
227
100
AcDbEntity
  8
0
100
AcDbLine
 62
7
  6
CONTINUOUS
 10
-10.6555107105
 20
-2.883050462
 11
-18.8128648056
 21
-2.883050462
  0
LINE
  5
228
100
AcDbEntity
  8
0
100
AcDbLine
 62
7
  6
CONTINUOUS
 10
-17.9625778726
 20
-2.9243841905
 11
-17.462456603
 21
-3.2747876278
  0
LINE
  5
229
100
AcDbEntity
  8
0
100
AcDbLine
 62
7
  6
CONTINUOUS
 10
-20.7323692752
 20
-0.9657276273
 11
-20.7323692752
 21
-4.9657276273
  0
LINE
  5
22A
100
AcDbEntity
  8
0
100
AcDbLine
 62
7
  6
CONTINUOUS
 10
-10.1472920643
 20
-1.3909244777
 11
-10.1568059618
 21
-1.3909244777
  0
LINE
  5
22B
100
AcDbEntity
  8
0
100
AcDbLine
 62
7
  6
CONTINUOUS
 10
-10.1423226794
 20
-1.1842315643
 11
-10.1141708012
 21
-1.1842315643
  0
LINE
  5
22C
100
AcDbEntity
  8
0
100
AcDbLine
 62
7
  6
CONTINUOUS
 10
-19.3803675404
 20
-0.5426375252
 11
-19.2448807363
 21
-2.4801890926
  0
LINE
  5
22D
100
AcDbEntity
  8
0
100
AcDbLine
 62
7
  6
CONTINUOUS
 10
-9.3029025966
 20
0.6243054131
 11
-9.5384180786
 21
0.5740621103
  0
LINE
  5
22E
100
AcDbEntity
  8
0
100
AcDbLine
 62
7
  6
CONTINUOUS
 10
-10.1297099281
 20
-1.0042315643
 11
-10.1141708012
 21
-1.0042315643
  0
LINE
  5
22F
100
AcDbEntity
  8
0
100
AcDbLine
 62
7
  6
CONTINUOUS
 10
-22.1123692752
 20
-0.9657276273
 11
-20.7323692752
 21
-0.9657276273
  0
LINE
  5
230
100
AcDbEntity
  8
0
100
AcDbLine
 62
7
  6
CONTINUOUS
 10
-8.1141708012
 20
-0.4657276273
 11
-19.5254703374
 21
-0.4657276273
  0
LINE
  5
231
100
AcDbEntity
  8
0
100
AcDbLine
 62
7
  6
CONTINUOUS
 10
-8.5414025966
 20
-0.3933079203
 11
-9.6014025966
 21
-0.3933079203
  0
LINE
  5
232
100
AcDbEntity
  8
0
100
AcDbLine
 62
7
  6
CONTINUOUS
 10
-19.5766904863
 20
-0.286593769
 11
-19.5766904863
 21
-0.414546525
  0
LINE
  5
233
100
AcDbEntity
  8
0
100
AcDbLine
 62
7
  6
CONTINUOUS
 10
-19.3213512621
 20
0.2968136032
 11
-19.3621470797
 21
-0.286593769
  0
LINE
  5
234
100
AcDbEntity
  8
0
100
AcDbLine
 62
7
  6
CONTINUOUS
 10
-9.8916511162
 20
-0.286593769
 11
-19.5766904863
 21
-0.286593769
  0
LINE
  5
235
100
AcDbEntity
  8
0
100
AcDbLine
 62
7
  6
CONTINUOUS
 10
-9.5542757116
 20
-0.1973079203
 11
-8.5885902867
 21
-0.1973079203
  0
LINE
  5
236
100
AcDbEntity
  8
0
100
AcDbLine
 62
7
  6
CONTINUOUS
 10
-8.5885598842
 20
-0.1083079203
 11
-9.5542453091
 21
-0.1083079203
  0
LINE
  5
237
100
AcDbEntity
  8
0
100
AcDbLine
 62
7
  6
CONTINUOUS
 10
-8.8399025966
 20
0.6243054131
 11
-9.3029025966
 21
0.6243054131
  0
LINE
  5
238
100
AcDbEntity
  8
0
100
AcDbLine
 62
7
  6
CONTINUOUS
 10
-8.8399025966
 20
0.6243054131
 11
-8.6043871147
 21
0.5740621103
  0
LINE
  5
239
100
AcDbEntity
  8
0
100
AcDbLine
 62
7
  6
CONTINUOUS
 10
-16.7046668642
 20
3.9347684357
 11
-16.7046668642
 21
2.9232402642
  0
LINE
  5
23A
100
AcDbEntity
  8
0
100
AcDbLine
 62
7
  6
CONTINUOUS
 10
-16.6829896989
 20
-3.4736016431
 11
-16.6829896989
 21
-4.4342315643
  0
LWPOLYLINE
  5
23B
100
AcDbEntity
  8
0
100
AcDbPolyline
 62
7
  6
CONTINUOUS
 90
35
 70
0
 10
-8.5289027133
 20
3.4591920797
 10
-8.5152239367
 20
3.4598250983
 10
-8.4989996954
 20
3.4622385246
 10
-8.4831743792
 20
3.4664193097
 10
-8.4681069062
 20
3.4722251669
 10
-8.4541365873
 20
3.4794127272
 10
-8.4415330746
 20
3.4876438229
 10
-8.4304440991
 20
3.4965546186
 10
-8.4208787157
 20
3.5058111948
 10
-8.4127945552
 20
3.5150976926
 10
-8.4060676617
 20
3.5241699405
 10
-8.4005301018
 20
3.5328662061
 10
-8.3959972818
 20
3.5411092207
 10
-8.3922962198
 20
3.5488677329
 10
-8.389318272
 20
3.556031658
 10
-8.3869538465
 20
3.5625204221
 10
-8.3850772504
 20
3.5683512082
 10
-8.383561668
 20
3.573638544
 10
-8.3823110017
 20
3.5784983971
 10
-8.3812555757
 20
3.5830332043
 10
-8.3803452699
 20
3.5873291934
 10
-8.3795441916
 20
3.5914560872
 10
-8.3788259944
 20
3.5954721674
 10
-8.378169554
 20
3.5994363252
 10
-8.3775594219
 20
3.6033975607
 10
-8.376984251
 20
3.6073964166
 10
-8.3764355767
 20
3.6114669934
 10
-8.3759070001
 20
3.6156383938
 10
-8.3753936239
 20
3.6199358109
 10
-8.3748916578
 20
3.6243813492
 10
-8.3743981319
 20
3.6289947161
 10
-8.3739106501
 20
3.6337941447
 10
-8.3734273636
 20
3.638795619
 10
-8.3729467995
 20
3.6440137126
 10
-8.3719887532
 20
3.6551595367
  0
LWPOLYLINE
  5
23C
100
AcDbEntity
  8
0
100
AcDbPolyline
 62
7
  6
CONTINUOUS
 90
32
 70
0
 10
-8.8389027129
 20
3.4591920797
 10
-8.8252461723
 20
3.4598230395
 10
-8.8090439538
 20
3.4622294208
 10
-8.7932387509
 20
3.4663984626
 10
-8.7781877378
 20
3.4721888808
 10
-8.7642290394
 20
3.4793588529
 10
-8.7516313929
 20
3.4875723262
 10
-8.7405436076
 20
3.4964666176
 10
-8.7309756007
 20
3.5057088168
 10
-8.7228864721
 20
3.5149830517
 10
-8.7161531405
 20
3.5240453482
 10
-8.7106078032
 20
3.5327347395
 10
-8.7060661003
 20
3.5409747134
 10
-8.7023551077
 20
3.5487353157
 10
-8.6993677362
 20
3.5559043418
 10
-8.6969967024
 20
3.5623950467
 10
-8.6951167868
 20
3.5682208406
 10
-8.6935993917
 20
3.5734995065
 10
-8.6923466698
 20
3.5783525675
 10
-8.6912882682
 20
3.582885947
 10
-8.6903737662
 20
3.5871886675
 10
-8.689567076
 20
3.5913332446
 10
-8.6888416397
 20
3.595381229
 10
-8.6881757911
 20
3.5993972491
 10
-8.6875535163
 20
3.6034372809
 10
-8.6869629543
 20
3.6075496531
 10
-8.6863951365
 20
3.6117773133
 10
-8.6858431576
 20
3.6161594045
 10
-8.6853016088
 20
3.6207324365
 10
-8.6847665105
 20
3.6255281567
 10
-8.684235823
 20
3.6305656461
 10
-8.6839024654
 20
3.6339103581
  0
LINE
  5
23D
100
AcDbEntity
  8
06___PRT_ALL_SURFS
100
AcDbLine
 62
7
  6
CONTINUOUS
 10
-15.2260316293
 20
2.9550050586
 11
-14.2260316293
 21
2.9550050586
  0
LINE
  5
23E
100
AcDbEntity
  8
0
100
AcDbLine
 62
7
  6
CONTINUOUS
 10
-9.4834285837
 20
-0.1721416596
 11
-9.4673316934
 21
-0.1823982745
  0
LINE
  5
23F
100
AcDbEntity
  8
0
100
AcDbLine
 62
7
  6
CONTINUOUS
 10
-9.4834285837
 20
-0.1421416596
 11
-9.4673316934
 21
-0.1523982745
  0
LINE
  5
240
100
AcDbEntity
  8
0
100
AcDbLine
 62
7
  6
CONTINUOUS
 10
-9.4834285837
 20
-0.1121416596
 11
-9.4673316934
 21
-0.1223982745
  0
LINE
  5
241
100
AcDbEntity
  8
06___PRT_ALL_SURFS
100
AcDbLine
 62
7
  6
CONTINUOUS
 10
-15.2260316293
 20
3.9550050586
 11
-15.2260316293
 21
2.9550050586
  0
LINE
  5
242
100
AcDbEntity
  8
06___PRT_ALL_SURFS
100
AcDbLine
 62
7
  6
CONTINUOUS
 10
-15.2172554263
 20
-3.4548715107
 11
-15.2172554263
 21
-4.4548715107
  0
LINE
  5
243
100
AcDbEntity
  8
0
100
AcDbLine
 62
7
  6
CONTINUOUS
 10
-8.6328215181
 20
12.9746757448
 11
-8.6499025966
 21
12.9517207043
  0
LINE
  5
244
100
AcDbEntity
  8
0
100
AcDbLine
 62
7
  6
CONTINUOUS
 10
-8.7099025966
 20
12.8710874806
 11
-8.8188545206
 21
12.7246683998
  0
LINE
  5
245
100
AcDbEntity
  8
0
100
AcDbLine
 62
7
  6
CONTINUOUS
 10
-16.7479436306
 20
2.8212865917
 11
-19.2879600848
 21
0.368421214
  0
LINE
  5
246
100
AcDbEntity
  8
0
100
AcDbLine
 62
7
  6
CONTINUOUS
 10
-12.7636747382
 20
3.9347684357
 11
-14.2260316293
 21
3.9347684357
  0
LINE
  5
247
100
AcDbEntity
  8
0
100
AcDbLine
 62
7
  6
CONTINUOUS
 10
-15.2260316293
 20
3.9347684357
 11
-16.7046668642
 21
3.9347684357
  0
LINE
  5
248
100
AcDbEntity
  8
06___PRT_ALL_SURFS
100
AcDbLine
 62
7
  6
CONTINUOUS
 10
-15.2260316293
 20
3.9550050586
 11
-14.2260316293
 21
3.9550050586
  0
LINE
  5
249
100
AcDbEntity
  8
0
100
AcDbLine
 62
7
  6
CONTINUOUS
 10
-14.7860316293
 20
3.9650050586
 11
-14.5660316293
 21
3.9650050586
  0
LINE
  5
24A
100
AcDbEntity
  8
0
100
AcDbLine
 62
7
  6
CONTINUOUS
 10
-8.6754025966
 20
-0.1768017464
 11
-8.659308474
 21
-0.1870548334
  0
LINE
  5
24B
100
AcDbEntity
  8
0
100
AcDbLine
 62
7
  6
CONTINUOUS
 10
-8.6593766096
 20
-0.1569680071
 11
-8.6754734999
 21
-0.1467113922
  0
LINE
  5
24C
100
AcDbEntity
  8
0
100
AcDbLine
 62
7
  6
CONTINUOUS
 10
-8.6593766096
 20
-0.1269680071
 11
-8.6754734999
 21
-0.1167113922
  0
LINE
  5
24D
100
AcDbEntity
  8
0
100
AcDbLine
 62
7
  6
CONTINUOUS
 10
-14.7860316293
 20
3.9550050586
 11
-14.7860316293
 21
3.9650050586
  0
LINE
  5
24E
100
AcDbEntity
  8
0
100
AcDbLine
 62
7
  6
CONTINUOUS
 10
-14.7813507788
 20
3.9550050586
 11
-14.7813507788
 21
3.9650050586
  0
LINE
  5
24F
100
AcDbEntity
  8
0
100
AcDbLine
 62
7
  6
CONTINUOUS
 10
-14.7772554263
 20
-4.4548715107
 11
-14.7772554263
 21
-4.4648715107
  0
LINE
  5
250
100
AcDbEntity
  8
0
100
AcDbLine
 62
7
  6
CONTINUOUS
 10
-14.7719890778
 20
3.9550050586
 11
-14.7719890778
 21
3.9650050586
  0
LINE
  5
251
100
AcDbEntity
  8
0
100
AcDbLine
 62
7
  6
CONTINUOUS
 10
-14.7532656757
 20
3.9550050586
 11
-14.7532656757
 21
3.9650050586
  0
LINE
  5
252
100
AcDbEntity
  8
0
100
AcDbLine
 62
7
  6
CONTINUOUS
 10
-14.7491703233
 20
-4.4548715107
 11
-14.7491703233
 21
-4.4648715107
  0
LINE
  5
253
100
AcDbEntity
  8
0
100
AcDbLine
 62
7
  6
CONTINUOUS
 10
-14.7345422737
 20
3.9550050586
 11
-14.7345422737
 21
3.9650050586
  0
LINE
  5
254
100
AcDbEntity
  8
0
100
AcDbLine
 62
7
  6
CONTINUOUS
 10
-14.7111380081
 20
3.9550050586
 11
-14.7111380081
 21
3.9650050586
  0
LINE
  5
255
100
AcDbEntity
  8
0
100
AcDbLine
 62
7
  6
CONTINUOUS
 10
-14.6883192536
 20
-4.4548715107
 11
-14.6883192536
 21
-4.4648715107
  0
LINE
  5
256
100
AcDbEntity
  8
0
100
AcDbLine
 62
7
  6
CONTINUOUS
 10
-14.6602341506
 20
-4.4548715107
 11
-14.6602341506
 21
-4.4648715107
  0
LINE
  5
257
100
AcDbEntity
  8
0
100
AcDbLine
 62
7
  6
CONTINUOUS
 10
-14.6409252439
 20
3.9550050586
 11
-14.6409252439
 21
3.9650050586
  0
LINE
  5
258
100
AcDbEntity
  8
0
100
AcDbLine
 62
7
  6
CONTINUOUS
 10
-14.6175209914
 20
3.9550050586
 11
-14.6175209914
 21
3.9650050586
  0
LINE
  5
259
100
AcDbEntity
  8
0
100
AcDbLine
 62
7
  6
CONTINUOUS
 10
-14.5987975861
 20
3.9550050586
 11
-14.5987975861
 21
3.9650050586
  0
LINE
  5
25A
100
AcDbEntity
  8
0
100
AcDbLine
 62
7
  6
CONTINUOUS
 10
-14.5853405326
 20
-4.4548715107
 11
-14.5853405326
 21
-4.4648715107
  0
LINE
  5
25B
100
AcDbEntity
  8
0
100
AcDbLine
 62
7
  6
CONTINUOUS
 10
-14.5800741824
 20
3.9550050586
 11
-14.5800741824
 21
3.9650050586
  0
LINE
  5
25C
100
AcDbEntity
  8
0
100
AcDbLine
 62
7
  6
CONTINUOUS
 10
-14.5707124802
 20
3.9550050586
 11
-14.5707124802
 21
3.9650050586
  0
LINE
  5
25D
100
AcDbEntity
  8
0
100
AcDbLine
 62
7
  6
CONTINUOUS
 10
-14.5660316293
 20
3.9550050586
 11
-14.5660316293
 21
3.9650050586
  0
LINE
  5
25E
100
AcDbEntity
  8
0
100
AcDbLine
 62
7
  6
CONTINUOUS
 10
-14.5572554263
 20
-4.4548715107
 11
-14.5572554263
 21
-4.4648715107
  0
LINE
  5
25F
100
AcDbEntity
  8
06___PRT_ALL_SURFS
100
AcDbLine
 62
7
  6
CONTINUOUS
 10
-14.2260316293
 20
3.9550050586
 11
-14.2260316293
 21
2.9550050586
  0
LINE
  5
260
100
AcDbEntity
  8
06___PRT_ALL_SURFS
100
AcDbLine
 62
7
  6
CONTINUOUS
 10
-14.2172554263
 20
-3.4548715107
 11
-14.2172554263
 21
-4.4548715107
  0
LINE
  5
261
100
AcDbEntity
  8
0
100
AcDbLine
 62
7
  6
CONTINUOUS
 10
-12.7203979719
 20
2.8212865917
 11
-10.1803815177
 21
0.368421214
  0
LINE
  5
262
100
AcDbEntity
  8
0
100
AcDbLine
 62
7
  6
CONTINUOUS
 10
-12.7853519036
 20
-3.4736016431
 11
-12.7853519036
 21
-4.4342315643
  0
LINE
  5
263
100
AcDbEntity
  8
0
100
AcDbLine
 62
7
  6
CONTINUOUS
 10
-12.7636747382
 20
3.9347684357
 11
-12.7636747382
 21
2.9232402642
  0
LINE
  5
264
100
AcDbEntity
  8
0
100
AcDbLine
 62
7
  6
CONTINUOUS
 10
-9.4673316934
 20
-0.1823982745
 11
-9.4674025966
 21
-0.1823079203
  0
LINE
  5
265
100
AcDbEntity
  8
0
100
AcDbLine
 62
7
  6
CONTINUOUS
 10
-9.4673316934
 20
-0.1523982745
 11
-9.4674025966
 21
-0.1523079203
  0
LINE
  5
266
100
AcDbEntity
  8
0
100
AcDbLine
 62
7
  6
CONTINUOUS
 10
-9.4673316934
 20
-0.1223982745
 11
-9.4674025966
 21
-0.1223079203
  0
LINE
  5
267
100
AcDbEntity
  8
0
100
AcDbLine
 62
7
  6
CONTINUOUS
 10
-8.6754025966
 20
-0.1468017464
 11
-8.6754734999
 21
-0.1467113922
  0
LINE
  5
268
100
AcDbEntity
  8
0
100
AcDbLine
 62
7
  6
CONTINUOUS
 10
-8.6754025966
 20
-0.1168017464
 11
-8.6754734999
 21
-0.1167113922
  0
LINE
  5
269
100
AcDbEntity
  8
0
100
AcDbLine
 62
7
  6
CONTINUOUS
 10
-10.1469903404
 20
0.2968136032
 11
-10.1061945228
 21
-0.286593769
  0
LINE
  5
26A
100
AcDbEntity
  8
0
100
AcDbLine
 62
7
  6
CONTINUOUS
 10
-10.1141708012
 20
-0.4657276273
 11
-10.1141708012
 21
-4.9657276273
  0
LINE
  5
26B
100
AcDbEntity
  8
0
100
AcDbLine
 62
7
  6
CONTINUOUS
 10
-9.8916511162
 20
-0.286593769
 11
-9.8916511162
 21
-0.414546525
  0
LINE
  5
26C
100
AcDbEntity
  8
0
100
AcDbLine
 62
7
  6
CONTINUOUS
 10
-9.6014025966
 20
-0.3933079203
 11
-9.6014025966
 21
-0.4657276273
  0
LINE
  5
26D
100
AcDbEntity
  8
0
100
AcDbLine
 62
7
  6
CONTINUOUS
 10
-9.5542757116
 20
-0.1973079203
 11
-9.5542757116
 21
-0.3933079203
  0
LINE
  5
26E
100
AcDbEntity
  8
0
100
AcDbLine
 62
7
  6
CONTINUOUS
 10
-9.5542453091
 20
-0.1083079203
 11
-9.5542453091
 21
0.5545022535
  0
LINE
  5
26F
100
AcDbEntity
  8
0
100
AcDbLine
 62
7
  6
CONTINUOUS
 10
-10.1472920643
 20
-1.3909244777
 11
-10.1600981802
 21
-1.5740604677
  0
LINE
  5
270
100
AcDbEntity
  8
0
100
AcDbLine
 62
7
  6
CONTINUOUS
 10
-10.1675234451
 20
-1.6802467033
 11
-10.1818093558
 21
-1.8845447448
  0
LINE
  5
271
100
AcDbEntity
  8
0
100
AcDbLine
 62
7
  6
CONTINUOUS
 10
-10.195365306
 20
-2.0784038637
 11
-10.2234608661
 21
-2.4801890926
  0
LINE
  5
272
100
AcDbEntity
  8
0
100
AcDbLine
 62
7
  6
CONTINUOUS
 10
-9.151267264
 20
9.5526318961
 11
-9.1523210111
 21
9.5386776873
  0
LWPOLYLINE
  5
273
100
AcDbEntity
  8
0
100
AcDbPolyline
 62
7
  6
CONTINUOUS
 90
35
 70
0
 10
-8.993902485
 20
9.7541920797
 10
-9.0078264036
 20
9.7535361387
 10
-9.0240810611
 20
9.7510886349
 10
-9.0399306403
 20
9.7468673225
 10
-9.0550124362
 20
9.7410174152
 10
-9.06898537
 20
9.7337861699
 10
-9.0815780588
 20
9.7255170694
 10
-9.0926467526
 20
9.7165760406
 10
-9.1021869119
 20
9.7072968049
 10
-9.1102462358
 20
9.6979915756
 10
-9.1169503717
 20
9.6889028303
 10
-9.1224654103
 20
9.6801946746
 10
-9.1269760646
 20
9.6719449224
 10
-9.1306543826
 20
9.6641880626
 10
-9.1336094906
 20
9.6570356638
 10
-9.1359523381
 20
9.6505670245
 10
-9.1378100654
 20
9.6447610215
 10
-9.1393108337
 20
9.6394965118
 10
-9.1405511146
 20
9.6346520841
 10
-9.1416003036
 20
9.6301217348
 10
-9.1425080637
 20
9.6258166297
 10
-9.1433099038
 20
9.6216645448
 10
-9.1440320406
 20
9.6176036666
 10
-9.1446957882
 20
9.6135695604
 10
-9.1453168178
 20
9.6095069417
 10
-9.1459067484
 20
9.6053680316
 10
-9.1464743654
 20
9.6011103979
 10
-9.1470264308
 20
9.5966954149
 10
-9.1475682367
 20
9.5920871213
 10
-9.1481037017
 20
9.5872540471
 10
-9.1486349903
 20
9.5821757636
 10
-9.1491635794
 20
9.5768360001
 10
-9.1496904888
 20
9.5712216023
 10
-9.1502164294
 20
9.5653218101
 10
-9.151267264
 20
9.5526318961
  0
LWPOLYLINE
  5
274
100
AcDbEntity
  8
0
100
AcDbPolyline
 62
7
  6
CONTINUOUS
 90
32
 70
0
 10
-8.683902486
 20
9.7541920797
 10
-8.6977709418
 20
9.7535413605
 10
-8.7139716247
 20
9.7511113371
 10
-8.7297723898
 20
9.7469188857
 10
-8.7448143409
 20
9.7411067931
 10
-8.7587589077
 20
9.7339187251
 10
-8.7713366462
 20
9.7256933455
 10
-8.7824013828
 20
9.7167938667
 10
-8.7919477352
 20
9.7075504759
 10
-8.8000205858
 20
9.6982740461
 10
-8.8067432216
 20
9.6892059159
 10
-8.8122786682
 20
9.6805118945
 10
-8.8168094334
 20
9.6722719605
 10
-8.8205079423
 20
9.6645187481
 10
-8.8234838466
 20
9.6573604246
 10
-8.8258458323
 20
9.6508798878
 10
-8.8277192848
 20
9.6450615309
 10
-8.8292319846
 20
9.6397881942
 10
-8.8304812765
 20
9.6349386182
 10
-8.8315372159
 20
9.6304068705
 10
-8.8324500068
 20
9.6261039151
 10
-8.8332555817
 20
9.6219571942
 10
-8.833980328
 20
9.6179054229
 10
-8.8346456955
 20
9.6138847722
 10
-8.8352675537
 20
9.6098399581
 10
-8.8358576526
 20
9.6057233647
 10
-8.8364248707
 20
9.6014928103
 10
-8.8369760349
 20
9.5971100057
 10
-8.8375164823
 20
9.5925394099
 10
-8.8380502616
 20
9.5877491127
 10
-8.8385797171
 20
9.5827174592
 10
-8.8389027226
 20
9.5794733031
  0
LWPOLYLINE
  5
275
100
AcDbEntity
  8
0
100
AcDbPolyline
 62
7
  6
CONTINUOUS
 90
33
 70
0
 10
-8.9944182628
 20
3.6392251902
 10
-8.993939606
 20
3.6342501756
 10
-8.9934556982
 20
3.6294626393
 10
-8.992964845
 20
3.6248496546
 10
-8.9924648067
 20
3.6203957245
 10
-8.99195277
 20
3.6160835549
 10
-8.9914251158
 20
3.6118932378
 10
-8.9908771332
 20
3.6078015449
 10
-8.990302634
 20
3.603781143
 10
-8.9896934047
 20
3.5997995596
 10
-8.9890384168
 20
3.595817821
 10
-8.9883226609
 20
3.5917885916
 10
-8.9875255013
 20
3.5876541535
 10
-8.9866209514
 20
3.5833561225
 10
-8.985573624
 20
3.5788248033
 10
-8.9843340527
 20
3.5739738863
 10
-8.9828333505
 20
3.5687005228
 10
-8.9809764649
 20
3.5628882834
 10
-8.9786369488
 20
3.5564197411
 10
-8.9756875125
 20
3.5492711905
 10
-8.9720154923
 20
3.5415168985
 10
-8.9675102189
 20
3.5332658614
 10
-8.9619995487
 20
3.5245535121
 10
-8.955298779
 20
3.5154585573
 10
-8.9472421269
 20
3.506146084
 10
-8.9377035591
 20
3.4968586858
 10
-8.9266344092
 20
3.4879083437
 10
-8.9140385306
 20
3.4796291837
 10
-8.9000589784
 20
3.4723877943
 10
-8.8849676833
 20
3.4665289351
 10
-8.8691064656
 20
3.462300807
 10
-8.8528391096
 20
3.45984922
 10
-8.8389024847
 20
3.4591920797
  0
LINE
  5
276
100
AcDbEntity
  8
0
100
AcDbLine
 62
7
  6
CONTINUOUS
 10
-8.9953648663
 20
3.6497815535
 11
-8.9944182628
 21
3.6392251902
  0
LINE
  5
277
100
AcDbEntity
  8
0
100
AcDbLine
 62
7
  6
CONTINUOUS
 10
-8.9963056568
 20
3.6612389386
 11
-8.9953648663
 21
3.6497815535
  0
LINE
  5
278
100
AcDbEntity
  8
0
100
AcDbLine
 62
7
  6
CONTINUOUS
 10
-8.9972515752
 20
3.673748686
 11
-8.9963056568
 21
3.6612389386
  0
LINE
  5
279
100
AcDbEntity
  8
0
100
AcDbLine
 62
7
  6
CONTINUOUS
 10
-8.9982117548
 20
3.6874758222
 11
-8.9972515752
 21
3.673748686
  0
LINE
  5
27A
100
AcDbEntity
  8
0
100
AcDbLine
 62
7
  6
CONTINUOUS
 10
-9.1294650283
 20
9.5144593427
 11
-9.128509394
 21
9.5004038632
  0
LINE
  5
27B
100
AcDbEntity
  8
0
100
AcDbLine
 62
7
  6
CONTINUOUS
 10
-8.9991939894
 20
3.7026001555
 11
-8.9982117548
 21
3.6874758222
  0
LINE
  5
27C
100
AcDbEntity
  8
0
100
AcDbLine
 62
7
  6
CONTINUOUS
 10
-9.128509394
 20
9.5004038632
 11
-9.1275120681
 21
9.4845140587
  0
LINE
  5
27D
100
AcDbEntity
  8
0
100
AcDbLine
 62
7
  6
CONTINUOUS
 10
-9.0002052016
 20
3.7193197345
 11
-8.9991939894
 21
3.7026001555
  0
LINE
  5
27E
100
AcDbEntity
  8
0
100
AcDbLine
 62
7
  6
CONTINUOUS
 10
-9.1275120681
 20
9.4845140587
 11
-9.126474959
 21
9.4666893639
  0
LINE
  5
27F
100
AcDbEntity
  8
0
100
AcDbLine
 62
7
  6
CONTINUOUS
 10
-9.0012527214
 20
3.7378718901
 11
-9.0002052016
 21
3.7193197345
  0
LINE
  5
280
100
AcDbEntity
  8
0
100
AcDbLine
 62
7
  6
CONTINUOUS
 10
-9.126474959
 20
9.4666893639
 11
-9.1253975251
 21
9.446787042
  0
LINE
  5
281
100
AcDbEntity
  8
0
100
AcDbLine
 62
7
  6
CONTINUOUS
 10
-9.0023484386
 20
3.7586195756
 11
-9.0012527214
 21
3.7378718901
  0
LINE
  5
282
100
AcDbEntity
  8
0
100
AcDbLine
 62
7
  6
CONTINUOUS
 10
-9.1253975251
 20
9.446787042
 11
-9.124278707
 21
9.4246467769
  0
LINE
  5
283
100
AcDbEntity
  8
0
100
AcDbLine
 62
7
  6
CONTINUOUS
 10
-9.0035027843
 20
3.781958581
 11
-9.0023484386
 21
3.7586195756
  0
LINE
  5
284
100
AcDbEntity
  8
0
100
AcDbLine
 62
7
  6
CONTINUOUS
 10
-9.124278707
 20
9.4246467769
 11
-9.1231170971
 21
9.400091374
  0
LINE
  5
285
100
AcDbEntity
  8
0
100
AcDbLine
 62
7
  6
CONTINUOUS
 10
-9.0047135391
 20
3.808064591
 11
-9.0035027843
 21
3.781958581
  0
LINE
  5
286
100
AcDbEntity
  8
0
100
AcDbLine
 62
7
  6
CONTINUOUS
 10
-9.1231170971
 20
9.400091374
 11
-9.1219116231
 21
9.3729405445
  0
LINE
  5
287
100
AcDbEntity
  8
0
100
AcDbLine
 62
7
  6
CONTINUOUS
 10
-9.0059748135
 20
3.8370205839
 11
-9.0047135391
 21
3.808064591
  0
LINE
  5
288
100
AcDbEntity
  8
0
100
AcDbLine
 62
7
  6
CONTINUOUS
 10
-9.1219116231
 20
9.3729405445
 11
-9.1206622996
 21
9.3430320761
  0
LINE
  5
289
100
AcDbEntity
  8
0
100
AcDbLine
 62
7
  6
CONTINUOUS
 10
-9.0072809427
 20
3.8688856609
 11
-9.0059748135
 21
3.8370205839
  0
LINE
  5
28A
100
AcDbEntity
  8
0
100
AcDbLine
 62
7
  6
CONTINUOUS
 10
-9.1206622996
 20
9.3430320761
 11
-9.1193691838
 21
9.3102029114
  0
LINE
  5
28B
100
AcDbEntity
  8
0
100
AcDbLine
 62
7
  6
CONTINUOUS
 10
-9.0086317217
 20
3.9038327212
 11
-9.0072809427
 21
3.8688856609
  0
LINE
  5
28C
100
AcDbEntity
  8
0
100
AcDbLine
 62
7
  6
CONTINUOUS
 10
-9.1193691838
 20
9.3102029114
 11
-9.1180322417
 21
9.274286599
  0
LINE
  5
28D
100
AcDbEntity
  8
0
100
AcDbLine
 62
7
  6
CONTINUOUS
 10
-9.0100323537
 20
3.9421858116
 11
-9.0086317217
 21
3.9038327212
  0
LINE
  5
28E
100
AcDbEntity
  8
0
100
AcDbLine
 62
7
  6
CONTINUOUS
 10
-9.1180322417
 20
9.274286599
 11
-9.1166517055
 21
9.2351238692
  0
LINE
  5
28F
100
AcDbEntity
  8
0
100
AcDbLine
 62
7
  6
CONTINUOUS
 10
-9.0114881959
 20
3.9843052919
 11
-9.0100323537
 21
3.9421858116
  0
LINE
  5
290
100
AcDbEntity
  8
0
100
AcDbLine
 62
7
  6
CONTINUOUS
 10
-9.1166517055
 20
9.2351238692
 11
-9.1152284036
 21
9.1925757089
  0
LINE
  5
291
100
AcDbEntity
  8
0
100
AcDbLine
 62
7
  6
CONTINUOUS
 10
-9.0130042453
 20
4.0305736284
 11
-9.0114881959
 21
3.9843052919
  0
LINE
  5
292
100
AcDbEntity
  8
0
100
AcDbLine
 62
7
  6
CONTINUOUS
 10
-9.1152284036
 20
9.1925757089
 11
-9.1137631947
 21
9.1465108156
  0
LINE
  5
293
100
AcDbEntity
  8
0
100
AcDbLine
 62
7
  6
CONTINUOUS
 10
-9.0145832454
 20
4.0813304785
 11
-9.0130042453
 21
4.0305736284
  0
LINE
  5
294
100
AcDbEntity
  8
0
100
AcDbLine
 62
7
  6
CONTINUOUS
 10
-9.1137631947
 20
9.1465108156
 11
-9.1122569024
 21
9.096804766
  0
LINE
  5
295
100
AcDbEntity
  8
0
100
AcDbLine
 62
7
  6
CONTINUOUS
 10
-9.016226917
 20
4.136896281
 11
-9.0145832454
 21
4.0813304785
  0
LINE
  5
296
100
AcDbEntity
  8
0
100
AcDbLine
 62
7
  6
CONTINUOUS
 10
-9.1122569024
 20
9.096804766
 11
-9.1107103208
 21
9.0433411144
  0
LINE
  5
297
100
AcDbEntity
  8
0
100
AcDbLine
 62
7
  6
CONTINUOUS
 10
-9.0179368908
 20
4.1975960789
 11
-9.016226917
 21
4.136896281
  0
LINE
  5
298
100
AcDbEntity
  8
0
100
AcDbLine
 62
7
  6
CONTINUOUS
 10
-9.1107103208
 20
9.0433411144
 11
-9.109122904
 21
8.9859639314
  0
LINE
  5
299
100
AcDbEntity
  8
0
100
AcDbLine
 62
7
  6
CONTINUOUS
 10
-9.01971378
 20
4.2637212931
 11
-9.0179368908
 21
4.1975960789
  0
LINE
  5
29A
100
AcDbEntity
  8
0
100
AcDbLine
 62
7
  6
CONTINUOUS
 10
-9.109122904
 20
8.9859639314
 11
-9.1074887644
 21
8.9243142592
  0
LINE
  5
29B
100
AcDbEntity
  8
0
100
AcDbLine
 62
7
  6
CONTINUOUS
 10
-9.0215573741
 20
4.3355260114
 11
-9.01971378
 21
4.2637212931
  0
LINE
  5
29C
100
AcDbEntity
  8
0
100
AcDbLine
 62
7
  6
CONTINUOUS
 10
-9.1074887644
 20
8.9243142592
 11
-9.1058006461
 21
8.8579483649
  0
LINE
  5
29D
100
AcDbEntity
  8
0
100
AcDbLine
 62
7
  6
CONTINUOUS
 10
-9.0234674264
 20
4.4132494026
 11
-9.0215573741
 21
4.3355260114
  0
LINE
  5
29E
100
AcDbEntity
  8
0
100
AcDbLine
 62
7
  6
CONTINUOUS
 10
-9.1058006461
 20
8.8579483649
 11
-9.1040512743
 21
8.7863844963
  0
LINE
  5
29F
100
AcDbEntity
  8
0
100
AcDbLine
 62
7
  6
CONTINUOUS
 10
-9.0254443156
 20
4.4971405606
 11
-9.0234674264
 21
4.4132494026
  0
LINE
  5
2A0
100
AcDbEntity
  8
0
100
AcDbLine
 62
7
  6
CONTINUOUS
 10
-9.1040512743
 20
8.7863844963
 11
-9.1022332437
 21
8.7090997356
  0
LINE
  5
2A1
100
AcDbEntity
  8
0
100
AcDbLine
 62
7
  6
CONTINUOUS
 10
-9.0274967961
 20
4.5878092766
 11
-9.0254443156
 21
4.4971405606
  0
LINE
  5
2A2
100
AcDbEntity
  8
0
100
AcDbLine
 62
7
  6
CONTINUOUS
 10
-9.1022332437
 20
8.7090997356
 11
-9.1003352423
 21
8.6253619011
  0
LINE
  5
2A3
100
AcDbEntity
  8
0
100
AcDbLine
 62
7
  6
CONTINUOUS
 10
-9.1003352423
 20
8.6253619011
 11
-9.0983412145
 21
8.5341626395
  0
LINE
  5
2A4
100
AcDbEntity
  8
0
100
AcDbLine
 62
7
  6
CONTINUOUS
 10
-9.0296395256
 20
4.6861783477
 11
-9.0274967961
 21
4.5878092766
  0
LINE
  5
2A5
100
AcDbEntity
  8
0
100
AcDbLine
 62
7
  6
CONTINUOUS
 10
-9.0983412145
 20
8.5341626395
 11
-9.0962331162
 21
8.434316556
  0
LINE
  5
2A6
100
AcDbEntity
  8
0
100
AcDbLine
 62
7
  6
CONTINUOUS
 10
-9.0318872901
 20
4.7932476413
 11
-9.0296395256
 21
4.6861783477
  0
LINE
  5
2A7
100
AcDbEntity
  8
0
100
AcDbLine
 62
7
  6
CONTINUOUS
 10
-9.0962331162
 20
8.434316556
 11
-9.0939813448
 21
8.3239756104
  0
LINE
  5
2A8
100
AcDbEntity
  8
0
100
AcDbLine
 62
7
  6
CONTINUOUS
 10
-9.0342584808
 20
4.9102598103
 11
-9.0318872901
 21
4.7932476413
  0
LINE
  5
2A9
100
AcDbEntity
  8
0
100
AcDbLine
 62
7
  6
CONTINUOUS
 10
-9.0939813448
 20
8.3239756104
 11
-9.0915524019
 21
8.2009399431
  0
LINE
  5
2AA
100
AcDbEntity
  8
0
100
AcDbLine
 62
7
  6
CONTINUOUS
 10
-9.0367795477
 20
5.0389475125
 11
-9.0342584808
 21
4.9102598103
  0
LINE
  5
2AB
100
AcDbEntity
  8
0
100
AcDbLine
 62
7
  6
CONTINUOUS
 10
-9.0394863023
 20
5.1816485879
 11
-9.0367795477
 21
5.0389475125
  0
LINE
  5
2AC
100
AcDbEntity
  8
0
100
AcDbLine
 62
7
  6
CONTINUOUS
 10
-9.0915524019
 20
8.2009399431
 11
-9.0889289923
 21
8.0637125739
  0
LINE
  5
2AD
100
AcDbEntity
  8
0
100
AcDbLine
 62
7
  6
CONTINUOUS
 10
-9.0889289923
 20
8.0637125739
 11
-9.0861119179
 21
7.9117685477
  0
LINE
  5
2AE
100
AcDbEntity
  8
0
100
AcDbLine
 62
7
  6
CONTINUOUS
 10
-9.0424401039
 20
5.3422394914
 11
-9.0394863023
 21
5.1816485879
  0
LINE
  5
2AF
100
AcDbEntity
  8
0
100
AcDbLine
 62
7
  6
CONTINUOUS
 10
-9.0861119179
 20
7.9117685477
 11
-9.0831165915
 21
7.7455441942
  0
LINE
  5
2B0
100
AcDbEntity
  8
0
100
AcDbLine
 62
7
  6
CONTINUOUS
 10
-9.0456743761
 20
5.5232406776
 11
-9.0424401039
 21
5.3422394914
  0
LINE
  5
2B1
100
AcDbEntity
  8
0
100
AcDbLine
 62
7
  6
CONTINUOUS
 10
-9.0831165915
 20
7.7455441942
 11
-9.0799607643
 21
7.5658732103
  0
LINE
  5
2B2
100
AcDbEntity
  8
0
100
AcDbLine
 62
7
  6
CONTINUOUS
 10
-9.049173174
 20
5.724247556
 11
-9.0456743761
 21
5.5232406776
  0
LINE
  5
2B3
100
AcDbEntity
  8
0
100
AcDbLine
 62
7
  6
CONTINUOUS
 10
-9.0799607643
 20
7.5658732103
 11
-9.076646666
 21
7.3729691951
  0
LINE
  5
2B4
100
AcDbEntity
  8
0
100
AcDbLine
 62
7
  6
CONTINUOUS
 10
-9.0529868007
 20
5.9483429356
 11
-9.049173174
 21
5.724247556
  0
LINE
  5
2B5
100
AcDbEntity
  8
0
100
AcDbLine
 62
7
  6
CONTINUOUS
 10
-9.076646666
 20
7.3729691951
 11
-9.073158992
 21
7.1662329857
  0
LINE
  5
2B6
100
AcDbEntity
  8
0
100
AcDbLine
 62
7
  6
CONTINUOUS
 10
-9.0614428588
 20
6.4572319826
 11
-9.0529868007
 21
5.9483429356
  0
LWPOLYLINE
  5
2B7
100
AcDbEntity
  8
0
100
AcDbPolyline
 62
7
  6
CONTINUOUS
 90
3
 70
0
 10
-9.073158992
 20
7.1662329857
 10
-9.0675618637
 20
6.8290285645
 10
-9.0614428588
 20
6.4572319826
  0
LINE
  5
2B8
100
AcDbEntity
  8
0
100
AcDbLine
 62
7
  6
CONTINUOUS
 10
-9.540133576
 20
-0.1973079203
 11
-9.540133576
 21
-0.3933079203
  0
LINE
  5
2B9
100
AcDbEntity
  8
0
100
AcDbLine
 62
7
  6
CONTINUOUS
 10
-9.4834285837
 20
-0.1721416596
 11
-9.4834285837
 21
-0.1719680071
  0
LINE
  5
2BA
100
AcDbEntity
  8
0
100
AcDbLine
 62
7
  6
CONTINUOUS
 10
-9.4834285837
 20
-0.1421416596
 11
-9.4834285837
 21
-0.1419680071
  0
LINE
  5
2BB
100
AcDbEntity
  8
02___PRT_ALL_AXES
100
AcDbLine
 62
7
  6
CONTINUOUS
 10
-9.4669025966
 20
-0.1973079203
 11
-9.4669025966
 21
-0.1823079203
  0
LINE
  5
2BC
100
AcDbEntity
  8
02___PRT_ALL_AXES
100
AcDbLine
 62
7
  6
CONTINUOUS
 10
-9.4669025966
 20
-0.1618017464
 11
-9.4669025966
 21
-0.1523079203
  0
LINE
  5
2BD
100
AcDbEntity
  8
02___PRT_ALL_AXES
100
AcDbLine
 62
7
  6
CONTINUOUS
 10
-9.4669025966
 20
-0.1318017464
 11
-9.4669025966
 21
-0.1223079203
  0
LINE
  5
2BE
100
AcDbEntity
  8
0
100
AcDbLine
 62
7
  6
CONTINUOUS
 10
-9.2855751348
 20
-0.1973079203
 11
-9.2855751348
 21
-0.3933079203
  0
LINE
  5
2BF
100
AcDbEntity
  8
0
100
AcDbLine
 62
7
  6
CONTINUOUS
 10
-9.2514329992
 20
-0.1973079203
 11
-9.2514329992
 21
-0.3933079203
  0
LINE
  5
2C0
100
AcDbEntity
  8
02___PRT_ALL_AXES
100
AcDbLine
 62
7
  6
CONTINUOUS
 10
-9.2189025966
 20
6.6066466443
 11
-9.2189025966
 21
0.6243054131
  0
LINE
  5
2C1
100
AcDbEntity
  8
0
100
AcDbLine
 62
7
  6
CONTINUOUS
 10
-9.0764025966
 20
-0.6878257134
 11
-9.0764025966
 21
-1.2136894293
  0
LINE
  5
2C2
100
AcDbEntity
  8
0
100
AcDbLine
 62
7
  6
CONTINUOUS
 10
-8.9664025966
 20
-0.6878257134
 11
-8.9664025966
 21
-1.2136894293
  0
LINE
  5
2C3
100
AcDbEntity
  8
02___PRT_ALL_AXES
100
AcDbLine
 62
7
  6
CONTINUOUS
 10
-8.9239025966
 20
3.4861127474
 11
-8.9239025966
 21
0.6243054131
  0
LINE
  5
2C4
100
AcDbEntity
  8
0
100
AcDbLine
 62
7
  6
CONTINUOUS
 10
-8.8914329992
 20
-0.1973079203
 11
-8.8914329992
 21
-0.3933079203
  0
LINE
  5
2C5
100
AcDbEntity
  8
0
100
AcDbLine
 62
7
  6
CONTINUOUS
 10
-8.8572908635
 20
-0.1973079203
 11
-8.8572908635
 21
-0.3933079203
  0
LINE
  5
2C6
100
AcDbEntity
  8
0
100
AcDbLine
 62
7
  6
CONTINUOUS
 10
-8.8249025966
 20
12.7077478036
 11
-8.8249025966
 21
11.6694746888
  0
LINE
  5
2C7
100
AcDbEntity
  8
0
100
AcDbLine
 62
7
  6
CONTINUOUS
 10
-9.2099066848
 20
7.150658817
 11
-9.2189022231
 21
6.6066693558
  0
LINE
  5
2C8
100
AcDbEntity
  8
0
100
AcDbLine
 62
7
  6
CONTINUOUS
 10
-9.2043755251
 20
7.4773663956
 11
-9.2099066848
 21
7.150658817
  0
LINE
  5
2C9
100
AcDbEntity
  8
0
100
AcDbLine
 62
7
  6
CONTINUOUS
 10
-9.2010492471
 20
7.668849219
 11
-9.2043755251
 21
7.4773663956
  0
LINE
  5
2CA
100
AcDbEntity
  8
0
100
AcDbLine
 62
7
  6
CONTINUOUS
 10
-9.1979372062
 20
7.8436582756
 11
-9.2010492471
 21
7.668849219
  0
LINE
  5
2CB
100
AcDbEntity
  8
0
100
AcDbLine
 62
7
  6
CONTINUOUS
 10
-9.1949931758
 20
8.0045244173
 11
-9.1979372062
 21
7.8436582756
  0
LINE
  5
2CC
100
AcDbEntity
  8
0
100
AcDbLine
 62
7
  6
CONTINUOUS
 10
-9.1922031995
 20
8.1524014484
 11
-9.1949931758
 21
8.0045244173
  0
LINE
  5
2CD
100
AcDbEntity
  8
0
100
AcDbLine
 62
7
  6
CONTINUOUS
 10
-9.189568333
 20
8.2875393966
 11
-9.1922031995
 21
8.1524014484
  0
LINE
  5
2CE
100
AcDbEntity
  8
0
100
AcDbLine
 62
7
  6
CONTINUOUS
 10
-9.1870880551
 20
8.4103874224
 11
-9.189568333
 21
8.2875393966
  0
LINE
  5
2CF
100
AcDbEntity
  8
0
100
AcDbLine
 62
7
  6
CONTINUOUS
 10
-9.1847579051
 20
8.5216642053
 11
-9.1870880551
 21
8.4103874224
  0
LINE
  5
2D0
100
AcDbEntity
  8
0
100
AcDbLine
 62
7
  6
CONTINUOUS
 10
-9.1825701458
 20
8.6222692372
 11
-9.1847579051
 21
8.5216642053
  0
LINE
  5
2D1
100
AcDbEntity
  8
0
100
AcDbLine
 62
7
  6
CONTINUOUS
 10
-9.1805082305
 20
8.7134742434
 11
-9.1825701458
 21
8.6222692372
  0
LINE
  5
2D2
100
AcDbEntity
  8
0
100
AcDbLine
 62
7
  6
CONTINUOUS
 10
-9.1785556253
 20
8.7964657661
 11
-9.1805082305
 21
8.7134742434
  0
LINE
  5
2D3
100
AcDbEntity
  8
0
100
AcDbLine
 62
7
  6
CONTINUOUS
 10
-9.1767187344
 20
8.8714216586
 11
-9.1785556253
 21
8.7964657661
  0
LINE
  5
2D4
100
AcDbEntity
  8
0
100
AcDbLine
 62
7
  6
CONTINUOUS
 10
-9.1742212011
 20
8.9683005037
 11
-9.1767187344
 21
8.8714216586
  0
LINE
  5
2D5
100
AcDbEntity
  8
0
100
AcDbLine
 62
7
  6
CONTINUOUS
 10
-9.1719765009
 20
9.0502386605
 11
-9.1742212011
 21
8.9683005037
  0
LINE
  5
2D6
100
AcDbEntity
  8
0
100
AcDbLine
 62
7
  6
CONTINUOUS
 10
-9.1698966432
 20
9.1216721485
 11
-9.1719765009
 21
9.0502386605
  0
LINE
  5
2D7
100
AcDbEntity
  8
0
100
AcDbLine
 62
7
  6
CONTINUOUS
 10
-9.1679252723
 20
9.1852807113
 11
-9.1698966432
 21
9.1216721485
  0
LINE
  5
2D8
100
AcDbEntity
  8
0
100
AcDbLine
 62
7
  6
CONTINUOUS
 10
-9.1660188071
 20
9.242908003
 11
-9.1679252723
 21
9.1852807113
  0
LINE
  5
2D9
100
AcDbEntity
  8
0
100
AcDbLine
 62
7
  6
CONTINUOUS
 10
-9.1641667456
 20
9.2951539622
 11
-9.1660188071
 21
9.242908003
  0
LINE
  5
2DA
100
AcDbEntity
  8
0
100
AcDbLine
 62
7
  6
CONTINUOUS
 10
-9.1623638128
 20
9.3424126333
 11
-9.1641667456
 21
9.2951539622
  0
LINE
  5
2DB
100
AcDbEntity
  8
0
100
AcDbLine
 62
7
  6
CONTINUOUS
 10
-9.1606044319
 20
9.3850522942
 11
-9.1623638128
 21
9.3424126333
  0
LINE
  5
2DC
100
AcDbEntity
  8
0
100
AcDbLine
 62
7
  6
CONTINUOUS
 10
-9.1588826266
 20
9.4234143871
 11
-9.1606044319
 21
9.3850522942
  0
LINE
  5
2DD
100
AcDbEntity
  8
0
100
AcDbLine
 62
7
  6
CONTINUOUS
 10
-9.1571947176
 20
9.4577580011
 11
-9.1588826266
 21
9.4234143871
  0
LINE
  5
2DE
100
AcDbEntity
  8
0
100
AcDbLine
 62
7
  6
CONTINUOUS
 10
-9.1560880701
 20
9.4785114321
 11
-9.1571947176
 21
9.4577580011
  0
LINE
  5
2DF
100
AcDbEntity
  8
0
100
AcDbLine
 62
7
  6
CONTINUOUS
 10
-9.1549958654
 20
9.4976214951
 11
-9.1560880701
 21
9.4785114321
  0
LINE
  5
2E0
100
AcDbEntity
  8
0
100
AcDbLine
 62
7
  6
CONTINUOUS
 10
-9.1539172122
 20
9.515156899
 11
-9.1549958654
 21
9.4976214951
  0
LWPOLYLINE
  5
2E1
100
AcDbEntity
  8
0
100
AcDbPolyline
 62
7
  6
CONTINUOUS
 90
3
 70
0
 10
-9.1523210111
 20
9.5386776873
 10
-9.1528505651
 20
9.5311943356
 10
-9.1539172122
 20
9.515156899
  0
LWPOLYLINE
  5
2E2
100
AcDbEntity
  8
0
100
AcDbPolyline
 62
7
  6
CONTINUOUS
 90
14
 70
0
 10
-8.698272183
 20
3.6453813924
 10
-8.6982702477
 20
3.6453708001
 10
-8.6982930902
 20
3.6455036155
 10
-8.6983781683
 20
3.6460273052
 10
-8.6985134728
 20
3.6469170108
 10
-8.6986900014
 20
3.6481544171
 10
-8.6989009172
 20
3.649726352
 10
-8.699140964
 20
3.6516237104
 10
-8.6994060535
 20
3.6538406311
 10
-8.6996929721
 20
3.6563738624
 10
-8.699999166
 20
3.6592222546
 10
-8.70032259
 20
3.6623864184
 10
-8.7006616899
 20
3.6658694612
 10
-8.7010152443
 20
3.6696761741
  0
LWPOLYLINE
  5
2E3
100
AcDbEntity
  8
0
100
AcDbPolyline
 62
7
  6
CONTINUOUS
 90
33
 70
0
 10
-8.6847002634
 20
3.6422694956
 10
-8.6841727368
 20
3.6366432319
 10
-8.6836444762
 20
3.631301676
 10
-8.6831140482
 20
3.6262262908
 10
-8.6825795325
 20
3.621396098
 10
-8.682038358
 20
3.6167872114
 10
-8.6814865726
 20
3.6123684123
 10
-8.6809189684
 20
3.6081048845
 10
-8.6803288739
 20
3.6039590045
 10
-8.6797076071
 20
3.5998892349
 10
-8.6790436777
 20
3.5958486403
 10
-8.678321594
 20
3.5917828192
 10
-8.6775202172
 20
3.5876278877
 10
-8.6766133913
 20
3.5833217935
 10
-8.6755656976
 20
3.5787921294
 10
-8.6743275836
 20
3.5739498432
 10
-8.672829758
 20
3.5686885756
 10
-8.670975806
 20
3.562886339
 10
-8.6686373067
 20
3.5564206704
 10
-8.6656867029
 20
3.5492693544
 10
-8.662012678
 20
3.5415113515
 10
-8.6575063897
 20
3.5332593305
 10
-8.6519959224
 20
3.5245481863
 10
-8.6452960067
 20
3.5154550745
 10
-8.6372397569
 20
3.5061435619
 10
-8.6277009883
 20
3.4968563962
 10
-8.6166314006
 20
3.4879061402
 10
-8.6040354028
 20
3.4796273476
 10
-8.5900562194
 20
3.4723865459
 10
-8.5749656455
 20
3.4665282693
 10
-8.5591052983
 20
3.4623005642
 10
-8.5428387078
 20
3.4598491821
 10
-8.5289024848
 20
3.4591920797
  0
LWPOLYLINE
  5
2E4
100
AcDbEntity
  8
0
100
AcDbPolyline
 62
7
  6
CONTINUOUS
 90
32
 70
0
 10
-8.5277811946
 20
9.5675149966
 10
-8.5283387056
 20
9.5736443534
 10
-8.5289006102
 20
9.5794885948
 10
-8.5294688932
 20
9.5850659352
 10
-8.5300462324
 20
9.5903979322
 10
-8.5306362625
 20
9.5955103026
 10
-8.5312437402
 20
9.6004322465
 10
-8.531875054
 20
9.6051980285
 10
-8.5325388623
 20
9.6098481999
 10
-8.5332465338
 20
9.6144281707
 10
-8.5340121283
 20
9.6189836537
 10
-8.534854745
 20
9.6235695996
 10
-8.5358007263
 20
9.628252985
 10
-8.536887349
 20
9.6331179131
 10
-8.5381654501
 20
9.638259866
 10
-8.5397050601
 20
9.6437879672
 10
-8.5416017149
 20
9.649821356
 10
-8.5439834451
 20
9.6564823467
 10
-8.5469838725
 20
9.6638086076
 10
-8.5507435876
 20
9.6717762947
 10
-8.5554041644
 20
9.6803042366
 10
-8.5611124764
 20
9.6892795732
 10
-8.5679775314
 20
9.6985144538
 10
-8.5760755569
 20
9.7077807642
 10
-8.5855440556
 20
9.7169179377
 10
-8.5964922117
 20
9.725710585
 10
-8.6090161936
 20
9.7339011422
 10
-8.6229962974
 20
9.7411092449
 10
-8.6381319674
 20
9.7469510967
 10
-8.6540366304
 20
9.7511532333
 10
-8.6702944845
 20
9.7535655817
 10
-8.6839027139
 20
9.7541920797
  0
LWPOLYLINE
  5
2E5
100
AcDbEntity
  8
0
100
AcDbPolyline
 62
7
  6
CONTINUOUS
 90
34
 70
0
 10
-8.8375879645
 20
9.5653126153
 10
-8.8381301565
 20
9.5713904453
 10
-8.8386683515
 20
9.5771130866
 10
-8.8392042302
 20
9.5825096113
 10
-8.8397398963
 20
9.5876101142
 10
-8.8402779792
 20
9.5924458353
 10
-8.8408217003
 20
9.5970487992
 10
-8.841375327
 20
9.601454311
 10
-8.8419442932
 20
9.6056999234
 10
-8.8425355191
 20
9.6098256631
 10
-8.8431579768
 20
9.613875228
 10
-8.8438235174
 20
9.6178975796
 10
-8.8445481337
 20
9.6219492553
 10
-8.8453534125
 20
9.626095162
 10
-8.8462657595
 20
9.6303968756
 10
-8.847321102
 20
9.6349271038
 10
-8.8485696709
 20
9.6397751457
 10
-8.8500816413
 20
9.6450474474
 10
-8.8519547403
 20
9.6508663552
 10
-8.8543180248
 20
9.6573518645
 10
-8.8572974489
 20
9.6645191936
 10
-8.8610009386
 20
9.6722820942
 10
-8.8655349769
 20
9.6805262105
 10
-8.8710722971
 20
9.6892209823
 10
-8.877798193
 20
9.6982910084
 10
-8.8858819051
 20
9.7075763379
 10
-8.8954475449
 20
9.7168325909
 10
-8.9065370342
 20
9.7257432184
 10
-8.9191406561
 20
9.7339738051
 10
-8.9331104856
 20
9.7411606006
 10
-8.9481770365
 20
9.746965711
 10
-8.9640012433
 20
9.7511459535
 10
-8.9802244949
 20
9.7535591129
 10
-8.9939027133
 20
9.7541920797
  0
LINE
  5
2E6
100
AcDbEntity
  8
0
100
AcDbLine
 62
7
  6
CONTINUOUS
 10
-9.1320122277
 20
9.5461218853
 11
-9.1312248669
 21
9.5372627199
  0
LINE
  5
2E7
100
AcDbEntity
  8
0
100
AcDbLine
 62
7
  6
CONTINUOUS
 10
-8.3908222484
 20
3.6675762991
 11
-8.3915993984
 21
3.6763465876
  0
LINE
  5
2E8
100
AcDbEntity
  8
0
100
AcDbLine
 62
7
  6
CONTINUOUS
 10
-8.7010152443
 20
3.6696761741
 11
-8.7017620048
 21
3.6782861211
  0
LINE
  5
2E9
100
AcDbEntity
  8
0
100
AcDbLine
 62
7
  6
CONTINUOUS
 10
-8.8218390797
 20
9.5442475071
 11
-8.8210214611
 21
9.5348361823
  0
LINE
  5
2EA
100
AcDbEntity
  8
0
100
AcDbLine
 62
7
  6
CONTINUOUS
 10
-8.6857572846
 20
3.6544423115
 11
-8.6847002634
 21
3.6422694956
  0
LINE
  5
2EB
100
AcDbEntity
  8
0
100
AcDbLine
 62
7
  6
CONTINUOUS
 10
-8.5266737555
 20
9.5543405405
 11
-8.5277811946
 21
9.5675149966
  0
LINE
  5
2EC
100
AcDbEntity
  8
0
100
AcDbLine
 62
7
  6
CONTINUOUS
 10
-8.8364895685
 20
9.5520185975
 11
-8.8375879645
 21
9.5653126153
  0
LINE
  5
2ED
100
AcDbEntity
  8
0
100
AcDbLine
 62
7
  6
CONTINUOUS
 10
-9.1312248669
 20
9.5372627199
 11
-9.1303727535
 21
9.5267284775
  0
LINE
  5
2EE
100
AcDbEntity
  8
0
100
AcDbLine
 62
7
  6
CONTINUOUS
 10
-8.3915993984
 20
3.6763465876
 11
-8.3924237735
 21
3.686543706
  0
LINE
  5
2EF
100
AcDbEntity
  8
0
100
AcDbLine
 62
7
  6
CONTINUOUS
 10
-8.7017620048
 20
3.6782861211
 11
-8.7025571685
 21
3.688278188
  0
LINE
  5
2F0
100
AcDbEntity
  8
0
100
AcDbLine
 62
7
  6
CONTINUOUS
 10
-8.8210214611
 20
9.5348361823
 11
-8.8201581912
 21
9.5239248012
  0
LINE
  5
2F1
100
AcDbEntity
  8
0
100
AcDbLine
 62
7
  6
CONTINUOUS
 10
-8.6868219456
 20
3.6679428452
 11
-8.6857572846
 21
3.6544423115
  0
LINE
  5
2F2
100
AcDbEntity
  8
0
100
AcDbLine
 62
7
  6
CONTINUOUS
 10
-8.5255703778
 20
9.5398658417
 11
-8.5266737555
 21
9.5543405405
  0
LINE
  5
2F3
100
AcDbEntity
  8
0
100
AcDbLine
 62
7
  6
CONTINUOUS
 10
-8.8353727994
 20
9.5371299585
 11
-8.8364895685
 21
9.5520185975
  0
LINE
  5
2F4
100
AcDbEntity
  8
0
100
AcDbLine
 62
7
  6
CONTINUOUS
 10
-8.3924237735
 20
3.686543706
 11
-8.3932879618
 21
3.6981904313
  0
LINE
  5
2F5
100
AcDbEntity
  8
0
100
AcDbLine
 62
7
  6
CONTINUOUS
 10
-9.1303727535
 20
9.5267284775
 11
-9.1294650283
 21
9.5144593427
  0
LINE
  5
2F6
100
AcDbEntity
  8
0
100
AcDbLine
 62
7
  6
CONTINUOUS
 10
-8.7025571685
 20
3.688278188
 11
-8.7033975974
 21
3.699736793
  0
LINE
  5
2F7
100
AcDbEntity
  8
0
100
AcDbLine
 62
7
  6
CONTINUOUS
 10
-8.8201581912
 20
9.5239248012
 11
-8.8192545025
 21
9.511462375
  0
LINE
  5
2F8
100
AcDbEntity
  8
0
100
AcDbLine
 62
7
  6
CONTINUOUS
 10
-8.6878988315
 20
3.682887649
 11
-8.6868219456
 21
3.6679428452
  0
LINE
  5
2F9
100
AcDbEntity
  8
0
100
AcDbLine
 62
7
  6
CONTINUOUS
 10
-8.5244661922
 20
9.5240108598
 11
-8.5255703778
 21
9.5398658417
  0
LINE
  5
2FA
100
AcDbEntity
  8
0
100
AcDbLine
 62
7
  6
CONTINUOUS
 10
-8.3932879618
 20
3.6981904313
 11
-8.39418654
 21
3.7113149361
  0
LINE
  5
2FB
100
AcDbEntity
  8
0
100
AcDbLine
 62
7
  6
CONTINUOUS
 10
-8.8342396321
 20
9.5205869182
 11
-8.8353727994
 21
9.5371299585
  0
LINE
  5
2FC
100
AcDbEntity
  8
0
100
AcDbLine
 62
7
  6
CONTINUOUS
 10
-8.7033975974
 20
3.699736793
 11
-8.7042861273
 21
3.712832268
  0
LINE
  5
2FD
100
AcDbEntity
  8
0
100
AcDbLine
 62
7
  6
CONTINUOUS
 10
-8.8192545025
 20
9.511462375
 11
-8.8183124825
 21
9.4973647124
  0
LINE
  5
2FE
100
AcDbEntity
  8
0
100
AcDbLine
 62
7
  6
CONTINUOUS
 10
-8.6889907331
 20
3.6993803273
 11
-8.6878988315
 21
3.682887649
  0
LINE
  5
2FF
100
AcDbEntity
  8
0
100
AcDbLine
 62
7
  6
CONTINUOUS
 10
-8.5233560585
 20
9.5066755028
 11
-8.5244661922
 21
9.5240108598
  0
LINE
  5
300
100
AcDbEntity
  8
0
100
AcDbLine
 62
7
  6
CONTINUOUS
 10
-8.39418654
 20
3.7113149361
 11
-8.3951153865
 21
3.7259479147
  0
LINE
  5
301
100
AcDbEntity
  8
0
100
AcDbLine
 62
7
  6
CONTINUOUS
 10
-8.7042861273
 20
3.712832268
 11
-8.7052291771
 21
3.7278142427
  0
LINE
  5
302
100
AcDbEntity
  8
0
100
AcDbLine
 62
7
  6
CONTINUOUS
 10
-8.8330933924
 20
9.5023682875
 11
-8.8342396321
 21
9.5205869182
  0
LINE
  5
303
100
AcDbEntity
  8
0
100
AcDbLine
 62
7
  6
CONTINUOUS
 10
-8.8183124825
 20
9.4973647124
 11
-8.8173327466
 21
9.4815263697
  0
LINE
  5
304
100
AcDbEntity
  8
0
100
AcDbLine
 62
7
  6
CONTINUOUS
 10
-8.6900991132
 20
3.7175108074
 11
-8.6889907331
 21
3.6993803273
  0
LINE
  5
305
100
AcDbEntity
  8
0
100
AcDbLine
 62
7
  6
CONTINUOUS
 10
-8.3951153865
 20
3.7259479147
 11
-8.3960712626
 21
3.7421206892
  0
LINE
  5
306
100
AcDbEntity
  8
0
100
AcDbLine
 62
7
  6
CONTINUOUS
 10
-8.522235858
 20
9.4877576658
 11
-8.5233560585
 21
9.5066755028
  0
LINE
  5
307
100
AcDbEntity
  8
0
100
AcDbLine
 62
7
  6
CONTINUOUS
 10
-8.7052291771
 20
3.7278142427
 11
-8.7062340031
 21
3.7449855726
  0
LINE
  5
308
100
AcDbEntity
  8
0
100
AcDbLine
 62
7
  6
CONTINUOUS
 10
-8.831935185
 20
9.4824357746
 11
-8.8330933924
 21
9.5023682875
  0
LINE
  5
309
100
AcDbEntity
  8
0
100
AcDbLine
 62
7
  6
CONTINUOUS
 10
-8.8173327466
 20
9.4815263697
 11
-8.816314957
 21
9.4638225594
  0
LINE
  5
30A
100
AcDbEntity
  8
0
100
AcDbLine
 62
7
  6
CONTINUOUS
 10
-8.6912245212
 20
3.7373560183
 11
-8.6900991132
 21
3.7175108074
  0
LINE
  5
30B
100
AcDbEntity
  8
0
100
AcDbLine
 62
7
  6
CONTINUOUS
 10
-8.3960712626
 20
3.7421206892
 11
-8.3970515416
 21
3.7598638184
  0
LINE
  5
30C
100
AcDbEntity
  8
0
100
AcDbLine
 62
7
  6
CONTINUOUS
 10
-8.5211025044
 20
9.4671579623
 11
-8.522235858
 21
9.4877576658
  0
LINE
  5
30D
100
AcDbEntity
  8
0
100
AcDbLine
 62
7
  6
CONTINUOUS
 10
-8.7062340031
 20
3.7449855726
 11
-8.7073084933
 21
3.7647067034
  0
LINE
  5
30E
100
AcDbEntity
  8
0
100
AcDbLine
 62
7
  6
CONTINUOUS
 10
-8.830762541
 20
9.4606926452
 11
-8.831935185
 21
9.4824357746
  0
LINE
  5
30F
100
AcDbEntity
  8
0
100
AcDbLine
 62
7
  6
CONTINUOUS
 10
-8.816314957
 20
9.4638225594
 11
-8.8152583204
 21
9.4441137083
  0
LINE
  5
310
100
AcDbEntity
  8
0
100
AcDbLine
 62
7
  6
CONTINUOUS
 10
-8.6923668932
 20
3.758980755
 11
-8.6912245212
 21
3.7373560183
  0
LINE
  5
311
100
AcDbEntity
  8
0
100
AcDbLine
 62
7
  6
CONTINUOUS
 10
-8.3970515416
 20
3.7598638184
 11
-8.3980540296
 21
3.7792060501
  0
LINE
  5
312
100
AcDbEntity
  8
0
100
AcDbLine
 62
7
  6
CONTINUOUS
 10
-8.5199535924
 20
9.444778018
 11
-8.5211025044
 21
9.4671579623
  0
LINE
  5
313
100
AcDbEntity
  8
0
100
AcDbLine
 62
7
  6
CONTINUOUS
 10
-8.7073084933
 20
3.7647067034
 11
-8.7084604052
 21
3.7873883332
  0
LINE
  5
314
100
AcDbEntity
  8
0
100
AcDbLine
 62
7
  6
CONTINUOUS
 10
-8.8295733527
 20
9.4370398471
 11
-8.830762541
 21
9.4606926452
  0
LINE
  5
315
100
AcDbEntity
  8
0
100
AcDbLine
 62
7
  6
CONTINUOUS
 10
-8.8152583204
 20
9.4441137083
 11
-8.814162465
 21
9.422261139
  0
LINE
  5
316
100
AcDbEntity
  8
0
100
AcDbLine
 62
7
  6
CONTINUOUS
 10
-8.693529586
 20
3.7825184789
 11
-8.6923668932
 21
3.758980755
  0
LINE
  5
317
100
AcDbEntity
  8
0
100
AcDbLine
 62
7
  6
CONTINUOUS
 10
-8.3980540296
 20
3.7792060501
 11
-8.399077919
 21
3.800196192
  0
LINE
  5
318
100
AcDbEntity
  8
0
100
AcDbLine
 62
7
  6
CONTINUOUS
 10
-8.5187871793
 20
9.4205193756
 11
-8.5199535924
 21
9.444778018
  0
LINE
  5
319
100
AcDbEntity
  8
0
100
AcDbLine
 62
7
  6
CONTINUOUS
 10
-8.7084604052
 20
3.7873883332
 11
-8.7096881216
 21
3.8132933399
  0
LINE
  5
31A
100
AcDbEntity
  8
0
100
AcDbLine
 62
7
  6
CONTINUOUS
 10
-8.8283659751
 20
9.4113798734
 11
-8.8295733527
 21
9.4370398471
  0
LINE
  5
31B
100
AcDbEntity
  8
0
100
AcDbLine
 62
7
  6
CONTINUOUS
 10
-8.814162465
 20
9.422261139
 11
-8.813026978
 21
9.3981201263
  0
LINE
  5
31C
100
AcDbEntity
  8
0
100
AcDbLine
 62
7
  6
CONTINUOUS
 10
-8.6947234704
 20
3.808285589
 11
-8.693529586
 21
3.7825184789
  0
LINE
  5
31D
100
AcDbEntity
  8
0
100
AcDbLine
 62
7
  6
CONTINUOUS
 10
-8.399077919
 20
3.800196192
 11
-8.4001307324
 21
3.8230659847
  0
LINE
  5
31E
100
AcDbEntity
  8
0
100
AcDbLine
 62
7
  6
CONTINUOUS
 10
-8.5176016443
 20
9.394282801
 11
-8.5187871793
 21
9.4205193756
  0
LINE
  5
31F
100
AcDbEntity
  8
0
100
AcDbLine
 62
7
  6
CONTINUOUS
 10
-8.7096881216
 20
3.8132933399
 11
-8.7109827225
 21
3.8425184745
  0
LINE
  5
320
100
AcDbEntity
  8
0
100
AcDbLine
 62
7
  6
CONTINUOUS
 10
-8.8271390847
 20
9.3836161198
 11
-8.8283659751
 21
9.4113798734
  0
LINE
  5
321
100
AcDbEntity
  8
0
100
AcDbLine
 62
7
  6
CONTINUOUS
 10
-8.813026978
 20
9.3981201263
 11
-8.8118512372
 21
9.3715361732
  0
LINE
  5
322
100
AcDbEntity
  8
0
100
AcDbLine
 62
7
  6
CONTINUOUS
 10
-8.6959600394
 20
3.8366710526
 11
-8.6947234704
 21
3.808285589
  0
LINE
  5
323
100
AcDbEntity
  8
0
100
AcDbLine
 62
7
  6
CONTINUOUS
 10
-8.4001307324
 20
3.8230659847
 11
-8.4012239253
 21
3.8481779655
  0
LINE
  5
324
100
AcDbEntity
  8
0
100
AcDbLine
 62
7
  6
CONTINUOUS
 10
-8.5163955821
 20
9.3659675221
 11
-8.5176016443
 21
9.394282801
  0
LINE
  5
325
100
AcDbEntity
  8
0
100
AcDbLine
 62
7
  6
CONTINUOUS
 10
-8.8258915854
 20
9.3536525149
 11
-8.8271390847
 21
9.3836161198
  0
LINE
  5
326
100
AcDbEntity
  8
0
100
AcDbLine
 62
7
  6
CONTINUOUS
 10
-8.8118512372
 20
9.3715361732
 11
-8.8106343297
 21
9.3423420443
  0
LINE
  5
327
100
AcDbEntity
  8
0
100
AcDbLine
 62
7
  6
CONTINUOUS
 10
-8.7109827225
 20
3.8425184745
 11
-8.7123355745
 21
3.8751236686
  0
LINE
  5
328
100
AcDbEntity
  8
0
100
AcDbLine
 62
7
  6
CONTINUOUS
 10
-8.4012239253
 20
3.8481779655
 11
-8.402369169
 21
3.8759599327
  0
LINE
  5
329
100
AcDbEntity
  8
0
100
AcDbLine
 62
7
  6
CONTINUOUS
 10
-8.6972505538
 20
3.8681226744
 11
-8.6959600394
 21
3.8366710526
  0
LINE
  5
32A
100
AcDbEntity
  8
0
100
AcDbLine
 62
7
  6
CONTINUOUS
 10
-8.5151675043
 20
9.3354648919
 11
-8.5163955821
 21
9.3659675221
  0
LINE
  5
32B
100
AcDbEntity
  8
0
100
AcDbLine
 62
7
  6
CONTINUOUS
 10
-8.8246225464
 20
9.3213933449
 11
-8.8258915854
 21
9.3536525149
  0
LINE
  5
32C
100
AcDbEntity
  8
0
100
AcDbLine
 62
7
  6
CONTINUOUS
 10
-8.8106343297
 20
9.3423420443
 11
-8.8093731771
 21
9.3103071962
  0
LINE
  5
32D
100
AcDbEntity
  8
0
100
AcDbLine
 62
7
  6
CONTINUOUS
 10
-8.402369169
 20
3.8759599327
 11
-8.4035787145
 21
3.9069197556
  0
LINE
  5
32E
100
AcDbEntity
  8
0
100
AcDbLine
 62
7
  6
CONTINUOUS
 10
-8.7123355745
 20
3.8751236686
 11
-8.7137455476
 21
3.9113193131
  0
LINE
  5
32F
100
AcDbEntity
  8
0
100
AcDbLine
 62
7
  6
CONTINUOUS
 10
-8.6986078647
 20
3.9031980441
 11
-8.6972505538
 21
3.8681226744
  0
LINE
  5
330
100
AcDbEntity
  8
0
100
AcDbLine
 62
7
  6
CONTINUOUS
 10
-8.8233311584
 20
9.2867432214
 11
-8.8246225464
 21
9.3213933449
  0
LINE
  5
331
100
AcDbEntity
  8
0
100
AcDbLine
 62
7
  6
CONTINUOUS
 10
-8.8093731771
 20
9.3103071962
 11
-8.8080630033
 21
9.2751353412
  0
LINE
  5
332
100
AcDbEntity
  8
0
100
AcDbLine
 62
7
  6
CONTINUOUS
 10
-8.5132806939
 20
9.2853521177
 11
-8.5151675043
 21
9.3354648919
  0
LINE
  5
333
100
AcDbEntity
  8
0
100
AcDbLine
 62
7
  6
CONTINUOUS
 10
-8.4035787145
 20
3.9069197556
 11
-8.4048718752
 21
3.9418340537
  0
LINE
  5
334
100
AcDbEntity
  8
0
100
AcDbLine
 62
7
  6
CONTINUOUS
 10
-8.7137455476
 20
3.9113193131
 11
-8.7152175156
 21
3.9514802368
  0
LINE
  5
335
100
AcDbEntity
  8
0
100
AcDbLine
 62
7
  6
CONTINUOUS
 10
-8.7000573815
 20
3.9428905734
 11
-8.6986078647
 21
3.9031980441
  0
LINE
  5
336
100
AcDbEntity
  8
0
100
AcDbLine
 62
7
  6
CONTINUOUS
 10
-8.8080630033
 20
9.2751353412
 11
-8.8066989075
 21
9.2364973417
  0
LINE
  5
337
100
AcDbEntity
  8
0
100
AcDbLine
 62
7
  6
CONTINUOUS
 10
-8.4048718752
 20
3.9418340537
 11
-8.4062651077
 21
3.9815178323
  0
LINE
  5
338
100
AcDbEntity
  8
0
100
AcDbLine
 62
7
  6
CONTINUOUS
 10
-8.7152175156
 20
3.9514802368
 11
-8.7167566176
 21
3.9960231123
  0
LINE
  5
339
100
AcDbEntity
  8
0
100
AcDbLine
 62
7
  6
CONTINUOUS
 10
-8.8213495847
 20
9.2300465752
 11
-8.8233311584
 21
9.2867432214
  0
LINE
  5
33A
100
AcDbEntity
  8
0
100
AcDbLine
 62
7
  6
CONTINUOUS
 10
-8.5113358692
 20
9.2296394217
 11
-8.5132806939
 21
9.2853521177
  0
LINE
  5
33B
100
AcDbEntity
  8
0
100
AcDbLine
 62
7
  6
CONTINUOUS
 10
-8.7016138711
 20
3.9880479459
 11
-8.7000573815
 21
3.9428905734
  0
LINE
  5
33C
100
AcDbEntity
  8
0
100
AcDbLine
 62
7
  6
CONTINUOUS
 10
-8.8066989075
 20
9.2364973417
 11
-8.8052763623
 21
9.194044893
  0
LINE
  5
33D
100
AcDbEntity
  8
0
100
AcDbLine
 62
7
  6
CONTINUOUS
 10
-8.4062651077
 20
3.9815178323
 11
-8.4077489069
 21
4.0261014047
  0
LINE
  5
33E
100
AcDbEntity
  8
0
100
AcDbLine
 62
7
  6
CONTINUOUS
 10
-8.7167566176
 20
3.9960231123
 11
-8.7183670726
 21
4.0453715879
  0
LINE
  5
33F
100
AcDbEntity
  8
0
100
AcDbLine
 62
7
  6
CONTINUOUS
 10
-8.7032650874
 20
4.0387789969
 11
-8.7016138711
 21
3.9880479459
  0
LINE
  5
340
100
AcDbEntity
  8
0
100
AcDbLine
 62
7
  6
CONTINUOUS
 10
-8.8193053813
 20
9.1671604316
 11
-8.8213495847
 21
9.2300465752
  0
LINE
  5
341
100
AcDbEntity
  8
0
100
AcDbLine
 62
7
  6
CONTINUOUS
 10
-8.5093283749
 20
9.1678922644
 11
-8.5113358692
 21
9.2296394217
  0
LINE
  5
342
100
AcDbEntity
  8
0
100
AcDbLine
 62
7
  6
CONTINUOUS
 10
-8.8052763623
 20
9.194044893
 11
-8.803796383
 21
9.1475793434
  0
LINE
  5
343
100
AcDbEntity
  8
0
100
AcDbLine
 62
7
  6
CONTINUOUS
 10
-8.4077489069
 20
4.0261014047
 11
-8.4093090903
 21
4.0755146793
  0
LINE
  5
344
100
AcDbEntity
  8
0
100
AcDbLine
 62
7
  6
CONTINUOUS
 10
-8.7183670726
 20
4.0453715879
 11
-8.72005033
 21
4.0998865381
  0
LINE
  5
345
100
AcDbEntity
  8
0
100
AcDbLine
 62
7
  6
CONTINUOUS
 10
-8.7049978384
 20
4.0950857409
 11
-8.7032650874
 21
4.0387789969
  0
LINE
  5
346
100
AcDbEntity
  8
0
100
AcDbLine
 62
7
  6
CONTINUOUS
 10
-8.803796383
 20
9.1475793434
 11
-8.8022638384
 21
9.0970390334
  0
LINE
  5
347
100
AcDbEntity
  8
0
100
AcDbLine
 62
7
  6
CONTINUOUS
 10
-8.8171865652
 20
9.0973726479
 11
-8.8193053813
 21
9.1671604316
  0
LINE
  5
348
100
AcDbEntity
  8
0
100
AcDbLine
 62
7
  6
CONTINUOUS
 10
-8.5072536654
 20
9.0996534406
 11
-8.5093283749
 21
9.1678922644
  0
LINE
  5
349
100
AcDbEntity
  8
0
100
AcDbLine
 62
7
  6
CONTINUOUS
 10
-8.4093090903
 20
4.0755146793
 11
-8.4109420148
 21
4.1299586525
  0
LINE
  5
34A
100
AcDbEntity
  8
0
100
AcDbLine
 62
7
  6
CONTINUOUS
 10
-8.72005033
 20
4.0998865381
 11
-8.7218073795
 21
4.1599209963
  0
LINE
  5
34B
100
AcDbEntity
  8
0
100
AcDbLine
 62
7
  6
CONTINUOUS
 10
-8.7068148012
 20
4.157435364
 11
-8.7049978384
 21
4.0950857409
  0
LINE
  5
34C
100
AcDbEntity
  8
0
100
AcDbLine
 62
7
  6
CONTINUOUS
 10
-8.8022638384
 20
9.0970390334
 11
-8.800683653
 21
9.0423979758
  0
LINE
  5
34D
100
AcDbEntity
  8
0
100
AcDbLine
 62
7
  6
CONTINUOUS
 10
-8.4109420148
 20
4.1299586525
 11
-8.4126555091
 21
4.1900207979
  0
LINE
  5
34E
100
AcDbEntity
  8
0
100
AcDbLine
 62
7
  6
CONTINUOUS
 10
-8.5051060673
 20
9.0244021635
 11
-8.5072536654
 21
9.0996534406
  0
LINE
  5
34F
100
AcDbEntity
  8
0
100
AcDbLine
 62
7
  6
CONTINUOUS
 10
-8.8149812755
 20
9.0198879846
 11
-8.8171865652
 21
9.0973726479
  0
LINE
  5
350
100
AcDbEntity
  8
0
100
AcDbLine
 62
7
  6
CONTINUOUS
 10
-8.7218073795
 20
4.1599209963
 11
-8.7236387019
 21
4.225811443
  0
LINE
  5
351
100
AcDbEntity
  8
0
100
AcDbLine
 62
7
  6
CONTINUOUS
 10
-8.7087279156
 20
4.2266541585
 11
-8.7068148012
 21
4.157435364
  0
LINE
  5
352
100
AcDbEntity
  8
0
100
AcDbLine
 62
7
  6
CONTINUOUS
 10
-8.800683653
 20
9.0423979758
 11
-8.7990583028
 21
8.983576109
  0
LINE
  5
353
100
AcDbEntity
  8
0
100
AcDbLine
 62
7
  6
CONTINUOUS
 10
-8.4126555091
 20
4.1900207979
 11
-8.4144579073
 21
4.2563585401
  0
LINE
  5
354
100
AcDbEntity
  8
0
100
AcDbLine
 62
7
  6
CONTINUOUS
 10
-8.5028791327
 20
8.9415590267
 11
-8.5051060673
 21
9.0244021635
  0
LINE
  5
355
100
AcDbEntity
  8
0
100
AcDbLine
 62
7
  6
CONTINUOUS
 10
-8.8126755698
 20
8.9337475514
 11
-8.8149812755
 21
9.0198879846
  0
LINE
  5
356
100
AcDbEntity
  8
0
100
AcDbLine
 62
7
  6
CONTINUOUS
 10
-8.7990583028
 20
8.983576109
 11
-8.7973847951
 21
8.9203047877
  0
LINE
  5
357
100
AcDbEntity
  8
0
100
AcDbLine
 62
7
  6
CONTINUOUS
 10
-8.7236387019
 20
4.225811443
 11
-8.7255431838
 21
4.2978277594
  0
LINE
  5
358
100
AcDbEntity
  8
0
100
AcDbLine
 62
7
  6
CONTINUOUS
 10
-8.7107481761
 20
4.3036143111
 11
-8.7087279156
 21
4.2266541585
  0
LINE
  5
359
100
AcDbEntity
  8
0
100
AcDbLine
 62
7
  6
CONTINUOUS
 10
-8.4144579073
 20
4.2563585401
 11
-8.4163545879
 21
4.3295660519
  0
LINE
  5
35A
100
AcDbEntity
  8
0
100
AcDbLine
 62
7
  6
CONTINUOUS
 10
-8.7973847951
 20
8.9203047877
 11
-8.7956593764
 21
8.8522734954
  0
LINE
  5
35B
100
AcDbEntity
  8
0
100
AcDbLine
 62
7
  6
CONTINUOUS
 10
-8.7255431838
 20
4.2978277594
 11
-8.727519428
 21
4.3762077309
  0
LINE
  5
35C
100
AcDbEntity
  8
0
100
AcDbLine
 62
7
  6
CONTINUOUS
 10
-8.5005664722
 20
8.8505160988
 11
-8.5028791327
 21
8.9415590267
  0
LINE
  5
35D
100
AcDbEntity
  8
0
100
AcDbLine
 62
7
  6
CONTINUOUS
 10
-8.8102525436
 20
8.8377745443
 11
-8.8126755698
 21
8.9337475514
  0
LINE
  5
35E
100
AcDbEntity
  8
0
100
AcDbLine
 62
7
  6
CONTINUOUS
 10
-8.7128811761
 20
4.3890400184
 11
-8.7107481761
 21
4.3036143111
  0
LINE
  5
35F
100
AcDbEntity
  8
0
100
AcDbLine
 62
7
  6
CONTINUOUS
 10
-8.4163545879
 20
4.3295660519
 11
-8.4183474924
 21
4.4101248534
  0
LINE
  5
360
100
AcDbEntity
  8
0
100
AcDbLine
 62
7
  6
CONTINUOUS
 10
-8.7956593764
 20
8.8522734954
 11
-8.7938782764
 21
8.779156528
  0
LINE
  5
361
100
AcDbEntity
  8
0
100
AcDbLine
 62
7
  6
CONTINUOUS
 10
-8.727519428
 20
4.3762077309
 11
-8.7295660641
 21
4.4611633348
  0
LINE
  5
362
100
AcDbEntity
  8
0
100
AcDbLine
 62
7
  6
CONTINUOUS
 10
-8.4981546219
 20
8.7503400647
 11
-8.5005664722
 21
8.8505160988
  0
LINE
  5
363
100
AcDbEntity
  8
0
100
AcDbLine
 62
7
  6
CONTINUOUS
 10
-8.7151306373
 20
4.4836005099
 11
-8.7128811761
 21
4.3890400184
  0
LINE
  5
364
100
AcDbEntity
  8
0
100
AcDbLine
 62
7
  6
CONTINUOUS
 10
-8.807694939
 20
8.7306605363
 11
-8.8102525436
 21
8.8377745443
  0
LINE
  5
365
100
AcDbEntity
  8
0
100
AcDbLine
 62
7
  6
CONTINUOUS
 10
-8.4183474924
 20
4.4101248534
 11
-8.4204380463
 21
4.4984931741
  0
LINE
  5
366
100
AcDbEntity
  8
0
100
AcDbLine
 62
7
  6
CONTINUOUS
 10
-8.7938782764
 20
8.779156528
 11
-8.7920377109
 21
8.7006151413
  0
LINE
  5
367
100
AcDbEntity
  8
0
100
AcDbLine
 62
7
  6
CONTINUOUS
 10
-8.7295660641
 20
4.4611633348
 11
-8.7316863211
 21
4.553078974
  0
LINE
  5
368
100
AcDbEntity
  8
0
100
AcDbLine
 62
7
  6
CONTINUOUS
 10
-8.4955878344
 20
8.6381274213
 11
-8.4981546219
 21
8.7503400647
  0
LINE
  5
369
100
AcDbEntity
  8
0
100
AcDbLine
 62
7
  6
CONTINUOUS
 10
-8.717497715
 20
4.5878506611
 11
-8.7151306373
 21
4.4836005099
  0
LINE
  5
36A
100
AcDbEntity
  8
0
100
AcDbLine
 62
7
  6
CONTINUOUS
 10
-8.7920377109
 20
8.7006151413
 11
-8.7901336041
 21
8.6162875594
  0
LINE
  5
36B
100
AcDbEntity
  8
0
100
AcDbLine
 62
7
  6
CONTINUOUS
 10
-8.4204380463
 20
4.4984931741
 11
-8.4226253272
 21
4.5950116876
  0
LINE
  5
36C
100
AcDbEntity
  8
0
100
AcDbLine
 62
7
  6
CONTINUOUS
 10
-8.8049759008
 20
8.6105547871
 11
-8.807694939
 21
8.7306605363
  0
LINE
  5
36D
100
AcDbEntity
  8
0
100
AcDbLine
 62
7
  6
CONTINUOUS
 10
-8.7316863211
 20
4.553078974
 11
-8.7338951454
 21
4.6528767724
  0
LINE
  5
36E
100
AcDbEntity
  8
0
100
AcDbLine
 62
7
  6
CONTINUOUS
 10
-8.7901336041
 20
8.6162875594
 11
-8.7881551897
 21
8.5254912304
  0
LINE
  5
36F
100
AcDbEntity
  8
0
100
AcDbLine
 62
7
  6
CONTINUOUS
 10
-8.7199808838
 20
4.7021879116
 11
-8.717497715
 21
4.5878506611
  0
LINE
  5
370
100
AcDbEntity
  8
0
100
AcDbLine
 62
7
  6
CONTINUOUS
 10
-8.4226253272
 20
4.5950116876
 11
-8.4249073992
 21
4.6999363167
  0
LINE
  5
371
100
AcDbEntity
  8
0
100
AcDbLine
 62
7
  6
CONTINUOUS
 10
-8.4927959199
 20
8.5098606854
 11
-8.4955878344
 21
8.6381274213
  0
LINE
  5
372
100
AcDbEntity
  8
0
100
AcDbLine
 62
7
  6
CONTINUOUS
 10
-8.7338951454
 20
4.6528767724
 11
-8.7362093419
 21
4.761643899
  0
LINE
  5
373
100
AcDbEntity
  8
0
100
AcDbLine
 62
7
  6
CONTINUOUS
 10
-8.8020539187
 20
8.4747322868
 11
-8.8049759008
 21
8.6105547871
  0
LINE
  5
374
100
AcDbEntity
  8
0
100
AcDbLine
 62
7
  6
CONTINUOUS
 10
-8.7881551897
 20
8.5254912304
 11
-8.7860848845
 21
8.4271677924
  0
LINE
  5
375
100
AcDbEntity
  8
0
100
AcDbLine
 62
7
  6
CONTINUOUS
 10
-8.7225792562
 20
4.8269745933
 11
-8.7199808838
 21
4.7021879116
  0
LINE
  5
376
100
AcDbEntity
  8
0
100
AcDbLine
 62
7
  6
CONTINUOUS
 10
-8.4249073992
 20
4.6999363167
 11
-8.4272826133
 21
4.8134838348
  0
LINE
  5
377
100
AcDbEntity
  8
0
100
AcDbLine
 62
7
  6
CONTINUOUS
 10
-8.7999635363
 20
8.3735282882
 11
-8.8020539187
 21
8.4747322868
  0
LINE
  5
378
100
AcDbEntity
  8
0
100
AcDbLine
 62
7
  6
CONTINUOUS
 10
-8.4897267587
 20
8.3618620597
 11
-8.4927959199
 21
8.5098606854
  0
LINE
  5
379
100
AcDbEntity
  8
0
100
AcDbLine
 62
7
  6
CONTINUOUS
 10
-8.7362093419
 20
4.761643899
 11
-8.7386469452
 21
4.880607128
  0
LINE
  5
37A
100
AcDbEntity
  8
0
100
AcDbLine
 62
7
  6
CONTINUOUS
 10
-8.7860848845
 20
8.4271677924
 11
-8.7839093657
 21
8.3203881127
  0
LINE
  5
37B
100
AcDbEntity
  8
0
100
AcDbLine
 62
7
  6
CONTINUOUS
 10
-8.7977303389
 20
8.2619202497
 11
-8.7999635363
 21
8.3735282882
  0
LINE
  5
37C
100
AcDbEntity
  8
0
100
AcDbLine
 62
7
  6
CONTINUOUS
 10
-8.4272826133
 20
4.8134838348
 11
-8.4297607332
 21
4.9363874104
  0
LINE
  5
37D
100
AcDbEntity
  8
0
100
AcDbLine
 62
7
  6
CONTINUOUS
 10
-8.7253105759
 20
4.9634458745
 11
-8.7225792562
 21
4.8269745933
  0
LINE
  5
37E
100
AcDbEntity
  8
0
100
AcDbLine
 62
7
  6
CONTINUOUS
 10
-8.4875176772
 20
8.251112095
 11
-8.4897267587
 21
8.3618620597
  0
LINE
  5
37F
100
AcDbEntity
  8
0
100
AcDbLine
 62
7
  6
CONTINUOUS
 10
-8.7386469452
 20
4.880607128
 11
-8.7412375736
 21
5.0116610033
  0
LINE
  5
380
100
AcDbEntity
  8
0
100
AcDbLine
 62
7
  6
CONTINUOUS
 10
-8.7839093657
 20
8.3203881127
 11
-8.7816306824
 21
8.2049671883
  0
LINE
  5
381
100
AcDbEntity
  8
0
100
AcDbLine
 62
7
  6
CONTINUOUS
 10
-8.795336205
 20
8.1385189658
 11
-8.7977303389
 21
8.2619202497
  0
LINE
  5
382
100
AcDbEntity
  8
0
100
AcDbLine
 62
7
  6
CONTINUOUS
 10
-8.4297607332
 20
4.9363874104
 11
-8.4323665373
 21
5.0701733492
  0
LINE
  5
383
100
AcDbEntity
  8
0
100
AcDbLine
 62
7
  6
CONTINUOUS
 10
-8.485181313
 20
8.1304082826
 11
-8.4875176772
 21
8.251112095
  0
LINE
  5
384
100
AcDbEntity
  8
0
100
AcDbLine
 62
7
  6
CONTINUOUS
 10
-8.7282117346
 20
5.1138935948
 11
-8.7253105759
 21
4.9634458745
  0
LINE
  5
385
100
AcDbEntity
  8
0
100
AcDbLine
 62
7
  6
CONTINUOUS
 10
-8.7816306824
 20
8.2049671883
 11
-8.7792541095
 21
8.0809512148
  0
LINE
  5
386
100
AcDbEntity
  8
0
100
AcDbLine
 62
7
  6
CONTINUOUS
 10
-8.7412375736
 20
5.0116610033
 11
-8.7440201074
 21
5.1573222058
  0
LINE
  5
387
100
AcDbEntity
  8
0
100
AcDbLine
 62
7
  6
CONTINUOUS
 10
-8.7927774992
 20
8.0026659416
 11
-8.795336205
 21
8.1385189658
  0
LINE
  5
388
100
AcDbEntity
  8
0
100
AcDbLine
 62
7
  6
CONTINUOUS
 10
-8.4323665373
 20
5.0701733492
 11
-8.4351261812
 21
5.2165331342
  0
LINE
  5
389
100
AcDbEntity
  8
0
100
AcDbLine
 62
7
  6
CONTINUOUS
 10
-8.4827158011
 20
7.9993424007
 11
-8.485181313
 21
8.1304082826
  0
LINE
  5
38A
100
AcDbEntity
  8
0
100
AcDbLine
 62
7
  6
CONTINUOUS
 10
-8.7313204015
 20
5.28080074
 11
-8.7282117346
 21
5.1138935948
  0
LINE
  5
38B
100
AcDbEntity
  8
0
100
AcDbLine
 62
7
  6
CONTINUOUS
 10
-8.7792541095
 20
8.0809512148
 11
-8.7767847058
 21
7.9484630614
  0
LINE
  5
38C
100
AcDbEntity
  8
0
100
AcDbLine
 62
7
  6
CONTINUOUS
 10
-8.7440201074
 20
5.1573222058
 11
-8.7470592706
 21
5.3216799588
  0
LINE
  5
38D
100
AcDbEntity
  8
0
100
AcDbLine
 62
7
  6
CONTINUOUS
 10
-8.7900572803
 20
7.854139827
 11
-8.7927774992
 21
8.0026659416
  0
LINE
  5
38E
100
AcDbEntity
  8
0
100
AcDbLine
 62
7
  6
CONTINUOUS
 10
-8.4351261812
 20
5.2165331342
 11
-8.4380775284
 21
5.3778717466
  0
LINE
  5
38F
100
AcDbEntity
  8
0
100
AcDbLine
 62
7
  6
CONTINUOUS
 10
-8.4800858764
 20
7.8557216632
 11
-8.4827158011
 21
7.9993424007
  0
LINE
  5
390
100
AcDbEntity
  8
0
100
AcDbLine
 62
7
  6
CONTINUOUS
 10
-8.7767847058
 20
7.9484630614
 11
-8.7742201296
 21
7.8073069997
  0
LINE
  5
391
100
AcDbEntity
  8
0
100
AcDbLine
 62
7
  6
CONTINUOUS
 10
-8.7470592706
 20
5.3216799588
 11
-8.7504219416
 21
5.5092013897
  0
LINE
  5
392
100
AcDbEntity
  8
0
100
AcDbLine
 62
7
  6
CONTINUOUS
 10
-8.7346747869
 20
5.4667680097
 11
-8.7313204015
 21
5.28080074
  0
LINE
  5
393
100
AcDbEntity
  8
0
100
AcDbLine
 62
7
  6
CONTINUOUS
 10
-8.7871833375
 20
7.6931219024
 11
-8.7900572803
 21
7.854139827
  0
LINE
  5
394
100
AcDbEntity
  8
0
100
AcDbLine
 62
7
  6
CONTINUOUS
 10
-8.7742201296
 20
7.8073069997
 11
-8.7715489532
 21
7.6568320067
  0
LINE
  5
395
100
AcDbEntity
  8
0
100
AcDbLine
 62
7
  6
CONTINUOUS
 10
-8.4380775284
 20
5.3778717466
 11
-8.441276794
 21
5.5577225486
  0
LINE
  5
396
100
AcDbEntity
  8
0
100
AcDbLine
 62
7
  6
CONTINUOUS
 10
-8.4772448352
 20
7.696607869
 11
-8.4800858764
 21
7.8557216632
  0
LINE
  5
397
100
AcDbEntity
  8
0
100
AcDbLine
 62
7
  6
CONTINUOUS
 10
-8.7504219416
 20
5.5092013897
 11
-8.7541236497
 21
5.7215037663
  0
LINE
  5
398
100
AcDbEntity
  8
0
100
AcDbLine
 62
7
  6
CONTINUOUS
 10
-8.7383984465
 20
5.6793222851
 11
-8.7346747869
 21
5.4667680097
  0
LINE
  5
399
100
AcDbEntity
  8
0
100
AcDbLine
 62
7
  6
CONTINUOUS
 10
-8.7715489532
 20
7.6568320067
 11
-8.7687591885
 21
7.49638906
  0
LINE
  5
39A
100
AcDbEntity
  8
0
100
AcDbLine
 62
7
  6
CONTINUOUS
 10
-8.441276794
 20
5.5577225486
 11
-8.4448237395
 21
5.7622543524
  0
LINE
  5
39B
100
AcDbEntity
  8
0
100
AcDbLine
 62
7
  6
CONTINUOUS
 10
-8.4741583724
 20
7.5196833186
 11
-8.4772448352
 21
7.696607869
  0
LINE
  5
39C
100
AcDbEntity
  8
0
100
AcDbLine
 62
7
  6
CONTINUOUS
 10
-8.7825995913
 20
7.4289324819
 11
-8.7871833375
 21
7.6931219024
  0
LINE
  5
39D
100
AcDbEntity
  8
0
100
AcDbLine
 62
7
  6
CONTINUOUS
 10
-8.7541236497
 20
5.7215037663
 11
-8.758130794
 21
5.9569175137
  0
LINE
  5
39E
100
AcDbEntity
  8
0
100
AcDbLine
 62
7
  6
CONTINUOUS
 10
-8.7426157192
 20
5.9263438718
 11
-8.7383984465
 21
5.6793222851
  0
LINE
  5
39F
100
AcDbEntity
  8
0
100
AcDbLine
 62
7
  6
CONTINUOUS
 10
-8.7687591885
 20
7.49638906
 11
-8.7643269015
 21
7.2358264879
  0
LINE
  5
3A0
100
AcDbEntity
  8
0
100
AcDbLine
 62
7
  6
CONTINUOUS
 10
-8.4448237395
 20
5.7622543524
 11
-8.4488023175
 21
5.9968319272
  0
LINE
  5
3A1
100
AcDbEntity
  8
0
100
AcDbLine
 62
7
  6
CONTINUOUS
 10
-8.4689752651
 20
7.2149216374
 11
-8.4741583724
 21
7.5196833186
  0
LINE
  5
3A2
100
AcDbEntity
  8
0
100
AcDbLine
 62
7
  6
CONTINUOUS
 10
-8.758130794
 20
5.9569175137
 11
-8.7623678956
 21
6.210486509
  0
LINE
  5
3A3
100
AcDbEntity
  8
0
100
AcDbLine
 62
7
  6
CONTINUOUS
 10
-8.7759920436
 20
7.0362643573
 11
-8.7825995913
 21
7.4289324819
  0
LWPOLYLINE
  5
3A4
100
AcDbEntity
  8
0
100
AcDbPolyline
 62
7
  6
CONTINUOUS
 90
3
 70
0
 10
-8.4488023175
 20
5.9968319272
 10
-8.453261958
 20
6.2644303918
 10
-8.462939038
 20
6.8518171286
  0
LINE
  5
3A5
100
AcDbEntity
  8
0
100
AcDbLine
 62
7
  6
CONTINUOUS
 10
-8.7623678956
 20
6.210486509
 11
-8.7724432724
 21
6.8217591375
  0
LINE
  5
3A6
100
AcDbEntity
  8
0
100
AcDbLine
 62
7
  6
CONTINUOUS
 10
-8.7724432724
 20
6.8217591375
 11
-8.7759920436
 21
7.0362643573
  0
LINE
  5
3A7
100
AcDbEntity
  8
0
100
AcDbLine
 62
7
  6
CONTINUOUS
 10
-8.7507260142
 20
6.4137136472
 11
-8.7426157192
 21
5.9263438718
  0
LWPOLYLINE
  5
3A8
100
AcDbEntity
  8
0
100
AcDbPolyline
 62
7
  6
CONTINUOUS
 90
3
 70
0
 10
-8.7643269015
 20
7.2358264879
 10
-8.7578976365
 20
6.8493824963
 10
-8.7507260142
 20
6.4137136472
  0
LINE
  5
3A9
100
AcDbEntity
  8
0
100
AcDbLine
 62
7
  6
CONTINUOUS
 10
-8.462939038
 20
6.8518171286
 11
-8.4689752651
 21
7.2149216374
  0
LINE
  5
3AA
100
AcDbEntity
  8
0
100
AcDbLine
 62
7
  6
CONTINUOUS
 10
-8.7099025966
 20
12.5757444609
 11
-8.7099025966
 21
13.1919150865
  0
LINE
  5
3AB
100
AcDbEntity
  8
0
100
AcDbLine
 62
7
  6
CONTINUOUS
 10
-8.6799025966
 20
13.2254137203
 11
-8.6799025966
 21
13.1276520239
  0
LINE
  5
3AC
100
AcDbEntity
  8
02___PRT_ALL_AXES
100
AcDbLine
 62
7
  6
CONTINUOUS
 10
-8.6759025966
 20
-0.1973079203
 11
-8.6759025966
 21
-0.1673982745
  0
LINE
  5
3AD
100
AcDbEntity
  8
02___PRT_ALL_AXES
100
AcDbLine
 62
7
  6
CONTINUOUS
 10
-8.6759025966
 20
-0.1467113922
 11
-8.6759025966
 21
-0.1373982745
  0
LINE
  5
3AE
100
AcDbEntity
  8
02___PRT_ALL_AXES
100
AcDbLine
 62
7
  6
CONTINUOUS
 10
-8.6759025966
 20
-0.1167113922
 11
-8.6759025966
 21
-0.1083079203
  0
LINE
  5
3AF
100
AcDbEntity
  8
0
100
AcDbLine
 62
7
  6
CONTINUOUS
 10
-8.6754025966
 20
-0.1973079203
 11
-8.6754025966
 21
-0.1768017464
  0
LINE
  5
3B0
100
AcDbEntity
  8
0
100
AcDbLine
 62
7
  6
CONTINUOUS
 10
-8.6593766096
 20
-0.1571416596
 11
-8.6593766096
 21
-0.1569680071
  0
LINE
  5
3B1
100
AcDbEntity
  8
0
100
AcDbLine
 62
7
  6
CONTINUOUS
 10
-8.6593766096
 20
-0.1271416596
 11
-8.6593766096
 21
-0.1269680071
  0
LINE
  5
3B2
100
AcDbEntity
  8
0
100
AcDbLine
 62
7
  6
CONTINUOUS
 10
-8.6499025966
 20
12.5757444609
 11
-8.6499025966
 21
13.1919147611
  0
LINE
  5
3B3
100
AcDbEntity
  8
0
100
AcDbLine
 62
7
  6
CONTINUOUS
 10
-8.6027324223
 20
-0.1973079203
 11
-8.6027324223
 21
-0.3933079203
  0
LINE
  5
3B4
100
AcDbEntity
  8
0
100
AcDbLine
 62
7
  6
CONTINUOUS
 10
-8.5885902867
 20
-0.1973079203
 11
-8.5885902867
 21
-0.3933079203
  0
LINE
  5
3B5
100
AcDbEntity
  8
0
100
AcDbLine
 62
7
  6
CONTINUOUS
 10
-8.5885598842
 20
-0.1083079203
 11
-8.5885598842
 21
0.5545022535
  0
LINE
  5
3B6
100
AcDbEntity
  8
02___PRT_ALL_AXES
100
AcDbLine
 62
7
  6
CONTINUOUS
 10
-8.5699025966
 20
9.7007172441
 11
-8.5699025966
 21
11.4488344931
  0
LINE
  5
3B7
100
AcDbEntity
  8
0
100
AcDbLine
 62
7
  6
CONTINUOUS
 10
-8.5414025966
 20
-0.3933079203
 11
-8.5414025966
 21
-0.4657276273
  0
LINE
  5
3B8
100
AcDbEntity
  8
02___PRT_ALL_AXES
100
AcDbLine
 62
7
  6
CONTINUOUS
 10
-8.5124025966
 20
12.8929279022
 11
-8.5124025966
 21
13.372259392
  0
LINE
  5
3B9
100
AcDbEntity
  8
0
100
AcDbLine
 62
7
  6
CONTINUOUS
 10
-8.5124025966
 20
12.8929279022
 11
-8.5124025966
 21
13.372259392
  0
LINE
  5
3BA
100
AcDbEntity
  8
02___PRT_ALL_AXES
100
AcDbLine
 62
7
  6
CONTINUOUS
 10
-8.3324025966
 20
12.8929279022
 11
-8.3324025966
 21
13.372259392
  0
LINE
  5
3BB
100
AcDbEntity
  8
0
100
AcDbLine
 62
7
  6
CONTINUOUS
 10
-8.3324025966
 20
12.8929279022
 11
-8.3324025966
 21
13.372259392
  0
LINE
  5
3BC
100
AcDbEntity
  8
02___PRT_ALL_AXES
100
AcDbLine
 62
7
  6
CONTINUOUS
 10
-8.2749025966
 20
8.270241597
 11
-8.2749025966
 21
11.4488344931
  0
LINE
  5
3BD
100
AcDbEntity
  8
0
100
AcDbLine
 62
7
  6
CONTINUOUS
 10
-8.1949025966
 20
12.5757444609
 11
-8.1949025966
 21
13.1919150865
  0
LINE
  5
3BE
100
AcDbEntity
  8
0
100
AcDbLine
 62
7
  6
CONTINUOUS
 10
-8.1649025966
 20
13.2254137203
 11
-8.1649025966
 21
13.1276520239
  0
LINE
  5
3BF
100
AcDbEntity
  8
0
100
AcDbLine
 62
7
  6
CONTINUOUS
 10
-8.1349025966
 20
12.5757444609
 11
-8.1349025966
 21
13.1919150865
  0
LINE
  5
3C0
100
AcDbEntity
  8
0
100
AcDbLine
 62
7
  6
CONTINUOUS
 10
-8.1141708012
 20
-0.4657276273
 11
-8.1141708012
 21
-4.9657276273
  0
LINE
  5
3C1
100
AcDbEntity
  8
0
100
AcDbLine
 62
7
  6
CONTINUOUS
 10
-8.0199025966
 20
11.6694746888
 11
-8.0199025966
 21
12.7077478036
  0
LINE
  5
3C2
100
AcDbEntity
  8
02___PRT_ALL_AXES
100
AcDbLine
 62
7
  6
CONTINUOUS
 10
-8.2749114949
 20
8.2693431926
 11
-8.2749025966
 21
8.270241597
  0
LINE
  5
3C3
100
AcDbEntity
  8
0
100
AcDbLine
 62
7
  6
CONTINUOUS
 10
-8.3073082239
 20
6.3998167869
 11
-8.2999134657
 21
6.8490244008
  0
LINE
  5
3C4
100
AcDbEntity
  8
0
100
AcDbLine
 62
7
  6
CONTINUOUS
 10
-8.3140706093
 20
5.9927856541
 11
-8.3073082239
 21
6.3998167869
  0
LINE
  5
3C5
100
AcDbEntity
  8
0
100
AcDbLine
 62
7
  6
CONTINUOUS
 10
-8.2999134657
 20
6.8490244008
 11
-8.2949030617
 21
7.1508835464
  0
LWPOLYLINE
  5
3C6
100
AcDbEntity
  8
0
100
AcDbPolyline
 62
7
  6
CONTINUOUS
 90
8
 70
0
 10
-8.2949030617
 20
7.1508835464
 10
-8.2898888285
 20
7.4473323337
 10
-8.2873842336
 20
7.5923362939
 10
-8.2848809074
 20
7.7347219128
 10
-8.2823783491
 20
7.874154003
 10
-8.2798760631
 20
8.0103028325
 10
-8.2773735595
 20
8.1428443033
 10
-8.2749122257
 20
8.2693431985
  0
LINE
  5
3C7
100
AcDbEntity
  8
0
100
AcDbLine
 62
7
  6
CONTINUOUS
 10
-8.3181131231
 20
5.7544595274
 11
-8.3140706093
 21
5.9927856541
  0
LINE
  5
3C8
100
AcDbEntity
  8
0
100
AcDbLine
 62
7
  6
CONTINUOUS
 10
-8.3218098745
 20
5.5414677855
 11
-8.3181131231
 21
5.7544595274
  0
LINE
  5
3C9
100
AcDbEntity
  8
0
100
AcDbLine
 62
7
  6
CONTINUOUS
 10
-8.3251407387
 20
5.3546288832
 11
-8.3218098745
 21
5.5414677855
  0
LINE
  5
3CA
100
AcDbEntity
  8
0
100
AcDbLine
 62
7
  6
CONTINUOUS
 10
-8.3281678956
 20
5.1897391122
 11
-8.3251407387
 21
5.3546288832
  0
LINE
  5
3CB
100
AcDbEntity
  8
0
100
AcDbLine
 62
7
  6
CONTINUOUS
 10
-8.3309717233
 20
5.04174578
 11
-8.3281678956
 21
5.1897391122
  0
LINE
  5
3CC
100
AcDbEntity
  8
0
100
AcDbLine
 62
7
  6
CONTINUOUS
 10
-8.3335977876
 20
4.9076972241
 11
-8.3309717233
 21
5.04174578
  0
LINE
  5
3CD
100
AcDbEntity
  8
0
100
AcDbLine
 62
7
  6
CONTINUOUS
 10
-8.3360793957
 20
4.7854273343
 11
-8.3335977876
 21
4.9076972241
  0
LINE
  5
3CE
100
AcDbEntity
  8
0
100
AcDbLine
 62
7
  6
CONTINUOUS
 10
-8.3384393099
 20
4.6734107991
 11
-8.3360793957
 21
4.7854273343
  0
LINE
  5
3CF
100
AcDbEntity
  8
0
100
AcDbLine
 62
7
  6
CONTINUOUS
 10
-8.3406993831
 20
4.5702639994
 11
-8.3384393099
 21
4.6734107991
  0
LINE
  5
3D0
100
AcDbEntity
  8
0
100
AcDbLine
 62
7
  6
CONTINUOUS
 10
-8.3428720129
 20
4.4751210393
 11
-8.3406993831
 21
4.5702639994
  0
LINE
  5
3D1
100
AcDbEntity
  8
0
100
AcDbLine
 62
7
  6
CONTINUOUS
 10
-8.3449574836
 20
4.3876673969
 11
-8.3428720129
 21
4.4751210393
  0
LINE
  5
3D2
100
AcDbEntity
  8
0
100
AcDbLine
 62
7
  6
CONTINUOUS
 10
-8.3469552957
 20
4.3075920853
 11
-8.3449574836
 21
4.3876673969
  0
LINE
  5
3D3
100
AcDbEntity
  8
0
100
AcDbLine
 62
7
  6
CONTINUOUS
 10
-8.3488653629
 20
4.2345425319
 11
-8.3469552957
 21
4.3075920853
  0
LINE
  5
3D4
100
AcDbEntity
  8
0
100
AcDbLine
 62
7
  6
CONTINUOUS
 10
-8.350689504
 20
4.1680816054
 11
-8.3488653629
 21
4.2345425319
  0
LINE
  5
3D5
100
AcDbEntity
  8
0
100
AcDbLine
 62
7
  6
CONTINUOUS
 10
-8.3524301091
 20
4.1077551383
 11
-8.350689504
 21
4.1680816054
  0
LINE
  5
3D6
100
AcDbEntity
  8
0
100
AcDbLine
 62
7
  6
CONTINUOUS
 10
-8.3540908908
 20
4.053077041
 11
-8.3524301091
 21
4.1077551383
  0
LINE
  5
3D7
100
AcDbEntity
  8
0
100
AcDbLine
 62
7
  6
CONTINUOUS
 10
-8.3556790454
 20
4.0034779178
 11
-8.3540908908
 21
4.053077041
  0
LINE
  5
3D8
100
AcDbEntity
  8
0
100
AcDbLine
 62
7
  6
CONTINUOUS
 10
-8.3572023763
 20
3.9584180001
 11
-8.3556790454
 21
4.0034779178
  0
LINE
  5
3D9
100
AcDbEntity
  8
0
100
AcDbLine
 62
7
  6
CONTINUOUS
 10
-8.3586665957
 20
3.9174649215
 11
-8.3572023763
 21
3.9584180001
  0
LINE
  5
3DA
100
AcDbEntity
  8
0
100
AcDbLine
 62
7
  6
CONTINUOUS
 10
-8.3600662273
 20
3.8805095335
 11
-8.3586665957
 21
3.9174649215
  0
LINE
  5
3DB
100
AcDbEntity
  8
0
100
AcDbLine
 62
7
  6
CONTINUOUS
 10
-8.3613921221
 20
3.8475002149
 11
-8.3600662273
 21
3.8805095335
  0
LINE
  5
3DC
100
AcDbEntity
  8
0
100
AcDbLine
 62
7
  6
CONTINUOUS
 10
-8.3626383708
 20
3.8182647607
 11
-8.3613921221
 21
3.8475002149
  0
LINE
  5
3DD
100
AcDbEntity
  8
0
100
AcDbLine
 62
7
  6
CONTINUOUS
 10
-8.3643851213
 20
3.7802358359
 11
-8.3626383708
 21
3.8182647607
  0
LINE
  5
3DE
100
AcDbEntity
  8
0
100
AcDbLine
 62
7
  6
CONTINUOUS
 10
-8.366022145
 20
3.7477425345
 11
-8.3643851213
 21
3.7802358359
  0
LINE
  5
3DF
100
AcDbEntity
  8
0
100
AcDbLine
 62
7
  6
CONTINUOUS
 10
-8.3675774155
 20
3.7197063456
 11
-8.366022145
 21
3.7477425345
  0
LINE
  5
3E0
100
AcDbEntity
  8
0
100
AcDbLine
 62
7
  6
CONTINUOUS
 10
-8.3690789545
 20
3.6952608845
 11
-8.3675774155
 21
3.7197063456
  0
LINE
  5
3E1
100
AcDbEntity
  8
0
100
AcDbLine
 62
7
  6
CONTINUOUS
 10
-8.3700598141
 20
3.6806781972
 11
-8.3690789545
 21
3.6952608845
  0
LINE
  5
3E2
100
AcDbEntity
  8
0
100
AcDbLine
 62
7
  6
CONTINUOUS
 10
-8.3710283409
 20
3.6673454669
 11
-8.3700598141
 21
3.6806781972
  0
LINE
  5
3E3
100
AcDbEntity
  8
0
100
AcDbLine
 62
7
  6
CONTINUOUS
 10
-8.3719887532
 20
3.6551595367
 11
-8.3710283409
 21
3.6673454669
  0
LINE
  5
3E4
100
AcDbEntity
  8
0
100
AcDbLine
 62
7
  6
CONTINUOUS
 10
-9.4776843642
 20
-0.1083079203
 11
-9.4834285837
 21
-0.1119680071
  0
LINE
  5
3E5
100
AcDbEntity
  8
0
100
AcDbLine
 62
7
  6
CONTINUOUS
 10
-9.4673316934
 20
-0.1317113922
 11
-9.4834285837
 21
-0.1419680071
  0
LINE
  5
3E6
100
AcDbEntity
  8
0
100
AcDbLine
 62
7
  6
CONTINUOUS
 10
-9.4673316934
 20
-0.1617113922
 11
-9.4834285837
 21
-0.1719680071
  0
LWPOLYLINE
  5
3E7
100
AcDbEntity
  8
0
100
AcDbPolyline
 62
7
  6
CONTINUOUS
 90
13
 70
0
 10
-8.3882717505
 20
3.6453790328
 10
-8.3882699893
 20
3.6453693785
 10
-8.3882947386
 20
3.6455133821
 10
-8.3883828399
 20
3.6460569962
 10
-8.3885229118
 20
3.6469811445
 10
-8.3887066009
 20
3.648274636
 10
-8.3889277114
 20
3.6499326426
 10
-8.3891816069
 20
3.6519555695
 10
-8.3894646551
 20
3.6543470061
 10
-8.3897733292
 20
3.6571071949
 10
-8.3901043652
 20
3.6602342188
 10
-8.3904548433
 20
3.6637249849
 10
-8.3908222484
 20
3.6675762991
  0
LWPOLYLINE
  5
3E8
100
AcDbEntity
  8
0
100
AcDbPolyline
 62
7
  6
CONTINUOUS
 90
13
 70
0
 10
-9.1345340384
 20
9.5680083833
 10
-9.1345355344
 20
9.5680166029
 10
-9.1345088232
 20
9.5678610912
 10
-9.1344198952
 20
9.5673115074
 10
-9.134280214
 20
9.566388934
 10
-9.134098196
 20
9.5651066453
 10
-9.1338800905
 20
9.5634716634
 10
-9.1336305807
 20
9.5614859124
 10
-9.1333532031
 20
9.5591470779
 10
-9.1330506613
 20
9.5564494225
 10
-9.1327251689
 20
9.5533855788
 10
-9.1323785604
 20
9.5499468444
 10
-9.1320122277
 20
9.5461218853
  0
LINE
  5
3E9
100
AcDbEntity
  8
0
100
AcDbLine
 62
7
  6
CONTINUOUS
 10
-8.6754734999
 20
-0.1373982745
 11
-8.6593766096
 21
-0.1271416596
  0
LINE
  5
3EA
100
AcDbEntity
  8
0
100
AcDbLine
 62
7
  6
CONTINUOUS
 10
-8.6754734999
 20
-0.1673982745
 11
-8.6593766096
 21
-0.1571416596
  0
LINE
  5
3EB
100
AcDbEntity
  8
0
100
AcDbLine
 62
7
  6
CONTINUOUS
 10
-8.659308474
 20
-0.1870548334
 11
-8.6754025966
 21
-0.1973079203
  0
LINE
  5
3EC
100
AcDbEntity
  8
0
100
AcDbLine
 62
7
  6
CONTINUOUS
 10
-8.0999025966
 20
11.5894746888
 11
-8.7449025966
 21
11.5894746888
  0
LWPOLYLINE
  5
3ED
100
AcDbEntity
  8
0
100
AcDbPolyline
 62
7
  6
CONTINUOUS
 90
12
 70
0
 10
-8.824531927
 20
9.5679960971
 10
-8.8245286574
 20
9.5679773363
 10
-8.8244526534
 20
9.5675181963
 10
-8.824308844
 20
9.5665828589
 10
-8.8241111001
 20
9.5652001668
 10
-8.8238697361
 20
9.5633916171
 10
-8.8235925477
 20
9.5611731559
 10
-8.8232855151
 20
9.5585564891
 10
-8.8229532931
 20
9.5555500944
 10
-8.8225995938
 20
9.5521603613
 10
-8.8222274039
 20
9.5483919698
 10
-8.8218390797
 20
9.5442475071
  0
LINE
  5
3EE
100
AcDbEntity
  8
0
100
AcDbLine
 62
7
  6
CONTINUOUS
 10
-11.5057637299
 20
-2.9243841905
 11
-12.0058849995
 21
-3.2747876278
  0
LINE
  5
3EF
100
AcDbEntity
  8
0
100
AcDbLine
 62
7
  6
CONTINUOUS
 10
-8.7449025966
 20
12.4947338663
 11
-8.0999025966
 21
12.4947338663
  0
LINE
  5
3F0
100
AcDbEntity
  8
02___PRT_ALL_AXES
100
AcDbLine
 62
7
  6
CONTINUOUS
 10
-8.7099025966
 20
12.5757444609
 11
-8.6499025966
 21
12.5757444609
  0
LINE
  5
3F1
100
AcDbEntity
  8
02___PRT_ALL_AXES
100
AcDbLine
 62
7
  6
CONTINUOUS
 10
-8.1949025966
 20
12.5757444609
 11
-8.1349025966
 21
12.5757444609
  0
LINE
  5
3F2
100
AcDbEntity
  8
0
100
AcDbLine
 62
7
  6
CONTINUOUS
 10
-8.2859355992
 20
13.0021164691
 11
-8.3324025966
 21
13.0021164691
  0
LINE
  5
3F3
100
AcDbEntity
  8
0
100
AcDbLine
 62
7
  6
CONTINUOUS
 10
-8.5124025966
 20
13.0021164691
 11
-8.5588695941
 21
13.0021164691
  0
LINE
  5
3F4
100
AcDbEntity
  8
0
100
AcDbLine
 62
7
  6
CONTINUOUS
 10
-8.0259506727
 20
12.7246683998
 11
-8.1349025966
 21
12.8710874806
  0
LINE
  5
3F5
100
AcDbEntity
  8
0
100
AcDbLine
 62
7
  6
CONTINUOUS
 10
-8.1949025966
 20
12.9517207043
 11
-8.2119836752
 21
12.9746757448
  0
LINE
  5
3F6
100
AcDbEntity
  8
0
100
AcDbLine
 62
7
  6
CONTINUOUS
 10
0.9449866391
 20
13.4332882943
 11
0.9616293452
 21
13.4443781257
  0
LINE
  5
3F7
100
AcDbEntity
  8
0
100
AcDbLine
 62
7
  6
CONTINUOUS
 10
0.6600936516
 20
13.2254137203
 11
0.5133809453
 21
13.1276520239
  0
LINE
  5
3F8
100
AcDbEntity
  8
0
100
AcDbLine
 62
7
  6
CONTINUOUS
 10
0.7194939892
 20
12.4947338663
 11
1.480932033
 21
13.0021164691
  0
LINE
  5
3F9
100
AcDbEntity
  8
0
100
AcDbLine
 62
7
  6
CONTINUOUS
 10
3.8983494537
 20
-4.9657276273
 11
7.8983494537
 21
-4.9657276273
  0
LINE
  5
3FA
100
AcDbEntity
  8
0
100
AcDbLine
 62
7
  6
CONTINUOUS
 10
10.4908691387
 20
-4.9657276273
 11
10.7408691387
 21
-4.9657276273
  0
LINE
  5
3FB
100
AcDbEntity
  8
06___PRT_ALL_SURFS
100
AcDbLine
 62
7
  6
CONTINUOUS
 10
7.8983494537
 20
-4.4548715107
 11
7.9032399152
 21
-4.4548715107
  0
LINE
  5
3FC
100
AcDbEntity
  8
0
100
AcDbLine
 62
7
  6
CONTINUOUS
 10
2.0381892839
 20
12.0215608326
 11
1.9659683117
 21
11.9734365431
  0
LINE
  5
3FD
100
AcDbEntity
  8
0
100
AcDbLine
 62
7
  6
CONTINUOUS
 10
1.495925482
 20
11.6602245145
 11
1.4098988762
 21
11.6029008708
  0
LINE
  5
3FE
100
AcDbEntity
  8
02___PRT_ALL_AXES
100
AcDbLine
 62
7
  6
CONTINUOUS
 10
1.5403534608
 20
11.4278641564
 11
2.0538040324
 21
11.7700008405
  0
LINE
  5
3FF
100
AcDbEntity
  8
0
100
AcDbLine
 62
7
  6
CONTINUOUS
 10
7.9032399152
 20
-3.4548715107
 11
7.8983494537
 21
-3.4548715107
  0
LINE
  5
400
100
AcDbEntity
  8
0
100
AcDbLine
 62
7
  6
CONTINUOUS
 10
8.495607269
 20
-3.3161213281
 11
7.8983494537
 21
-3.3161213281
  0
LINE
  5
401
100
AcDbEntity
  8
0
100
AcDbLine
 62
7
  6
CONTINUOUS
 10
3.8983494537
 20
-3.3161213281
 11
3.3010916384
 21
-3.3161213281
  0
LINE
  5
402
100
AcDbEntity
  8
0
100
AcDbLine
 62
7
  6
CONTINUOUS
 10
9.9770434615
 20
-2.883050462
 11
7.8983494537
 21
-2.883050462
  0
LINE
  5
403
100
AcDbEntity
  8
0
100
AcDbLine
 62
7
  6
CONTINUOUS
 10
3.8983494537
 20
-2.883050462
 11
1.8196554458
 21
-2.883050462
  0
LINE
  5
404
100
AcDbEntity
  8
0
100
AcDbLine
 62
7
  6
CONTINUOUS
 10
2.6699423819
 20
-2.9243841902
 11
3.1700636121
 21
-3.2747875999
  0
LINE
  5
405
100
AcDbEntity
  8
0
100
AcDbLine
 62
7
  6
CONTINUOUS
 10
3.6602945413
 20
-1.2108167012
 11
3.5504446904
 21
-1.2165621573
  0
LINE
  5
406
100
AcDbEntity
  8
0
100
AcDbLine
 62
7
  6
CONTINUOUS
 10
10.5149608509
 20
-0.9657276273
 11
10.7408691387
 21
-0.9657276273
  0
LINE
  5
407
100
AcDbEntity
  8
0
100
AcDbLine
 62
7
  6
CONTINUOUS
 10
10.6896880364
 20
-0.4657276273
 11
1.107010871
 21
-0.4657276273
  0
LINE
  5
408
100
AcDbEntity
  8
0
100
AcDbLine
 62
7
  6
CONTINUOUS
 10
5.0486203834
 20
-0.3933079203
 11
3.9886328036
 21
-0.3933079203
  0
LINE
  5
409
100
AcDbEntity
  8
0
100
AcDbLine
 62
7
  6
CONTINUOUS
 10
1.0558297686
 20
-0.286593769
 11
4.0357764139
 21
-0.286593769
  0
LINE
  5
40A
100
AcDbEntity
  8
0
100
AcDbLine
 62
7
  6
CONTINUOUS
 10
5.0014618389
 20
-0.286593769
 11
10.7408691387
 21
-0.286593769
  0
LINE
  5
40B
100
AcDbEntity
  8
0
100
AcDbLine
 62
7
  6
CONTINUOUS
 10
4.0357764139
 20
-0.1973079203
 11
5.0014618389
 21
-0.1973079203
  0
LINE
  5
40C
100
AcDbEntity
  8
0
100
AcDbLine
 62
7
  6
CONTINUOUS
 10
5.001469306
 20
-0.1083079203
 11
4.035783881
 21
-0.1083079203
  0
LINE
  5
40D
100
AcDbEntity
  8
0
100
AcDbLine
 62
7
  6
CONTINUOUS
 10
1.2521527145
 20
-0.5426375252
 11
1.3876395186
 21
-2.4801890923
  0
LINE
  5
40E
100
AcDbEntity
  8
0
100
AcDbLine
 62
7
  6
CONTINUOUS
 10
4.7501265935
 20
0.6243054131
 11
4.2871265935
 21
0.6243054131
  0
LINE
  5
40F
100
AcDbEntity
  8
0
100
AcDbLine
 62
7
  6
CONTINUOUS
 10
4.1066006064
 20
-0.1646416596
 11
4.1226974968
 21
-0.1748982745
  0
LINE
  5
410
100
AcDbEntity
  8
0
100
AcDbLine
 62
7
  6
CONTINUOUS
 10
4.1066006064
 20
-0.1346416596
 11
4.1226974968
 21
-0.1448982745
  0
LINE
  5
411
100
AcDbEntity
  8
0
100
AcDbLine
 62
7
  6
CONTINUOUS
 10
4.1123545148
 20
-0.1083079203
 11
4.1226974968
 21
-0.1148982745
  0
LINE
  5
412
100
AcDbEntity
  8
0
100
AcDbLine
 62
7
  6
CONTINUOUS
 10
1.0558297686
 20
-0.286593769
 11
1.0558297686
 21
-0.414546525
  0
LINE
  5
413
100
AcDbEntity
  8
0
100
AcDbLine
 62
7
  6
CONTINUOUS
 10
1.3111689928
 20
0.2968136032
 11
1.2703731752
 21
-0.286593769
  0
LINE
  5
414
100
AcDbEntity
  8
0
100
AcDbLine
 62
7
  6
CONTINUOUS
 10
4.2871265935
 20
0.6243054131
 11
4.0515406973
 21
0.5740470885
  0
LINE
  5
415
100
AcDbEntity
  8
0
100
AcDbLine
 62
7
  6
CONTINUOUS
 10
4.7501265935
 20
0.6243054131
 11
4.9857129581
 21
0.5740469886
  0
LINE
  5
416
100
AcDbEntity
  8
0
100
AcDbLine
 62
7
  6
CONTINUOUS
 10
4.9306525806
 20
-0.1794680071
 11
4.9145556903
 21
-0.1692113922
  0
LINE
  5
417
100
AcDbEntity
  8
0
100
AcDbLine
 62
7
  6
CONTINUOUS
 10
4.9306525806
 20
-0.1494680071
 11
4.9145556903
 21
-0.1392113922
  0
LINE
  5
418
100
AcDbEntity
  8
0
100
AcDbLine
 62
7
  6
CONTINUOUS
 10
4.9306525806
 20
-0.1194680071
 11
4.9145556903
 21
-0.1092113922
  0
LINE
  5
419
100
AcDbEntity
  8
0
100
AcDbLine
 62
7
  6
CONTINUOUS
 10
4.1226974968
 20
-0.1748982745
 11
4.1226265935
 21
-0.1748079203
  0
LINE
  5
41A
100
AcDbEntity
  8
0
100
AcDbLine
 62
7
  6
CONTINUOUS
 10
4.1226974968
 20
-0.1448982745
 11
4.1226265935
 21
-0.1448079203
  0
LINE
  5
41B
100
AcDbEntity
  8
0
100
AcDbLine
 62
7
  6
CONTINUOUS
 10
4.1226974968
 20
-0.1148982745
 11
4.1226265935
 21
-0.1148079203
  0
LINE
  5
41C
100
AcDbEntity
  8
0
100
AcDbLine
 62
7
  6
CONTINUOUS
 10
4.9146265935
 20
-0.1693017464
 11
4.9145556903
 21
-0.1692113922
  0
LINE
  5
41D
100
AcDbEntity
  8
0
100
AcDbLine
 62
7
  6
CONTINUOUS
 10
4.9146265935
 20
-0.1393017464
 11
4.9145556903
 21
-0.1392113922
  0
LINE
  5
41E
100
AcDbEntity
  8
0
100
AcDbLine
 62
7
  6
CONTINUOUS
 10
4.9146265935
 20
-0.1093017464
 11
4.9145556903
 21
-0.1092113922
  0
LINE
  5
41F
100
AcDbEntity
  8
0
100
AcDbLine
 62
7
  6
CONTINUOUS
 10
3.8983494537
 20
-0.4657276273
 11
3.8983494537
 21
-4.9657276273
  0
LINE
  5
420
100
AcDbEntity
  8
06___PRT_ALL_SURFS
100
AcDbLine
 62
7
  6
CONTINUOUS
 10
3.9117256832
 20
3.9550050586
 11
3.9117256832
 21
2.9550050586
  0
LINE
  5
421
100
AcDbEntity
  8
0
100
AcDbLine
 62
7
  6
CONTINUOUS
 10
7.9117256832
 20
2.9550050586
 11
7.8917256832
 21
2.9550050586
  0
LINE
  5
422
100
AcDbEntity
  8
0
100
AcDbLine
 62
7
  6
CONTINUOUS
 10
3.9117256832
 20
2.9550050586
 11
3.9317256832
 21
2.9550050586
  0
LINE
  5
423
100
AcDbEntity
  8
0
100
AcDbLine
 62
7
  6
CONTINUOUS
 10
3.9278533907
 20
2.9550050586
 11
3.9278533907
 21
2.9232402642
  0
LINE
  5
424
100
AcDbEntity
  8
0
100
AcDbLine
 62
7
  6
CONTINUOUS
 10
3.9317256832
 20
3.9350050586
 11
3.9317256832
 21
2.9550050586
  0
LINE
  5
425
100
AcDbEntity
  8
0
100
AcDbLine
 62
7
  6
CONTINUOUS
 10
3.9886265935
 20
-0.3933079203
 11
3.9886265935
 21
-0.4657276273
  0
LINE
  5
426
100
AcDbEntity
  8
0
100
AcDbLine
 62
7
  6
CONTINUOUS
 10
4.0117256832
 20
3.9550050586
 11
4.0117256832
 21
3.9650050586
  0
LINE
  5
427
100
AcDbEntity
  8
0
100
AcDbLine
 62
7
  6
CONTINUOUS
 10
4.0163090166
 20
3.9550050586
 11
4.0163090166
 21
3.9650050586
  0
LINE
  5
428
100
AcDbEntity
  8
0
100
AcDbLine
 62
7
  6
CONTINUOUS
 10
4.0254756832
 20
3.9550050586
 11
4.0254756832
 21
3.9650050586
  0
LINE
  5
429
100
AcDbEntity
  8
0
100
AcDbLine
 62
7
  6
CONTINUOUS
 10
4.0357764139
 20
-0.1973079203
 11
4.0357764139
 21
-0.3933079203
  0
LINE
  5
42A
100
AcDbEntity
  8
0
100
AcDbLine
 62
7
  6
CONTINUOUS
 10
4.035783881
 20
-0.1083079203
 11
4.035783881
 21
0.5545014714
  0
LINE
  5
42B
100
AcDbEntity
  8
0
100
AcDbLine
 62
7
  6
CONTINUOUS
 10
4.0438090154
 20
3.9550050586
 11
4.0438090154
 21
3.9650050586
  0
LINE
  5
42C
100
AcDbEntity
  8
0
100
AcDbLine
 62
7
  6
CONTINUOUS
 10
4.0499185496
 20
-0.1973079203
 11
4.0499185496
 21
-0.3933079203
  0
LINE
  5
42D
100
AcDbEntity
  8
0
100
AcDbLine
 62
7
  6
CONTINUOUS
 10
4.0621423509
 20
3.9550050586
 11
4.0621423509
 21
3.9650050586
  0
LINE
  5
42E
100
AcDbEntity
  8
0
100
AcDbLine
 62
7
  6
CONTINUOUS
 10
4.0850590187
 20
3.9550050586
 11
4.0850590187
 21
3.9650050586
  0
LINE
  5
42F
100
AcDbEntity
  8
0
100
AcDbLine
 62
7
  6
CONTINUOUS
 10
4.1066006064
 20
-0.1646416596
 11
4.1066006064
 21
-0.1644680071
  0
LINE
  5
430
100
AcDbEntity
  8
0
100
AcDbLine
 62
7
  6
CONTINUOUS
 10
4.1066006064
 20
-0.1346416596
 11
4.1066006064
 21
-0.1344680071
  0
LINE
  5
431
100
AcDbEntity
  8
02___PRT_ALL_AXES
100
AcDbLine
 62
7
  6
CONTINUOUS
 10
4.1231265935
 20
-0.1973079203
 11
4.1231265935
 21
-0.1748079203
  0
LINE
  5
432
100
AcDbEntity
  8
02___PRT_ALL_AXES
100
AcDbLine
 62
7
  6
CONTINUOUS
 10
4.1231265935
 20
-0.1543017464
 11
4.1231265935
 21
-0.1448079203
  0
LINE
  5
433
100
AcDbEntity
  8
02___PRT_ALL_AXES
100
AcDbLine
 62
7
  6
CONTINUOUS
 10
4.1231265935
 20
-0.1243017464
 11
4.1231265935
 21
-0.1148079203
  0
LINE
  5
434
100
AcDbEntity
  8
0
100
AcDbLine
 62
7
  6
CONTINUOUS
 10
4.1263090121
 20
3.9550050586
 11
4.1263090121
 21
3.9650050586
  0
LINE
  5
435
100
AcDbEntity
  8
0
100
AcDbLine
 62
7
  6
CONTINUOUS
 10
4.1492256832
 20
3.9550050586
 11
4.1492256832
 21
3.9650050586
  0
LINE
  5
436
100
AcDbEntity
  8
0
100
AcDbLine
 62
7
  6
CONTINUOUS
 10
4.1675590121
 20
3.9550050586
 11
4.1675590121
 21
3.9650050586
  0
LINE
  5
437
100
AcDbEntity
  8
0
100
AcDbLine
 62
7
  6
CONTINUOUS
 10
4.1858923542
 20
3.9550050586
 11
4.1858923542
 21
3.9650050586
  0
LINE
  5
438
100
AcDbEntity
  8
0
100
AcDbLine
 62
7
  6
CONTINUOUS
 10
4.1904756832
 20
3.9550050586
 11
4.1904756832
 21
3.9650050586
  0
LINE
  5
439
100
AcDbEntity
  8
0
100
AcDbLine
 62
7
  6
CONTINUOUS
 10
4.2271423542
 20
3.9550050586
 11
4.2271423542
 21
3.9650050586
  0
LINE
  5
43A
100
AcDbEntity
  8
0
100
AcDbLine
 62
7
  6
CONTINUOUS
 10
4.2546423411
 20
3.9550050586
 11
4.2546423411
 21
3.9650050586
  0
LINE
  5
43B
100
AcDbEntity
  8
0
100
AcDbLine
 62
7
  6
CONTINUOUS
 10
4.2729756832
 20
3.9550050586
 11
4.2729756832
 21
3.9650050586
  0
LINE
  5
43C
100
AcDbEntity
  8
0
100
AcDbLine
 62
7
  6
CONTINUOUS
 10
4.3044769908
 20
-0.1973079203
 11
4.3044769908
 21
-0.3933079203
  0
LINE
  5
43D
100
AcDbEntity
  8
0
100
AcDbLine
 62
7
  6
CONTINUOUS
 10
4.3386191264
 20
-0.1973079203
 11
4.3386191264
 21
-0.3933079203
  0
LINE
  5
43E
100
AcDbEntity
  8
0
100
AcDbLine
 62
7
  6
CONTINUOUS
 10
4.3646423411
 20
3.9550050586
 11
4.3646423411
 21
3.9650050586
  0
LINE
  5
43F
100
AcDbEntity
  8
02___PRT_ALL_AXES
100
AcDbLine
 62
7
  6
CONTINUOUS
 10
4.3711265935
 20
5.2765205746
 11
4.3711265935
 21
0.6243054131
  0
LINE
  5
440
100
AcDbEntity
  8
0
100
AcDbLine
 62
7
  6
CONTINUOUS
 10
4.5186265935
 20
-0.1768017464
 11
4.5186265935
 21
-0.1973079203
  0
LINE
  5
441
100
AcDbEntity
  8
0
100
AcDbLine
 62
7
  6
CONTINUOUS
 10
4.3711265935
 20
3.9347684357
 11
3.977257841
 21
3.9347684357
  0
LINE
  5
442
100
AcDbEntity
  8
0
100
AcDbLine
 62
7
  6
CONTINUOUS
 10
4.6661265935
 20
3.9347684357
 11
7.8194410663
 21
3.9347684357
  0
LINE
  5
443
100
AcDbEntity
  8
0
100
AcDbLine
 62
7
  6
CONTINUOUS
 10
7.8917256832
 20
3.9350050586
 11
7.868822428
 21
3.9350050586
  0
LINE
  5
444
100
AcDbEntity
  8
06___PRT_ALL_SURFS
100
AcDbLine
 62
7
  6
CONTINUOUS
 10
7.9117256832
 20
3.9550050586
 11
4.6661265935
 21
3.9550050586
  0
LINE
  5
445
100
AcDbEntity
  8
06___PRT_ALL_SURFS
100
AcDbLine
 62
7
  6
CONTINUOUS
 10
4.3711265935
 20
3.9550050586
 11
3.9117256832
 21
3.9550050586
  0
LINE
  5
446
100
AcDbEntity
  8
0
100
AcDbLine
 62
7
  6
CONTINUOUS
 10
4.0117256832
 20
3.9650050586
 11
4.1904756832
 21
3.9650050586
  0
LINE
  5
447
100
AcDbEntity
  8
0
100
AcDbLine
 62
7
  6
CONTINUOUS
 10
4.2271423542
 20
3.9650050586
 11
4.3711265935
 21
3.9650050586
  0
LINE
  5
448
100
AcDbEntity
  8
0
100
AcDbLine
 62
7
  6
CONTINUOUS
 10
4.6661265935
 20
3.9650050586
 11
4.8229756832
 21
3.9650050586
  0
LINE
  5
449
100
AcDbEntity
  8
0
100
AcDbLine
 62
7
  6
CONTINUOUS
 10
4.8596423673
 20
3.9650050586
 11
4.8871423673
 21
3.9650050586
  0
LINE
  5
44A
100
AcDbEntity
  8
0
100
AcDbLine
 62
7
  6
CONTINUOUS
 10
4.9238090515
 20
3.9650050586
 11
5.1071423149
 21
3.9650050586
  0
LINE
  5
44B
100
AcDbEntity
  8
0
100
AcDbLine
 62
7
  6
CONTINUOUS
 10
5.1438090515
 20
3.9650050586
 11
5.3271423149
 21
3.9650050586
  0
LINE
  5
44C
100
AcDbEntity
  8
0
100
AcDbLine
 62
7
  6
CONTINUOUS
 10
5.3638090515
 20
3.9650050586
 11
5.3867256832
 21
3.9650050586
  0
LINE
  5
44D
100
AcDbEntity
  8
0
100
AcDbLine
 62
7
  6
CONTINUOUS
 10
5.6433923149
 20
3.9650050586
 11
5.8129756832
 21
3.9650050586
  0
LINE
  5
44E
100
AcDbEntity
  8
0
100
AcDbLine
 62
7
  6
CONTINUOUS
 10
5.8496424198
 20
3.9650050586
 11
6.0329756832
 21
3.9650050586
  0
LINE
  5
44F
100
AcDbEntity
  8
0
100
AcDbLine
 62
7
  6
CONTINUOUS
 10
6.0696424198
 20
3.9650050586
 11
6.2529756832
 21
3.9650050586
  0
LINE
  5
450
100
AcDbEntity
  8
0
100
AcDbLine
 62
7
  6
CONTINUOUS
 10
6.2896424198
 20
3.9650050586
 11
6.4638089466
 21
3.9650050586
  0
LINE
  5
451
100
AcDbEntity
  8
0
100
AcDbLine
 62
7
  6
CONTINUOUS
 10
6.5004756832
 20
3.9650050586
 11
6.6700589466
 21
3.9650050586
  0
LINE
  5
452
100
AcDbEntity
  8
0
100
AcDbLine
 62
7
  6
CONTINUOUS
 10
6.9267256832
 20
3.9650050586
 11
7.0917256832
 21
3.9650050586
  0
LINE
  5
453
100
AcDbEntity
  8
0
100
AcDbLine
 62
7
  6
CONTINUOUS
 10
7.1283924198
 20
3.9650050586
 11
7.3117256832
 21
3.9650050586
  0
LINE
  5
454
100
AcDbEntity
  8
0
100
AcDbLine
 62
7
  6
CONTINUOUS
 10
7.3483924198
 20
3.9650050586
 11
7.5271424198
 21
3.9650050586
  0
LINE
  5
455
100
AcDbEntity
  8
0
100
AcDbLine
 62
7
  6
CONTINUOUS
 10
7.5638091564
 20
3.9650050586
 11
7.7288091564
 21
3.9650050586
  0
LINE
  5
456
100
AcDbEntity
  8
02___PRT_ALL_AXES
100
AcDbLine
 62
7
  6
CONTINUOUS
 10
4.6661265935
 20
6.6066920797
 11
4.6661265935
 21
0.6243054131
  0
LINE
  5
457
100
AcDbEntity
  8
0
100
AcDbLine
 62
7
  6
CONTINUOUS
 10
4.6986191264
 20
-0.1973079203
 11
4.6986191264
 21
-0.3933079203
  0
LINE
  5
458
100
AcDbEntity
  8
0
100
AcDbLine
 62
7
  6
CONTINUOUS
 10
4.7221423673
 20
3.9550050586
 11
4.7221423673
 21
3.9650050586
  0
LINE
  5
459
100
AcDbEntity
  8
0
100
AcDbLine
 62
7
  6
CONTINUOUS
 10
4.732761262
 20
-0.1973079203
 11
4.732761262
 21
-0.3933079203
  0
LINE
  5
45A
100
AcDbEntity
  8
0
100
AcDbLine
 62
7
  6
CONTINUOUS
 10
4.7496423673
 20
3.9550050586
 11
4.7496423673
 21
3.9650050586
  0
LINE
  5
45B
100
AcDbEntity
  8
0
100
AcDbLine
 62
7
  6
CONTINUOUS
 10
4.8229756832
 20
3.9550050586
 11
4.8229756832
 21
3.9650050586
  0
LINE
  5
45C
100
AcDbEntity
  8
0
100
AcDbLine
 62
7
  6
CONTINUOUS
 10
4.8596423673
 20
3.9550050586
 11
4.8596423673
 21
3.9650050586
  0
LINE
  5
45D
100
AcDbEntity
  8
0
100
AcDbLine
 62
7
  6
CONTINUOUS
 10
4.8871423673
 20
3.9550050586
 11
4.8871423673
 21
3.9650050586
  0
LINE
  5
45E
100
AcDbEntity
  8
02___PRT_ALL_AXES
100
AcDbLine
 62
7
  6
CONTINUOUS
 10
4.9141265935
 20
-0.1973079203
 11
4.9141265935
 21
-0.1898982745
  0
LINE
  5
45F
100
AcDbEntity
  8
02___PRT_ALL_AXES
100
AcDbLine
 62
7
  6
CONTINUOUS
 10
4.9141265935
 20
-0.1694775519
 11
4.9141265935
 21
-0.1598982745
  0
LINE
  5
460
100
AcDbEntity
  8
02___PRT_ALL_AXES
100
AcDbLine
 62
7
  6
CONTINUOUS
 10
4.9141265935
 20
-0.1395196383
 11
4.9141265935
 21
-0.1298982745
  0
LINE
  5
461
100
AcDbEntity
  8
02___PRT_ALL_AXES
100
AcDbLine
 62
7
  6
CONTINUOUS
 10
4.9141265935
 20
-0.1092113922
 11
4.9141265935
 21
-0.1083079203
  0
LINE
  5
462
100
AcDbEntity
  8
0
100
AcDbLine
 62
7
  6
CONTINUOUS
 10
4.9238090515
 20
3.9550050586
 11
4.9238090515
 21
3.9650050586
  0
LINE
  5
463
100
AcDbEntity
  8
0
100
AcDbLine
 62
7
  6
CONTINUOUS
 10
4.9283923149
 20
3.9550050586
 11
4.9283923149
 21
3.9650050586
  0
LINE
  5
464
100
AcDbEntity
  8
0
100
AcDbLine
 62
7
  6
CONTINUOUS
 10
4.9306525806
 20
-0.1796416596
 11
4.9306525806
 21
-0.1794680071
  0
LINE
  5
465
100
AcDbEntity
  8
0
100
AcDbLine
 62
7
  6
CONTINUOUS
 10
4.9306525806
 20
-0.1196416596
 11
4.9306525806
 21
-0.1194680071
  0
LINE
  5
466
100
AcDbEntity
  8
0
100
AcDbLine
 62
7
  6
CONTINUOUS
 10
4.9375590515
 20
3.9550050586
 11
4.9375590515
 21
3.9650050586
  0
LINE
  5
467
100
AcDbEntity
  8
0
100
AcDbLine
 62
7
  6
CONTINUOUS
 10
4.9558923149
 20
3.9550050586
 11
4.9558923149
 21
3.9650050586
  0
LINE
  5
468
100
AcDbEntity
  8
0
100
AcDbLine
 62
7
  6
CONTINUOUS
 10
4.9742256832
 20
3.9550050586
 11
4.9742256832
 21
3.9650050586
  0
LINE
  5
469
100
AcDbEntity
  8
0
100
AcDbLine
 62
7
  6
CONTINUOUS
 10
4.9873197033
 20
-0.1973079203
 11
4.9873197033
 21
-0.3933079203
  0
LINE
  5
46A
100
AcDbEntity
  8
0
100
AcDbLine
 62
7
  6
CONTINUOUS
 10
4.9971423149
 20
3.9550050586
 11
4.9971423149
 21
3.9650050586
  0
LINE
  5
46B
100
AcDbEntity
  8
0
100
AcDbLine
 62
7
  6
CONTINUOUS
 10
5.0014618389
 20
-0.1973079203
 11
5.0014618389
 21
-0.3933079203
  0
LINE
  5
46C
100
AcDbEntity
  8
0
100
AcDbLine
 62
7
  6
CONTINUOUS
 10
5.001469306
 20
-0.1083079203
 11
5.001469306
 21
0.5545014591
  0
LINE
  5
46D
100
AcDbEntity
  8
0
100
AcDbLine
 62
7
  6
CONTINUOUS
 10
5.0338090515
 20
3.9550050586
 11
5.0338090515
 21
3.9650050586
  0
LINE
  5
46E
100
AcDbEntity
  8
0
100
AcDbLine
 62
7
  6
CONTINUOUS
 10
5.0486265935
 20
-0.3933079203
 11
5.0486265935
 21
-0.4657276273
  0
LINE
  5
46F
100
AcDbEntity
  8
0
100
AcDbLine
 62
7
  6
CONTINUOUS
 10
5.0567256832
 20
3.9550050586
 11
5.0567256832
 21
3.9650050586
  0
LINE
  5
470
100
AcDbEntity
  8
0
100
AcDbLine
 62
7
  6
CONTINUOUS
 10
5.0750590515
 20
3.9550050586
 11
5.0750590515
 21
3.9650050586
  0
LINE
  5
471
100
AcDbEntity
  8
0
100
AcDbLine
 62
7
  6
CONTINUOUS
 10
5.0933923149
 20
3.9550050586
 11
5.0933923149
 21
3.9650050586
  0
LINE
  5
472
100
AcDbEntity
  8
0
100
AcDbLine
 62
7
  6
CONTINUOUS
 10
5.1025590515
 20
3.9550050586
 11
5.1025590515
 21
3.9650050586
  0
LINE
  5
473
100
AcDbEntity
  8
0
100
AcDbLine
 62
7
  6
CONTINUOUS
 10
5.1071423149
 20
3.9550050586
 11
5.1071423149
 21
3.9650050586
  0
LINE
  5
474
100
AcDbEntity
  8
0
100
AcDbLine
 62
7
  6
CONTINUOUS
 10
5.1438090515
 20
3.9550050586
 11
5.1438090515
 21
3.9650050586
  0
LINE
  5
475
100
AcDbEntity
  8
0
100
AcDbLine
 62
7
  6
CONTINUOUS
 10
5.1713090515
 20
3.9550050586
 11
5.1713090515
 21
3.9650050586
  0
LINE
  5
476
100
AcDbEntity
  8
0
100
AcDbLine
 62
7
  6
CONTINUOUS
 10
5.2858923149
 20
3.9550050586
 11
5.2858923149
 21
3.9650050586
  0
LINE
  5
477
100
AcDbEntity
  8
0
100
AcDbLine
 62
7
  6
CONTINUOUS
 10
5.3271423149
 20
3.9550050586
 11
5.3271423149
 21
3.9650050586
  0
LINE
  5
478
100
AcDbEntity
  8
0
100
AcDbLine
 62
7
  6
CONTINUOUS
 10
5.3638090515
 20
3.9550050586
 11
5.3638090515
 21
3.9650050586
  0
LINE
  5
479
100
AcDbEntity
  8
0
100
AcDbLine
 62
7
  6
CONTINUOUS
 10
5.3867256832
 20
3.9550050586
 11
5.3867256832
 21
3.9650050586
  0
LINE
  5
47A
100
AcDbEntity
  8
0
100
AcDbLine
 62
7
  6
CONTINUOUS
 10
3.8845766243
 20
2.8212865917
 11
1.3445601701
 21
0.368421214
  0
LINE
  5
47B
100
AcDbEntity
  8
0
100
AcDbLine
 62
7
  6
CONTINUOUS
 10
5.6433923149
 20
3.9550050586
 11
5.6433923149
 21
3.9650050586
  0
LINE
  5
47C
100
AcDbEntity
  8
0
100
AcDbLine
 62
7
  6
CONTINUOUS
 10
5.6479756832
 20
3.9550050586
 11
5.6479756832
 21
3.9650050586
  0
LINE
  5
47D
100
AcDbEntity
  8
0
100
AcDbLine
 62
7
  6
CONTINUOUS
 10
5.6617256832
 20
3.9550050586
 11
5.6617256832
 21
3.9650050586
  0
LINE
  5
47E
100
AcDbEntity
  8
0
100
AcDbLine
 62
7
  6
CONTINUOUS
 10
5.6846423149
 20
3.9550050586
 11
5.6846423149
 21
3.9650050586
  0
LINE
  5
47F
100
AcDbEntity
  8
0
100
AcDbLine
 62
7
  6
CONTINUOUS
 10
5.7075590515
 20
3.9550050586
 11
5.7075590515
 21
3.9650050586
  0
LINE
  5
480
100
AcDbEntity
  8
0
100
AcDbLine
 62
7
  6
CONTINUOUS
 10
5.7442256832
 20
3.9550050586
 11
5.7442256832
 21
3.9650050586
  0
LINE
  5
481
100
AcDbEntity
  8
0
100
AcDbLine
 62
7
  6
CONTINUOUS
 10
5.7671423149
 20
3.9550050586
 11
5.7671423149
 21
3.9650050586
  0
LINE
  5
482
100
AcDbEntity
  8
0
100
AcDbLine
 62
7
  6
CONTINUOUS
 10
5.7854756832
 20
3.9550050586
 11
5.7854756832
 21
3.9650050586
  0
LINE
  5
483
100
AcDbEntity
  8
0
100
AcDbLine
 62
7
  6
CONTINUOUS
 10
5.8038089466
 20
3.9550050586
 11
5.8038089466
 21
3.9650050586
  0
LINE
  5
484
100
AcDbEntity
  8
0
100
AcDbLine
 62
7
  6
CONTINUOUS
 10
5.8129756832
 20
3.9550050586
 11
5.8129756832
 21
3.9650050586
  0
LINE
  5
485
100
AcDbEntity
  8
0
100
AcDbLine
 62
7
  6
CONTINUOUS
 10
5.8496424198
 20
3.9550050586
 11
5.8496424198
 21
3.9650050586
  0
LINE
  5
486
100
AcDbEntity
  8
0
100
AcDbLine
 62
7
  6
CONTINUOUS
 10
5.8771424198
 20
3.9550050586
 11
5.8771424198
 21
3.9650050586
  0
LINE
  5
487
100
AcDbEntity
  8
0
100
AcDbLine
 62
7
  6
CONTINUOUS
 10
6.0054756832
 20
3.9550050586
 11
6.0054756832
 21
3.9650050586
  0
LINE
  5
488
100
AcDbEntity
  8
0
100
AcDbLine
 62
7
  6
CONTINUOUS
 10
6.0329756832
 20
3.9550050586
 11
6.0329756832
 21
3.9650050586
  0
LINE
  5
489
100
AcDbEntity
  8
0
100
AcDbLine
 62
7
  6
CONTINUOUS
 10
6.0696424198
 20
3.9550050586
 11
6.0696424198
 21
3.9650050586
  0
LINE
  5
48A
100
AcDbEntity
  8
0
100
AcDbLine
 62
7
  6
CONTINUOUS
 10
6.0971424198
 20
3.9550050586
 11
6.0971424198
 21
3.9650050586
  0
LINE
  5
48B
100
AcDbEntity
  8
0
100
AcDbLine
 62
7
  6
CONTINUOUS
 10
6.1154756832
 20
3.9550050586
 11
6.1154756832
 21
3.9650050586
  0
LINE
  5
48C
100
AcDbEntity
  8
0
100
AcDbLine
 62
7
  6
CONTINUOUS
 10
7.9121222831
 20
2.8212865917
 11
10.4521387373
 21
0.368421214
  0
LINE
  5
48D
100
AcDbEntity
  8
0
100
AcDbLine
 62
7
  6
CONTINUOUS
 10
0.7194939892
 20
12.4947338663
 11
1.2989637378
 21
11.6251133683
  0
LINE
  5
48E
100
AcDbEntity
  8
02___PRT_ALL_AXES
100
AcDbLine
 62
7
  6
CONTINUOUS
 10
1.5403534608
 20
11.4278641564
 11
1.4552879472
 21
11.5555234769
  0
LINE
  5
48F
100
AcDbEntity
  8
0
100
AcDbLine
 62
7
  6
CONTINUOUS
 10
0.841068021
 20
12.5757444609
 11
0.5216665137
 21
13.0550759507
  0
LINE
  5
490
100
AcDbEntity
  8
0
100
AcDbLine
 62
7
  6
CONTINUOUS
 10
6.2071424198
 20
3.9550050586
 11
6.2071424198
 21
3.9650050586
  0
LINE
  5
491
100
AcDbEntity
  8
0
100
AcDbLine
 62
7
  6
CONTINUOUS
 10
6.2254756832
 20
3.9550050586
 11
6.2254756832
 21
3.9650050586
  0
LINE
  5
492
100
AcDbEntity
  8
0
100
AcDbLine
 62
7
  6
CONTINUOUS
 10
6.2529756832
 20
3.9550050586
 11
6.2529756832
 21
3.9650050586
  0
LINE
  5
493
100
AcDbEntity
  8
0
100
AcDbLine
 62
7
  6
CONTINUOUS
 10
6.2896424198
 20
3.9550050586
 11
6.2896424198
 21
3.9650050586
  0
LINE
  5
494
100
AcDbEntity
  8
0
100
AcDbLine
 62
7
  6
CONTINUOUS
 10
6.3171424198
 20
3.9550050586
 11
6.3171424198
 21
3.9650050586
  0
LINE
  5
495
100
AcDbEntity
  8
0
100
AcDbLine
 62
7
  6
CONTINUOUS
 10
6.3950589466
 20
3.9550050586
 11
6.3950589466
 21
3.9650050586
  0
LINE
  5
496
100
AcDbEntity
  8
0
100
AcDbLine
 62
7
  6
CONTINUOUS
 10
6.4317256832
 20
3.9550050586
 11
6.4317256832
 21
3.9650050586
  0
LINE
  5
497
100
AcDbEntity
  8
0
100
AcDbLine
 62
7
  6
CONTINUOUS
 10
6.4638089466
 20
3.9550050586
 11
6.4638089466
 21
3.9650050586
  0
LINE
  5
498
100
AcDbEntity
  8
0
100
AcDbLine
 62
7
  6
CONTINUOUS
 10
6.5004756832
 20
3.9550050586
 11
6.5004756832
 21
3.9650050586
  0
LINE
  5
499
100
AcDbEntity
  8
0
100
AcDbLine
 62
7
  6
CONTINUOUS
 10
6.5279756832
 20
3.9550050586
 11
6.5279756832
 21
3.9650050586
  0
LINE
  5
49A
100
AcDbEntity
  8
0
100
AcDbLine
 62
7
  6
CONTINUOUS
 10
6.6104756832
 20
3.9550050586
 11
6.6104756832
 21
3.9650050586
  0
LINE
  5
49B
100
AcDbEntity
  8
0
100
AcDbLine
 62
7
  6
CONTINUOUS
 10
6.6333924198
 20
3.9550050586
 11
6.6333924198
 21
3.9650050586
  0
LINE
  5
49C
100
AcDbEntity
  8
0
100
AcDbLine
 62
7
  6
CONTINUOUS
 10
6.6517256832
 20
3.9550050586
 11
6.6517256832
 21
3.9650050586
  0
LINE
  5
49D
100
AcDbEntity
  8
0
100
AcDbLine
 62
7
  6
CONTINUOUS
 10
6.6654756832
 20
3.9550050586
 11
6.6654756832
 21
3.9650050586
  0
LINE
  5
49E
100
AcDbEntity
  8
0
100
AcDbLine
 62
7
  6
CONTINUOUS
 10
6.6700589466
 20
3.9550050586
 11
6.6700589466
 21
3.9650050586
  0
LINE
  5
49F
100
AcDbEntity
  8
02___PRT_ALL_AXES
100
AcDbLine
 62
7
  6
CONTINUOUS
 10
3.8923992926
 20
8.1884504124
 11
1.6743332696
 21
11.5171413139
  0
LINE
  5
4A0
100
AcDbEntity
  8
0
100
AcDbLine
 62
7
  6
CONTINUOUS
 10
1.0432859932
 20
12.7104919718
 11
0.7238844859
 21
13.1898234616
  0
LINE
  5
4A1
100
AcDbEntity
  8
02___PRT_ALL_AXES
100
AcDbLine
 62
7
  6
CONTINUOUS
 10
4.1378902466
 20
8.3520327816
 11
1.9198242236
 21
11.6807236831
  0
LINE
  5
4A2
100
AcDbEntity
  8
02___PRT_ALL_AXES
100
AcDbLine
 62
7
  6
CONTINUOUS
 10
1.2421752746
 20
12.8430214167
 11
0.9227737673
 21
13.3223529065
  0
LINE
  5
4A3
100
AcDbEntity
  8
02___PRT_ALL_AXES
100
AcDbLine
 62
7
  6
CONTINUOUS
 10
2.0538040324
 20
11.7700008405
 11
1.9772807546
 21
11.8848406766
  0
LINE
  5
4A4
100
AcDbEntity
  8
02___PRT_ALL_AXES
100
AcDbLine
 62
7
  6
CONTINUOUS
 10
1.3919663652
 20
12.9428343877
 11
1.0725648578
 21
13.4221658775
  0
LINE
  5
4A5
100
AcDbEntity
  8
0
100
AcDbLine
 62
7
  6
CONTINUOUS
 10
1.480932033
 20
13.0021164691
 11
2.0604017815
 21
12.1324959711
  0
LINE
  5
4A6
100
AcDbEntity
  8
0
100
AcDbLine
 62
7
  6
CONTINUOUS
 10
6.9267256832
 20
3.9550050586
 11
6.9267256832
 21
3.9650050586
  0
LINE
  5
4A7
100
AcDbEntity
  8
0
100
AcDbLine
 62
7
  6
CONTINUOUS
 10
7.0917256832
 20
3.9550050586
 11
7.0917256832
 21
3.9650050586
  0
LINE
  5
4A8
100
AcDbEntity
  8
0
100
AcDbLine
 62
7
  6
CONTINUOUS
 10
7.1283924198
 20
3.9550050586
 11
7.1283924198
 21
3.9650050586
  0
LINE
  5
4A9
100
AcDbEntity
  8
0
100
AcDbLine
 62
7
  6
CONTINUOUS
 10
7.2383924198
 20
3.9550050586
 11
7.2383924198
 21
3.9650050586
  0
LINE
  5
4AA
100
AcDbEntity
  8
0
100
AcDbLine
 62
7
  6
CONTINUOUS
 10
7.2613089466
 20
3.9550050586
 11
7.2613089466
 21
3.9650050586
  0
LINE
  5
4AB
100
AcDbEntity
  8
0
100
AcDbLine
 62
7
  6
CONTINUOUS
 10
7.2796424198
 20
3.9550050586
 11
7.2796424198
 21
3.9650050586
  0
LINE
  5
4AC
100
AcDbEntity
  8
0
100
AcDbLine
 62
7
  6
CONTINUOUS
 10
7.2979756832
 20
3.9550050586
 11
7.2979756832
 21
3.9650050586
  0
LINE
  5
4AD
100
AcDbEntity
  8
0
100
AcDbLine
 62
7
  6
CONTINUOUS
 10
7.3071424198
 20
3.9550050586
 11
7.3071424198
 21
3.9650050586
  0
LINE
  5
4AE
100
AcDbEntity
  8
0
100
AcDbLine
 62
7
  6
CONTINUOUS
 10
7.3117256832
 20
3.9550050586
 11
7.3117256832
 21
3.9650050586
  0
LINE
  5
4AF
100
AcDbEntity
  8
0
100
AcDbLine
 62
7
  6
CONTINUOUS
 10
7.3483924198
 20
3.9550050586
 11
7.3483924198
 21
3.9650050586
  0
LINE
  5
4B0
100
AcDbEntity
  8
0
100
AcDbLine
 62
7
  6
CONTINUOUS
 10
7.3529756832
 20
3.9550050586
 11
7.3529756832
 21
3.9650050586
  0
LINE
  5
4B1
100
AcDbEntity
  8
0
100
AcDbLine
 62
7
  6
CONTINUOUS
 10
7.3621424198
 20
3.9550050586
 11
7.3621424198
 21
3.9650050586
  0
LINE
  5
4B2
100
AcDbEntity
  8
0
100
AcDbLine
 62
7
  6
CONTINUOUS
 10
7.3804756832
 20
3.9550050586
 11
7.3804756832
 21
3.9650050586
  0
LINE
  5
4B3
100
AcDbEntity
  8
0
100
AcDbLine
 62
7
  6
CONTINUOUS
 10
7.3988089466
 20
3.9550050586
 11
7.3988089466
 21
3.9650050586
  0
LINE
  5
4B4
100
AcDbEntity
  8
0
100
AcDbLine
 62
7
  6
CONTINUOUS
 10
7.4217256832
 20
3.9550050586
 11
7.4217256832
 21
3.9650050586
  0
LINE
  5
4B5
100
AcDbEntity
  8
0
100
AcDbLine
 62
7
  6
CONTINUOUS
 10
7.4629756832
 20
3.9550050586
 11
7.4629756832
 21
3.9650050586
  0
LINE
  5
4B6
100
AcDbEntity
  8
0
100
AcDbLine
 62
7
  6
CONTINUOUS
 10
7.4858924198
 20
3.9550050586
 11
7.4858924198
 21
3.9650050586
  0
LINE
  5
4B7
100
AcDbEntity
  8
0
100
AcDbLine
 62
7
  6
CONTINUOUS
 10
7.5042256832
 20
3.9550050586
 11
7.5042256832
 21
3.9650050586
  0
LINE
  5
4B8
100
AcDbEntity
  8
0
100
AcDbLine
 62
7
  6
CONTINUOUS
 10
7.5225589466
 20
3.9550050586
 11
7.5225589466
 21
3.9650050586
  0
LINE
  5
4B9
100
AcDbEntity
  8
0
100
AcDbLine
 62
7
  6
CONTINUOUS
 10
7.5271424198
 20
3.9550050586
 11
7.5271424198
 21
3.9650050586
  0
LINE
  5
4BA
100
AcDbEntity
  8
0
100
AcDbLine
 62
7
  6
CONTINUOUS
 10
7.5638091564
 20
3.9550050586
 11
7.5638091564
 21
3.9650050586
  0
LINE
  5
4BB
100
AcDbEntity
  8
0
100
AcDbLine
 62
7
  6
CONTINUOUS
 10
7.7288091564
 20
3.9550050586
 11
7.7288091564
 21
3.9650050586
  0
LINE
  5
4BC
100
AcDbEntity
  8
0
100
AcDbLine
 62
7
  6
CONTINUOUS
 10
7.8688455167
 20
3.9347684357
 11
7.8688455167
 21
2.9232402642
  0
LINE
  5
4BD
100
AcDbEntity
  8
0
100
AcDbLine
 62
7
  6
CONTINUOUS
 10
7.8917256832
 20
2.9550050586
 11
7.8917256832
 21
3.9350050586
  0
LINE
  5
4BE
100
AcDbEntity
  8
0
100
AcDbLine
 62
7
  6
CONTINUOUS
 10
7.8983494537
 20
-4.9657276273
 11
7.8983494537
 21
-0.4657276273
  0
LINE
  5
4BF
100
AcDbEntity
  8
06___PRT_ALL_SURFS
100
AcDbLine
 62
7
  6
CONTINUOUS
 10
7.9032399152
 20
-4.4548715107
 11
7.9032399152
 21
-3.4548715107
  0
LINE
  5
4C0
100
AcDbEntity
  8
06___PRT_ALL_SURFS
100
AcDbLine
 62
7
  6
CONTINUOUS
 10
7.9117256832
 20
2.9550050586
 11
7.9117256832
 21
3.9550050586
  0
LINE
  5
4C1
100
AcDbEntity
  8
0
100
AcDbLine
 62
7
  6
CONTINUOUS
 10
4.1226974968
 20
-0.1242113922
 11
4.1066006064
 21
-0.1344680071
  0
LINE
  5
4C2
100
AcDbEntity
  8
0
100
AcDbLine
 62
7
  6
CONTINUOUS
 10
4.1226974968
 20
-0.1542113922
 11
4.1066006064
 21
-0.1644680071
  0
LINE
  5
4C3
100
AcDbEntity
  8
0
100
AcDbLine
 62
7
  6
CONTINUOUS
 10
4.9145556903
 20
-0.1298982745
 11
4.9306525806
 21
-0.1196416596
  0
LINE
  5
4C4
100
AcDbEntity
  8
0
100
AcDbLine
 62
7
  6
CONTINUOUS
 10
4.9145556903
 20
-0.1598982745
 11
4.9306525806
 21
-0.1496416596
  0
LINE
  5
4C5
100
AcDbEntity
  8
0
100
AcDbLine
 62
7
  6
CONTINUOUS
 10
4.9145556903
 20
-0.1898982745
 11
4.9306525806
 21
-0.1796416596
  0
LINE
  5
4C6
100
AcDbEntity
  8
0
100
AcDbLine
 62
7
  6
CONTINUOUS
 10
10.4855299146
 20
0.2968136032
 11
10.5263257322
 21
-0.286593769
  0
LINE
  5
4C7
100
AcDbEntity
  8
0
100
AcDbLine
 62
7
  6
CONTINUOUS
 10
10.4908691387
 20
-1.3102551622
 11
10.4908691387
 21
-4.9657276273
  0
LINE
  5
4C8
100
AcDbEntity
  8
0
100
AcDbLine
 62
7
  6
CONTINUOUS
 10
10.7408691387
 20
-0.286593769
 11
10.7408691387
 21
-0.414546525
  0
LINE
  5
4C9
100
AcDbEntity
  8
0
100
AcDbLine
 62
7
  6
CONTINUOUS
 10
10.7408691387
 20
-0.9657276273
 11
10.7408691387
 21
-4.9657276273
  0
LINE
  5
4CA
100
AcDbEntity
  8
0
100
AcDbLine
 62
7
  6
CONTINUOUS
 10
10.5445461929
 20
-0.5426375252
 11
10.4090593888
 21
-2.4801890923
  0
LINE
  5
4CB
100
AcDbEntity
  8
0
100
AcDbLine
 62
7
  6
CONTINUOUS
 10
1.3777168911
 20
11.5904072176
 11
1.3775536186
 21
11.5903798862
  0
LINE
  5
4CC
100
AcDbEntity
  8
0
100
AcDbLine
 62
7
  6
CONTINUOUS
 10
9.1267565255
 20
-2.9243841902
 11
8.6266352953
 21
-3.2747875999
  0
LINE
  5
4CD
100
AcDbEntity
  8
0
100
AcDbLine
 62
7
  6
CONTINUOUS
 10
-22.1123692752
 20
-20.6930926779
 11
-22.1123692752
 21
-20.9430926779
  0
LINE
  5
4CE
100
AcDbEntity
  8
0
100
AcDbLine
 62
7
  6
CONTINUOUS
 10
-20.7323692752
 20
-20.9430926779
 11
-22.1123692752
 21
-20.9430926779
  0
LINE
  5
4CF
100
AcDbEntity
  8
0
100
AcDbLine
 62
7
  6
CONTINUOUS
 10
-20.7323692752
 20
-20.6930926779
 11
-20.7323692752
 21
-20.9430926779
  0
LINE
  5
4D0
100
AcDbEntity
  8
0
100
AcDbLine
 62
7
  6
CONTINUOUS
 10
-20.7323692752
 20
-20.6930926779
 11
-22.1123692752
 21
-20.6930926779
  0
LINE
  5
4D1
100
AcDbEntity
  8
0
100
AcDbLine
 62
7
  6
CONTINUOUS
 10
-14.6134256389
 20
-17.9733801221
 11
-14.632149041
 21
-17.9779634544
  0
LINE
  5
4D2
100
AcDbEntity
  8
0
100
AcDbLine
 62
7
  6
CONTINUOUS
 10
-14.632149041
 20
-18.0054634544
 11
-14.6087447884
 21
-18.0008801209
  0
LINE
  5
4D3
100
AcDbEntity
  8
0
100
AcDbLine
 62
7
  6
CONTINUOUS
 10
-14.7210852071
 20
-17.8267134544
 11
-14.7444894728
 21
-17.8312967833
  0
LINE
  5
4D4
100
AcDbEntity
  8
06___PRT_ALL_SURFS
100
AcDbLine
 62
7
  6
CONTINUOUS
 10
-15.2172554263
 20
-18.1054634544
 11
-14.2172554263
 21
-18.1054634544
  0
LINE
  5
4D5
100
AcDbEntity
  8
0
100
AcDbLine
 62
7
  6
CONTINUOUS
 10
-10.1141708012
 20
-18.1005729928
 11
-8.1141708012
 21
-18.1005729928
  0
LINE
  5
4D6
100
AcDbEntity
  8
0
100
AcDbLine
 62
7
  6
CONTINUOUS
 10
-14.7023618051
 20
-18.0054634544
 11
-14.632149041
 21
-18.0054634544
  0
LINE
  5
4D7
100
AcDbEntity
  8
0
100
AcDbLine
 62
7
  6
CONTINUOUS
 10
-14.632149041
 20
-17.9779634544
 11
-14.7023618051
 21
-17.9779634544
  0
LINE
  5
4D8
100
AcDbEntity
  8
0
100
AcDbLine
 62
7
  6
CONTINUOUS
 10
-14.7257660707
 20
-18.0008801209
 11
-14.7023618051
 21
-18.0054634544
  0
LINE
  5
4D9
100
AcDbEntity
  8
0
100
AcDbLine
 62
7
  6
CONTINUOUS
 10
-14.6134256389
 20
-17.5379634544
 11
-14.632149041
 21
-17.5425467702
  0
LINE
  5
4DA
100
AcDbEntity
  8
0
100
AcDbLine
 62
7
  6
CONTINUOUS
 10
-14.632149041
 20
-17.5700467964
 11
-14.6087447884
 21
-17.5654634544
  0
LINE
  5
4DB
100
AcDbEntity
  8
0
100
AcDbLine
 62
7
  6
CONTINUOUS
 10
-14.7772554263
 20
-17.5700467964
 11
-14.632149041
 21
-17.5700467964
  0
LINE
  5
4DC
100
AcDbEntity
  8
0
100
AcDbLine
 62
7
  6
CONTINUOUS
 10
-14.632149041
 20
-17.5425467702
 11
-14.7772554263
 21
-17.5425467702
  0
LINE
  5
4DD
100
AcDbEntity
  8
0
100
AcDbLine
 62
7
  6
CONTINUOUS
 10
-14.7772554263
 20
-17.4325467702
 11
-14.632149041
 21
-17.4325467702
  0
LINE
  5
4DE
100
AcDbEntity
  8
0
100
AcDbLine
 62
7
  6
CONTINUOUS
 10
-14.632149041
 20
-17.4050467702
 11
-14.7772554263
 21
-17.4050467702
  0
LINE
  5
4DF
100
AcDbEntity
  8
0
100
AcDbLine
 62
7
  6
CONTINUOUS
 10
-14.7772554263
 20
-17.3683801385
 11
-14.7538511738
 21
-17.3683801385
  0
LINE
  5
4E0
100
AcDbEntity
  8
0
100
AcDbLine
 62
7
  6
CONTINUOUS
 10
-14.7538511738
 20
-17.2950467702
 11
-14.5572554263
 21
-17.2950467702
  0
LINE
  5
4E1
100
AcDbEntity
  8
0
100
AcDbLine
 62
7
  6
CONTINUOUS
 10
-14.5572554263
 20
-17.2675467702
 11
-14.7538511738
 21
-17.2675467702
  0
LINE
  5
4E2
100
AcDbEntity
  8
0
100
AcDbLine
 62
7
  6
CONTINUOUS
 10
-14.7538511738
 20
-17.1942134544
 11
-14.7772554263
 21
-17.1942134544
  0
LINE
  5
4E3
100
AcDbEntity
  8
0
100
AcDbLine
 62
7
  6
CONTINUOUS
 10
-14.5900213831
 20
-17.8312967833
 11
-14.6134256389
 21
-17.8267134544
  0
LINE
  5
4E4
100
AcDbEntity
  8
0
100
AcDbLine
 62
7
  6
CONTINUOUS
 10
-14.6087447884
 20
-17.4096301385
 11
-14.632149041
 21
-17.4050467702
  0
LINE
  5
4E5
100
AcDbEntity
  8
0
100
AcDbLine
 62
7
  6
CONTINUOUS
 10
-14.7023618051
 20
-17.9779634544
 11
-14.7210852071
 21
-17.9733801221
  0
LINE
  5
4E6
100
AcDbEntity
  8
0
100
AcDbLine
 62
7
  6
CONTINUOUS
 10
-14.632149041
 20
-17.4325467702
 11
-14.6134256389
 21
-17.4371301385
  0
LINE
  5
4E7
100
AcDbEntity
  8
0
100
AcDbLine
 62
7
  6
CONTINUOUS
 10
-14.6134256389
 20
-17.8542134544
 11
-14.5993830874
 21
-17.8587967833
  0
LINE
  5
4E8
100
AcDbEntity
  8
0
100
AcDbLine
 62
7
  6
CONTINUOUS
 10
-14.632149041
 20
-17.7396301123
 11
-14.7585320243
 21
-17.6983801123
  0
LINE
  5
4E9
100
AcDbEntity
  8
0
100
AcDbLine
 62
7
  6
CONTINUOUS
 10
-14.5572554263
 20
-17.7625467964
 11
-14.6134256389
 21
-17.7442134544
  0
LINE
  5
4EA
100
AcDbEntity
  8
0
100
AcDbLine
 62
7
  6
CONTINUOUS
 10
-14.7772554263
 20
-17.7167134544
 11
-14.5572554263
 21
-17.7900467833
  0
LINE
  5
4EB
100
AcDbEntity
  8
0
100
AcDbLine
 62
7
  6
CONTINUOUS
 10
-14.7444894728
 20
-17.9917134544
 11
-14.7257660707
 21
-18.0008801209
  0
LINE
  5
4EC
100
AcDbEntity
  8
0
100
AcDbLine
 62
7
  6
CONTINUOUS
 10
-14.7210852071
 20
-17.9733801221
 11
-14.7351277718
 21
-17.9642134544
  0
LINE
  5
4ED
100
AcDbEntity
  8
0
100
AcDbLine
 62
7
  6
CONTINUOUS
 10
-14.6134256389
 20
-17.0612968227
 11
-14.632149041
 21
-17.0658800861
  0
LINE
  5
4EE
100
AcDbEntity
  8
0
100
AcDbLine
 62
7
  6
CONTINUOUS
 10
-14.7210852071
 20
-16.9421300861
 11
-14.7023618051
 21
-16.9375468227
  0
LINE
  5
4EF
100
AcDbEntity
  8
0
100
AcDbLine
 62
7
  6
CONTINUOUS
 10
-14.632149041
 20
-17.0933800861
 11
-14.6087447884
 21
-17.0887968227
  0
LINE
  5
4F0
100
AcDbEntity
  8
0
100
AcDbLine
 62
7
  6
CONTINUOUS
 10
-14.7023618051
 20
-16.9100468227
 11
-14.7257660707
 21
-16.9146300861
  0
LINE
  5
4F1
100
AcDbEntity
  8
0
100
AcDbLine
 62
7
  6
CONTINUOUS
 10
-14.7772554263
 20
-17.1575467702
 11
-14.5572554263
 21
-17.1575467702
  0
LINE
  5
4F2
100
AcDbEntity
  8
0
100
AcDbLine
 62
7
  6
CONTINUOUS
 10
-14.5572554263
 20
-17.1300467702
 11
-14.7772554263
 21
-17.1300467702
  0
LINE
  5
4F3
100
AcDbEntity
  8
0
100
AcDbLine
 62
7
  6
CONTINUOUS
 10
-14.7023618051
 20
-17.0933800861
 11
-14.632149041
 21
-17.0933800861
  0
LINE
  5
4F4
100
AcDbEntity
  8
0
100
AcDbLine
 62
7
  6
CONTINUOUS
 10
-14.632149041
 20
-17.0658800861
 11
-14.7023618051
 21
-17.0658800861
  0
LINE
  5
4F5
100
AcDbEntity
  8
0
100
AcDbLine
 62
7
  6
CONTINUOUS
 10
-14.7023618051
 20
-16.9375468227
 11
-14.632149041
 21
-16.9375468227
  0
LINE
  5
4F6
100
AcDbEntity
  8
0
100
AcDbLine
 62
7
  6
CONTINUOUS
 10
-14.632149041
 20
-16.9100468227
 11
-14.7023618051
 21
-16.9100468227
  0
LINE
  5
4F7
100
AcDbEntity
  8
0
100
AcDbLine
 62
7
  6
CONTINUOUS
 10
-14.7772554263
 20
-16.8733800861
 11
-14.5572554263
 21
-16.8733800861
  0
LINE
  5
4F8
100
AcDbEntity
  8
0
100
AcDbLine
 62
7
  6
CONTINUOUS
 10
-14.5572554263
 20
-16.8458800861
 11
-14.7491703233
 21
-16.8458800861
  0
LINE
  5
4F9
100
AcDbEntity
  8
0
100
AcDbLine
 62
7
  6
CONTINUOUS
 10
-14.7772554263
 20
-16.7175468227
 11
-14.5900213831
 21
-16.7175468227
  0
LINE
  5
4FA
100
AcDbEntity
  8
0
100
AcDbLine
 62
7
  6
CONTINUOUS
 10
-14.5572554263
 20
-16.6900468227
 11
-14.7772554263
 21
-16.6900468227
  0
LINE
  5
4FB
100
AcDbEntity
  8
0
100
AcDbLine
 62
7
  6
CONTINUOUS
 10
-14.6930001041
 20
-16.6533800861
 11
-14.6695958516
 21
-16.6533800861
  0
LINE
  5
4FC
100
AcDbEntity
  8
0
100
AcDbLine
 62
7
  6
CONTINUOUS
 10
-14.5806596821
 20
-16.6533800861
 11
-14.5572554263
 21
-16.6533800861
  0
LINE
  5
4FD
100
AcDbEntity
  8
0
100
AcDbLine
 62
7
  6
CONTINUOUS
 10
-14.5572554263
 20
-16.6304634544
 11
-14.5806596821
 21
-16.6304634544
  0
LINE
  5
4FE
100
AcDbEntity
  8
0
100
AcDbLine
 62
7
  6
CONTINUOUS
 10
-14.6695958516
 20
-16.6304634544
 11
-14.6930001041
 21
-16.6304634544
  0
LINE
  5
4FF
100
AcDbEntity
  8
0
100
AcDbLine
 62
7
  6
CONTINUOUS
 10
-14.7257660707
 20
-17.0887968227
 11
-14.7023618051
 21
-17.0933800861
  0
LINE
  5
500
100
AcDbEntity
  8
0
100
AcDbLine
 62
7
  6
CONTINUOUS
 10
-14.6087447884
 20
-16.9146300861
 11
-14.632149041
 21
-16.9100468227
  0
LINE
  5
501
100
AcDbEntity
  8
0
100
AcDbLine
 62
7
  6
CONTINUOUS
 10
-14.7023618051
 20
-17.0658800861
 11
-14.7210852071
 21
-17.0612968227
  0
LINE
  5
502
100
AcDbEntity
  8
0
100
AcDbLine
 62
7
  6
CONTINUOUS
 10
-14.632149041
 20
-16.9375468227
 11
-14.6134256389
 21
-16.9421300861
  0
LINE
  5
503
100
AcDbEntity
  8
0
100
AcDbLine
 62
7
  6
CONTINUOUS
 10
-14.5900213831
 20
-17.4187967702
 11
-14.6087447884
 21
-17.4096301385
  0
LINE
  5
504
100
AcDbEntity
  8
0
100
AcDbLine
 62
7
  6
CONTINUOUS
 10
-14.7444894728
 20
-17.0796300861
 11
-14.7257660707
 21
-17.0887968227
  0
LINE
  5
505
100
AcDbEntity
  8
0
100
AcDbLine
 62
7
  6
CONTINUOUS
 10
-14.6134256389
 20
-17.4371301385
 11
-14.5993830874
 21
-17.4462967702
  0
LINE
  5
506
100
AcDbEntity
  8
0
100
AcDbLine
 62
7
  6
CONTINUOUS
 10
-14.7632128748
 20
-17.9733801221
 11
-14.7444894728
 21
-17.9917134544
  0
LINE
  5
507
100
AcDbEntity
  8
0
100
AcDbLine
 62
7
  6
CONTINUOUS
 10
-14.5712979795
 20
-17.8496301254
 11
-14.5900213831
 21
-17.8312967833
  0
LINE
  5
508
100
AcDbEntity
  8
0
100
AcDbLine
 62
7
  6
CONTINUOUS
 10
-14.6181064894
 20
-16.3737968227
 11
-14.5993830874
 21
-16.3692134544
  0
LINE
  5
509
100
AcDbEntity
  8
0
100
AcDbLine
 62
7
  6
CONTINUOUS
 10
-14.7070426556
 20
-16.3600468227
 11
-14.6883192536
 21
-16.3554634544
  0
LINE
  5
50A
100
AcDbEntity
  8
0
100
AcDbLine
 62
7
  6
CONTINUOUS
 10
-10.1568059618
 20
-16.3958485834
 11
-10.1154255376
 21
-16.3958485834
  0
LINE
  5
50B
100
AcDbEntity
  8
0
100
AcDbLine
 62
7
  6
CONTINUOUS
 10
-14.7257660707
 20
-16.3600468227
 11
-14.7070426556
 21
-16.3600468227
  0
LINE
  5
50C
100
AcDbEntity
  8
0
100
AcDbLine
 62
7
  6
CONTINUOUS
 10
-14.7117235061
 20
-16.3325468227
 11
-14.7210852071
 21
-16.3325468227
  0
LINE
  5
50D
100
AcDbEntity
  8
0
100
AcDbLine
 62
7
  6
CONTINUOUS
 10
-14.6274681905
 20
-16.2317134544
 11
-14.6134256389
 21
-16.2317134544
  0
LINE
  5
50E
100
AcDbEntity
  8
0
100
AcDbLine
 62
7
  6
CONTINUOUS
 10
-14.6087447884
 20
-16.2042134544
 11
-14.632149041
 21
-16.2042134544
  0
LINE
  5
50F
100
AcDbEntity
  8
0
100
AcDbLine
 62
7
  6
CONTINUOUS
 10
-10.1501919002
 20
-16.1905729928
 11
-10.1141708012
 21
-16.1905729928
  0
LINE
  5
510
100
AcDbEntity
  8
0
100
AcDbLine
 62
7
  6
CONTINUOUS
 10
-14.7772554263
 20
-16.1675467178
 11
-14.5572554263
 21
-16.1675467178
  0
LINE
  5
511
100
AcDbEntity
  8
0
100
AcDbLine
 62
7
  6
CONTINUOUS
 10
-14.5572554263
 20
-16.1400467178
 11
-14.6602341506
 21
-16.1400467178
  0
LINE
  5
512
100
AcDbEntity
  8
0
100
AcDbLine
 62
7
  6
CONTINUOUS
 10
-14.6883192536
 20
-16.1400467178
 11
-14.7772554263
 21
-16.1400467178
  0
LINE
  5
513
100
AcDbEntity
  8
0
100
AcDbLine
 62
7
  6
CONTINUOUS
 10
-14.7772554263
 20
-16.0117134544
 11
-14.6883192536
 21
-16.0117134544
  0
LINE
  5
514
100
AcDbEntity
  8
0
100
AcDbLine
 62
7
  6
CONTINUOUS
 10
-14.6602341506
 20
-16.0117134544
 11
-14.5572554263
 21
-16.0117134544
  0
LINE
  5
515
100
AcDbEntity
  8
0
100
AcDbLine
 62
7
  6
CONTINUOUS
 10
-10.1501919002
 20
-16.0105729928
 11
-10.1141708012
 21
-16.0105729928
  0
LINE
  5
516
100
AcDbEntity
  8
0
100
AcDbLine
 62
7
  6
CONTINUOUS
 10
-14.5572554263
 20
-15.9842134544
 11
-14.7772554263
 21
-15.9842134544
  0
LINE
  5
517
100
AcDbEntity
  8
0
100
AcDbLine
 62
7
  6
CONTINUOUS
 10
-14.7444894728
 20
-16.3554634544
 11
-14.7257660707
 21
-16.3600468227
  0
LINE
  5
518
100
AcDbEntity
  8
0
100
AcDbLine
 62
7
  6
CONTINUOUS
 10
-14.7210852071
 20
-16.3325468227
 11
-14.7351277718
 21
-16.3279634544
  0
LINE
  5
519
100
AcDbEntity
  8
0
100
AcDbLine
 62
7
  6
CONTINUOUS
 10
-14.5900213831
 20
-16.9237968227
 11
-14.6087447884
 21
-16.9146300861
  0
LINE
  5
51A
100
AcDbEntity
  8
0
100
AcDbLine
 62
7
  6
CONTINUOUS
 10
-14.7210852071
 20
-17.0612968227
 11
-14.7351277718
 21
-17.0521300861
  0
LINE
  5
51B
100
AcDbEntity
  8
0
100
AcDbLine
 62
7
  6
CONTINUOUS
 10
-14.6134256389
 20
-16.9421300861
 11
-14.5993830874
 21
-16.9512968227
  0
LINE
  5
51C
100
AcDbEntity
  8
0
100
AcDbLine
 62
7
  6
CONTINUOUS
 10
-14.5712979795
 20
-17.4371301385
 11
-14.5900213831
 21
-17.4187967702
  0
LINE
  5
51D
100
AcDbEntity
  8
0
100
AcDbLine
 62
7
  6
CONTINUOUS
 10
-14.7632128748
 20
-17.0612968227
 11
-14.7444894728
 21
-17.0796300861
  0
LINE
  5
51E
100
AcDbEntity
  8
0
100
AcDbLine
 62
7
  6
CONTINUOUS
 10
-14.5712979795
 20
-16.9421300861
 11
-14.5900213831
 21
-16.9237968227
  0
LINE
  5
51F
100
AcDbEntity
  8
0
100
AcDbLine
 62
7
  6
CONTINUOUS
 10
-14.7351277718
 20
-17.9642134544
 11
-14.7444894728
 21
-17.9504634544
  0
LINE
  5
520
100
AcDbEntity
  8
0
100
AcDbLine
 62
7
  6
CONTINUOUS
 10
-14.5993830874
 20
-17.8587967833
 11
-14.5900213831
 21
-17.8725467833
  0
LINE
  5
521
100
AcDbEntity
  8
0
100
AcDbLine
 62
7
  6
CONTINUOUS
 10
-14.7725745758
 20
-17.9550467866
 11
-14.7632128748
 21
-17.9733801221
  0
LINE
  5
522
100
AcDbEntity
  8
0
100
AcDbLine
 62
7
  6
CONTINUOUS
 10
-10.1154255376
 20
-15.8052974023
 11
-10.1568059618
 21
-15.8052974023
  0
LINE
  5
523
100
AcDbEntity
  8
0
100
AcDbLine
 62
7
  6
CONTINUOUS
 10
-14.7772554263
 20
-15.7275467178
 11
-14.5572554263
 21
-15.7275467178
  0
LINE
  5
524
100
AcDbEntity
  8
0
100
AcDbLine
 62
7
  6
CONTINUOUS
 10
-14.5572554263
 20
-15.7000467178
 11
-14.6555533
 21
-15.7000467178
  0
LINE
  5
525
100
AcDbEntity
  8
0
100
AcDbLine
 62
7
  6
CONTINUOUS
 10
-14.6836384031
 20
-15.7000467178
 11
-14.7538511738
 21
-15.7000467178
  0
LINE
  5
526
100
AcDbEntity
  8
0
100
AcDbLine
 62
7
  6
CONTINUOUS
 10
-14.7257660707
 20
-15.5854634544
 11
-14.7117235061
 21
-15.5854634544
  0
LINE
  5
527
100
AcDbEntity
  8
0
100
AcDbLine
 62
7
  6
CONTINUOUS
 10
-14.7070426556
 20
-15.5579634544
 11
-14.7257660707
 21
-15.5579634544
  0
LINE
  5
528
100
AcDbEntity
  8
0
100
AcDbLine
 62
7
  6
CONTINUOUS
 10
-14.7772554263
 20
-15.5167134544
 11
-14.5572554263
 21
-15.5167134544
  0
LINE
  5
529
100
AcDbEntity
  8
0
100
AcDbLine
 62
7
  6
CONTINUOUS
 10
-14.5572554263
 20
-15.4892134544
 11
-14.6555533
 21
-15.4892134544
  0
LINE
  5
52A
100
AcDbEntity
  8
0
100
AcDbLine
 62
7
  6
CONTINUOUS
 10
-14.6836384031
 20
-15.4892134544
 11
-14.7538511738
 21
-15.4892134544
  0
LINE
  5
52B
100
AcDbEntity
  8
0
100
AcDbLine
 62
7
  6
CONTINUOUS
 10
-14.7257660707
 20
-15.374630191
 11
-14.7117235061
 21
-15.374630191
  0
LINE
  5
52C
100
AcDbEntity
  8
0
100
AcDbLine
 62
7
  6
CONTINUOUS
 10
-14.7070426556
 20
-15.347130191
 11
-14.7257660707
 21
-15.347130191
  0
LINE
  5
52D
100
AcDbEntity
  8
0
100
AcDbLine
 62
7
  6
CONTINUOUS
 10
-14.632149041
 20
-15.897130191
 11
-14.7585320243
 21
-15.855880191
  0
LINE
  5
52E
100
AcDbEntity
  8
0
100
AcDbLine
 62
7
  6
CONTINUOUS
 10
-14.5572554263
 20
-15.9200467178
 11
-14.6134256389
 21
-15.9017134544
  0
LINE
  5
52F
100
AcDbEntity
  8
0
100
AcDbLine
 62
7
  6
CONTINUOUS
 10
-14.7117235061
 20
-15.5854634544
 11
-14.6976809546
 21
-15.5900467178
  0
LINE
  5
530
100
AcDbEntity
  8
0
100
AcDbLine
 62
7
  6
CONTINUOUS
 10
-14.6930001041
 20
-15.5625467178
 11
-14.7070426556
 21
-15.5579634544
  0
LINE
  5
531
100
AcDbEntity
  8
0
100
AcDbLine
 62
7
  6
CONTINUOUS
 10
-14.7772554263
 20
-15.8742134544
 11
-14.5572554263
 21
-15.9475467178
  0
LINE
  5
532
100
AcDbEntity
  8
0
100
AcDbLine
 62
7
  6
CONTINUOUS
 10
-14.5900213831
 20
-16.213380191
 11
-14.6087447884
 21
-16.2042134544
  0
LINE
  5
533
100
AcDbEntity
  8
0
100
AcDbLine
 62
7
  6
CONTINUOUS
 10
-14.6134256389
 20
-16.2317134544
 11
-14.5993830874
 21
-16.240880191
  0
LINE
  5
534
100
AcDbEntity
  8
0
100
AcDbLine
 62
7
  6
CONTINUOUS
 10
-14.7632128748
 20
-16.3371300861
 11
-14.7444894728
 21
-16.3554634544
  0
LINE
  5
535
100
AcDbEntity
  8
0
100
AcDbLine
 62
7
  6
CONTINUOUS
 10
-14.5712979795
 20
-16.2317134544
 11
-14.5900213831
 21
-16.213380191
  0
LINE
  5
536
100
AcDbEntity
  8
0
100
AcDbLine
 62
7
  6
CONTINUOUS
 10
-14.5993830874
 20
-17.4462967702
 11
-14.5900213831
 21
-17.4600467702
  0
LINE
  5
537
100
AcDbEntity
  8
0
100
AcDbLine
 62
7
  6
CONTINUOUS
 10
-14.7351277718
 20
-17.0521300861
 11
-14.7444894728
 21
-17.0383800861
  0
LINE
  5
538
100
AcDbEntity
  8
0
100
AcDbLine
 62
7
  6
CONTINUOUS
 10
-14.5993830874
 20
-16.9512968227
 11
-14.5900213831
 21
-16.9650468227
  0
LINE
  5
539
100
AcDbEntity
  8
0
100
AcDbLine
 62
7
  6
CONTINUOUS
 10
-14.7351277718
 20
-16.3279634544
 11
-14.7444894728
 21
-16.3142134544
  0
LINE
  5
53A
100
AcDbEntity
  8
0
100
AcDbLine
 62
7
  6
CONTINUOUS
 10
-14.5619362772
 20
-17.8679634544
 11
-14.5712979795
 21
-17.8496301254
  0
LINE
  5
53B
100
AcDbEntity
  8
0
100
AcDbLine
 62
7
  6
CONTINUOUS
 10
-14.5619362772
 20
-17.4554634544
 11
-14.5712979795
 21
-17.4371301385
  0
LINE
  5
53C
100
AcDbEntity
  8
0
100
AcDbLine
 62
7
  6
CONTINUOUS
 10
-14.7725745758
 20
-17.0429634544
 11
-14.7632128748
 21
-17.0612968227
  0
LINE
  5
53D
100
AcDbEntity
  8
0
100
AcDbLine
 62
7
  6
CONTINUOUS
 10
-14.5619362772
 20
-16.9604634544
 11
-14.5712979795
 21
-16.9421300861
  0
LINE
  5
53E
100
AcDbEntity
  8
06___PRT_ALL_SURFS
100
AcDbLine
 62
7
  6
CONTINUOUS
 10
-15.2172554263
 20
-14.1054634544
 11
-15.2172554263
 21
-18.1054634544
  0
LINE
  5
53F
100
AcDbEntity
  8
0
100
AcDbLine
 62
7
  6
CONTINUOUS
 10
-14.7444894728
 20
-14.494630191
 11
-14.7632128748
 21
-14.5129634544
  0
LINE
  5
540
100
AcDbEntity
  8
0
100
AcDbLine
 62
7
  6
CONTINUOUS
 10
-14.7351277718
 20
-14.522130191
 11
-14.7210852071
 21
-14.5175467178
  0
LINE
  5
541
100
AcDbEntity
  8
0
100
AcDbLine
 62
7
  6
CONTINUOUS
 10
-14.7210852071
 20
-14.7375467178
 11
-14.7023618051
 21
-14.7329634544
  0
LINE
  5
542
100
AcDbEntity
  8
0
100
AcDbLine
 62
7
  6
CONTINUOUS
 10
-14.6134256389
 20
-14.6367134544
 11
-14.632149041
 21
-14.6412967178
  0
LINE
  5
543
100
AcDbEntity
  8
0
100
AcDbLine
 62
7
  6
CONTINUOUS
 10
-14.7023618051
 20
-14.7054634544
 11
-14.7257660707
 21
-14.7100467178
  0
LINE
  5
544
100
AcDbEntity
  8
0
100
AcDbLine
 62
7
  6
CONTINUOUS
 10
-14.632149041
 20
-14.6687967178
 11
-14.6087447884
 21
-14.6642134544
  0
LINE
  5
545
100
AcDbEntity
  8
0
100
AcDbLine
 62
7
  6
CONTINUOUS
 10
-14.7772554263
 20
-15.0904634544
 11
-14.5572554263
 21
-15.0904634544
  0
LINE
  5
546
100
AcDbEntity
  8
0
100
AcDbLine
 62
7
  6
CONTINUOUS
 10
-14.5853405326
 20
-15.0629634544
 11
-14.6602341506
 21
-15.0629634544
  0
LINE
  5
547
100
AcDbEntity
  8
0
100
AcDbLine
 62
7
  6
CONTINUOUS
 10
-14.6883192536
 20
-15.0629634544
 11
-14.7491703233
 21
-15.0629634544
  0
LINE
  5
548
100
AcDbEntity
  8
0
100
AcDbLine
 62
7
  6
CONTINUOUS
 10
-14.6602341506
 20
-14.9437967178
 11
-14.6883192536
 21
-14.9437967178
  0
LINE
  5
549
100
AcDbEntity
  8
0
100
AcDbLine
 62
7
  6
CONTINUOUS
 10
-14.5572554263
 20
-14.9254634544
 11
-14.5853405326
 21
-14.9254634544
  0
LINE
  5
54A
100
AcDbEntity
  8
0
100
AcDbLine
 62
7
  6
CONTINUOUS
 10
-14.7491703233
 20
-14.9254634544
 11
-14.7772554263
 21
-14.9254634544
  0
LINE
  5
54B
100
AcDbEntity
  8
0
100
AcDbLine
 62
7
  6
CONTINUOUS
 10
-14.7772554263
 20
-14.8887967178
 11
-14.5572554263
 21
-14.8887967178
  0
LINE
  5
54C
100
AcDbEntity
  8
0
100
AcDbLine
 62
7
  6
CONTINUOUS
 10
-14.5853405326
 20
-14.8612967178
 11
-14.7491703233
 21
-14.8612967178
  0
LINE
  5
54D
100
AcDbEntity
  8
0
100
AcDbLine
 62
7
  6
CONTINUOUS
 10
-14.7023618051
 20
-14.7329634544
 11
-14.632149041
 21
-14.7329634544
  0
LINE
  5
54E
100
AcDbEntity
  8
0
100
AcDbLine
 62
7
  6
CONTINUOUS
 10
-14.632149041
 20
-14.7054634544
 11
-14.7023618051
 21
-14.7054634544
  0
LINE
  5
54F
100
AcDbEntity
  8
0
100
AcDbLine
 62
7
  6
CONTINUOUS
 10
-14.7117235061
 20
-15.374630191
 11
-14.6976809546
 21
-15.3792134544
  0
LINE
  5
550
100
AcDbEntity
  8
0
100
AcDbLine
 62
7
  6
CONTINUOUS
 10
-14.6930001041
 20
-15.3517134544
 11
-14.7070426556
 21
-15.347130191
  0
LINE
  5
551
100
AcDbEntity
  8
0
100
AcDbLine
 62
7
  6
CONTINUOUS
 10
-14.6742767021
 20
-15.5762967178
 11
-14.6930001041
 21
-15.5625467178
  0
LINE
  5
552
100
AcDbEntity
  8
0
100
AcDbLine
 62
7
  6
CONTINUOUS
 10
-14.6742767021
 20
-15.3654634544
 11
-14.6930001041
 21
-15.3517134544
  0
LINE
  5
553
100
AcDbEntity
  8
0
100
AcDbLine
 62
7
  6
CONTINUOUS
 10
-14.6976809546
 20
-15.5900467178
 11
-14.6883192536
 21
-15.5992134544
  0
LINE
  5
554
100
AcDbEntity
  8
0
100
AcDbLine
 62
7
  6
CONTINUOUS
 10
-14.6976809546
 20
-15.3792134544
 11
-14.6883192536
 21
-15.388380191
  0
LINE
  5
555
100
AcDbEntity
  8
0
100
AcDbLine
 62
7
  6
CONTINUOUS
 10
-14.6602341506
 20
-15.3837967178
 11
-14.6742767021
 21
-15.3654634544
  0
LINE
  5
556
100
AcDbEntity
  8
0
100
AcDbLine
 62
7
  6
CONTINUOUS
 10
-14.5993830874
 20
-16.240880191
 11
-14.5900213831
 21
-16.2546300861
  0
LINE
  5
557
100
AcDbEntity
  8
0
100
AcDbLine
 62
7
  6
CONTINUOUS
 10
-14.7725745758
 20
-16.3187968227
 11
-14.7632128748
 21
-16.3371300861
  0
LINE
  5
558
100
AcDbEntity
  8
0
100
AcDbLine
 62
7
  6
CONTINUOUS
 10
-14.5619362772
 20
-16.2500468227
 11
-14.5712979795
 21
-16.2317134544
  0
LINE
  5
559
100
AcDbEntity
  8
0
100
AcDbLine
 62
7
  6
CONTINUOUS
 10
-14.6649150011
 20
-15.594630191
 11
-14.6742767021
 21
-15.5762967178
  0
LINE
  5
55A
100
AcDbEntity
  8
0
100
AcDbLine
 62
7
  6
CONTINUOUS
 10
-14.7444894728
 20
-16.3142134544
 11
-14.7491703233
 21
-16.3004634544
  0
LINE
  5
55B
100
AcDbEntity
  8
0
100
AcDbLine
 62
7
  6
CONTINUOUS
 10
-14.7444894728
 20
-17.9504634544
 11
-14.7491703233
 21
-17.9321301188
  0
LINE
  5
55C
100
AcDbEntity
  8
0
100
AcDbLine
 62
7
  6
CONTINUOUS
 10
-14.5900213831
 20
-17.8725467833
 11
-14.5853405326
 21
-17.8908801254
  0
LINE
  5
55D
100
AcDbEntity
  8
0
100
AcDbLine
 62
7
  6
CONTINUOUS
 10
-14.7444894728
 20
-17.0383800861
 11
-14.7491703233
 21
-17.0200468227
  0
LINE
  5
55E
100
AcDbEntity
  8
0
100
AcDbLine
 62
7
  6
CONTINUOUS
 10
-14.5900213831
 20
-17.4600467702
 11
-14.5853405326
 21
-17.4783801385
  0
LINE
  5
55F
100
AcDbEntity
  8
0
100
AcDbLine
 62
7
  6
CONTINUOUS
 10
-14.7772554263
 20
-16.3004634544
 11
-14.7725745758
 21
-16.3187968227
  0
LINE
  5
560
100
AcDbEntity
  8
0
100
AcDbLine
 62
7
  6
CONTINUOUS
 10
-14.5900213831
 20
-16.9650468227
 11
-14.5853405326
 21
-16.9833800861
  0
LINE
  5
561
100
AcDbEntity
  8
0
100
AcDbLine
 62
7
  6
CONTINUOUS
 10
-14.7772554263
 20
-17.9321301188
 11
-14.7725745758
 21
-17.9550467866
  0
LINE
  5
562
100
AcDbEntity
  8
0
100
AcDbLine
 62
7
  6
CONTINUOUS
 10
-14.7772554263
 20
-17.0200468227
 11
-14.7725745758
 21
-17.0429634544
  0
LINE
  5
563
100
AcDbEntity
  8
0
100
AcDbLine
 62
7
  6
CONTINUOUS
 10
-14.5572554263
 20
-17.8908801254
 11
-14.5619362772
 21
-17.8679634544
  0
LINE
  5
564
100
AcDbEntity
  8
0
100
AcDbLine
 62
7
  6
CONTINUOUS
 10
-14.5572554263
 20
-17.4783801385
 11
-14.5619362772
 21
-17.4554634544
  0
LINE
  5
565
100
AcDbEntity
  8
0
100
AcDbLine
 62
7
  6
CONTINUOUS
 10
-14.5572554263
 20
-16.9833800861
 11
-14.5619362772
 21
-16.9604634544
  0
LINE
  5
566
100
AcDbEntity
  8
0
100
AcDbLine
 62
7
  6
CONTINUOUS
 10
-14.7772554263
 20
-14.2883799811
 11
-14.7772554263
 21
-14.4533799811
  0
LINE
  5
567
100
AcDbEntity
  8
0
100
AcDbLine
 62
7
  6
CONTINUOUS
 10
-14.7772554263
 20
-14.5542134544
 11
-14.7772554263
 21
-14.5954634544
  0
LINE
  5
568
100
AcDbEntity
  8
0
100
AcDbLine
 62
7
  6
CONTINUOUS
 10
-14.7772554263
 20
-14.7787967178
 11
-14.7772554263
 21
-14.8887967178
  0
LINE
  5
569
100
AcDbEntity
  8
0
100
AcDbLine
 62
7
  6
CONTINUOUS
 10
-14.7772554263
 20
-14.9254634544
 11
-14.7772554263
 21
-15.0904634544
  0
LINE
  5
56A
100
AcDbEntity
  8
0
100
AcDbLine
 62
7
  6
CONTINUOUS
 10
-14.7772554263
 20
-15.4067134544
 11
-14.7772554263
 21
-15.5167134544
  0
LINE
  5
56B
100
AcDbEntity
  8
0
100
AcDbLine
 62
7
  6
CONTINUOUS
 10
-14.7772554263
 20
-15.6175467178
 11
-14.7772554263
 21
-15.7275467178
  0
LINE
  5
56C
100
AcDbEntity
  8
0
100
AcDbLine
 62
7
  6
CONTINUOUS
 10
-14.7772554263
 20
-15.8375467178
 11
-14.7772554263
 21
-15.8742134544
  0
LINE
  5
56D
100
AcDbEntity
  8
0
100
AcDbLine
 62
7
  6
CONTINUOUS
 10
-14.7772554263
 20
-15.9842134544
 11
-14.7772554263
 21
-16.0117134544
  0
LINE
  5
56E
100
AcDbEntity
  8
0
100
AcDbLine
 62
7
  6
CONTINUOUS
 10
-14.7772554263
 20
-16.1400467178
 11
-14.7772554263
 21
-16.1675467178
  0
LINE
  5
56F
100
AcDbEntity
  8
0
100
AcDbLine
 62
7
  6
CONTINUOUS
 10
-14.7772554263
 20
-16.2775468227
 11
-14.7772554263
 21
-16.3004634544
  0
LINE
  5
570
100
AcDbEntity
  8
0
100
AcDbLine
 62
7
  6
CONTINUOUS
 10
-14.7772554263
 20
-16.6900468227
 11
-14.7772554263
 21
-16.7175468227
  0
LINE
  5
571
100
AcDbEntity
  8
0
100
AcDbLine
 62
7
  6
CONTINUOUS
 10
-14.7772554263
 20
-16.8321300861
 11
-14.7772554263
 21
-16.8733800861
  0
LINE
  5
572
100
AcDbEntity
  8
0
100
AcDbLine
 62
7
  6
CONTINUOUS
 10
-14.7772554263
 20
-16.9833800861
 11
-14.7772554263
 21
-17.0200468227
  0
LINE
  5
573
100
AcDbEntity
  8
0
100
AcDbLine
 62
7
  6
CONTINUOUS
 10
-14.7772554263
 20
-17.1300467702
 11
-14.7772554263
 21
-17.1575467702
  0
LINE
  5
574
100
AcDbEntity
  8
0
100
AcDbLine
 62
7
  6
CONTINUOUS
 10
-14.7772554263
 20
-17.1942134544
 11
-14.7772554263
 21
-17.3683801385
  0
LINE
  5
575
100
AcDbEntity
  8
0
100
AcDbLine
 62
7
  6
CONTINUOUS
 10
-14.7772554263
 20
-17.4050467702
 11
-14.7772554263
 21
-17.4325467702
  0
LINE
  5
576
100
AcDbEntity
  8
0
100
AcDbLine
 62
7
  6
CONTINUOUS
 10
-14.7772554263
 20
-17.5425467702
 11
-14.7772554263
 21
-17.5700467964
  0
LINE
  5
577
100
AcDbEntity
  8
0
100
AcDbLine
 62
7
  6
CONTINUOUS
 10
-14.7772554263
 20
-17.6800467964
 11
-14.7772554263
 21
-17.7167134544
  0
LINE
  5
578
100
AcDbEntity
  8
0
100
AcDbLine
 62
7
  6
CONTINUOUS
 10
-14.7772554263
 20
-17.8908801254
 11
-14.7772554263
 21
-17.9321301188
  0
LINE
  5
579
100
AcDbEntity
  8
0
100
AcDbLine
 62
7
  6
CONTINUOUS
 10
-14.7538511738
 20
-17.3683801385
 11
-14.7538511738
 21
-17.2950467702
  0
LINE
  5
57A
100
AcDbEntity
  8
0
100
AcDbLine
 62
7
  6
CONTINUOUS
 10
-14.7538511738
 20
-17.2675467702
 11
-14.7538511738
 21
-17.1942134544
  0
LINE
  5
57B
100
AcDbEntity
  8
0
100
AcDbLine
 62
7
  6
CONTINUOUS
 10
-14.7538511738
 20
-15.7000467178
 11
-14.7538511738
 21
-15.6129634544
  0
LINE
  5
57C
100
AcDbEntity
  8
0
100
AcDbLine
 62
7
  6
CONTINUOUS
 10
-14.7538511738
 20
-15.4892134544
 11
-14.7538511738
 21
-15.402130191
  0
LINE
  5
57D
100
AcDbEntity
  8
0
100
AcDbLine
 62
7
  6
CONTINUOUS
 10
-14.7491703233
 20
-17.9321301188
 11
-14.7491703233
 21
-17.8908801254
  0
LINE
  5
57E
100
AcDbEntity
  8
0
100
AcDbLine
 62
7
  6
CONTINUOUS
 10
-14.7491703233
 20
-17.0200468227
 11
-14.7491703233
 21
-16.9833800861
  0
LINE
  5
57F
100
AcDbEntity
  8
0
100
AcDbLine
 62
7
  6
CONTINUOUS
 10
-14.7491703233
 20
-16.3004634544
 11
-14.7491703233
 21
-16.2729634544
  0
LINE
  5
580
100
AcDbEntity
  8
0
100
AcDbLine
 62
7
  6
CONTINUOUS
 10
-14.7491703233
 20
-15.0629634544
 11
-14.7491703233
 21
-14.9254634544
  0
LINE
  5
581
100
AcDbEntity
  8
0
100
AcDbLine
 62
7
  6
CONTINUOUS
 10
-14.7491703233
 20
-14.8612967178
 11
-14.7491703233
 21
-14.7787967178
  0
LINE
  5
582
100
AcDbEntity
  8
0
100
AcDbLine
 62
7
  6
CONTINUOUS
 10
-14.7491703233
 20
-14.5954634544
 11
-14.7491703233
 21
-14.5542134544
  0
LINE
  5
583
100
AcDbEntity
  8
0
100
AcDbLine
 62
7
  6
CONTINUOUS
 10
-14.7491703233
 20
-14.4258799811
 11
-14.7491703233
 21
-14.2883799811
  0
LINE
  5
584
100
AcDbEntity
  8
0
100
AcDbLine
 62
7
  6
CONTINUOUS
 10
-14.7257660707
 20
-16.2454634544
 11
-14.7257660707
 21
-16.2179634544
  0
LINE
  5
585
100
AcDbEntity
  8
0
100
AcDbLine
 62
7
  6
CONTINUOUS
 10
-14.7210852071
 20
-17.8542134544
 11
-14.7210852071
 21
-17.8267134544
  0
LINE
  5
586
100
AcDbEntity
  8
0
100
AcDbLine
 62
7
  6
CONTINUOUS
 10
-14.7210852071
 20
-14.5175467178
 11
-14.7210852071
 21
-14.4900467178
  0
LINE
  5
587
100
AcDbEntity
  8
0
100
AcDbLine
 62
7
  6
CONTINUOUS
 10
-14.6930001041
 20
-16.6304634544
 11
-14.6930001041
 21
-16.6533800861
  0
LINE
  5
588
100
AcDbEntity
  8
0
100
AcDbLine
 62
7
  6
CONTINUOUS
 10
-14.6883192536
 20
-14.3067134544
 11
-14.6883192536
 21
-14.4258799811
  0
LINE
  5
589
100
AcDbEntity
  8
0
100
AcDbLine
 62
7
  6
CONTINUOUS
 10
-14.6883192536
 20
-14.9437967178
 11
-14.6883192536
 21
-15.0629634544
  0
LINE
  5
58A
100
AcDbEntity
  8
0
100
AcDbLine
 62
7
  6
CONTINUOUS
 10
-14.6883192536
 20
-16.0117134544
 11
-14.6883192536
 21
-16.1400467178
  0
LINE
  5
58B
100
AcDbEntity
  8
0
100
AcDbLine
 62
7
  6
CONTINUOUS
 10
-14.6836384031
 20
-15.402130191
 11
-14.6836384031
 21
-15.4892134544
  0
LINE
  5
58C
100
AcDbEntity
  8
0
100
AcDbLine
 62
7
  6
CONTINUOUS
 10
-14.6836384031
 20
-15.6129634544
 11
-14.6836384031
 21
-15.7000467178
  0
LINE
  5
58D
100
AcDbEntity
  8
0
100
AcDbLine
 62
7
  6
CONTINUOUS
 10
-14.6836384031
 20
-16.2729634544
 11
-14.6836384031
 21
-16.3004634544
  0
LINE
  5
58E
100
AcDbEntity
  8
0
100
AcDbLine
 62
7
  6
CONTINUOUS
 10
-14.6789575526
 20
-14.4900467178
 11
-14.6789575526
 21
-14.5587967178
  0
LINE
  5
58F
100
AcDbEntity
  8
0
100
AcDbLine
 62
7
  6
CONTINUOUS
 10
-14.6695958516
 20
-16.6533800861
 11
-14.6695958516
 21
-16.6304634544
  0
LINE
  5
590
100
AcDbEntity
  8
0
100
AcDbLine
 62
7
  6
CONTINUOUS
 10
-14.6602341506
 20
-16.1400467178
 11
-14.6602341506
 21
-16.0117134544
  0
LINE
  5
591
100
AcDbEntity
  8
0
100
AcDbLine
 62
7
  6
CONTINUOUS
 10
-14.6602341506
 20
-15.0629634544
 11
-14.6602341506
 21
-14.9437967178
  0
LINE
  5
592
100
AcDbEntity
  8
0
100
AcDbLine
 62
7
  6
CONTINUOUS
 10
-14.6602341506
 20
-14.4258799811
 11
-14.6602341506
 21
-14.3067134544
  0
LINE
  5
593
100
AcDbEntity
  8
0
100
AcDbLine
 62
7
  6
CONTINUOUS
 10
-14.6555533
 20
-16.3004634544
 11
-14.6555533
 21
-16.2729634544
  0
LINE
  5
594
100
AcDbEntity
  8
0
100
AcDbLine
 62
7
  6
CONTINUOUS
 10
-14.6555533
 20
-15.7000467178
 11
-14.6555533
 21
-15.622130191
  0
LINE
  5
595
100
AcDbEntity
  8
0
100
AcDbLine
 62
7
  6
CONTINUOUS
 10
-14.6555533
 20
-15.4892134544
 11
-14.6555533
 21
-15.4067134544
  0
LINE
  5
596
100
AcDbEntity
  8
0
100
AcDbLine
 62
7
  6
CONTINUOUS
 10
-14.6508724495
 20
-14.5587967178
 11
-14.6508724495
 21
-14.5175467178
  0
LINE
  5
597
100
AcDbEntity
  8
0
100
AcDbLine
 62
7
  6
CONTINUOUS
 10
-14.632149041
 20
-15.814630191
 11
-14.632149041
 21
-15.897130191
  0
LINE
  5
598
100
AcDbEntity
  8
0
100
AcDbLine
 62
7
  6
CONTINUOUS
 10
-14.632149041
 20
-17.6571301123
 11
-14.632149041
 21
-17.7396301123
  0
LINE
  5
599
100
AcDbEntity
  8
0
100
AcDbLine
 62
7
  6
CONTINUOUS
 10
-14.6181064894
 20
-16.3462968227
 11
-14.6181064894
 21
-16.3737968227
  0
LINE
  5
59A
100
AcDbEntity
  8
0
100
AcDbLine
 62
7
  6
CONTINUOUS
 10
-14.6134256389
 20
-17.7442134544
 11
-14.6134256389
 21
-17.6525467964
  0
LINE
  5
59B
100
AcDbEntity
  8
0
100
AcDbLine
 62
7
  6
CONTINUOUS
 10
-14.6134256389
 20
-15.9017134544
 11
-14.6134256389
 21
-15.8100467178
  0
LINE
  5
59C
100
AcDbEntity
  8
0
100
AcDbLine
 62
7
  6
CONTINUOUS
 10
-14.6134256389
 20
-17.8267134544
 11
-14.6134256389
 21
-17.8542134544
  0
LINE
  5
59D
100
AcDbEntity
  8
0
100
AcDbLine
 62
7
  6
CONTINUOUS
 10
-14.5853405326
 20
-14.2883799811
 11
-14.5853405326
 21
-14.4258799811
  0
LINE
  5
59E
100
AcDbEntity
  8
0
100
AcDbLine
 62
7
  6
CONTINUOUS
 10
-14.5853405326
 20
-14.5542134544
 11
-14.5853405326
 21
-14.5954634544
  0
LINE
  5
59F
100
AcDbEntity
  8
0
100
AcDbLine
 62
7
  6
CONTINUOUS
 10
-14.5853405326
 20
-14.7787967178
 11
-14.5853405326
 21
-14.8612967178
  0
LINE
  5
5A0
100
AcDbEntity
  8
0
100
AcDbLine
 62
7
  6
CONTINUOUS
 10
-14.5853405326
 20
-14.9254634544
 11
-14.5853405326
 21
-15.0629634544
  0
LINE
  5
5A1
100
AcDbEntity
  8
0
100
AcDbLine
 62
7
  6
CONTINUOUS
 10
-14.5853405326
 20
-16.2729634544
 11
-14.5853405326
 21
-16.3096300861
  0
LINE
  5
5A2
100
AcDbEntity
  8
0
100
AcDbLine
 62
7
  6
CONTINUOUS
 10
-14.5853405326
 20
-16.9833800861
 11
-14.5853405326
 21
-17.0200468227
  0
LINE
  5
5A3
100
AcDbEntity
  8
0
100
AcDbLine
 62
7
  6
CONTINUOUS
 10
-14.5853405326
 20
-17.4783801385
 11
-14.5853405326
 21
-17.4967134544
  0
LINE
  5
5A4
100
AcDbEntity
  8
0
100
AcDbLine
 62
7
  6
CONTINUOUS
 10
-14.5853405326
 20
-17.8908801254
 11
-14.5853405326
 21
-17.9321301188
  0
LINE
  5
5A5
100
AcDbEntity
  8
0
100
AcDbLine
 62
7
  6
CONTINUOUS
 10
-14.5806596821
 20
-16.6304634544
 11
-14.5806596821
 21
-16.6533800861
  0
LINE
  5
5A6
100
AcDbEntity
  8
0
100
AcDbLine
 62
7
  6
CONTINUOUS
 10
-14.5572554263
 20
-17.9321301188
 11
-14.5572554263
 21
-17.8908801254
  0
LINE
  5
5A7
100
AcDbEntity
  8
0
100
AcDbLine
 62
7
  6
CONTINUOUS
 10
-14.5572554263
 20
-17.7900467833
 11
-14.5572554263
 21
-17.7625467964
  0
LINE
  5
5A8
100
AcDbEntity
  8
0
100
AcDbLine
 62
7
  6
CONTINUOUS
 10
-14.5572554263
 20
-17.6342134544
 11
-14.5572554263
 21
-17.6067134544
  0
LINE
  5
5A9
100
AcDbEntity
  8
0
100
AcDbLine
 62
7
  6
CONTINUOUS
 10
-14.5572554263
 20
-17.4967134544
 11
-14.5572554263
 21
-17.4783801385
  0
LINE
  5
5AA
100
AcDbEntity
  8
0
100
AcDbLine
 62
7
  6
CONTINUOUS
 10
-14.5572554263
 20
-17.2950467702
 11
-14.5572554263
 21
-17.2675467702
  0
LINE
  5
5AB
100
AcDbEntity
  8
0
100
AcDbLine
 62
7
  6
CONTINUOUS
 10
-14.5572554263
 20
-17.1575467702
 11
-14.5572554263
 21
-17.1300467702
  0
LINE
  5
5AC
100
AcDbEntity
  8
0
100
AcDbLine
 62
7
  6
CONTINUOUS
 10
-14.5572554263
 20
-17.0200468227
 11
-14.5572554263
 21
-16.9833800861
  0
LINE
  5
5AD
100
AcDbEntity
  8
0
100
AcDbLine
 62
7
  6
CONTINUOUS
 10
-14.5572554263
 20
-16.8733800861
 11
-14.5572554263
 21
-16.8458800861
  0
LINE
  5
5AE
100
AcDbEntity
  8
0
100
AcDbLine
 62
7
  6
CONTINUOUS
 10
-14.5572554263
 20
-16.7312968227
 11
-14.5572554263
 21
-16.6900468227
  0
LINE
  5
5AF
100
AcDbEntity
  8
0
100
AcDbLine
 62
7
  6
CONTINUOUS
 10
-14.5572554263
 20
-16.6533800861
 11
-14.5572554263
 21
-16.6304634544
  0
LINE
  5
5B0
100
AcDbEntity
  8
0
100
AcDbLine
 62
7
  6
CONTINUOUS
 10
-14.5572554263
 20
-16.3096300861
 11
-14.5572554263
 21
-16.2729634544
  0
LINE
  5
5B1
100
AcDbEntity
  8
0
100
AcDbLine
 62
7
  6
CONTINUOUS
 10
-14.5572554263
 20
-16.1675467178
 11
-14.5572554263
 21
-16.1400467178
  0
LINE
  5
5B2
100
AcDbEntity
  8
0
100
AcDbLine
 62
7
  6
CONTINUOUS
 10
-14.5572554263
 20
-16.0117134544
 11
-14.5572554263
 21
-15.9842134544
  0
LINE
  5
5B3
100
AcDbEntity
  8
0
100
AcDbLine
 62
7
  6
CONTINUOUS
 10
-14.5572554263
 20
-15.9475467178
 11
-14.5572554263
 21
-15.9200467178
  0
LINE
  5
5B4
100
AcDbEntity
  8
0
100
AcDbLine
 62
7
  6
CONTINUOUS
 10
-14.5572554263
 20
-15.7917134544
 11
-14.5572554263
 21
-15.7642134544
  0
LINE
  5
5B5
100
AcDbEntity
  8
0
100
AcDbLine
 62
7
  6
CONTINUOUS
 10
-14.5572554263
 20
-15.7275467178
 11
-14.5572554263
 21
-15.7000467178
  0
LINE
  5
5B6
100
AcDbEntity
  8
0
100
AcDbLine
 62
7
  6
CONTINUOUS
 10
-14.5572554263
 20
-15.5854634544
 11
-14.5572554263
 21
-15.553380191
  0
LINE
  5
5B7
100
AcDbEntity
  8
0
100
AcDbLine
 62
7
  6
CONTINUOUS
 10
-14.5572554263
 20
-15.5167134544
 11
-14.5572554263
 21
-15.4892134544
  0
LINE
  5
5B8
100
AcDbEntity
  8
0
100
AcDbLine
 62
7
  6
CONTINUOUS
 10
-14.5572554263
 20
-15.0904634544
 11
-14.5572554263
 21
-14.9254634544
  0
LINE
  5
5B9
100
AcDbEntity
  8
0
100
AcDbLine
 62
7
  6
CONTINUOUS
 10
-14.5572554263
 20
-14.8887967178
 11
-14.5572554263
 21
-14.7787967178
  0
LINE
  5
5BA
100
AcDbEntity
  8
0
100
AcDbLine
 62
7
  6
CONTINUOUS
 10
-14.5572554263
 20
-14.5954634544
 11
-14.5572554263
 21
-14.5542134544
  0
LINE
  5
5BB
100
AcDbEntity
  8
0
100
AcDbLine
 62
7
  6
CONTINUOUS
 10
-14.5572554263
 20
-14.4533799811
 11
-14.5572554263
 21
-14.2883799811
  0
LINE
  5
5BC
100
AcDbEntity
  8
0
100
AcDbLine
 62
7
  6
CONTINUOUS
 10
-14.7725745758
 20
-14.5312967178
 11
-14.7772554263
 21
-14.5542134544
  0
LINE
  5
5BD
100
AcDbEntity
  8
0
100
AcDbLine
 62
7
  6
CONTINUOUS
 10
-14.7725745758
 20
-14.755880191
 11
-14.7772554263
 21
-14.7787967178
  0
LINE
  5
5BE
100
AcDbEntity
  8
0
100
AcDbLine
 62
7
  6
CONTINUOUS
 10
-14.7725745758
 20
-15.3837967178
 11
-14.7772554263
 21
-15.4067134544
  0
LINE
  5
5BF
100
AcDbEntity
  8
0
100
AcDbLine
 62
7
  6
CONTINUOUS
 10
-14.7725745758
 20
-15.594630191
 11
-14.7772554263
 21
-15.6175467178
  0
LINE
  5
5C0
100
AcDbEntity
  8
0
100
AcDbLine
 62
7
  6
CONTINUOUS
 10
-14.5619362772
 20
-14.618380191
 11
-14.5572554263
 21
-14.5954634544
  0
LINE
  5
5C1
100
AcDbEntity
  8
0
100
AcDbLine
 62
7
  6
CONTINUOUS
 10
-14.7725745758
 20
-16.2546300861
 11
-14.7772554263
 21
-16.2775468227
  0
LINE
  5
5C2
100
AcDbEntity
  8
0
100
AcDbLine
 62
7
  6
CONTINUOUS
 10
-14.6789575526
 20
-16.2500468227
 11
-14.6836384031
 21
-16.2729634544
  0
LINE
  5
5C3
100
AcDbEntity
  8
0
100
AcDbLine
 62
7
  6
CONTINUOUS
 10
-14.7491703233
 20
-14.5542134544
 11
-14.7444894728
 21
-14.535880191
  0
LINE
  5
5C4
100
AcDbEntity
  8
0
100
AcDbLine
 62
7
  6
CONTINUOUS
 10
-14.7491703233
 20
-14.7787967178
 11
-14.7444894728
 21
-14.7604634544
  0
LINE
  5
5C5
100
AcDbEntity
  8
0
100
AcDbLine
 62
7
  6
CONTINUOUS
 10
-14.5853405326
 20
-14.5954634544
 11
-14.5900213831
 21
-14.6137967178
  0
LINE
  5
5C6
100
AcDbEntity
  8
0
100
AcDbLine
 62
7
  6
CONTINUOUS
 10
-14.7538511738
 20
-15.402130191
 11
-14.7491703233
 21
-15.388380191
  0
LINE
  5
5C7
100
AcDbEntity
  8
0
100
AcDbLine
 62
7
  6
CONTINUOUS
 10
-14.7538511738
 20
-15.6129634544
 11
-14.7491703233
 21
-15.5992134544
  0
LINE
  5
5C8
100
AcDbEntity
  8
0
100
AcDbLine
 62
7
  6
CONTINUOUS
 10
-14.7632128748
 20
-14.5129634544
 11
-14.7725745758
 21
-14.5312967178
  0
LINE
  5
5C9
100
AcDbEntity
  8
0
100
AcDbLine
 62
7
  6
CONTINUOUS
 10
-14.7632128748
 20
-14.7375467178
 11
-14.7725745758
 21
-14.755880191
  0
LINE
  5
5CA
100
AcDbEntity
  8
0
100
AcDbLine
 62
7
  6
CONTINUOUS
 10
-14.5712979795
 20
-14.6367134544
 11
-14.5619362772
 21
-14.618380191
  0
LINE
  5
5CB
100
AcDbEntity
  8
0
100
AcDbLine
 62
7
  6
CONTINUOUS
 10
-14.7444894728
 20
-14.535880191
 11
-14.7351277718
 21
-14.522130191
  0
LINE
  5
5CC
100
AcDbEntity
  8
0
100
AcDbLine
 62
7
  6
CONTINUOUS
 10
-14.7444894728
 20
-14.7604634544
 11
-14.7351277718
 21
-14.7467134544
  0
LINE
  5
5CD
100
AcDbEntity
  8
0
100
AcDbLine
 62
7
  6
CONTINUOUS
 10
-14.5900213831
 20
-14.6137967178
 11
-14.5993830874
 21
-14.6275467178
  0
LINE
  5
5CE
100
AcDbEntity
  8
0
100
AcDbLine
 62
7
  6
CONTINUOUS
 10
-14.7585320243
 20
-15.3654634544
 11
-14.7725745758
 21
-15.3837967178
  0
LINE
  5
5CF
100
AcDbEntity
  8
0
100
AcDbLine
 62
7
  6
CONTINUOUS
 10
-14.7444894728
 20
-14.7192134544
 11
-14.7632128748
 21
-14.7375467178
  0
LINE
  5
5D0
100
AcDbEntity
  8
0
100
AcDbLine
 62
7
  6
CONTINUOUS
 10
-14.5900213831
 20
-14.6550467178
 11
-14.5712979795
 21
-14.6367134544
  0
LINE
  5
5D1
100
AcDbEntity
  8
0
100
AcDbLine
 62
7
  6
CONTINUOUS
 10
-14.7491703233
 20
-15.388380191
 11
-14.7398086223
 21
-15.3792134544
  0
LINE
  5
5D2
100
AcDbEntity
  8
0
100
AcDbLine
 62
7
  6
CONTINUOUS
 10
-14.7398086223
 20
-15.3517134544
 11
-14.7585320243
 21
-15.3654634544
  0
LINE
  5
5D3
100
AcDbEntity
  8
0
100
AcDbLine
 62
7
  6
CONTINUOUS
 10
-14.5993830874
 20
-14.6275467178
 11
-14.6134256389
 21
-14.6367134544
  0
LINE
  5
5D4
100
AcDbEntity
  8
0
100
AcDbLine
 62
7
  6
CONTINUOUS
 10
-14.7351277718
 20
-14.7467134544
 11
-14.7210852071
 21
-14.7375467178
  0
LINE
  5
5D5
100
AcDbEntity
  8
0
100
AcDbLine
 62
7
  6
CONTINUOUS
 10
-14.7257660707
 20
-14.7100467178
 11
-14.7444894728
 21
-14.7192134544
  0
LINE
  5
5D6
100
AcDbEntity
  8
0
100
AcDbLine
 62
7
  6
CONTINUOUS
 10
-14.6087447884
 20
-14.6642134544
 11
-14.5900213831
 21
-14.6550467178
  0
LINE
  5
5D7
100
AcDbEntity
  8
0
100
AcDbLine
 62
7
  6
CONTINUOUS
 10
-14.7257660707
 20
-15.347130191
 11
-14.7398086223
 21
-15.3517134544
  0
LINE
  5
5D8
100
AcDbEntity
  8
0
100
AcDbLine
 62
7
  6
CONTINUOUS
 10
-14.7398086223
 20
-15.3792134544
 11
-14.7257660707
 21
-15.374630191
  0
LINE
  5
5D9
100
AcDbEntity
  8
0
100
AcDbLine
 62
7
  6
CONTINUOUS
 10
-14.7210852071
 20
-14.4900467178
 11
-14.7444894728
 21
-14.494630191
  0
LINE
  5
5DA
100
AcDbEntity
  8
0
100
AcDbLine
 62
7
  6
CONTINUOUS
 10
-14.7023618051
 20
-14.6687967178
 11
-14.632149041
 21
-14.6687967178
  0
LINE
  5
5DB
100
AcDbEntity
  8
0
100
AcDbLine
 62
7
  6
CONTINUOUS
 10
-14.632149041
 20
-14.6412967178
 11
-14.7023618051
 21
-14.6412967178
  0
LINE
  5
5DC
100
AcDbEntity
  8
0
100
AcDbLine
 62
7
  6
CONTINUOUS
 10
-14.6789575526
 20
-14.5587967178
 11
-14.6508724495
 21
-14.5587967178
  0
LINE
  5
5DD
100
AcDbEntity
  8
0
100
AcDbLine
 62
7
  6
CONTINUOUS
 10
-14.6508724495
 20
-14.5175467178
 11
-14.6134256389
 21
-14.5175467178
  0
LINE
  5
5DE
100
AcDbEntity
  8
0
100
AcDbLine
 62
7
  6
CONTINUOUS
 10
-14.6087447884
 20
-14.4900467178
 11
-14.6789575526
 21
-14.4900467178
  0
LINE
  5
5DF
100
AcDbEntity
  8
0
100
AcDbLine
 62
7
  6
CONTINUOUS
 10
-14.7772554263
 20
-14.4533799811
 11
-14.5572554263
 21
-14.4533799811
  0
LINE
  5
5E0
100
AcDbEntity
  8
0
100
AcDbLine
 62
7
  6
CONTINUOUS
 10
-14.5853405326
 20
-14.4258799811
 11
-14.6602341506
 21
-14.4258799811
  0
LINE
  5
5E1
100
AcDbEntity
  8
0
100
AcDbLine
 62
7
  6
CONTINUOUS
 10
-14.6883192536
 20
-14.4258799811
 11
-14.7491703233
 21
-14.4258799811
  0
LINE
  5
5E2
100
AcDbEntity
  8
0
100
AcDbLine
 62
7
  6
CONTINUOUS
 10
-14.6602341506
 20
-14.3067134544
 11
-14.6883192536
 21
-14.3067134544
  0
LINE
  5
5E3
100
AcDbEntity
  8
0
100
AcDbLine
 62
7
  6
CONTINUOUS
 10
-14.5572554263
 20
-14.2883799811
 11
-14.5853405326
 21
-14.2883799811
  0
LINE
  5
5E4
100
AcDbEntity
  8
0
100
AcDbLine
 62
7
  6
CONTINUOUS
 10
-14.7491703233
 20
-14.2883799811
 11
-14.7772554263
 21
-14.2883799811
  0
LINE
  5
5E5
100
AcDbEntity
  8
06___PRT_ALL_SURFS
100
AcDbLine
 62
7
  6
CONTINUOUS
 10
-15.2172554263
 20
-14.1054634544
 11
-14.2172554263
 21
-14.1054634544
  0
LINE
  5
5E6
100
AcDbEntity
  8
0
100
AcDbLine
 62
7
  6
CONTINUOUS
 10
-10.1141708012
 20
-14.1005729928
 11
-8.1141708012
 21
-14.1005729928
  0
LINE
  5
5E7
100
AcDbEntity
  8
0
100
AcDbLine
 62
7
  6
CONTINUOUS
 10
-14.6087447884
 20
-14.7100467178
 11
-14.632149041
 21
-14.7054634544
  0
LINE
  5
5E8
100
AcDbEntity
  8
0
100
AcDbLine
 62
7
  6
CONTINUOUS
 10
-14.7257660707
 20
-14.6642134544
 11
-14.7023618051
 21
-14.6687967178
  0
LINE
  5
5E9
100
AcDbEntity
  8
0
100
AcDbLine
 62
7
  6
CONTINUOUS
 10
-14.632149041
 20
-14.7329634544
 11
-14.6134256389
 21
-14.7375467178
  0
LINE
  5
5EA
100
AcDbEntity
  8
0
100
AcDbLine
 62
7
  6
CONTINUOUS
 10
-14.7023618051
 20
-14.6412967178
 11
-14.7210852071
 21
-14.6367134544
  0
LINE
  5
5EB
100
AcDbEntity
  8
0
100
AcDbLine
 62
7
  6
CONTINUOUS
 10
-14.5900213831
 20
-14.494630191
 11
-14.6087447884
 21
-14.4900467178
  0
LINE
  5
5EC
100
AcDbEntity
  8
0
100
AcDbLine
 62
7
  6
CONTINUOUS
 10
-14.6134256389
 20
-14.5175467178
 11
-14.5993830874
 21
-14.522130191
  0
LINE
  5
5ED
100
AcDbEntity
  8
0
100
AcDbLine
 62
7
  6
CONTINUOUS
 10
-14.7444894728
 20
-14.6550467178
 11
-14.7257660707
 21
-14.6642134544
  0
LINE
  5
5EE
100
AcDbEntity
  8
0
100
AcDbLine
 62
7
  6
CONTINUOUS
 10
-14.5900213831
 20
-14.7192134544
 11
-14.6087447884
 21
-14.7100467178
  0
LINE
  5
5EF
100
AcDbEntity
  8
0
100
AcDbLine
 62
7
  6
CONTINUOUS
 10
-14.6134256389
 20
-14.7375467178
 11
-14.5993830874
 21
-14.7467134544
  0
LINE
  5
5F0
100
AcDbEntity
  8
0
100
AcDbLine
 62
7
  6
CONTINUOUS
 10
-14.7210852071
 20
-14.6367134544
 11
-14.7351277718
 21
-14.6275467178
  0
LINE
  5
5F1
100
AcDbEntity
  8
0
100
AcDbLine
 62
7
  6
CONTINUOUS
 10
-14.7632128748
 20
-14.6367134544
 11
-14.7444894728
 21
-14.6550467178
  0
LINE
  5
5F2
100
AcDbEntity
  8
0
100
AcDbLine
 62
7
  6
CONTINUOUS
 10
-14.5712979795
 20
-14.7375467178
 11
-14.5900213831
 21
-14.7192134544
  0
LINE
  5
5F3
100
AcDbEntity
  8
0
100
AcDbLine
 62
7
  6
CONTINUOUS
 10
-14.5712979795
 20
-14.5129634544
 11
-14.5900213831
 21
-14.494630191
  0
LINE
  5
5F4
100
AcDbEntity
  8
0
100
AcDbLine
 62
7
  6
CONTINUOUS
 10
-14.7351277718
 20
-14.6275467178
 11
-14.7444894728
 21
-14.6137967178
  0
LINE
  5
5F5
100
AcDbEntity
  8
0
100
AcDbLine
 62
7
  6
CONTINUOUS
 10
-14.5993830874
 20
-14.7467134544
 11
-14.5900213831
 21
-14.7604634544
  0
LINE
  5
5F6
100
AcDbEntity
  8
0
100
AcDbLine
 62
7
  6
CONTINUOUS
 10
-14.5993830874
 20
-14.522130191
 11
-14.5900213831
 21
-14.535880191
  0
LINE
  5
5F7
100
AcDbEntity
  8
0
100
AcDbLine
 62
7
  6
CONTINUOUS
 10
-14.7725745758
 20
-14.618380191
 11
-14.7632128748
 21
-14.6367134544
  0
LINE
  5
5F8
100
AcDbEntity
  8
0
100
AcDbLine
 62
7
  6
CONTINUOUS
 10
-14.5619362772
 20
-14.755880191
 11
-14.5712979795
 21
-14.7375467178
  0
LINE
  5
5F9
100
AcDbEntity
  8
0
100
AcDbLine
 62
7
  6
CONTINUOUS
 10
-14.5619362772
 20
-14.5312967178
 11
-14.5712979795
 21
-14.5129634544
  0
LINE
  5
5FA
100
AcDbEntity
  8
0
100
AcDbLine
 62
7
  6
CONTINUOUS
 10
-14.6883192536
 20
-15.5992134544
 11
-14.6836384031
 21
-15.6129634544
  0
LINE
  5
5FB
100
AcDbEntity
  8
0
100
AcDbLine
 62
7
  6
CONTINUOUS
 10
-14.6883192536
 20
-15.388380191
 11
-14.6836384031
 21
-15.402130191
  0
LINE
  5
5FC
100
AcDbEntity
  8
0
100
AcDbLine
 62
7
  6
CONTINUOUS
 10
-14.5900213831
 20
-16.2546300861
 11
-14.5853405326
 21
-16.2729634544
  0
LINE
  5
5FD
100
AcDbEntity
  8
0
100
AcDbLine
 62
7
  6
CONTINUOUS
 10
-14.7444894728
 20
-14.6137967178
 11
-14.7491703233
 21
-14.5954634544
  0
LINE
  5
5FE
100
AcDbEntity
  8
0
100
AcDbLine
 62
7
  6
CONTINUOUS
 10
-14.5900213831
 20
-14.7604634544
 11
-14.5853405326
 21
-14.7787967178
  0
LINE
  5
5FF
100
AcDbEntity
  8
0
100
AcDbLine
 62
7
  6
CONTINUOUS
 10
-14.5900213831
 20
-14.535880191
 11
-14.5853405326
 21
-14.5542134544
  0
LINE
  5
600
100
AcDbEntity
  8
0
100
AcDbLine
 62
7
  6
CONTINUOUS
 10
-14.5572554263
 20
-16.2729634544
 11
-14.5619362772
 21
-16.2500468227
  0
LINE
  5
601
100
AcDbEntity
  8
0
100
AcDbLine
 62
7
  6
CONTINUOUS
 10
-14.6555533
 20
-15.4067134544
 11
-14.6602341506
 21
-15.3837967178
  0
LINE
  5
602
100
AcDbEntity
  8
0
100
AcDbLine
 62
7
  6
CONTINUOUS
 10
-14.7772554263
 20
-14.5954634544
 11
-14.7725745758
 21
-14.618380191
  0
LINE
  5
603
100
AcDbEntity
  8
0
100
AcDbLine
 62
7
  6
CONTINUOUS
 10
-14.5572554263
 20
-14.7787967178
 11
-14.5619362772
 21
-14.755880191
  0
LINE
  5
604
100
AcDbEntity
  8
0
100
AcDbLine
 62
7
  6
CONTINUOUS
 10
-14.5572554263
 20
-14.5542134544
 11
-14.5619362772
 21
-14.5312967178
  0
LINE
  5
605
100
AcDbEntity
  8
06___PRT_ALL_SURFS
100
AcDbLine
 62
7
  6
CONTINUOUS
 10
-14.2172554263
 20
-14.1054634544
 11
-14.2172554263
 21
-18.1054634544
  0
LINE
  5
606
100
AcDbEntity
  8
0
100
AcDbLine
 62
7
  6
CONTINUOUS
 10
-14.7725745758
 20
-16.9604634544
 11
-14.7772554263
 21
-16.9833800861
  0
LINE
  5
607
100
AcDbEntity
  8
0
100
AcDbLine
 62
7
  6
CONTINUOUS
 10
-14.5619362772
 20
-16.3325468227
 11
-14.5572554263
 21
-16.3096300861
  0
LINE
  5
608
100
AcDbEntity
  8
0
100
AcDbLine
 62
7
  6
CONTINUOUS
 10
-14.7725745758
 20
-17.8679634544
 11
-14.7772554263
 21
-17.8908801254
  0
LINE
  5
609
100
AcDbEntity
  8
0
100
AcDbLine
 62
7
  6
CONTINUOUS
 10
-14.5619362772
 20
-17.0429634544
 11
-14.5572554263
 21
-17.0200468227
  0
LINE
  5
60A
100
AcDbEntity
  8
0
100
AcDbLine
 62
7
  6
CONTINUOUS
 10
-14.5619362772
 20
-17.5196301385
 11
-14.5572554263
 21
-17.4967134544
  0
LINE
  5
60B
100
AcDbEntity
  8
0
100
AcDbLine
 62
7
  6
CONTINUOUS
 10
-14.5619362772
 20
-17.9550467866
 11
-14.5572554263
 21
-17.9321301188
  0
LINE
  5
60C
100
AcDbEntity
  8
0
100
AcDbLine
 62
7
  6
CONTINUOUS
 10
-14.6555533
 20
-16.2729634544
 11
-14.6508724495
 21
-16.2546300861
  0
LINE
  5
60D
100
AcDbEntity
  8
0
100
AcDbLine
 62
7
  6
CONTINUOUS
 10
-14.6602341506
 20
-16.3187968227
 11
-14.6555533
 21
-16.3004634544
  0
LINE
  5
60E
100
AcDbEntity
  8
0
100
AcDbLine
 62
7
  6
CONTINUOUS
 10
-14.5853405326
 20
-16.3096300861
 11
-14.5900213831
 21
-16.3279634544
  0
LINE
  5
60F
100
AcDbEntity
  8
0
100
AcDbLine
 62
7
  6
CONTINUOUS
 10
-14.7491703233
 20
-16.9833800861
 11
-14.7444894728
 21
-16.9650468227
  0
LINE
  5
610
100
AcDbEntity
  8
0
100
AcDbLine
 62
7
  6
CONTINUOUS
 10
-14.5853405326
 20
-17.0200468227
 11
-14.5900213831
 21
-17.0383800861
  0
LINE
  5
611
100
AcDbEntity
  8
0
100
AcDbLine
 62
7
  6
CONTINUOUS
 10
-14.7491703233
 20
-17.8908801254
 11
-14.7444894728
 21
-17.8725467833
  0
LINE
  5
612
100
AcDbEntity
  8
0
100
AcDbLine
 62
7
  6
CONTINUOUS
 10
-14.5853405326
 20
-17.4967134544
 11
-14.5900213831
 21
-17.5150467702
  0
LINE
  5
613
100
AcDbEntity
  8
0
100
AcDbLine
 62
7
  6
CONTINUOUS
 10
-14.5853405326
 20
-17.9321301188
 11
-14.5900213831
 21
-17.9504634544
  0
LINE
  5
614
100
AcDbEntity
  8
0
100
AcDbLine
 62
7
  6
CONTINUOUS
 10
-14.7491703233
 20
-16.2729634544
 11
-14.7444894728
 21
-16.2592134544
  0
LINE
  5
615
100
AcDbEntity
  8
0
100
AcDbLine
 62
7
  6
CONTINUOUS
 10
-14.6836384031
 20
-16.3004634544
 11
-14.6883192536
 21
-16.3142134544
  0
LINE
  5
616
100
AcDbEntity
  8
0
100
AcDbLine
 62
7
  6
CONTINUOUS
 10
-14.6695958516
 20
-16.2317134544
 11
-14.6789575526
 21
-16.2500468227
  0
LINE
  5
617
100
AcDbEntity
  8
0
100
AcDbLine
 62
7
  6
CONTINUOUS
 10
-14.6695958516
 20
-16.3371300861
 11
-14.6602341506
 21
-16.3187968227
  0
LINE
  5
618
100
AcDbEntity
  8
0
100
AcDbLine
 62
7
  6
CONTINUOUS
 10
-14.7632128748
 20
-16.9421300861
 11
-14.7725745758
 21
-16.9604634544
  0
LINE
  5
619
100
AcDbEntity
  8
0
100
AcDbLine
 62
7
  6
CONTINUOUS
 10
-14.57597883
 20
-16.3554634544
 11
-14.5619362772
 21
-16.3325468227
  0
LINE
  5
61A
100
AcDbEntity
  8
0
100
AcDbLine
 62
7
  6
CONTINUOUS
 10
-14.6508724495
 20
-16.2546300861
 11
-14.6415107485
 21
-16.240880191
  0
LINE
  5
61B
100
AcDbEntity
  8
0
100
AcDbLine
 62
7
  6
CONTINUOUS
 10
-14.6883192536
 20
-16.3142134544
 11
-14.6976809546
 21
-16.3279634544
  0
LINE
  5
61C
100
AcDbEntity
  8
0
100
AcDbLine
 62
7
  6
CONTINUOUS
 10
-14.7585320243
 20
-15.5762967178
 11
-14.7725745758
 21
-15.594630191
  0
LINE
  5
61D
100
AcDbEntity
  8
0
100
AcDbLine
 62
7
  6
CONTINUOUS
 10
-14.7585320243
 20
-16.2362967178
 11
-14.7725745758
 21
-16.2546300861
  0
LINE
  5
61E
100
AcDbEntity
  8
0
100
AcDbLine
 62
7
  6
CONTINUOUS
 10
-14.7491703233
 20
-15.5992134544
 11
-14.7398086223
 21
-15.5900467178
  0
LINE
  5
61F
100
AcDbEntity
  8
0
100
AcDbLine
 62
7
  6
CONTINUOUS
 10
-14.7444894728
 20
-16.2592134544
 11
-14.7351277718
 21
-16.2500468227
  0
LINE
  5
620
100
AcDbEntity
  8
0
100
AcDbLine
 62
7
  6
CONTINUOUS
 10
-14.6508724495
 20
-16.213380191
 11
-14.6695958516
 21
-16.2317134544
  0
LINE
  5
621
100
AcDbEntity
  8
0
100
AcDbLine
 62
7
  6
CONTINUOUS
 10
-14.7398086223
 20
-15.5625467178
 11
-14.7585320243
 21
-15.5762967178
  0
LINE
  5
622
100
AcDbEntity
  8
0
100
AcDbLine
 62
7
  6
CONTINUOUS
 10
-14.5572554263
 20
-15.553380191
 11
-14.6649150011
 21
-15.594630191
  0
LINE
  5
623
100
AcDbEntity
  8
0
100
AcDbLine
 62
7
  6
CONTINUOUS
 10
-14.6555533
 20
-15.622130191
 11
-14.5572554263
 21
-15.5854634544
  0
LINE
  5
624
100
AcDbEntity
  8
0
100
AcDbLine
 62
7
  6
CONTINUOUS
 10
-14.5572554263
 20
-15.7642134544
 11
-14.7772554263
 21
-15.8375467178
  0
LINE
  5
625
100
AcDbEntity
  8
0
100
AcDbLine
 62
7
  6
CONTINUOUS
 10
-14.7257660707
 20
-15.5579634544
 11
-14.7398086223
 21
-15.5625467178
  0
LINE
  5
626
100
AcDbEntity
  8
0
100
AcDbLine
 62
7
  6
CONTINUOUS
 10
-14.7398086223
 20
-15.5900467178
 11
-14.7257660707
 21
-15.5854634544
  0
LINE
  5
627
100
AcDbEntity
  8
0
100
AcDbLine
 62
7
  6
CONTINUOUS
 10
-14.7585320243
 20
-15.855880191
 11
-14.632149041
 21
-15.814630191
  0
LINE
  5
628
100
AcDbEntity
  8
0
100
AcDbLine
 62
7
  6
CONTINUOUS
 10
-14.6134256389
 20
-15.8100467178
 11
-14.5572554263
 21
-15.7917134544
  0
LINE
  5
629
100
AcDbEntity
  8
0
100
AcDbLine
 62
7
  6
CONTINUOUS
 10
-14.5712979795
 20
-17.0612968227
 11
-14.5619362772
 21
-17.0429634544
  0
LINE
  5
62A
100
AcDbEntity
  8
0
100
AcDbLine
 62
7
  6
CONTINUOUS
 10
-14.7632128748
 20
-17.8496301254
 11
-14.7725745758
 21
-17.8679634544
  0
LINE
  5
62B
100
AcDbEntity
  8
0
100
AcDbLine
 62
7
  6
CONTINUOUS
 10
-14.5712979795
 20
-17.5379634544
 11
-14.5619362772
 21
-17.5196301385
  0
LINE
  5
62C
100
AcDbEntity
  8
0
100
AcDbLine
 62
7
  6
CONTINUOUS
 10
-14.5712979795
 20
-17.9733801221
 11
-14.5619362772
 21
-17.9550467866
  0
LINE
  5
62D
100
AcDbEntity
  8
0
100
AcDbLine
 62
7
  6
CONTINUOUS
 10
-14.7444894728
 20
-16.9650468227
 11
-14.7351277718
 21
-16.9512968227
  0
LINE
  5
62E
100
AcDbEntity
  8
0
100
AcDbLine
 62
7
  6
CONTINUOUS
 10
-14.5900213831
 20
-17.0383800861
 11
-14.5993830874
 21
-17.0521300861
  0
LINE
  5
62F
100
AcDbEntity
  8
0
100
AcDbLine
 62
7
  6
CONTINUOUS
 10
-14.5900213831
 20
-17.5150467702
 11
-14.5993830874
 21
-17.5287967702
  0
LINE
  5
630
100
AcDbEntity
  8
0
100
AcDbLine
 62
7
  6
CONTINUOUS
 10
-14.6883192536
 20
-16.3554634544
 11
-14.6695958516
 21
-16.3371300861
  0
LINE
  5
631
100
AcDbEntity
  8
0
100
AcDbLine
 62
7
  6
CONTINUOUS
 10
-14.5900213831
 20
-16.3279634544
 11
-14.6040639379
 21
-16.3417134544
  0
LINE
  5
632
100
AcDbEntity
  8
0
100
AcDbLine
 62
7
  6
CONTINUOUS
 10
-14.7444894728
 20
-16.9237968227
 11
-14.7632128748
 21
-16.9421300861
  0
LINE
  5
633
100
AcDbEntity
  8
0
100
AcDbLine
 62
7
  6
CONTINUOUS
 10
-14.7398086223
 20
-16.2225467178
 11
-14.7585320243
 21
-16.2362967178
  0
LINE
  5
634
100
AcDbEntity
  8
0
100
AcDbLine
 62
7
  6
CONTINUOUS
 10
-14.6415107485
 20
-16.240880191
 11
-14.6274681905
 21
-16.2317134544
  0
LINE
  5
635
100
AcDbEntity
  8
0
100
AcDbLine
 62
7
  6
CONTINUOUS
 10
-14.5900213831
 20
-16.7175468227
 11
-14.7772554263
 21
-16.8321300861
  0
LINE
  5
636
100
AcDbEntity
  8
0
100
AcDbLine
 62
7
  6
CONTINUOUS
 10
-14.7491703233
 20
-16.8458800861
 11
-14.5572554263
 21
-16.7312968227
  0
LINE
  5
637
100
AcDbEntity
  8
0
100
AcDbLine
 62
7
  6
CONTINUOUS
 10
-14.5993830874
 20
-16.3692134544
 11
-14.57597883
 21
-16.3554634544
  0
LINE
  5
638
100
AcDbEntity
  8
0
100
AcDbLine
 62
7
  6
CONTINUOUS
 10
-14.7351277718
 20
-16.2500468227
 11
-14.7257660707
 21
-16.2454634544
  0
LINE
  5
639
100
AcDbEntity
  8
0
100
AcDbLine
 62
7
  6
CONTINUOUS
 10
-14.632149041
 20
-16.2042134544
 11
-14.6508724495
 21
-16.213380191
  0
LINE
  5
63A
100
AcDbEntity
  8
0
100
AcDbLine
 62
7
  6
CONTINUOUS
 10
-14.7257660707
 20
-16.2179634544
 11
-14.7398086223
 21
-16.2225467178
  0
LINE
  5
63B
100
AcDbEntity
  8
0
100
AcDbLine
 62
7
  6
CONTINUOUS
 10
-14.6976809546
 20
-16.3279634544
 11
-14.7117235061
 21
-16.3325468227
  0
LINE
  5
63C
100
AcDbEntity
  8
0
100
AcDbLine
 62
7
  6
CONTINUOUS
 10
-14.6040639379
 20
-16.3417134544
 11
-14.6181064894
 21
-16.3462968227
  0
LINE
  5
63D
100
AcDbEntity
  8
0
100
AcDbLine
 62
7
  6
CONTINUOUS
 10
-14.7444894728
 20
-17.8725467833
 11
-14.7351277718
 21
-17.8587967833
  0
LINE
  5
63E
100
AcDbEntity
  8
0
100
AcDbLine
 62
7
  6
CONTINUOUS
 10
-14.5900213831
 20
-17.9504634544
 11
-14.5993830874
 21
-17.9642134544
  0
LINE
  5
63F
100
AcDbEntity
  8
0
100
AcDbLine
 62
7
  6
CONTINUOUS
 10
-14.5900213831
 20
-17.0796300861
 11
-14.5712979795
 21
-17.0612968227
  0
LINE
  5
640
100
AcDbEntity
  8
0
100
AcDbLine
 62
7
  6
CONTINUOUS
 10
-14.5900213831
 20
-17.5562967702
 11
-14.5712979795
 21
-17.5379634544
  0
LINE
  5
641
100
AcDbEntity
  8
0
100
AcDbLine
 62
7
  6
CONTINUOUS
 10
-14.7444894728
 20
-17.8312967833
 11
-14.7632128748
 21
-17.8496301254
  0
LINE
  5
642
100
AcDbEntity
  8
0
100
AcDbLine
 62
7
  6
CONTINUOUS
 10
-14.7351277718
 20
-16.9512968227
 11
-14.7210852071
 21
-16.9421300861
  0
LINE
  5
643
100
AcDbEntity
  8
0
100
AcDbLine
 62
7
  6
CONTINUOUS
 10
-14.5993830874
 20
-17.0521300861
 11
-14.6134256389
 21
-17.0612968227
  0
LINE
  5
644
100
AcDbEntity
  8
0
100
AcDbLine
 62
7
  6
CONTINUOUS
 10
-14.5993830874
 20
-17.5287967702
 11
-14.6134256389
 21
-17.5379634544
  0
LINE
  5
645
100
AcDbEntity
  8
0
100
AcDbLine
 62
7
  6
CONTINUOUS
 10
-14.7257660707
 20
-16.9146300861
 11
-14.7444894728
 21
-16.9237968227
  0
LINE
  5
646
100
AcDbEntity
  8
0
100
AcDbLine
 62
7
  6
CONTINUOUS
 10
-14.6087447884
 20
-17.0887968227
 11
-14.5900213831
 21
-17.0796300861
  0
LINE
  5
647
100
AcDbEntity
  8
0
100
AcDbLine
 62
7
  6
CONTINUOUS
 10
-14.5900213831
 20
-17.9917134544
 11
-14.5712979795
 21
-17.9733801221
  0
LINE
  5
648
100
AcDbEntity
  8
0
100
AcDbLine
 62
7
  6
CONTINUOUS
 10
-14.5993830874
 20
-17.9642134544
 11
-14.6134256389
 21
-17.9733801221
  0
LINE
  5
649
100
AcDbEntity
  8
0
100
AcDbLine
 62
7
  6
CONTINUOUS
 10
-14.6087447884
 20
-17.5654634544
 11
-14.5900213831
 21
-17.5562967702
  0
LINE
  5
64A
100
AcDbEntity
  8
0
100
AcDbLine
 62
7
  6
CONTINUOUS
 10
-14.6087447884
 20
-18.0008801209
 11
-14.5900213831
 21
-17.9917134544
  0
LINE
  5
64B
100
AcDbEntity
  8
0
100
AcDbLine
 62
7
  6
CONTINUOUS
 10
-14.5572554263
 20
-17.6067134544
 11
-14.7772554263
 21
-17.6800467964
  0
LINE
  5
64C
100
AcDbEntity
  8
0
100
AcDbLine
 62
7
  6
CONTINUOUS
 10
-14.7585320243
 20
-17.6983801123
 11
-14.632149041
 21
-17.6571301123
  0
LINE
  5
64D
100
AcDbEntity
  8
0
100
AcDbLine
 62
7
  6
CONTINUOUS
 10
-14.6134256389
 20
-17.6525467964
 11
-14.5572554263
 21
-17.6342134544
  0
LINE
  5
64E
100
AcDbEntity
  8
0
100
AcDbLine
 62
7
  6
CONTINUOUS
 10
-14.7351277718
 20
-17.8587967833
 11
-14.7210852071
 21
-17.8542134544
  0
LINE
  5
64F
100
AcDbEntity
  8
0
100
AcDbLine
 62
7
  6
CONTINUOUS
 10
-8.3947066191
 20
-10.9217175284
 11
-8.0999025966
 21
-10.9217175284
  0
LINE
  5
650
100
AcDbEntity
  8
0
100
AcDbLine
 62
7
  6
CONTINUOUS
 10
-8.1830512176
 20
-10.7104638709
 11
-8.1467539757
 21
-10.7104638709
  0
LINE
  5
651
100
AcDbEntity
  8
0
100
AcDbLine
 62
7
  6
CONTINUOUS
 10
-10.1141708012
 20
-14.1005729928
 11
-10.1141708012
 21
-18.1005729928
  0
LINE
  5
652
100
AcDbEntity
  8
0
100
AcDbLine
 62
7
  6
CONTINUOUS
 10
-8.214262449
 20
-12.2315896448
 11
-8.1748956597
 21
-12.1521948979
  0
LINE
  5
653
100
AcDbEntity
  8
0
100
AcDbLine
 62
7
  6
CONTINUOUS
 10
-8.1173707202
 20
-12.0361788832
 11
-8.0282294465
 21
-11.8563992014
  0
LINE
  5
654
100
AcDbEntity
  8
0
100
AcDbLine
 62
7
  6
CONTINUOUS
 10
-9.0804567505
 20
-8.8848876062
 11
-9.0816521586
 21
-8.9099117668
  0
LINE
  5
655
100
AcDbEntity
  8
0
100
AcDbLine
 62
7
  6
CONTINUOUS
 10
-9.079318746
 20
-8.862576549
 11
-9.0804567505
 21
-8.8848876062
  0
LINE
  5
656
100
AcDbEntity
  8
0
100
AcDbLine
 62
7
  6
CONTINUOUS
 10
-9.0777141428
 20
-8.8336308345
 11
-9.079318746
 21
-8.862576549
  0
LINE
  5
657
100
AcDbEntity
  8
0
100
AcDbLine
 62
7
  6
CONTINUOUS
 10
-9.0761980202
 20
-8.808984141
 11
-9.0777141428
 21
-8.8336308345
  0
LINE
  5
658
100
AcDbEntity
  8
0
100
AcDbLine
 62
7
  6
CONTINUOUS
 10
-9.0752225479
 20
-8.7945097946
 11
-9.0761980202
 21
-8.808984141
  0
LINE
  5
659
100
AcDbEntity
  8
0
100
AcDbLine
 62
7
  6
CONTINUOUS
 10
-9.0742667159
 20
-8.7813695484
 11
-9.0752225479
 21
-8.7945097946
  0
LINE
  5
65A
100
AcDbEntity
  8
0
100
AcDbLine
 62
7
  6
CONTINUOUS
 10
-9.0733220029
 20
-8.7693852332
 11
-9.0742667159
 21
-8.7813695484
  0
LINE
  5
65B
100
AcDbEntity
  8
0
100
AcDbLine
 62
7
  6
CONTINUOUS
 10
-9.048843227
 20
-8.8632108705
 11
-9.0478734883
 21
-8.8812151217
  0
LINE
  5
65C
100
AcDbEntity
  8
0
100
AcDbLine
 62
7
  6
CONTINUOUS
 10
-9.0478734883
 20
-8.8812151217
 11
-9.0468859091
 21
-8.9007095084
  0
LINE
  5
65D
100
AcDbEntity
  8
0
100
AcDbLine
 62
7
  6
CONTINUOUS
 10
-9.0468859091
 20
-8.9007095084
 11
-9.0458817633
 21
-8.9217165165
  0
LINE
  5
65E
100
AcDbEntity
  8
0
100
AcDbLine
 62
7
  6
CONTINUOUS
 10
-9.0458817633
 20
-8.9217165165
 11
-9.0448614311
 21
-8.9442733062
  0
LINE
  5
65F
100
AcDbEntity
  8
0
100
AcDbLine
 62
7
  6
CONTINUOUS
 10
-9.0448614311
 20
-8.9442733062
 11
-9.0438231436
 21
-8.9684666845
  0
LINE
  5
660
100
AcDbEntity
  8
0
100
AcDbLine
 62
7
  6
CONTINUOUS
 10
-9.0438231436
 20
-8.9684666845
 11
-9.042764647
 21
-8.9944040097
  0
LINE
  5
661
100
AcDbEntity
  8
0
100
AcDbLine
 62
7
  6
CONTINUOUS
 10
-9.042764647
 20
-8.9944040097
 11
-9.0416835918
 21
-9.0222058035
  0
LINE
  5
662
100
AcDbEntity
  8
0
100
AcDbLine
 62
7
  6
CONTINUOUS
 10
-9.0416835918
 20
-9.0222058035
 11
-9.0405775583
 21
-9.0520056504
  0
LINE
  5
663
100
AcDbEntity
  8
0
100
AcDbLine
 62
7
  6
CONTINUOUS
 10
-9.0405775583
 20
-9.0520056504
 11
-9.0394440736
 21
-9.0839501563
  0
LINE
  5
664
100
AcDbEntity
  8
0
100
AcDbLine
 62
7
  6
CONTINUOUS
 10
-9.0394440736
 20
-9.0839501563
 11
-9.0382806246
 21
-9.1181989379
  0
LINE
  5
665
100
AcDbEntity
  8
0
100
AcDbLine
 62
7
  6
CONTINUOUS
 10
-9.0382806246
 20
-9.1181989379
 11
-9.0370846656
 21
-9.154924641
  0
LINE
  5
666
100
AcDbEntity
  8
0
100
AcDbLine
 62
7
  6
CONTINUOUS
 10
-9.0370846656
 20
-9.154924641
 11
-9.0358531515
 21
-9.1943283872
  0
LINE
  5
667
100
AcDbEntity
  8
0
100
AcDbLine
 62
7
  6
CONTINUOUS
 10
-9.0358531515
 20
-9.1943283872
 11
-9.0345817399
 21
-9.2366700609
  0
LINE
  5
668
100
AcDbEntity
  8
0
100
AcDbLine
 62
7
  6
CONTINUOUS
 10
-9.0345817399
 20
-9.2366700609
 11
-9.0332658604
 21
-9.2822391685
  0
LINE
  5
669
100
AcDbEntity
  8
0
100
AcDbLine
 62
7
  6
CONTINUOUS
 10
-9.0332658604
 20
-9.2822391685
 11
-9.0319021219
 21
-9.3313048746
  0
LINE
  5
66A
100
AcDbEntity
  8
0
100
AcDbLine
 62
7
  6
CONTINUOUS
 10
-9.0319021219
 20
-9.3313048746
 11
-9.0304903066
 21
-9.3840319761
  0
LINE
  5
66B
100
AcDbEntity
  8
0
100
AcDbLine
 62
7
  6
CONTINUOUS
 10
-8.9428890961
 20
-14.0378914949
 11
-8.9412351499
 21
-14.1005729928
  0
LINE
  5
66C
100
AcDbEntity
  8
0
100
AcDbLine
 62
7
  6
CONTINUOUS
 10
-9.0304903066
 20
-9.3840319761
 11
-9.0290307172
 21
-9.4405628568
  0
LINE
  5
66D
100
AcDbEntity
  8
0
100
AcDbLine
 62
7
  6
CONTINUOUS
 10
-8.944795087
 20
-13.9623930562
 11
-8.9428890961
 21
-14.0378914949
  0
LINE
  5
66E
100
AcDbEntity
  8
0
100
AcDbLine
 62
7
  6
CONTINUOUS
 10
-9.0290307172
 20
-9.4405628568
 11
-9.027523653
 21
-9.5010340245
  0
LINE
  5
66F
100
AcDbEntity
  8
0
100
AcDbLine
 62
7
  6
CONTINUOUS
 10
-8.9468076902
 20
-13.8790565643
 11
-8.944795087
 21
-13.9623930562
  0
LINE
  5
670
100
AcDbEntity
  8
0
100
AcDbLine
 62
7
  6
CONTINUOUS
 10
-9.027523653
 20
-9.5010340245
 11
-9.0259694091
 21
-9.5655747867
  0
LINE
  5
671
100
AcDbEntity
  8
0
100
AcDbLine
 62
7
  6
CONTINUOUS
 10
-9.0259694091
 20
-9.5655747867
 11
-9.0243665864
 21
-9.6343796076
  0
LINE
  5
672
100
AcDbEntity
  8
0
100
AcDbLine
 62
7
  6
CONTINUOUS
 10
-8.9489388478
 20
-13.7869129277
 11
-8.9468076902
 21
-13.8790565643
  0
LINE
  5
673
100
AcDbEntity
  8
0
100
AcDbLine
 62
7
  6
CONTINUOUS
 10
-9.0243665864
 20
-9.6343796076
 11
-9.0227032877
 21
-9.7081148608
  0
LINE
  5
674
100
AcDbEntity
  8
0
100
AcDbLine
 62
7
  6
CONTINUOUS
 10
-8.9512082921
 20
-13.6845699418
 11
-8.9489388478
 21
-13.7869129277
  0
LINE
  5
675
100
AcDbEntity
  8
0
100
AcDbLine
 62
7
  6
CONTINUOUS
 10
-9.0227032877
 20
-9.7081148608
 11
-9.0209635858
 21
-9.7876902981
  0
LINE
  5
676
100
AcDbEntity
  8
0
100
AcDbLine
 62
7
  6
CONTINUOUS
 10
-8.9536236946
 20
-13.5710996252
 11
-8.9512082921
 21
-13.6845699418
  0
LINE
  5
677
100
AcDbEntity
  8
0
100
AcDbLine
 62
7
  6
CONTINUOUS
 10
-9.0209635858
 20
-9.7876902981
 11
-9.0191323985
 21
-9.8740519647
  0
LINE
  5
678
100
AcDbEntity
  8
0
100
AcDbLine
 62
7
  6
CONTINUOUS
 10
-9.0191323985
 20
-9.8740519647
 11
-9.0172004334
 21
-9.9679290596
  0
LINE
  5
679
100
AcDbEntity
  8
0
100
AcDbLine
 62
7
  6
CONTINUOUS
 10
-8.9561811795
 20
-13.4461410444
 11
-8.9536236946
 21
-13.5710996252
  0
LINE
  5
67A
100
AcDbEntity
  8
0
100
AcDbLine
 62
7
  6
CONTINUOUS
 10
-9.0172004334
 20
-9.9679290596
 11
-9.015160776
 21
-10.0699600457
  0
LINE
  5
67B
100
AcDbEntity
  8
0
100
AcDbLine
 62
7
  6
CONTINUOUS
 10
-8.958876
 20
-13.3094770282
 11
-8.9561811795
 21
-13.4461410444
  0
LINE
  5
67C
100
AcDbEntity
  8
0
100
AcDbLine
 62
7
  6
CONTINUOUS
 10
-9.015160776
 20
-10.0699600457
 11
-9.0130040226
 21
-10.1809212663
  0
LINE
  5
67D
100
AcDbEntity
  8
0
100
AcDbLine
 62
7
  6
CONTINUOUS
 10
-8.9617028793
 20
-13.1610437811
 11
-8.958876
 21
-13.3094770282
  0
LINE
  5
67E
100
AcDbEntity
  8
0
100
AcDbLine
 62
7
  6
CONTINUOUS
 10
-9.0130040226
 20
-10.1809212663
 11
-9.0107151677
 21
-10.3019001018
  0
LINE
  5
67F
100
AcDbEntity
  8
0
100
AcDbLine
 62
7
  6
CONTINUOUS
 10
-8.964656599
 20
-13.0009214699
 11
-8.9617028793
 21
-13.1610437811
  0
LINE
  5
680
100
AcDbEntity
  8
0
100
AcDbLine
 62
7
  6
CONTINUOUS
 10
-9.0107151677
 20
-10.3019001018
 11
-9.0082780703
 21
-10.4340727812
  0
LINE
  5
681
100
AcDbEntity
  8
0
100
AcDbLine
 62
7
  6
CONTINUOUS
 10
-8.9677448153
 20
-12.8286256423
 11
-8.964656599
 21
-13.0009214699
  0
LINE
  5
682
100
AcDbEntity
  8
0
100
AcDbLine
 62
7
  6
CONTINUOUS
 10
-9.0082780703
 20
-10.4340727812
 11
-9.0056740445
 21
-10.5787681281
  0
LINE
  5
683
100
AcDbEntity
  8
0
100
AcDbLine
 62
7
  6
CONTINUOUS
 10
-9.0056740445
 20
-10.5787681281
 11
-9.0028797655
 21
-10.7375712819
  0
LINE
  5
684
100
AcDbEntity
  8
0
100
AcDbLine
 62
7
  6
CONTINUOUS
 10
-8.9710008373
 20
-12.6422952774
 11
-8.9677448153
 21
-12.8286256423
  0
LINE
  5
685
100
AcDbEntity
  8
0
100
AcDbLine
 62
7
  6
CONTINUOUS
 10
-9.0028797655
 20
-10.7375712819
 11
-8.9998417174
 21
-10.9137993252
  0
LINE
  5
686
100
AcDbEntity
  8
0
100
AcDbLine
 62
7
  6
CONTINUOUS
 10
-8.9744643037
 20
-12.4397231442
 11
-8.9710008373
 21
-12.6422952774
  0
LINE
  5
687
100
AcDbEntity
  8
0
100
AcDbLine
 62
7
  6
CONTINUOUS
 10
-8.9998417174
 20
-10.9137993252
 11
-8.9965165813
 21
-11.1101741845
  0
LWPOLYLINE
  5
688
100
AcDbEntity
  8
0
100
AcDbPolyline
 62
7
  6
CONTINUOUS
 90
4
 70
0
 10
-8.9890710075
 20
-11.5586346388
 10
-8.9824866629
 20
-11.958671013
 10
-8.9803184621
 20
-12.0898325859
 10
-8.9744643037
 20
-12.4397231442
  0
LINE
  5
689
100
AcDbEntity
  8
0
100
AcDbLine
 62
7
  6
CONTINUOUS
 10
-8.9965165813
 20
-11.1101741845
 11
-8.9890710075
 21
-11.5586346388
  0
LINE
  5
68A
100
AcDbEntity
  8
0
100
AcDbLine
 62
7
  6
CONTINUOUS
 10
-9.0764025966
 20
-14.1005729928
 11
-9.0764025966
 21
-13.8093736243
  0
LINE
  5
68B
100
AcDbEntity
  8
0
100
AcDbLine
 62
7
  6
CONTINUOUS
 10
-8.9664025966
 20
-14.1005729928
 11
-8.9664025966
 21
-13.8093736243
  0
LINE
  5
68C
100
AcDbEntity
  8
0
100
AcDbLine
 62
7
  6
CONTINUOUS
 10
-9.1318753897
 20
-11.145140591
 11
-9.145404019
 21
-11.9639273372
  0
LINE
  5
68D
100
AcDbEntity
  8
0
100
AcDbLine
 62
7
  6
CONTINUOUS
 10
-9.145404019
 20
-11.9639273372
 11
-9.1505978424
 21
-12.2767382341
  0
LINE
  5
68E
100
AcDbEntity
  8
0
100
AcDbLine
 62
7
  6
CONTINUOUS
 10
-9.1505978424
 20
-12.2767382341
 11
-9.1538245987
 21
-12.4681816335
  0
LINE
  5
68F
100
AcDbEntity
  8
0
100
AcDbLine
 62
7
  6
CONTINUOUS
 10
-9.1264482469
 20
-10.8253395911
 11
-9.1318753897
 21
-11.145140591
  0
LINE
  5
690
100
AcDbEntity
  8
0
100
AcDbLine
 62
7
  6
CONTINUOUS
 10
-9.1538245987
 20
-12.4681816335
 11
-9.1569224752
 21
-12.6489714315
  0
LINE
  5
691
100
AcDbEntity
  8
0
100
AcDbLine
 62
7
  6
CONTINUOUS
 10
-9.1231813512
 20
-10.6377943828
 11
-9.1264482469
 21
-10.8253395911
  0
LINE
  5
692
100
AcDbEntity
  8
0
100
AcDbLine
 62
7
  6
CONTINUOUS
 10
-9.1569224752
 20
-12.6489714315
 11
-9.1599047364
 21
-12.8195560912
  0
LINE
  5
693
100
AcDbEntity
  8
0
100
AcDbLine
 62
7
  6
CONTINUOUS
 10
-9.1202025399
 20
-10.4708927047
 11
-9.1231813512
 21
-10.6377943828
  0
LINE
  5
694
100
AcDbEntity
  8
0
100
AcDbLine
 62
7
  6
CONTINUOUS
 10
-9.1599047364
 20
-12.8195560912
 11
-9.1627694028
 21
-12.9796327178
  0
LINE
  5
695
100
AcDbEntity
  8
0
100
AcDbLine
 62
7
  6
CONTINUOUS
 10
-9.1174703646
 20
-10.3217900083
 11
-9.1202025399
 21
-10.4708927047
  0
LINE
  5
696
100
AcDbEntity
  8
0
100
AcDbLine
 62
7
  6
CONTINUOUS
 10
-9.1627694028
 20
-12.9796327178
 11
-9.165514611
 21
-13.1290499306
  0
LINE
  5
697
100
AcDbEntity
  8
0
100
AcDbLine
 62
7
  6
CONTINUOUS
 10
-9.1149325972
 20
-10.1871198667
 11
-9.1174703646
 21
-10.3217900083
  0
LINE
  5
698
100
AcDbEntity
  8
0
100
AcDbLine
 62
7
  6
CONTINUOUS
 10
-9.165514611
 20
-13.1290499306
 11
-9.1681424898
 21
-13.2679937967
  0
LINE
  5
699
100
AcDbEntity
  8
0
100
AcDbLine
 62
7
  6
CONTINUOUS
 10
-9.1125472206
 20
-10.0642197694
 11
-9.1149325972
 21
-10.1871198667
  0
LINE
  5
69A
100
AcDbEntity
  8
0
100
AcDbLine
 62
7
  6
CONTINUOUS
 10
-9.1681424898
 20
-13.2679937967
 11
-9.1706592594
 21
-13.3969440722
  0
LINE
  5
69B
100
AcDbEntity
  8
0
100
AcDbLine
 62
7
  6
CONTINUOUS
 10
-9.1102782907
 20
-9.9508986903
 11
-9.1125472206
 21
-10.0642197694
  0
LINE
  5
69C
100
AcDbEntity
  8
0
100
AcDbLine
 62
7
  6
CONTINUOUS
 10
-9.1706592594
 20
-13.3969440722
 11
-9.1730713206
 21
-13.5164312217
  0
LINE
  5
69D
100
AcDbEntity
  8
0
100
AcDbLine
 62
7
  6
CONTINUOUS
 10
-9.1081041062
 20
-9.8458088168
 11
-9.1102782907
 21
-9.9508986903
  0
LINE
  5
69E
100
AcDbEntity
  8
0
100
AcDbLine
 62
7
  6
CONTINUOUS
 10
-9.1730713206
 20
-13.5164312217
 11
-9.1753849423
 21
-13.6270031991
  0
LINE
  5
69F
100
AcDbEntity
  8
0
100
AcDbLine
 62
7
  6
CONTINUOUS
 10
-9.1060122035
 20
-9.7481208742
 11
-9.1081041062
 21
-9.8458088168
  0
LINE
  5
6A0
100
AcDbEntity
  8
0
100
AcDbLine
 62
7
  6
CONTINUOUS
 10
-9.1753849423
 20
-13.6270031991
 11
-9.1776061161
 21
-13.7292059598
  0
LINE
  5
6A1
100
AcDbEntity
  8
0
100
AcDbLine
 62
7
  6
CONTINUOUS
 10
-9.1039902668
 20
-9.6570586837
 11
-9.1060122035
 21
-9.7481208742
  0
LINE
  5
6A2
100
AcDbEntity
  8
0
100
AcDbLine
 62
7
  6
CONTINUOUS
 10
-9.1776061161
 20
-13.7292059598
 11
-9.1797407901
 21
-13.8235845802
  0
LINE
  5
6A3
100
AcDbEntity
  8
0
100
AcDbLine
 62
7
  6
CONTINUOUS
 10
-9.1020262654
 20
-9.5719122568
 11
-9.1039902668
 21
-9.6570586837
  0
LINE
  5
6A4
100
AcDbEntity
  8
0
100
AcDbLine
 62
7
  6
CONTINUOUS
 10
-9.1797407901
 20
-13.8235845802
 11
-9.1817949299
 21
-13.9106770088
  0
LINE
  5
6A5
100
AcDbEntity
  8
0
100
AcDbLine
 62
7
  6
CONTINUOUS
 10
-9.1001149746
 20
-9.4923079991
 11
-9.1020262654
 21
-9.5719122568
  0
LINE
  5
6A6
100
AcDbEntity
  8
0
100
AcDbLine
 62
7
  6
CONTINUOUS
 10
-9.1817949299
 20
-13.9106770088
 11
-9.1837747226
 21
-13.9910146176
  0
LINE
  5
6A7
100
AcDbEntity
  8
0
100
AcDbLine
 62
7
  6
CONTINUOUS
 10
-9.0982579651
 20
-9.4181547362
 11
-9.1001149746
 21
-9.4923079991
  0
LINE
  5
6A8
100
AcDbEntity
  8
0
100
AcDbLine
 62
7
  6
CONTINUOUS
 10
-9.1837747226
 20
-13.9910146176
 11
-9.1856864508
 21
-14.0651096415
  0
LINE
  5
6A9
100
AcDbEntity
  8
0
100
AcDbLine
 62
7
  6
CONTINUOUS
 10
-9.0964570905
 20
-9.3493449981
 11
-9.0982579651
 21
-9.4181547362
  0
LINE
  5
6AA
100
AcDbEntity
  8
0
100
AcDbLine
 62
7
  6
CONTINUOUS
 10
-9.1856864508
 20
-14.0651096415
 11
-9.1866353177
 21
-14.1005729928
  0
LINE
  5
6AB
100
AcDbEntity
  8
0
100
AcDbLine
 62
7
  6
CONTINUOUS
 10
-9.0947141911
 20
-9.2857445486
 11
-9.0964570905
 21
-9.3493449981
  0
LINE
  5
6AC
100
AcDbEntity
  8
0
100
AcDbLine
 62
7
  6
CONTINUOUS
 10
-9.0930310333
 20
-9.2271930564
 11
-9.0947141911
 21
-9.2857445486
  0
LINE
  5
6AD
100
AcDbEntity
  8
0
100
AcDbLine
 62
7
  6
CONTINUOUS
 10
-9.0914087705
 20
-9.1734901083
 11
-9.0930310333
 21
-9.2271930564
  0
LINE
  5
6AE
100
AcDbEntity
  8
0
100
AcDbLine
 62
7
  6
CONTINUOUS
 10
-9.0898481973
 20
-9.1244108177
 11
-9.0914087705
 21
-9.1734901083
  0
LINE
  5
6AF
100
AcDbEntity
  8
0
100
AcDbLine
 62
7
  6
CONTINUOUS
 10
-9.0883499597
 20
-9.0797174356
 11
-9.0898481973
 21
-9.1244108177
  0
LINE
  5
6B0
100
AcDbEntity
  8
0
100
AcDbLine
 62
7
  6
CONTINUOUS
 10
-9.0869116137
 20
-9.039082136
 11
-9.0883499597
 21
-9.0797174356
  0
LINE
  5
6B1
100
AcDbEntity
  8
0
100
AcDbLine
 62
7
  6
CONTINUOUS
 10
-9.085527484
 20
-9.0021089416
 11
-9.0869116137
 21
-9.039082136
  0
LINE
  5
6B2
100
AcDbEntity
  8
0
100
AcDbLine
 62
7
  6
CONTINUOUS
 10
-9.0841916732
 20
-8.9684318684
 11
-9.085527484
 21
-9.0021089416
  0
LINE
  5
6B3
100
AcDbEntity
  8
0
100
AcDbLine
 62
7
  6
CONTINUOUS
 10
-9.0828991142
 20
-8.9377397989
 11
-9.0841916732
 21
-8.9684318684
  0
LINE
  5
6B4
100
AcDbEntity
  8
0
100
AcDbLine
 62
7
  6
CONTINUOUS
 10
-9.0816521586
 20
-8.9099117668
 11
-9.0828991142
 21
-8.9377397989
  0
LWPOLYLINE
  5
6B5
100
AcDbEntity
  8
0
100
AcDbPolyline
 62
7
  6
CONTINUOUS
 90
33
 70
0
 10
-8.606402485
 20
-8.5733501327
 10
-8.6203881709
 20
-8.5740119139
 10
-8.6366415486
 20
-8.5764661625
 10
-8.6524607036
 20
-8.5806847077
 10
-8.6675157889
 20
-8.586526313
 10
-8.6814932254
 20
-8.5937606501
 10
-8.6941393662
 20
-8.6020700276
 10
-8.7052829969
 20
-8.6110875381
 10
-8.7148291461
 20
-8.6203968238
 10
-8.722780421
 20
-8.6295935513
 10
-8.7293501
 20
-8.6384924766
 10
-8.7348095594
 20
-8.6470826728
 10
-8.7393558293
 20
-8.65536112
 10
-8.7430680622
 20
-8.6631589806
 10
-8.7460232351
 20
-8.6702833789
 10
-8.748346681
 20
-8.6766648099
 10
-8.7501754139
 20
-8.6823361289
 10
-8.7516459479
 20
-8.6874377975
 10
-8.7528585022
 20
-8.6921040936
 10
-8.7538832772
 20
-8.6964467618
 10
-8.7547698025
 20
-8.7005573907
 10
-8.7555532744
 20
-8.7045100948
 10
-8.7562589677
 20
-8.7083646431
 10
-8.7569052243
 20
-8.7121691484
 10
-8.7575063788
 20
-8.71596809
 10
-8.7580743849
 20
-8.7198076341
 10
-8.7586180974
 20
-8.7237270517
 10
-8.7591443694
 20
-8.7277619376
 10
-8.7596586025
 20
-8.7319453745
 10
-8.7601651287
 20
-8.7363088132
 10
-8.7606674802
 20
-8.7408827396
 10
-8.7611681917
 20
-8.7456933397
 10
-8.7614027915
 20
-8.7480678451
  0
LWPOLYLINE
  5
6B6
100
AcDbEntity
  8
0
100
AcDbPolyline
 62
7
  6
CONTINUOUS
 90
35
 70
0
 10
-8.9164024852
 20
-8.5733501327
 10
-8.9303149911
 20
-8.5740049975
 10
-8.9465588615
 20
-8.5764489653
 10
-8.9623988401
 20
-8.5806645127
 10
-8.977472816
 20
-8.5865068931
 10
-8.9914400703
 20
-8.5937294844
 10
-9.0040295123
 20
-8.6019896352
 10
-9.015097016
 20
-8.6109219405
 10
-9.024638333
 20
-8.6201937888
 10
-9.032700871
 20
-8.6294937372
 10
-9.0394096613
 20
-8.6385796939
 10
-9.044929216
 20
-8.6472859181
 10
-9.0494432847
 20
-8.6555328044
 10
-9.0531241889
 20
-8.6632858023
 10
-9.0560826794
 20
-8.6704370764
 10
-9.0584303941
 20
-8.6769105648
 10
-9.0602939012
 20
-8.6827275448
 10
-9.0617996288
 20
-8.6880041401
 10
-9.0630430467
 20
-8.6928569371
 10
-9.0640933365
 20
-8.6973889038
 10
-9.0650001998
 20
-8.7016865688
 10
-9.0657992088
 20
-8.705819914
 10
-9.066516435
 20
-8.7098472988
 10
-9.0671725871
 20
-8.7138264322
 10
-9.0677827568
 20
-8.7178048222
 10
-9.0683580331
 20
-8.7218215936
 10
-9.0689066765
 20
-8.7259093727
 10
-9.0694349121
 20
-8.7300956462
 10
-9.0699474798
 20
-8.7344037936
 10
-9.0704480215
 20
-8.7388538711
 10
-9.0709393668
 20
-8.7434633038
 10
-9.0714237706
 20
-8.7482477348
 10
-9.0719029398
 20
-8.753220244
 10
-9.0723782039
 20
-8.7583921661
 10
-9.0733220029
 20
-8.7693852332
  0
LWPOLYLINE
  5
6B7
100
AcDbEntity
  8
0
100
AcDbPolyline
 62
7
  6
CONTINUOUS
 90
33
 70
0
 10
-8.7606142433
 20
-8.7563256537
 10
-8.761141833
 20
-8.7507039392
 10
-8.7616706305
 20
-8.7453622472
 10
-8.7622018827
 20
-8.7402845317
 10
-8.7627373129
 20
-8.7354519688
 10
-8.7632792675
 20
-8.7308426311
 10
-8.7638316338
 20
-8.7264255706
 10
-8.7643996743
 20
-8.7221652582
 10
-8.7649901212
 20
-8.7180234378
 10
-8.7656117266
 20
-8.7139580038
 10
-8.7662760674
 20
-8.7099214911
 10
-8.7669987469
 20
-8.7058589903
 10
-8.7678010872
 20
-8.7017059445
 10
-8.7687094255
 20
-8.6973999194
 10
-8.7697593163
 20
-8.692868578
 10
-8.7710005041
 20
-8.688022905
 10
-8.7725025445
 20
-8.682756569
 10
-8.7743622854
 20
-8.6769474064
 10
-8.7767089988
 20
-8.6704720845
 10
-8.7796702082
 20
-8.663310231
 10
-8.7833560144
 20
-8.6555443941
 10
-8.7878725982
 20
-8.647291668
 10
-8.7933922758
 20
-8.6385844658
 10
-8.800102121
 20
-8.6294964969
 10
-8.8081739665
 20
-8.6201862421
 10
-8.8177341256
 20
-8.6108988802
 10
-8.828827024
 20
-8.6019521147
 10
-8.8414436831
 20
-8.5936834773
 10
-8.8554382302
 20
-8.5864591276
 10
-8.870539471
 20
-8.5806211585
 10
-8.8864061485
 20
-8.5764158664
 10
-8.9026763254
 20
-8.5739875711
 10
-8.9164027143
 20
-8.5733501327
  0
LINE
  5
6B8
100
AcDbEntity
  8
0
100
AcDbLine
 62
7
  6
CONTINUOUS
 10
-9.0545466661
 20
-8.7810525696
 11
-9.0537611355
 21
-8.7898526976
  0
LINE
  5
6B9
100
AcDbEntity
  8
0
100
AcDbLine
 62
7
  6
CONTINUOUS
 10
-8.744522839
 20
-8.7813068337
 11
-8.7437267552
 21
-8.7902572275
  0
LINE
  5
6BA
100
AcDbEntity
  8
0
100
AcDbLine
 62
7
  6
CONTINUOUS
 10
-8.7595592355
 20
-8.7684634723
 11
-8.7606142433
 21
-8.7563256537
  0
LINE
  5
6BB
100
AcDbEntity
  8
0
100
AcDbLine
 62
7
  6
CONTINUOUS
 10
-9.0537611355
 20
-8.7898526976
 11
-9.052933088
 21
-8.8000362012
  0
LINE
  5
6BC
100
AcDbEntity
  8
0
100
AcDbLine
 62
7
  6
CONTINUOUS
 10
-8.7437267552
 20
-8.7902572275
 11
-8.7428813773
 21
-8.8007023072
  0
LINE
  5
6BD
100
AcDbEntity
  8
0
100
AcDbLine
 62
7
  6
CONTINUOUS
 10
-8.7584998153
 20
-8.7818811518
 11
-8.7595592355
 21
-8.7684634723
  0
LINE
  5
6BE
100
AcDbEntity
  8
0
100
AcDbLine
 62
7
  6
CONTINUOUS
 10
-9.052933088
 20
-8.8000362012
 11
-9.0520703405
 21
-8.8116049358
  0
LINE
  5
6BF
100
AcDbEntity
  8
0
100
AcDbLine
 62
7
  6
CONTINUOUS
 10
-8.7428813773
 20
-8.8007023072
 11
-8.7419921539
 21
-8.8127008368
  0
LINE
  5
6C0
100
AcDbEntity
  8
0
100
AcDbLine
 62
7
  6
CONTINUOUS
 10
-8.7574303741
 20
-8.7966982069
 11
-8.7584998153
 21
-8.7818811518
  0
LINE
  5
6C1
100
AcDbEntity
  8
0
100
AcDbLine
 62
7
  6
CONTINUOUS
 10
-9.0520703405
 20
-8.8116049358
 11
-9.0511783085
 21
-8.8245700358
  0
LINE
  5
6C2
100
AcDbEntity
  8
0
100
AcDbLine
 62
7
  6
CONTINUOUS
 10
-8.7419921539
 20
-8.8127008368
 11
-8.7410621637
 21
-8.8263321477
  0
LINE
  5
6C3
100
AcDbEntity
  8
0
100
AcDbLine
 62
7
  6
CONTINUOUS
 10
-8.7563470047
 20
-8.8130272073
 11
-8.7574303741
 21
-8.7966982069
  0
LINE
  5
6C4
100
AcDbEntity
  8
0
100
AcDbLine
 62
7
  6
CONTINUOUS
 10
-9.0511783085
 20
-8.8245700358
 11
-9.050260879
 21
-8.8389484032
  0
LINE
  5
6C5
100
AcDbEntity
  8
0
100
AcDbLine
 62
7
  6
CONTINUOUS
 10
-8.7410621637
 20
-8.8263321477
 11
-8.7400929845
 21
-8.8416929772
  0
LINE
  5
6C6
100
AcDbEntity
  8
0
100
AcDbLine
 62
7
  6
CONTINUOUS
 10
-8.7552471865
 20
-8.8309714057
 11
-8.7563470047
 21
-8.8130272073
  0
LWPOLYLINE
  5
6C7
100
AcDbEntity
  8
0
100
AcDbPolyline
 62
7
  6
CONTINUOUS
 90
3
 70
0
 10
-9.050260879
 20
-8.8389484032
 10
-9.049320934
 20
-8.8547603821
 10
-9.048843227
 20
-8.8632108705
  0
LINE
  5
6C8
100
AcDbEntity
  8
0
100
AcDbLine
 62
7
  6
CONTINUOUS
 10
-8.7400929845
 20
-8.8416929772
 11
-8.7390852768
 21
-8.8588943685
  0
LINE
  5
6C9
100
AcDbEntity
  8
0
100
AcDbLine
 62
7
  6
CONTINUOUS
 10
-8.4442384338
 20
-8.8486448688
 11
-8.445323506
 21
-8.8296816114
  0
LINE
  5
6CA
100
AcDbEntity
  8
0
100
AcDbLine
 62
7
  6
CONTINUOUS
 10
-8.7541293358
 20
-8.8506259924
 11
-8.7552471865
 21
-8.8309714057
  0
LINE
  5
6CB
100
AcDbEntity
  8
0
100
AcDbLine
 62
7
  6
CONTINUOUS
 10
-8.7390852768
 20
-8.8588943685
 11
-8.7380397325
 21
-8.8780481698
  0
LINE
  5
6CC
100
AcDbEntity
  8
0
100
AcDbLine
 62
7
  6
CONTINUOUS
 10
-8.4431401172
 20
-8.8692101007
 11
-8.4442384338
 21
-8.8486448688
  0
LINE
  5
6CD
100
AcDbEntity
  8
0
100
AcDbLine
 62
7
  6
CONTINUOUS
 10
-8.7529925164
 20
-8.8720788315
 11
-8.7541293358
 21
-8.8506259924
  0
LINE
  5
6CE
100
AcDbEntity
  8
0
100
AcDbLine
 62
7
  6
CONTINUOUS
 10
-8.7380397325
 20
-8.8780481698
 11
-8.7369570073
 21
-8.8992672788
  0
LINE
  5
6CF
100
AcDbEntity
  8
0
100
AcDbLine
 62
7
  6
CONTINUOUS
 10
-8.4420280908
 20
-8.8914344362
 11
-8.4431401172
 21
-8.8692101007
  0
LINE
  5
6D0
100
AcDbEntity
  8
0
100
AcDbLine
 62
7
  6
CONTINUOUS
 10
-8.7518360609
 20
-8.8954147885
 11
-8.7529925164
 21
-8.8720788315
  0
LINE
  5
6D1
100
AcDbEntity
  8
0
100
AcDbLine
 62
7
  6
CONTINUOUS
 10
-8.7369570073
 20
-8.8992672788
 11
-8.735837451
 21
-8.922670878
  0
LINE
  5
6D2
100
AcDbEntity
  8
0
100
AcDbLine
 62
7
  6
CONTINUOUS
 10
-8.4409022154
 20
-8.9153680825
 11
-8.4420280908
 21
-8.8914344362
  0
LINE
  5
6D3
100
AcDbEntity
  8
0
100
AcDbLine
 62
7
  6
CONTINUOUS
 10
-8.7506581881
 20
-8.9207449617
 11
-8.7518360609
 21
-8.8954147885
  0
LINE
  5
6D4
100
AcDbEntity
  8
0
100
AcDbLine
 62
7
  6
CONTINUOUS
 10
-8.735837451
 20
-8.922670878
 11
-8.7346811823
 21
-8.948384008
  0
LINE
  5
6D5
100
AcDbEntity
  8
0
100
AcDbLine
 62
7
  6
CONTINUOUS
 10
-8.7494567022
 20
-8.94819796
 11
-8.7506581881
 21
-8.9207449617
  0
LINE
  5
6D6
100
AcDbEntity
  8
0
100
AcDbLine
 62
7
  6
CONTINUOUS
 10
-8.4391875045
 20
-8.9545714473
 11
-8.4409022154
 21
-8.9153680825
  0
LINE
  5
6D7
100
AcDbEntity
  8
0
100
AcDbLine
 62
7
  6
CONTINUOUS
 10
-8.7346811823
 20
-8.948384008
 11
-8.7334876341
 21
-8.9765495311
  0
LINE
  5
6D8
100
AcDbEntity
  8
0
100
AcDbLine
 62
7
  6
CONTINUOUS
 10
-8.748229589
 20
-8.9779081617
 11
-8.7494567022
 21
-8.94819796
  0
LINE
  5
6D9
100
AcDbEntity
  8
0
100
AcDbLine
 62
7
  6
CONTINUOUS
 10
-8.7334876341
 20
-8.9765495311
 11
-8.7322550038
 21
-9.007346429
  0
LINE
  5
6DA
100
AcDbEntity
  8
0
100
AcDbLine
 62
7
  6
CONTINUOUS
 10
-8.4374390063
 20
-8.9979374826
 11
-8.4391875045
 21
-8.9545714473
  0
LINE
  5
6DB
100
AcDbEntity
  8
0
100
AcDbLine
 62
7
  6
CONTINUOUS
 10
-8.7469749698
 20
-9.0100159047
 11
-8.748229589
 21
-8.9779081617
  0
LINE
  5
6DC
100
AcDbEntity
  8
0
100
AcDbLine
 62
7
  6
CONTINUOUS
 10
-8.7322550038
 20
-9.007346429
 11
-8.7309812417
 21
-9.040971365
  0
LINE
  5
6DD
100
AcDbEntity
  8
0
100
AcDbLine
 62
7
  6
CONTINUOUS
 10
-8.7456910524
 20
-9.0446679901
 11
-8.7469749698
 21
-9.0100159047
  0
LINE
  5
6DE
100
AcDbEntity
  8
0
100
AcDbLine
 62
7
  6
CONTINUOUS
 10
-8.435651559
 20
-9.0457624551
 11
-8.4374390063
 21
-8.9979374826
  0
LINE
  5
6DF
100
AcDbEntity
  8
0
100
AcDbLine
 62
7
  6
CONTINUOUS
 10
-8.7309812417
 20
-9.040971365
 11
-8.7296642179
 21
-9.0776354925
  0
LINE
  5
6E0
100
AcDbEntity
  8
0
100
AcDbLine
 62
7
  6
CONTINUOUS
 10
-8.7443723676
 20
-9.0821266313
 11
-8.7456910524
 21
-9.0446679901
  0
LINE
  5
6E1
100
AcDbEntity
  8
0
100
AcDbLine
 62
7
  6
CONTINUOUS
 10
-8.4338203001
 20
-9.0983652145
 11
-8.435651559
 21
-9.0457624551
  0
LINE
  5
6E2
100
AcDbEntity
  8
0
100
AcDbLine
 62
7
  6
CONTINUOUS
 10
-8.7296642179
 20
-9.0776354925
 11
-8.7283017812
 21
-9.117563062
  0
LINE
  5
6E3
100
AcDbEntity
  8
0
100
AcDbLine
 62
7
  6
CONTINUOUS
 10
-8.7430047479
 20
-9.1229494703
 11
-8.7443723676
 21
-9.0821266313
  0
LINE
  5
6E4
100
AcDbEntity
  8
0
100
AcDbLine
 62
7
  6
CONTINUOUS
 10
-8.7283017812
 20
-9.117563062
 11
-8.7268936246
 21
-9.1609323813
  0
LINE
  5
6E5
100
AcDbEntity
  8
0
100
AcDbLine
 62
7
  6
CONTINUOUS
 10
-8.4319406318
 20
-9.1560850166
 11
-8.4338203001
 21
-9.0983652145
  0
LINE
  5
6E6
100
AcDbEntity
  8
0
100
AcDbLine
 62
7
  6
CONTINUOUS
 10
-8.7415728513
 20
-9.1678136733
 11
-8.7430047479
 21
-9.1229494703
  0
LINE
  5
6E7
100
AcDbEntity
  8
0
100
AcDbLine
 62
7
  6
CONTINUOUS
 10
-8.7268936246
 20
-9.1609323813
 11
-8.7254420909
 21
-9.2078346195
  0
LINE
  5
6E8
100
AcDbEntity
  8
0
100
AcDbLine
 62
7
  6
CONTINUOUS
 10
-8.7400611551
 20
-9.2174956488
 11
-8.7415728513
 21
-9.1678136733
  0
LINE
  5
6E9
100
AcDbEntity
  8
0
100
AcDbLine
 62
7
  6
CONTINUOUS
 10
-8.4300081354
 20
-9.219280823
 11
-8.4319406318
 21
-9.1560850166
  0
LINE
  5
6EA
100
AcDbEntity
  8
0
100
AcDbLine
 62
7
  6
CONTINUOUS
 10
-8.7254420909
 20
-9.2078346195
 11
-8.7239497062
 21
-9.2583377541
  0
LINE
  5
6EB
100
AcDbEntity
  8
0
100
AcDbLine
 62
7
  6
CONTINUOUS
 10
-8.7384415342
 20
-9.2733159893
 11
-8.7400611551
 21
-9.2174956488
  0
LINE
  5
6EC
100
AcDbEntity
  8
0
100
AcDbLine
 62
7
  6
CONTINUOUS
 10
-8.4280185206
 20
-9.2883297543
 11
-8.4300081354
 21
-9.219280823
  0
LINE
  5
6ED
100
AcDbEntity
  8
0
100
AcDbLine
 62
7
  6
CONTINUOUS
 10
-8.7239497062
 20
-9.2583377541
 11
-8.7224189741
 21
-9.3124912052
  0
LINE
  5
6EE
100
AcDbEntity
  8
0
100
AcDbLine
 62
7
  6
CONTINUOUS
 10
-8.7366810968
 20
-9.336963563
 11
-8.7384415342
 21
-9.2733159893
  0
LINE
  5
6EF
100
AcDbEntity
  8
0
100
AcDbLine
 62
7
  6
CONTINUOUS
 10
-8.7224189741
 20
-9.3124912052
 11
-8.7208503731
 21
-9.3704002516
  0
LINE
  5
6F0
100
AcDbEntity
  8
0
100
AcDbLine
 62
7
  6
CONTINUOUS
 10
-8.4259676162
 20
-9.3636239322
 11
-8.4280185206
 21
-9.2883297543
  0
LINE
  5
6F1
100
AcDbEntity
  8
0
100
AcDbLine
 62
7
  6
CONTINUOUS
 10
-8.3361676126
 20
-14.1005729928
 11
-8.3377033948
 21
-14.0428196319
  0
LINE
  5
6F2
100
AcDbEntity
  8
0
100
AcDbLine
 62
7
  6
CONTINUOUS
 10
-8.6328867674
 20
-14.0379816528
 11
-8.6312334601
 21
-14.1005729928
  0
LINE
  5
6F3
100
AcDbEntity
  8
0
100
AcDbLine
 62
7
  6
CONTINUOUS
 10
-8.6461680728
 20
-14.1005729928
 11
-8.6481478949
 21
-14.025653703
  0
LINE
  5
6F4
100
AcDbEntity
  8
0
100
AcDbLine
 62
7
  6
CONTINUOUS
 10
-8.7347929742
 20
-9.4085829373
 11
-8.7366810968
 21
-9.336963563
  0
LINE
  5
6F5
100
AcDbEntity
  8
0
100
AcDbLine
 62
7
  6
CONTINUOUS
 10
-8.7208503731
 20
-9.3704002516
 11
-8.7192391649
 21
-9.4323657253
  0
LINE
  5
6F6
100
AcDbEntity
  8
0
100
AcDbLine
 62
7
  6
CONTINUOUS
 10
-8.423851319
 20
-9.4455683043
 11
-8.4259676162
 21
-9.3636239322
  0
LINE
  5
6F7
100
AcDbEntity
  8
0
100
AcDbLine
 62
7
  6
CONTINUOUS
 10
-8.3377033948
 20
-14.0428196319
 11
-8.3396090876
 21
-13.9679087583
  0
LINE
  5
6F8
100
AcDbEntity
  8
0
100
AcDbLine
 62
7
  6
CONTINUOUS
 10
-8.6481478949
 20
-14.025653703
 11
-8.6498130831
 21
-13.9596884962
  0
LINE
  5
6F9
100
AcDbEntity
  8
0
100
AcDbLine
 62
7
  6
CONTINUOUS
 10
-8.6349672901
 20
-13.9554060549
 11
-8.6328867674
 21
-14.0379816528
  0
LINE
  5
6FA
100
AcDbEntity
  8
0
100
AcDbLine
 62
7
  6
CONTINUOUS
 10
-8.732796923
 20
-9.4879609471
 11
-8.7347929742
 21
-9.4085829373
  0
LINE
  5
6FB
100
AcDbEntity
  8
0
100
AcDbLine
 62
7
  6
CONTINUOUS
 10
-8.7192391649
 20
-9.4323657253
 11
-8.7175797623
 21
-9.498745018
  0
LINE
  5
6FC
100
AcDbEntity
  8
0
100
AcDbLine
 62
7
  6
CONTINUOUS
 10
-8.6498130831
 20
-13.9596884962
 11
-8.6515417562
 21
-13.8885017148
  0
LINE
  5
6FD
100
AcDbEntity
  8
0
100
AcDbLine
 62
7
  6
CONTINUOUS
 10
-8.3396090876
 20
-13.9679087583
 11
-8.341576422
 21
-13.887046568
  0
LINE
  5
6FE
100
AcDbEntity
  8
0
100
AcDbLine
 62
7
  6
CONTINUOUS
 10
-8.4216655729
 20
-9.5345770466
 11
-8.423851319
 21
-9.4455683043
  0
LINE
  5
6FF
100
AcDbEntity
  8
0
100
AcDbLine
 62
7
  6
CONTINUOUS
 10
-8.6371217455
 20
-13.8657260242
 11
-8.6349672901
 21
-13.9554060549
  0
LINE
  5
700
100
AcDbEntity
  8
0
100
AcDbLine
 62
7
  6
CONTINUOUS
 10
-8.7306856451
 20
-9.57588067
 11
-8.732796923
 21
-9.4879609471
  0
LINE
  5
701
100
AcDbEntity
  8
0
100
AcDbLine
 62
7
  6
CONTINUOUS
 10
-8.7175797623
 20
-9.498745018
 11
-8.7158665629
 21
-9.5699219463
  0
LINE
  5
702
100
AcDbEntity
  8
0
100
AcDbLine
 62
7
  6
CONTINUOUS
 10
-8.6515417562
 20
-13.8885017148
 11
-8.6533331739
 21
-13.8119152849
  0
LINE
  5
703
100
AcDbEntity
  8
0
100
AcDbLine
 62
7
  6
CONTINUOUS
 10
-8.7158665629
 20
-9.5699219463
 11
-8.7140939522
 21
-9.646304912
  0
LINE
  5
704
100
AcDbEntity
  8
0
100
AcDbLine
 62
7
  6
CONTINUOUS
 10
-8.341576422
 20
-13.887046568
 11
-8.3436026692
 21
-13.8001520361
  0
LINE
  5
705
100
AcDbEntity
  8
0
100
AcDbLine
 62
7
  6
CONTINUOUS
 10
-8.4193971345
 20
-9.6314718344
 11
-8.4216655729
 21
-9.5345770466
  0
LINE
  5
706
100
AcDbEntity
  8
0
100
AcDbLine
 62
7
  6
CONTINUOUS
 10
-8.6393471433
 20
-13.7688157339
 11
-8.6371217455
 21
-13.8657260242
  0
LINE
  5
707
100
AcDbEntity
  8
0
100
AcDbLine
 62
7
  6
CONTINUOUS
 10
-8.7284393699
 20
-9.6737158581
 11
-8.7306856451
 21
-9.57588067
  0
LINE
  5
708
100
AcDbEntity
  8
0
100
AcDbLine
 62
7
  6
CONTINUOUS
 10
-8.6533331739
 20
-13.8119152849
 11
-8.6551896554
 21
-13.7296309322
  0
LINE
  5
709
100
AcDbEntity
  8
0
100
AcDbLine
 62
7
  6
CONTINUOUS
 10
-8.7140939522
 20
-9.646304912
 11
-8.7122562508
 21
-9.7283270488
  0
LINE
  5
70A
100
AcDbEntity
  8
0
100
AcDbLine
 62
7
  6
CONTINUOUS
 10
-8.3436026692
 20
-13.8001520361
 11
-8.3456857107
 21
-13.7071565679
  0
LINE
  5
70B
100
AcDbEntity
  8
0
100
AcDbLine
 62
7
  6
CONTINUOUS
 10
-8.4169769251
 20
-9.7396980549
 11
-8.4193971345
 21
-9.6314718344
  0
LINE
  5
70C
100
AcDbEntity
  8
0
100
AcDbLine
 62
7
  6
CONTINUOUS
 10
-8.6416440557
 20
-13.6644378992
 11
-8.6393471433
 21
-13.7688157339
  0
LINE
  5
70D
100
AcDbEntity
  8
0
100
AcDbLine
 62
7
  6
CONTINUOUS
 10
-8.6551896554
 20
-13.7296309322
 11
-8.6571301706
 21
-13.6405750912
  0
LINE
  5
70E
100
AcDbEntity
  8
0
100
AcDbLine
 62
7
  6
CONTINUOUS
 10
-8.7260470835
 20
-9.7825566289
 11
-8.7284393699
 21
-9.6737158581
  0
LINE
  5
70F
100
AcDbEntity
  8
0
100
AcDbLine
 62
7
  6
CONTINUOUS
 10
-8.7122562508
 20
-9.7283270488
 11
-8.7103422375
 21
-9.8167006695
  0
LINE
  5
710
100
AcDbEntity
  8
0
100
AcDbLine
 62
7
  6
CONTINUOUS
 10
-8.3456857107
 20
-13.7071565679
 11
-8.3478324671
 21
-13.6076034449
  0
LINE
  5
711
100
AcDbEntity
  8
0
100
AcDbLine
 62
7
  6
CONTINUOUS
 10
-8.644027919
 20
-13.5516706442
 11
-8.6416440557
 21
-13.6644378992
  0
LINE
  5
712
100
AcDbEntity
  8
0
100
AcDbLine
 62
7
  6
CONTINUOUS
 10
-8.4143088498
 20
-9.8645051261
 11
-8.4169769251
 21
-9.7396980549
  0
LINE
  5
713
100
AcDbEntity
  8
0
100
AcDbLine
 62
7
  6
CONTINUOUS
 10
-8.6571301706
 20
-13.6405750912
 11
-8.6591792952
 21
-13.5433054578
  0
LINE
  5
714
100
AcDbEntity
  8
0
100
AcDbLine
 62
7
  6
CONTINUOUS
 10
-8.7235108099
 20
-9.9029042966
 11
-8.7260470835
 21
-9.7825566289
  0
LINE
  5
715
100
AcDbEntity
  8
0
100
AcDbLine
 62
7
  6
CONTINUOUS
 10
-8.7103422375
 20
-9.8167006695
 11
-8.7083306308
 21
-9.9126746284
  0
LINE
  5
716
100
AcDbEntity
  8
0
100
AcDbLine
 62
7
  6
CONTINUOUS
 10
-8.3478324671
 20
-13.6076034449
 11
-8.3500568619
 21
-13.5006744707
  0
LINE
  5
717
100
AcDbEntity
  8
0
100
AcDbLine
 62
7
  6
CONTINUOUS
 10
-8.6591792952
 20
-13.5433054578
 11
-8.6613570269
 21
-13.4364804793
  0
LINE
  5
718
100
AcDbEntity
  8
0
100
AcDbLine
 62
7
  6
CONTINUOUS
 10
-8.7208351803
 20
-10.0350503221
 11
-8.7235108099
 21
-9.9029042966
  0
LINE
  5
719
100
AcDbEntity
  8
0
100
AcDbLine
 62
7
  6
CONTINUOUS
 10
-8.6465180179
 20
-13.4293312516
 11
-8.644027919
 21
-13.5516706442
  0
LINE
  5
71A
100
AcDbEntity
  8
0
100
AcDbLine
 62
7
  6
CONTINUOUS
 10
-8.7083306308
 20
-9.9126746284
 11
-8.7062073836
 21
-10.0172405566
  0
LINE
  5
71B
100
AcDbEntity
  8
0
100
AcDbLine
 62
7
  6
CONTINUOUS
 10
-8.4112556769
 20
-10.0139450059
 11
-8.4143088498
 21
-9.8645051261
  0
LINE
  5
71C
100
AcDbEntity
  8
0
100
AcDbLine
 62
7
  6
CONTINUOUS
 10
-8.3500568619
 20
-13.5006744707
 11
-8.3523730134
 21
-13.3854838053
  0
LINE
  5
71D
100
AcDbEntity
  8
0
100
AcDbLine
 62
7
  6
CONTINUOUS
 10
-8.6613570269
 20
-13.4364804793
 11
-8.6636750319
 21
-13.3190984494
  0
LINE
  5
71E
100
AcDbEntity
  8
0
100
AcDbLine
 62
7
  6
CONTINUOUS
 10
-8.7062073836
 20
-10.0172405566
 11
-8.7039727391
 21
-10.1307047611
  0
LINE
  5
71F
100
AcDbEntity
  8
0
100
AcDbLine
 62
7
  6
CONTINUOUS
 10
-8.4090186746
 20
-10.1276071671
 11
-8.4112556769
 21
-10.0139450059
  0
LINE
  5
720
100
AcDbEntity
  8
0
100
AcDbLine
 62
7
  6
CONTINUOUS
 10
-8.6491338982
 20
-13.2961437428
 11
-8.6465180179
 21
-13.4293312516
  0
LINE
  5
721
100
AcDbEntity
  8
0
100
AcDbLine
 62
7
  6
CONTINUOUS
 10
-8.7180279758
 20
-10.1790023377
 11
-8.7208351803
 21
-10.0350503221
  0
LINE
  5
722
100
AcDbEntity
  8
0
100
AcDbLine
 62
7
  6
CONTINUOUS
 10
-8.3523730134
 20
-13.3854838053
 11
-8.3547957325
 21
-13.2610625886
  0
LINE
  5
723
100
AcDbEntity
  8
0
100
AcDbLine
 62
7
  6
CONTINUOUS
 10
-8.6636750319
 20
-13.3190984494
 11
-8.6661462027
 21
-13.1900723987
  0
LINE
  5
724
100
AcDbEntity
  8
0
100
AcDbLine
 62
7
  6
CONTINUOUS
 10
-8.7039727391
 20
-10.1307047611
 11
-8.7016283468
 21
-10.253251723
  0
LINE
  5
725
100
AcDbEntity
  8
0
100
AcDbLine
 62
7
  6
CONTINUOUS
 10
-8.406635773
 20
-10.2522698368
 11
-8.4090186746
 21
-10.1276071671
  0
LINE
  5
726
100
AcDbEntity
  8
0
100
AcDbLine
 62
7
  6
CONTINUOUS
 10
-8.6519080251
 20
-13.1500825842
 11
-8.6491338982
 21
-13.2961437428
  0
LINE
  5
727
100
AcDbEntity
  8
0
100
AcDbLine
 62
7
  6
CONTINUOUS
 10
-8.7150973561
 20
-10.3345862708
 11
-8.7180279758
 21
-10.1790023377
  0
LINE
  5
728
100
AcDbEntity
  8
0
100
AcDbLine
 62
7
  6
CONTINUOUS
 10
-8.3547957325
 20
-13.2610625886
 11
-8.357355643
 21
-13.1255575256
  0
LINE
  5
729
100
AcDbEntity
  8
0
100
AcDbLine
 62
7
  6
CONTINUOUS
 10
-8.6661462027
 20
-13.1900723987
 11
-8.6687920095
 21
-13.0478417567
  0
LINE
  5
72A
100
AcDbEntity
  8
0
100
AcDbLine
 62
7
  6
CONTINUOUS
 10
-8.7016283468
 20
-10.253251723
 11
-8.6991703252
 21
-10.3853001214
  0
LINE
  5
72B
100
AcDbEntity
  8
0
100
AcDbLine
 62
7
  6
CONTINUOUS
 10
-8.4040797838
 20
-10.389777421
 11
-8.406635773
 21
-10.2522698368
  0
LINE
  5
72C
100
AcDbEntity
  8
0
100
AcDbLine
 62
7
  6
CONTINUOUS
 10
-8.7120397487
 20
-10.5021021261
 11
-8.7150973561
 21
-10.3345862708
  0
LINE
  5
72D
100
AcDbEntity
  8
0
100
AcDbLine
 62
7
  6
CONTINUOUS
 10
-8.6548923744
 20
-12.9879351471
 11
-8.6519080251
 21
-13.1500825842
  0
LINE
  5
72E
100
AcDbEntity
  8
0
100
AcDbLine
 62
7
  6
CONTINUOUS
 10
-8.357355643
 20
-13.1255575256
 11
-8.3600996528
 21
-12.9761084861
  0
LINE
  5
72F
100
AcDbEntity
  8
0
100
AcDbLine
 62
7
  6
CONTINUOUS
 10
-8.6687920095
 20
-13.0478417567
 11
-8.6716375474
 21
-12.890616997
  0
LINE
  5
730
100
AcDbEntity
  8
0
100
AcDbLine
 62
7
  6
CONTINUOUS
 10
-8.6991703252
 20
-10.3853001214
 11
-8.6965576241
 21
-10.5292932506
  0
LINE
  5
731
100
AcDbEntity
  8
0
100
AcDbLine
 62
7
  6
CONTINUOUS
 10
-8.401331042
 20
-10.5416198364
 11
-8.4040797838
 21
-10.389777421
  0
LINE
  5
732
100
AcDbEntity
  8
0
100
AcDbLine
 62
7
  6
CONTINUOUS
 10
-8.3600996528
 20
-12.9761084861
 11
-8.363084324
 21
-12.8091490224
  0
LINE
  5
733
100
AcDbEntity
  8
0
100
AcDbLine
 62
7
  6
CONTINUOUS
 10
-8.7088140294
 20
-10.6838741725
 11
-8.7120397487
 21
-10.5021021261
  0
LINE
  5
734
100
AcDbEntity
  8
0
100
AcDbLine
 62
7
  6
CONTINUOUS
 10
-8.6581671103
 20
-12.8047136459
 11
-8.6548923744
 21
-12.9879351471
  0
LINE
  5
735
100
AcDbEntity
  8
0
100
AcDbLine
 62
7
  6
CONTINUOUS
 10
-8.6965576241
 20
-10.5292932506
 11
-8.6937369189
 21
-10.6884978659
  0
LINE
  5
736
100
AcDbEntity
  8
0
100
AcDbLine
 62
7
  6
CONTINUOUS
 10
-8.6716375474
 20
-12.890616997
 11
-8.6747148389
 21
-12.7162136889
  0
LINE
  5
737
100
AcDbEntity
  8
0
100
AcDbLine
 62
7
  6
CONTINUOUS
 10
-8.3983914273
 20
-10.7080323884
 11
-8.401331042
 21
-10.5416198364
  0
LINE
  5
738
100
AcDbEntity
  8
0
100
AcDbLine
 62
7
  6
CONTINUOUS
 10
-8.6618081995
 20
-12.5954422233
 11
-8.6581671103
 21
-12.8047136459
  0
LINE
  5
739
100
AcDbEntity
  8
0
100
AcDbLine
 62
7
  6
CONTINUOUS
 10
-8.6937369189
 20
-10.6884978659
 11
-8.6906744799
 21
-10.8651594266
  0
LINE
  5
73A
100
AcDbEntity
  8
0
100
AcDbLine
 62
7
  6
CONTINUOUS
 10
-8.363084324
 20
-12.8091490224
 11
-8.3663765733
 21
-12.6203779241
  0
LINE
  5
73B
100
AcDbEntity
  8
0
100
AcDbLine
 62
7
  6
CONTINUOUS
 10
-8.6747148389
 20
-12.7162136889
 11
-8.6780714247
 21
-12.521578694
  0
LINE
  5
73C
100
AcDbEntity
  8
0
100
AcDbLine
 62
7
  6
CONTINUOUS
 10
-8.7053714211
 20
-10.8827226017
 11
-8.7088140294
 21
-10.6838741725
  0
LINE
  5
73D
100
AcDbEntity
  8
0
100
AcDbLine
 62
7
  6
CONTINUOUS
 10
-8.665775308
 20
-12.36206982
 11
-8.6618081995
 21
-12.5954422233
  0
LINE
  5
73E
100
AcDbEntity
  8
0
100
AcDbLine
 62
7
  6
CONTINUOUS
 10
-8.6906744799
 20
-10.8651594266
 11
-8.6873389578
 21
-11.0613125893
  0
LINE
  5
73F
100
AcDbEntity
  8
0
100
AcDbLine
 62
7
  6
CONTINUOUS
 10
-8.3663765733
 20
-12.6203779241
 11
-8.3700700892
 21
-12.4038599353
  0
LINE
  5
740
100
AcDbEntity
  8
0
100
AcDbLine
 62
7
  6
CONTINUOUS
 10
-8.3936435931
 20
-10.9841172732
 11
-8.3983914273
 21
-10.7080323884
  0
LINE
  5
741
100
AcDbEntity
  8
0
100
AcDbLine
 62
7
  6
CONTINUOUS
 10
-8.6780714247
 20
-12.521578694
 11
-8.6817838512
 21
-12.3020183158
  0
LINE
  5
742
100
AcDbEntity
  8
0
100
AcDbLine
 62
7
  6
CONTINUOUS
 10
-8.3700700892
 20
-12.4038599353
 11
-8.3743732521
 21
-12.1468452408
  0
LINE
  5
743
100
AcDbEntity
  8
0
100
AcDbLine
 62
7
  6
CONTINUOUS
 10
-8.3885252931
 20
-11.2892768065
 11
-8.3936435931
 21
-10.9841172732
  0
LWPOLYLINE
  5
744
100
AcDbEntity
  8
0
100
AcDbPolyline
 62
7
  6
CONTINUOUS
 90
4
 70
0
 10
-8.6880572033
 20
-11.9241507412
 10
-8.6952046624
 20
-11.4899322808
 10
-8.697529628
 20
-11.3492790167
 10
-8.7053714211
 20
-10.8827226017
  0
LINE
  5
745
100
AcDbEntity
  8
0
100
AcDbLine
 62
7
  6
CONTINUOUS
 10
-8.6817838512
 20
-12.3020183158
 11
-8.6880572033
 21
-11.9241507412
  0
LWPOLYLINE
  5
746
100
AcDbEntity
  8
0
100
AcDbPolyline
 62
7
  6
CONTINUOUS
 90
3
 70
0
 10
-8.6796268767
 20
-11.524897099
 10
-8.6726233658
 20
-11.9503835172
 10
-8.665775308
 20
-12.36206982
  0
LINE
  5
747
100
AcDbEntity
  8
0
100
AcDbLine
 62
7
  6
CONTINUOUS
 10
-8.6873389578
 20
-11.0613125893
 11
-8.6796268767
 21
-11.524897099
  0
LINE
  5
748
100
AcDbEntity
  8
0
100
AcDbLine
 62
7
  6
CONTINUOUS
 10
-8.3743732521
 20
-12.1468452408
 11
-8.3848709042
 21
-11.5101725897
  0
LINE
  5
749
100
AcDbEntity
  8
0
100
AcDbLine
 62
7
  6
CONTINUOUS
 10
-8.3848709042
 20
-11.5101725897
 11
-8.3885252931
 21
-11.2892768065
  0
LINE
  5
74A
100
AcDbEntity
  8
02___PRT_ALL_AXES
100
AcDbLine
 62
7
  6
CONTINUOUS
 10
-8.2749025966
 20
-14.1005729928
 11
-8.2749025966
 21
-11.9993022858
  0
LINE
  5
74B
100
AcDbEntity
  8
0
100
AcDbLine
 62
7
  6
CONTINUOUS
 10
-8.1949025966
 20
-10.9217175284
 11
-8.1949025966
 21
-10.7225154572
  0
LINE
  5
74C
100
AcDbEntity
  8
0
100
AcDbLine
 62
7
  6
CONTINUOUS
 10
-8.1349025966
 20
-10.7225154572
 11
-8.1349025966
 21
-10.9217175284
  0
LINE
  5
74D
100
AcDbEntity
  8
0
100
AcDbLine
 62
7
  6
CONTINUOUS
 10
-8.1141708012
 20
-14.1005729928
 11
-8.1141708012
 21
-18.1005729928
  0
LINE
  5
74E
100
AcDbEntity
  8
0
100
AcDbLine
 62
7
  6
CONTINUOUS
 10
-8.1139025966
 20
-11.9993022858
 11
-8.1139025966
 21
-11.9143992318
  0
LINE
  5
74F
100
AcDbEntity
  8
02___PRT_ALL_AXES
100
AcDbLine
 62
7
  6
CONTINUOUS
 10
-8.1139025966
 20
-11.9993022858
 11
-8.1139025966
 21
-11.9143992318
  0
LWPOLYLINE
  5
750
100
AcDbEntity
  8
0
100
AcDbPolyline
 62
7
  6
CONTINUOUS
 90
11
 70
0
 10
-9.0570358514
 20
-8.7595238679
 10
-9.0569889658
 20
-8.7598004066
 10
-9.0568720141
 20
-8.7605399752
 10
-9.0566984708
 20
-8.7617190431
 10
-9.0564787336
 20
-8.7633187527
 10
-9.0562209188
 20
-8.765323898
 10
-9.0559314409
 20
-8.7677220441
 10
-9.0556154365
 20
-8.7705027867
 10
-9.0552770812
 20
-8.7736570784
 10
-9.0549198733
 20
-8.7771761834
 10
-9.0545466661
 20
-8.7810525696
  0
LWPOLYLINE
  5
751
100
AcDbEntity
  8
0
100
AcDbPolyline
 62
7
  6
CONTINUOUS
 90
33
 70
0
 10
-8.4506125783
 20
-8.7563438632
 10
-8.4511397643
 20
-8.7507254077
 10
-8.4516688639
 20
-8.7453796114
 10
-8.4522008138
 20
-8.7402944629
 10
-8.4527370038
 20
-8.7354546773
 10
-8.4532794637
 20
-8.7308410131
 10
-8.4538320308
 20
-8.726422495
 10
-8.4544000169
 20
-8.7221627717
 10
-8.4549902044
 20
-8.7180228734
 10
-8.4556113997
 20
-8.713960066
 10
-8.4562752451
 20
-8.709926302
 10
-8.4569974344
 20
-8.7058660798
 10
-8.4577993829
 20
-8.7017144009
 10
-8.4587074343
 20
-8.6974089433
 10
-8.4597571317
 20
-8.6928775655
 10
-8.4609982014
 20
-8.6880314467
 10
-8.4625001564
 20
-8.6827644957
 10
-8.4643597312
 20
-8.6769549295
 10
-8.4667060654
 20
-8.670479686
 10
-8.4696667041
 20
-8.6633181623
 10
-8.4733518946
 20
-8.6555524963
 10
-8.4778679347
 20
-8.6472996046
 10
-8.4833871432
 20
-8.6385919883
 10
-8.4900966062
 20
-8.6295034113
 10
-8.4981681535
 20
-8.6201924154
 10
-8.5077281477
 20
-8.6109041918
 10
-8.5188211078
 20
-8.6019564364
 10
-8.5314381121
 20
-8.5936867377
 10
-8.5454333552
 20
-8.5864613252
 10
-8.5605355878
 20
-8.5806224212
 10
-8.5764034797
 20
-8.5764164176
 10
-8.5926749859
 20
-8.5739876957
 10
-8.6064027143
 20
-8.5733501327
  0
LINE
  5
752
100
AcDbEntity
  8
0
100
AcDbLine
 62
7
  6
CONTINUOUS
 10
-8.4495616763
 20
-8.7684339917
 11
-8.4506125783
 21
-8.7563438632
  0
LINE
  5
753
100
AcDbEntity
  8
0
100
AcDbLine
 62
7
  6
CONTINUOUS
 10
-8.4485120788
 20
-8.7817186912
 11
-8.4495616763
 21
-8.7684339917
  0
LINE
  5
754
100
AcDbEntity
  8
0
100
AcDbLine
 62
7
  6
CONTINUOUS
 10
-8.4474582678
 20
-8.7962953632
 11
-8.4485120788
 21
-8.7817186912
  0
LINE
  5
755
100
AcDbEntity
  8
0
100
AcDbLine
 62
7
  6
CONTINUOUS
 10
-8.4463962573
 20
-8.8122558977
 11
-8.4474582678
 21
-8.7962953632
  0
LINE
  5
756
100
AcDbEntity
  8
0
100
AcDbLine
 62
7
  6
CONTINUOUS
 10
-8.445323506
 20
-8.8296816114
 11
-8.4463962573
 21
-8.8122558977
  0
LINE
  5
757
100
AcDbEntity
  8
0
100
AcDbLine
 62
7
  6
CONTINUOUS
 10
-8.0199025966
 20
-10.9882913464
 11
-8.0199025966
 21
-11.8208610592
  0
LWPOLYLINE
  5
758
100
AcDbEntity
  8
0
100
AcDbPolyline
 62
7
  6
CONTINUOUS
 90
12
 70
0
 10
-8.747035977
 20
-8.7595231635
 10
-8.7470354575
 20
-8.7595260799
 10
-8.746984825
 20
-8.7598255725
 10
-8.7468648172
 20
-8.7605871308
 10
-8.7466889049
 20
-8.7617863618
 10
-8.7464673418
 20
-8.76340456
 10
-8.7462080344
 20
-8.7654274435
 10
-8.7459171592
 20
-8.7678441403
 10
-8.7455996053
 20
-8.7706463683
 10
-8.7452593035
 20
-8.773827694
 10
-8.7448995101
 20
-8.7773824887
 10
-8.744522839
 20
-8.7813068337
  0
ARC
  5
759
100
AcDbEntity
  8
0
100
AcDbCircle
 62
7
  6
CONTINUOUS
 10
-5.5299116736
 20
-1.9514502074
 40
4.6455419097
100
AcDbArc
 50
175.5741146201
 51
175.7459638559
  0
ARC
  5
75A
100
AcDbEntity
  8
0
100
AcDbCircle
 62
7
  6
CONTINUOUS
 10
-5.6030793292
 20
-2.3023305221
 40
4.5977828607
100
AcDbArc
 50
174.7858851419
 51
175.9983792321
  0
ARC
  5
75B
100
AcDbEntity
  8
0
100
AcDbCircle
 62
7
  6
CONTINUOUS
 10
-5.5821891246
 20
-1.9475858179
 40
4.5931216118
100
AcDbArc
 50
175.9994885495
 51
176.6638550555
  0
ARC
  5
75C
100
AcDbEntity
  8
0
100
AcDbCircle
 62
7
  6
CONTINUOUS
 10
-5.6068658535
 20
-1.9460014226
 40
4.5683940803
100
AcDbArc
 50
176.2529302499
 51
176.4248206338
  0
ARC
  5
75D
100
AcDbEntity
  8
0
100
AcDbCircle
 62
7
  6
CONTINUOUS
 10
-10.6554767934
 20
-2.4499795958
 40
0.4330708661
100
AcDbArc
 50
269.9999995332
 51
355.9999999603
  0
ARC
  5
75E
100
AcDbEntity
  8
0
100
AcDbCircle
 62
7
  6
CONTINUOUS
 10
-18.8128648091
 20
-2.4499795958
 40
0.4330708661
100
AcDbArc
 50
184.0000000397
 51
270.0000004668
  0
ARC
  5
75F
100
AcDbEntity
  8
0
100
AcDbCircle
 62
7
  6
CONTINUOUS
 10
-12.1369129859
 20
-3.0877748714
 40
0.2283464567
100
AcDbArc
 50
269.9999865578
 51
305.0164933608
  0
ARC
  5
760
100
AcDbEntity
  8
0
100
AcDbCircle
 62
7
  6
CONTINUOUS
 10
-17.3314286165
 20
-3.0877748714
 40
0.2283464567
100
AcDbArc
 50
234.9835066392
 51
270.0000134422
  0
ARC
  5
761
100
AcDbEntity
  8
0
100
AcDbCircle
 62
7
  6
CONTINUOUS
 10
-11.3747357032
 20
-3.1113969187
 40
0.2283464567
100
AcDbArc
 50
90.0000001808
 51
125.0165057132
  0
ARC
  5
762
100
AcDbEntity
  8
0
100
AcDbCircle
 62
7
  6
CONTINUOUS
 10
-18.0936058993
 20
-3.1113969187
 40
0.2283464567
100
AcDbArc
 50
54.9834942868
 51
89.9999998192
  0
ARC
  5
763
100
AcDbEntity
  8
0
100
AcDbCircle
 62
7
  6
CONTINUOUS
 10
-16.8404700138
 20
-3.4736016431
 40
0.157480315
100
AcDbArc
 50
0.0
 51
90.0
  0
ARC
  5
764
100
AcDbEntity
  8
0
100
AcDbCircle
 62
7
  6
CONTINUOUS
 10
-12.6278715886
 20
-3.4736016431
 40
0.157480315
100
AcDbArc
 50
90.0
 51
180.0
  0
ARC
  5
765
100
AcDbEntity
  8
0
100
AcDbCircle
 62
7
  6
CONTINUOUS
 10
-12.6219424548
 20
2.9232402642
 40
0.1417322835
100
AcDbArc
 50
180.0
 51
226.0000000005
  0
ARC
  5
766
100
AcDbEntity
  8
0
100
AcDbCircle
 62
7
  6
CONTINUOUS
 10
-16.8463991477
 20
2.9232402642
 40
0.1417322835
100
AcDbArc
 50
313.9999999998
 51
360.0
  0
ARC
  5
767
100
AcDbEntity
  8
0
100
AcDbCircle
 62
7
  6
CONTINUOUS
 10
-19.2113835715
 20
0.2891239132
 40
0.1102362205
100
AcDbArc
 50
133.9999999995
 51
175.9999999999
  0
ARC
  5
768
100
AcDbEntity
  8
0
100
AcDbCircle
 62
7
  6
CONTINUOUS
 10
-10.2569580309
 20
0.2891239132
 40
0.1102362205
100
AcDbArc
 50
4.0000000001
 51
46.0000000005
  0
ARC
  5
769
100
AcDbEntity
  8
0
100
AcDbCircle
 62
7
  6
CONTINUOUS
 10
-19.4628433084
 20
-0.5484047927
 40
0.0826771654
100
AcDbArc
 50
4.0
 51
90.0
  0
ARC
  5
76A
100
AcDbEntity
  8
0
100
AcDbCircle
 62
7
  6
CONTINUOUS
 10
-8.0999027039
 20
11.6694747961
 40
0.0800001073
100
AcDbArc
 50
270.0000768316
 51
359.9999231684
  0
ARC
  5
76B
100
AcDbEntity
  8
0
100
AcDbCircle
 62
7
  6
CONTINUOUS
 10
-8.7449026032
 20
11.6694747062
 40
0.0799999935
100
AcDbArc
 50
180.0000124603
 51
270.0000047165
  0
ARC
  5
76C
100
AcDbEntity
  8
0
100
AcDbCircle
 62
7
  6
CONTINUOUS
 10
-9.9428322186
 20
-0.414546525
 40
0.0511811024
100
AcDbArc
 50
270.0
 51
360.0
  0
ARC
  5
76D
100
AcDbEntity
  8
0
100
AcDbCircle
 62
7
  6
CONTINUOUS
 10
-19.5255093839
 20
-0.414546525
 40
0.0511811024
100
AcDbArc
 50
180.0
 51
270.0
  0
ARC
  5
76E
100
AcDbEntity
  8
0
100
AcDbCircle
 62
7
  6
CONTINUOUS
 10
-9.5342453091
 20
0.5545022515
 40
0.02
100
AcDbArc
 50
102.0425739073
 51
179.9999940777
  0
ARC
  5
76F
100
AcDbEntity
  8
0
100
AcDbCircle
 62
7
  6
CONTINUOUS
 10
-8.6085598842
 20
0.5545022515
 40
0.02
100
AcDbArc
 50
0.0000058079
 51
77.9574260689
  0
ARC
  5
770
100
AcDbEntity
  8
0
100
AcDbCircle
 62
7
  6
CONTINUOUS
 10
1.8196554458
 20
-2.4499795958
 40
0.4330708661
100
AcDbArc
 50
184.0
 51
270.0
  0
ARC
  5
771
100
AcDbEntity
  8
0
100
AcDbCircle
 62
7
  6
CONTINUOUS
 10
2.5389143556
 20
-3.1113969187
 40
0.2283464567
100
AcDbArc
 50
54.9834944274
 51
90.0
  0
ARC
  5
772
100
AcDbEntity
  8
0
100
AcDbCircle
 62
7
  6
CONTINUOUS
 10
1.1696769466
 20
-0.5484047927
 40
0.0826771654
100
AcDbArc
 50
4.0
 51
90.0
  0
ARC
  5
773
100
AcDbEntity
  8
0
100
AcDbCircle
 62
7
  6
CONTINUOUS
 10
1.107010871
 20
-0.414546525
 40
0.0511811024
100
AcDbArc
 50
180.0
 51
270.0
  0
ARC
  5
774
100
AcDbEntity
  8
0
100
AcDbCircle
 62
7
  6
CONTINUOUS
 10
1.4211366834
 20
0.2891239132
 40
0.1102362205
100
AcDbArc
 50
134.0
 51
176.0
  0
ARC
  5
775
100
AcDbEntity
  8
0
100
AcDbCircle
 62
7
  6
CONTINUOUS
 10
4.1046871197
 20
-1.1875737198
 40
0.555
100
AcDbArc
 50
111.8415616938
 51
182.9940022459
  0
ARC
  5
776
100
AcDbEntity
  8
0
100
AcDbCircle
 62
7
  6
CONTINUOUS
 10
4.1046871197
 20
-1.1875737198
 40
0.445
100
AcDbArc
 50
117.6450842566
 51
182.9940022459
  0
ARC
  5
777
100
AcDbEntity
  8
0
100
AcDbCircle
 62
7
  6
CONTINUOUS
 10
3.3010916384
 20
-3.0877748714
 40
0.2283464567
100
AcDbArc
 50
234.9834944271
 51
270.0
  0
ARC
  5
778
100
AcDbEntity
  8
0
100
AcDbCircle
 62
7
  6
CONTINUOUS
 10
3.7920502411
 20
-3.4736016431
 40
0.157480315
100
AcDbArc
 50
46.9039773228
 51
90.0
  0
ARC
  5
779
100
AcDbEntity
  8
0
100
AcDbCircle
 62
7
  6
CONTINUOUS
 10
3.7861211072
 20
2.9232402642
 40
0.1417322835
100
AcDbArc
 50
314.0
 51
360.0
  0
ARC
  5
77A
100
AcDbEntity
  8
0
100
AcDbCircle
 62
7
  6
CONTINUOUS
 10
4.981469306
 20
0.5545022534
 40
0.02
100
AcDbArc
 50
0.0
 51
77.9574248518
  0
ARC
  5
77B
100
AcDbEntity
  8
0
100
AcDbCircle
 62
7
  6
CONTINUOUS
 10
4.055783881
 20
0.5545022466
 40
0.02
100
AcDbArc
 50
102.0425754433
 51
180.0
  0
ARC
  5
77C
100
AcDbEntity
  8
0
100
AcDbCircle
 62
7
  6
CONTINUOUS
 10
0.9893475853
 20
13.3667142269
 40
0.08
100
AcDbArc
 50
123.6774193548
 51
213.6774193548
  0
ARC
  5
77D
100
AcDbEntity
  8
0
100
AcDbCircle
 62
7
  6
CONTINUOUS
 10
1.0059910398
 20
13.3778045571
 40
0.08
100
AcDbArc
 50
33.6774193548
 51
123.6774193548
  0
ARC
  5
77E
100
AcDbEntity
  8
0
100
AcDbCircle
 62
7
  6
CONTINUOUS
 10
0.5882403317
 20
13.0994372712
 40
0.08
100
AcDbArc
 50
159.3484062227
 51
213.6774193548
  0
ARC
  5
77F
100
AcDbEntity
  8
0
100
AcDbCircle
 62
7
  6
CONTINUOUS
 10
0.6573106679
 20
13.1454621411
 40
0.08
100
AcDbArc
 50
33.6774193548
 51
88.0064324869
  0
CIRCLE
  5
780
100
AcDbEntity
  8
02___PRT_ALL_AXES
100
AcDbCircle
 62
7
  6
CONTINUOUS
 10
0.6899235223
 20
13.0277995082
 40
0.0615
  0
ARC
  5
781
100
AcDbEntity
  8
02___PRT_ALL_AXES
100
AcDbCircle
 62
7
  6
CONTINUOUS
 10
1.5185514208
 20
6.6066492746
 40
3.1475865005
100
AcDbArc
 50
29.6672612477
 51
30.0675247776
  0
ARC
  5
782
100
AcDbEntity
  8
02___PRT_ALL_AXES
100
AcDbCircle
 62
7
  6
CONTINUOUS
 10
1.5185777427
 20
6.6066609868
 40
3.1475578939
100
AcDbArc
 50
30.8693317701
 51
33.6773972583
  0
ARC
  5
783
100
AcDbEntity
  8
02___PRT_ALL_AXES
100
AcDbCircle
 62
7
  6
CONTINUOUS
 10
1.518626593
 20
6.6066920789
 40
3.1474999963
100
AcDbArc
 50
58.6702230274
 51
31.2708302995
  0
ARC
  5
784
100
AcDbEntity
  8
02___PRT_ALL_AXES
100
AcDbCircle
 62
7
  6
CONTINUOUS
 10
1.5186843004
 20
6.6067273223
 40
3.1474323828
100
AcDbArc
 50
30.8705442744
 51
31.2708274158
  0
ARC
  5
785
100
AcDbEntity
  8
02___PRT_ALL_AXES
100
AcDbCircle
 62
7
  6
CONTINUOUS
 10
1.5186850773
 20
6.606726678
 40
3.1474320488
100
AcDbArc
 50
30.0675243587
 51
30.869332169
  0
ARC
  5
786
100
AcDbEntity
  8
02___PRT_ALL_AXES
100
AcDbCircle
 62
7
  6
CONTINUOUS
 10
1.518784455
 20
6.6066917877
 40
3.1473421386
100
AcDbArc
 50
0.0000053158
 51
0.4015354124
  0
ARC
  5
787
100
AcDbEntity
  8
02___PRT_ALL_AXES
100
AcDbCircle
 62
7
  6
CONTINUOUS
 10
1.5186614913
 20
6.6067161529
 40
2.8525423899
100
AcDbArc
 50
213.6696534053
 51
214.5030256149
  0
ARC
  5
788
100
AcDbEntity
  8
02___PRT_ALL_AXES
100
AcDbCircle
 62
7
  6
CONTINUOUS
 10
1.5186265966
 20
6.6066920751
 40
2.8525
100
AcDbArc
 50
33.6774162068
 51
213.6540930096
  0
ARC
  5
789
100
AcDbEntity
  8
02___PRT_ALL_AXES
100
AcDbCircle
 62
7
  6
CONTINUOUS
 10
1.5186265905
 20
6.6066920843
 40
2.8525
100
AcDbArc
 50
213.6696429678
 51
33.6618695074
  0
ARC
  5
78A
100
AcDbEntity
  8
0
100
AcDbCircle
 62
7
  6
CONTINUOUS
 10
2.0438545726
 20
11.929201997
 40
0.08
100
AcDbArc
 50
123.6774193548
 51
213.6774193548
  0
ARC
  5
78B
100
AcDbEntity
  8
0
100
AcDbCircle
 62
7
  6
CONTINUOUS
 10
1.9938279634
 20
12.0881346506
 40
0.08
100
AcDbArc
 50
303.6774193548
 51
33.6774193548
  0
ARC
  5
78C
100
AcDbEntity
  8
0
100
AcDbCircle
 62
7
  6
CONTINUOUS
 10
1.3887141072
 20
11.5111621894
 40
0.08
100
AcDbArc
 50
33.6774193548
 51
98.0192678317
  0
ARC
  5
78D
100
AcDbEntity
  8
0
100
AcDbCircle
 62
7
  6
CONTINUOUS
 10
1.3655375558
 20
11.6694746888
 40
0.08
100
AcDbArc
 50
213.6774193548
 51
303.6774193548
  0
ARC
  5
78E
100
AcDbEntity
  8
0
100
AcDbCircle
 62
7
  6
CONTINUOUS
 10
8.495607269
 20
-3.0877748714
 40
0.2283464567
100
AcDbArc
 50
270.0
 51
305.0165055729
  0
ARC
  5
78F
100
AcDbEntity
  8
0
100
AcDbCircle
 62
7
  6
CONTINUOUS
 10
9.2577845518
 20
-3.1113969187
 40
0.2283464567
100
AcDbArc
 50
90.0
 51
125.0165055727
  0
ARC
  5
790
100
AcDbEntity
  8
0
100
AcDbCircle
 62
7
  6
CONTINUOUS
 10
8.0046486663
 20
-3.4736016431
 40
0.157480315
100
AcDbArc
 50
90.0
 51
133.0960226772
  0
ARC
  5
791
100
AcDbEntity
  8
0
100
AcDbCircle
 62
7
  6
CONTINUOUS
 10
8.0105778001
 20
2.9232402642
 40
0.1417322835
100
AcDbArc
 50
180.0
 51
226.0
  0
ARC
  5
792
100
AcDbEntity
  8
0
100
AcDbCircle
 62
7
  6
CONTINUOUS
 10
9.9770434615
 20
-2.4499795958
 40
0.4330708661
100
AcDbArc
 50
270.0
 51
356.0
  0
ARC
  5
793
100
AcDbEntity
  8
0
100
AcDbCircle
 62
7
  6
CONTINUOUS
 10
10.6270219608
 20
-0.5484047927
 40
0.0826771654
100
AcDbArc
 50
90.0
 51
176.0
  0
ARC
  5
794
100
AcDbEntity
  8
0
100
AcDbCircle
 62
7
  6
CONTINUOUS
 10
10.6896880364
 20
-0.414546525
 40
0.0511811024
100
AcDbArc
 50
270.0
 51
360.0
  0
ARC
  5
795
100
AcDbEntity
  8
0
100
AcDbCircle
 62
7
  6
CONTINUOUS
 10
10.375562224
 20
0.2891239132
 40
0.1102362205
100
AcDbArc
 50
4.0
 51
46.0
  0
ARC
  5
796
100
AcDbEntity
  8
0
100
AcDbCircle
 62
7
  6
CONTINUOUS
 10
-14.7341708012
 20
-16.1005729928
 40
4.842519685
100
AcDbArc
 50
17.0599231011
 51
342.9400769099
  0
ARC
  5
797
100
AcDbEntity
  8
0
100
AcDbCircle
 62
7
  6
CONTINUOUS
 10
-14.7341708012
 20
-16.1005729928
 40
4.5966011252
100
AcDbArc
 50
356.3169085799
 51
358.878094819
  0
ARC
  5
798
100
AcDbEntity
  8
0
100
AcDbCircle
 62
7
  6
CONTINUOUS
 10
-14.7341708012
 20
-16.1005729928
 40
4.5966011252
100
AcDbArc
 50
1.121905181
 51
3.6830914201
  0
ARC
  5
799
100
AcDbEntity
  8
0
100
AcDbCircle
 62
7
  6
CONTINUOUS
 10
-14.7341708012
 20
-16.1005729928
 40
4.586878737
100
AcDbArc
 50
356.309091062
 51
3.690908938
  0
ARC
  5
79A
100
AcDbEntity
  8
0
100
AcDbCircle
 62
7
  6
CONTINUOUS
 10
-14.7341708012
 20
-16.1005729928
 40
1.9488188976
100
AcDbArc
 50
104.3883046463
 51
255.6116953537
  0
ARC
  5
79B
100
AcDbEntity
  8
0
100
AcDbCircle
 62
7
  6
CONTINUOUS
 10
-14.7341708012
 20
-16.1005729928
 40
1.9488188976
100
AcDbArc
 50
285.410050829
 51
74.589949171
  0
ARC
  5
79C
100
AcDbEntity
  8
0
100
AcDbCircle
 62
7
  6
CONTINUOUS
 10
-14.7341708012
 20
-16.1005729928
 40
1.9173228346
100
AcDbArc
 50
104.6280872373
 51
255.3719127627
  0
ARC
  5
79D
100
AcDbEntity
  8
0
100
AcDbCircle
 62
7
  6
CONTINUOUS
 10
-14.7341708012
 20
-16.1005729928
 40
1.9173228346
100
AcDbArc
 50
285.6662768379
 51
74.3337231621
  0
ARC
  5
79E
100
AcDbEntity
  8
0
100
AcDbCircle
 62
7
  6
CONTINUOUS
 10
-14.7341708012
 20
-16.1005729928
 40
1.75
100
AcDbArc
 50
287.21249696
 51
72.7875030384
  0
ARC
  5
79F
100
AcDbEntity
  8
0
100
AcDbCircle
 62
7
  6
CONTINUOUS
 10
-14.7341708012
 20
-16.1005729928
 40
1.75
100
AcDbArc
 50
106.0685973299
 51
253.9314026685
  0
ARC
  5
7A0
100
AcDbEntity
  8
0
100
AcDbCircle
 62
7
  6
CONTINUOUS
 10
-8.2859356021
 20
-12.1960515619
 40
0.0799999418
100
AcDbArc
 50
277.9271372198
 51
333.6293950835
  0
ARC
  5
7A1
100
AcDbEntity
  8
0
100
AcDbCircle
 62
7
  6
CONTINUOUS
 10
-8.0999025259
 20
-11.8208610663
 40
0.0799999292
100
AcDbArc
 50
333.6252561485
 51
0.0000050223
  0
ARC
  5
7A2
100
AcDbEntity
  8
0
100
AcDbCircle
 62
7
  6
CONTINUOUS
 10
-9.0214025966
 20
-13.8069106589
 40
0.055
100
AcDbArc
 50
0.0
 51
180.0
  0
ARC
  5
7A3
100
AcDbEntity
  8
0
100
AcDbCircle
 62
7
  6
CONTINUOUS
 10
-9.0214452383
 20
-13.8075501861
 40
0.0549626431
100
AcDbArc
 50
180.0447971596
 51
270.0444475013
  0
ARC
  5
7A4
100
AcDbEntity
  8
0
100
AcDbCircle
 62
7
  6
CONTINUOUS
 10
-9.0213599542
 20
-13.8075501943
 40
0.0549626431
100
AcDbArc
 50
269.9555516202
 51
359.9552113878
  0
ARC
  5
7A5
100
AcDbEntity
  8
0
100
AcDbCircle
 62
7
  6
CONTINUOUS
 10
-9.0213599517
 20
-13.8076361178
 40
0.0549626431
100
AcDbArc
 50
0.0447908305
 51
90.0444509294
  0
ARC
  5
7A6
100
AcDbEntity
  8
0
100
AcDbCircle
 62
7
  6
CONTINUOUS
 10
-9.0214452383
 20
-13.8076361238
 40
0.0549626431
100
AcDbArc
 50
89.9555524987
 51
179.9552028404
  0
LINE
  5
7A7
100
AcDbEntity
  8
0
100
AcDbLine
 62
7
  6
CONTINUOUS
 10
-9.4834285001
 20
-0.1121416598
 11
-9.4834284741
 21
-0.1119680069
  0
LINE
  5
7A8
100
AcDbEntity
  8
0
100
AcDbLine
 62
7
  6
CONTINUOUS
 10
-8.6754737488
 20
-0.1167113925
 11
-8.6758874252
 21
-0.116565456
  0
LINE
  5
7A9
100
AcDbEntity
  8
0
100
AcDbLine
 62
7
  6
CONTINUOUS
 10
-8.6754735169
 20
-0.1467113923
 11
-8.675581048
 21
-0.1466584029
  0
LINE
  5
7AA
100
AcDbEntity
  8
0
100
AcDbLine
 62
7
  6
CONTINUOUS
 10
-9.4673315802
 20
-0.1317113925
 11
-9.467101491
 21
-0.1316155395
  0
SPLINE
  5
7AB
100
AcDbEntity
  8
0
100
AcDbSpline
 62
7
  6
CONTINUOUS
 70
0
 71
3
 72
53
 73
49
 74
0
 42
0.0000001
 43
0.0000001
 44
0.0000000001
 40
0.0
 40
0.0
 40
0.0
 40
0.0
 40
0.0002732761
 40
0.0006136835
 40
0.0014977171
 40
0.0026540218
 40
0.0040829047
 40
0.005784168
 40
0.0077573888
 40
0.0100019941
 40
0.0125168311
 40
0.0183507946
 40
0.0252462538
 40
0.0331896765
 40
0.0421634698
 40
0.0521469345
 40
0.0631191822
 40
0.0750564499
 40
0.0879312562
 40
0.1163807076
 40
0.1482168056
 40
0.183160696
 40
0.2209033171
 40
0.2611130351
 40
0.3034359514
 40
0.3474986479
 40
0.392913851
 40
0.4392811047
 40
0.4861922222
 40
0.579992307
 40
0.6710169483
 40
0.7144819491
 40
0.7560669231
 40
0.7954057979
 40
0.8321528385
 40
0.8659831639
 40
0.8966002343
 40
0.923734203
 40
0.9471455472
 40
0.9573905163
 40
0.9666302624
 40
0.9748442749
 40
0.9820159616
 40
0.9881290908
 40
0.9931697354
 40
0.9971290831
 40
0.9987009781
 40
1.0
 40
1.0
 40
1.0
 40
1.0
 10
-9.467101491
 20
-0.1316155395
 30
0.0
 10
-9.4670327415
 20
-0.1315942791
 30
0.0
 10
-9.4668762202
 20
-0.1315535037
 30
0.0
 10
-9.4664900692
 20
-0.1314729546
 30
0.0
 10
-9.4658701786
 20
-0.1313770926
 30
0.0
 10
-9.4649631669
 20
-0.1312677069
 30
0.0
 10
-9.463839703
 20
-0.1311576764
 30
0.0
 10
-9.4625003745
 20
-0.1310469827
 30
0.0
 10
-9.4609456318
 20
-0.1309359781
 30
0.0
 10
-9.4591761994
 20
-0.1308247269
 30
0.0
 10
-9.4563910102
 20
-0.1306683392
 30
0.0
 10
-9.4523812679
 20
-0.1304764806
 30
0.0
 10
-9.4469419699
 20
-0.1302550336
 30
0.0
 10
-9.4406752891
 20
-0.1300330426
 30
0.0
 10
-9.4335950175
 20
-0.129810579
 30
0.0
 10
-9.4257168251
 20
-0.1295877788
 30
0.0
 10
-9.4170579861
 20
-0.1293647627
 30
0.0
 10
-9.4076375443
 20
-0.1291415817
 30
0.0
 10
-9.3936155753
 20
-0.1288334487
 30
0.0
 10
-9.3743540106
 20
-0.1284527273
 30
0.0
 10
-9.349281179
 20
-0.1280086368
 30
0.0
 10
-9.3217608413
 20
-0.1275639276
 30
0.0
 10
-9.2920352249
 20
-0.1271186817
 30
0.0
 10
-9.2603662928
 20
-0.1266730923
 30
0.0
 10
-9.2270329445
 20
-0.1262272487
 30
0.0
 10
-9.1923287223
 20
-0.1257812092
 30
0.0
 10
-9.1565594221
 20
-0.1253350496
 30
0.0
 10
-9.1200399919
 20
-0.1248887991
 30
0.0
 10
-9.0707802459
 20
-0.1242937894
 30
0.0
 10
-9.0097616992
 20
-0.1235597725
 30
0.0
 10
-8.9496508053
 20
-0.1228155354
 30
0.0
 10
-8.9032890367
 20
-0.1222116101
 30
0.0
 10
-8.8705367722
 20
-0.1217658387
 30
0.0
 10
-8.8395537146
 20
-0.1213203612
 30
0.0
 10
-8.8106129044
 20
-0.1208753058
 30
0.0
 10
-8.7839690887
 20
-0.1204307789
 30
0.0
 10
-8.7598570472
 20
-0.1199871172
 30
0.0
 10
-8.7384891321
 20
-0.119544546
 30
0.0
 10
-8.7224857523
 20
-0.119162332
 30
0.0
 10
-8.7111942131
 20
-0.1188511815
 30
0.0
 10
-8.7039036958
 20
-0.1186286054
 30
0.0
 10
-8.6974228669
 20
-0.1184064415
 30
0.0
 10
-8.6917658986
 20
-0.1181848528
 30
0.0
 10
-8.6869452349
 20
-0.1179643602
 30
0.0
 10
-8.6829715113
 20
-0.1177449429
 30
0.0
 10
-8.6801940138
 20
-0.1175530489
 30
0.0
 10
-8.6784024638
 20
-0.1173932496
 30
0.0
 10
-8.6776507118
 20
-0.117312457
 30
0.0
 10
-8.6773111973
 20
-0.117270712
 30
0.0
  0
SPLINE
  5
7AC
100
AcDbEntity
  8
0
100
AcDbSpline
 62
7
  6
CONTINUOUS
 70
0
 71
3
 72
16
 73
12
 74
0
 42
0.0000001
 43
0.0000001
 44
0.0000000001
 40
0.0
 40
0.0
 40
0.0
 40
0.0
 40
0.2253256158
 40
0.4211875969
 40
0.5876810685
 40
0.7249677306
 40
0.8333470802
 40
0.9134529941
 40
0.9433870924
 40
0.9671059654
 40
1.0
 40
1.0
 40
1.0
 40
1.0
 10
-8.6773111973
 20
-0.117270712
 30
0.0
 10
-8.6771620433
 20
-0.1172523727
 30
0.0
 10
-8.6768834698
 20
-0.1172161506
 30
0.0
 10
-8.6764958039
 20
-0.117158173
 30
0.0
 10
-8.6761675855
 20
-0.1171003619
 30
0.0
 10
-8.675898644
 20
-0.1170430405
 30
0.0
 10
-8.6756888882
 20
-0.1169858828
 30
0.0
 10
-8.6755517217
 20
-0.1169359471
 30
0.0
 10
-8.6754729699
 20
-0.1168927772
 30
0.0
 10
-8.6754269968
 20
-0.1168591775
 30
0.0
 10
-8.6754030654
 20
-0.1168236848
 30
0.0
 10
-8.6754030294
 20
-0.1168017467
 30
0.0
  0
SPLINE
  5
7AD
100
AcDbEntity
  8
0
100
AcDbSpline
 62
7
  6
CONTINUOUS
 70
0
 71
3
 72
55
 73
51
 74
0
 42
0.0000001
 43
0.0000001
 44
0.0000000001
 40
0.0
 40
0.0
 40
0.0
 40
0.0
 40
0.0001620577
 40
0.0003880601
 40
0.0006801824
 40
0.0010393601
 40
0.0014660535
 40
0.0019605048
 40
0.0031531032
 40
0.0046175888
 40
0.0063538905
 40
0.0083616404
 40
0.0106397507
 40
0.0131868264
 40
0.0160014343
 40
0.0224273902
 40
0.0299053575
 40
0.038418522
 40
0.0479474934
 40
0.0584726549
 40
0.0699710068
 40
0.0824162406
 40
0.0957818671
 40
0.1100391769
 40
0.1410986651
 40
0.1753239358
 40
0.2124134963
 40
0.2520425786
 40
0.2938639885
 40
0.3375100364
 40
0.3825986612
 40
0.4287339013
 40
0.4755111283
 40
0.5693483206
 40
0.6608247267
 40
0.7467378432
 40
0.7866573555
 40
0.8240797642
 40
0.8586755486
 40
0.8901425403
 40
0.9182045666
 40
0.9426148079
 40
0.9631612307
 40
0.9719269727
 40
0.9796627395
 40
0.9863510546
 40
0.9919766999
 40
0.9965293755
 40
0.9984004796
 40
1.0
 40
1.0
 40
1.0
 40
1.0
 10
-9.4673316813
 20
-0.1617113921
 30
0.0
 10
-9.4672957273
 20
-0.1616884947
 30
0.0
 10
-9.4672017814
 20
-0.1616466578
 30
0.0
 10
-9.4670312665
 20
-0.1615925881
 30
0.0
 10
-9.4668068589
 20
-0.1615379775
 30
0.0
 10
-9.4665286789
 20
-0.1614829572
 30
0.0
 10
-9.4661964311
 20
-0.1614276946
 30
0.0
 10
-9.4656460521
 20
-0.1613487891
 30
0.0
 10
-9.4648225515
 20
-0.1612528345
 30
0.0
 10
-9.4636721741
 20
-0.1611427694
 30
0.0
 10
-9.4623065942
 20
-0.1610322845
 30
0.0
 10
-9.4607264466
 20
-0.1609214559
 30
0.0
 10
-9.4589325969
 20
-0.1608104159
 30
0.0
 10
-9.456926171
 20
-0.1606992021
 30
0.0
 10
-9.4538295535
 20
-0.1605438144
 30
0.0
 10
-9.4494361965
 20
-0.1603525254
 30
0.0
 10
-9.4435439654
 20
-0.1601311648
 30
0.0
 10
-9.4368350616
 20
-0.1599093276
 30
0.0
 10
-9.4293242822
 20
-0.1596870791
 30
0.0
 10
-9.421028007
 20
-0.1594645965
 30
0.0
 10
-9.4119644219
 20
-0.1592419287
 30
0.0
 10
-9.4021535064
 20
-0.159019093
 30
0.0
 10
-9.3916167316
 20
-0.1587961401
 30
0.0
 10
-9.3761845284
 20
-0.1584899624
 30
0.0
 10
-9.3552660016
 20
-0.1581107717
 30
0.0
 10
-9.3283421355
 20
-0.1576670272
 30
0.0
 10
-9.2991639367
 20
-0.1572227607
 30
0.0
 10
-9.267987517
 20
-0.1567781073
 30
0.0
 10
-9.2350863831
 20
-0.156333189
 30
0.0
 10
-9.2007491039
 20
-0.1558880581
 30
0.0
 10
-9.165277068
 20
-0.1554427961
 30
0.0
 10
-9.1289813764
 20
-0.1549974358
 30
0.0
 10
-9.0798642158
 20
-0.1544029487
 30
0.0
 10
-9.0188217771
 20
-0.1536695636
 30
0.0
 10
-8.9474864298
 20
-0.1527910127
 30
0.0
 10
-8.890332513
 20
-0.1520436283
 30
0.0
 10
-8.8473958429
 20
-0.1514357419
 30
0.0
 10
-8.8179562187
 20
-0.1509914127
 30
0.0
 10
-8.7907401227
 20
-0.1505476021
 30
0.0
 10
-8.7659864313
 20
-0.1501045005
 30
0.0
 10
-8.7439122884
 20
-0.1496625693
 30
0.0
 10
-8.7247112092
 20
-0.1492220179
 30
0.0
 10
-8.7105856946
 20
-0.1488399748
 30
0.0
 10
-8.7008459763
 20
-0.148527194
 30
0.0
 10
-8.6947503609
 20
-0.1483056713
 30
0.0
 10
-8.6894812572
 20
-0.1480849956
 30
0.0
 10
-8.6850502365
 20
-0.147865175
 30
0.0
 10
-8.6818865405
 20
-0.1476734559
 30
0.0
 10
-8.6797820703
 20
-0.1475153519
 30
0.0
 10
-8.6788726396
 20
-0.1474355996
 30
0.0
 10
-8.6784538959
 20
-0.1473948499
 30
0.0
  0
SPLINE
  5
7AE
100
AcDbEntity
  8
0
100
AcDbSpline
 62
7
  6
CONTINUOUS
 70
0
 71
3
 72
17
 73
13
 74
0
 42
0.0000001
 43
0.0000001
 44
0.0000000001
 40
0.0
 40
0.0
 40
0.0
 40
0.0
 40
0.426126836
 40
0.594273542
 40
0.7325727838
 40
0.7905840788
 40
0.8412148078
 40
0.8845245127
 40
0.9206108123
 40
0.9496465393
 40
0.9719718417
 40
1.0
 40
1.0
 40
1.0
 40
1.0
 10
-8.6784538959
 20
-0.1473948499
 30
0.0
 10
-8.6780086773
 20
-0.1473515238
 30
0.0
 10
-8.67738819
 20
-0.1472854901
 30
0.0
 10
-8.6766264609
 20
-0.1471795143
 30
0.0
 10
-8.676249107
 20
-0.1471158871
 30
0.0
 10
-8.6759951434
 20
-0.1470637223
 30
0.0
 10
-8.6758399118
 20
-0.1470270423
 30
0.0
 10
-8.6757082897
 20
-0.1469903434
 30
0.0
 10
-8.6756006006
 20
-0.1469541711
 30
0.0
 10
-8.6755155151
 20
-0.1469171425
 30
0.0
 10
-8.6754451695
 20
-0.1468770088
 30
0.0
 10
-8.6754028344
 20
-0.1468311689
 30
0.0
 10
-8.6754027696
 20
-0.1468017467
 30
0.0
  0
LINE
  5
7AF
100
AcDbEntity
  8
0
100
AcDbLine
 62
7
  6
CONTINUOUS
 10
-9.4674020875
 20
-0.1223079204
 11
-9.4665663805
 21
-0.1219975754
  0
SPLINE
  5
7B0
100
AcDbEntity
  8
0
100
AcDbSpline
 62
7
  6
CONTINUOUS
 70
0
 71
3
 72
43
 73
39
 74
0
 42
0.0000001
 43
0.0000001
 44
0.0000000001
 40
0.0
 40
0.0
 40
0.0
 40
0.0
 40
0.0008736376
 40
0.0019978598
 40
0.0033727609
 40
0.0049980216
 40
0.0089974397
 40
0.0139908039
 40
0.01996832
 40
0.0269173616
 40
0.03482509
 40
0.0436763972
 40
0.0534523461
 40
0.0641335957
 40
0.088127296
 40
0.1154634109
 40
0.1459242839
 40
0.1792652309
 40
0.2152184776
 40
0.2534968098
 40
0.2937919671
 40
0.3357817453
 40
0.3791288364
 40
0.4684965498
 40
0.5590336637
 40
0.6478412449
 40
0.7320755149
 40
0.8090393222
 40
0.8440139393
 40
0.8762688632
 40
0.9055470952
 40
0.9316123861
 40
0.9542568682
 40
0.9732994593
 40
0.981420877
 40
0.9885868711
 40
0.994784246
 40
1.0
 40
1.0
 40
1.0
 40
1.0
 10
-9.4665663805
 20
-0.1219975754
 30
0.0
 10
-9.4663422855
 20
-0.1219559765
 30
0.0
 10
-9.4658267512
 20
-0.1218776729
 30
0.0
 10
-9.4649530197
 20
-0.1217731341
 30
0.0
 10
-9.4638820936
 20
-0.1216679171
 30
0.0
 10
-9.4620622407
 20
-0.1215162818
 30
0.0
 10
-9.4592980078
 20
-0.1213329441
 30
0.0
 10
-9.4553980082
 20
-0.1211230622
 30
0.0
 10
-9.4507275863
 20
-0.1209122213
 30
0.0
 10
-9.4452962315
 20
-0.1207005028
 30
0.0
 10
-9.439114652
 20
-0.1204883322
 30
0.0
 10
-9.4321951892
 20
-0.1202758393
 30
0.0
 10
-9.4245518441
 20
-0.1200630633
 30
0.0
 10
-9.4129588046
 20
-0.1197675379
 30
0.0
 10
-9.3967848014
 20
-0.1194033356
 30
0.0
 10
-9.375450607
 20
-0.1189800783
 30
0.0
 10
-9.351677395
 20
-0.1185560544
 30
0.0
 10
-9.3256557482
 20
-0.1181313908
 30
0.0
 10
-9.297594361
 20
-0.1177062917
 30
0.0
 10
-9.2677185002
 20
-0.1172808959
 30
0.0
 10
-9.2362676212
 20
-0.1168552527
 30
0.0
 10
-9.2034942401
 20
-0.1164294476
 30
0.0
 10
-9.1579191627
 20
-0.1158557255
 30
0.0
 10
-9.099679264
 20
-0.1151473828
 30
0.0
 10
-9.0295799276
 20
-0.1143053503
 30
0.0
 10
-8.9608199436
 20
-0.113463907
 30
0.0
 10
-8.8956013598
 20
-0.112623798
 30
0.0
 10
-8.8444268744
 20
-0.1119052761
 30
0.0
 10
-8.8068128118
 20
-0.111319872
 30
0.0
 10
-8.7816384631
 20
-0.1108953879
 30
0.0
 10
-8.7587888158
 20
-0.1104716407
 30
0.0
 10
-8.7384468864
 20
-0.1100489613
 30
0.0
 10
-8.7207759624
 20
-0.109627644
 30
0.0
 10
-8.707786484
 20
-0.1092621892
 30
0.0
 10
-8.698835104
 20
-0.1089630625
 30
0.0
 10
-8.6932339153
 20
-0.1087512252
 30
0.0
 10
-8.6883913809
 20
-0.1085400811
 30
0.0
 10
-8.6854176933
 20
-0.1083868692
 30
0.0
 10
-8.6840592369
 20
-0.1083080963
 30
0.0
  0
LINE
  5
7B1
100
AcDbEntity
  8
0
100
AcDbLine
 62
7
  6
CONTINUOUS
 10
-9.4674022846
 20
-0.1523079206
 11
-9.467101491
 21
-0.1521217134
  0
SPLINE
  5
7B2
100
AcDbEntity
  8
0
100
AcDbSpline
 62
7
  6
CONTINUOUS
 70
0
 71
3
 72
53
 73
49
 74
0
 42
0.0000001
 43
0.0000001
 44
0.0000000001
 40
0.0
 40
0.0
 40
0.0
 40
0.0
 40
0.0002732761
 40
0.0006136835
 40
0.0014977171
 40
0.0026540218
 40
0.0040829047
 40
0.005784168
 40
0.0077573888
 40
0.0100019941
 40
0.0125168311
 40
0.0183507946
 40
0.0252462538
 40
0.0331896765
 40
0.0421634698
 40
0.0521469345
 40
0.0631191822
 40
0.0750564499
 40
0.0879312562
 40
0.1163807076
 40
0.1482168056
 40
0.183160696
 40
0.2209033171
 40
0.2611130351
 40
0.3034359514
 40
0.3474986479
 40
0.392913851
 40
0.4392811047
 40
0.4861922222
 40
0.579992307
 40
0.6710169483
 40
0.7144819491
 40
0.7560669231
 40
0.7954057979
 40
0.8321528385
 40
0.8659831639
 40
0.8966002343
 40
0.923734203
 40
0.9471455472
 40
0.9573905163
 40
0.9666302624
 40
0.9748442749
 40
0.9820159616
 40
0.9881290908
 40
0.9931697354
 40
0.9971290831
 40
0.9987009781
 40
1.0
 40
1.0
 40
1.0
 40
1.0
 10
-9.467101491
 20
-0.1521217134
 30
0.0
 10
-9.4670327415
 20
-0.1521004529
 30
0.0
 10
-9.4668762202
 20
-0.1520596775
 30
0.0
 10
-9.4664900692
 20
-0.1519791284
 30
0.0
 10
-9.4658701786
 20
-0.1518832664
 30
0.0
 10
-9.4649631669
 20
-0.1517738807
 30
0.0
 10
-9.463839703
 20
-0.1516638503
 30
0.0
 10
-9.4625003745
 20
-0.1515531566
 30
0.0
 10
-9.4609456318
 20
-0.151442152
 30
0.0
 10
-9.4591761994
 20
-0.1513309007
 30
0.0
 10
-9.4563910102
 20
-0.151174513
 30
0.0
 10
-9.4523812679
 20
-0.1509826545
 30
0.0
 10
-9.4469419699
 20
-0.1507612075
 30
0.0
 10
-9.4406752891
 20
-0.1505392164
 30
0.0
 10
-9.4335950175
 20
-0.1503167528
 30
0.0
 10
-9.4257168251
 20
-0.1500939527
 30
0.0
 10
-9.4170579861
 20
-0.1498709366
 30
0.0
 10
-9.4076375443
 20
-0.1496477555
 30
0.0
 10
-9.3936155753
 20
-0.1493396225
 30
0.0
 10
-9.3743540106
 20
-0.1489589012
 30
0.0
 10
-9.349281179
 20
-0.1485148107
 30
0.0
 10
-9.3217608413
 20
-0.1480701014
 30
0.0
 10
-9.2920352249
 20
-0.1476248555
 30
0.0
 10
-9.2603662928
 20
-0.1471792661
 30
0.0
 10
-9.2270329445
 20
-0.1467334226
 30
0.0
 10
-9.1923287223
 20
-0.146287383
 30
0.0
 10
-9.1565594221
 20
-0.1458412234
 30
0.0
 10
-9.1200399919
 20
-0.1453949729
 30
0.0
 10
-9.0707802459
 20
-0.1447999633
 30
0.0
 10
-9.0097616992
 20
-0.1440659463
 30
0.0
 10
-8.9496508053
 20
-0.1433217092
 30
0.0
 10
-8.9032890367
 20
-0.142717784
 30
0.0
 10
-8.8705367722
 20
-0.1422720125
 30
0.0
 10
-8.8395537146
 20
-0.141826535
 30
0.0
 10
-8.8106129044
 20
-0.1413814797
 30
0.0
 10
-8.7839690887
 20
-0.1409369527
 30
0.0
 10
-8.7598570472
 20
-0.1404932911
 30
0.0
 10
-8.7384891321
 20
-0.1400507199
 30
0.0
 10
-8.7224857523
 20
-0.1396685058
 30
0.0
 10
-8.7111942131
 20
-0.1393573553
 30
0.0
 10
-8.7039036958
 20
-0.1391347792
 30
0.0
 10
-8.6974228669
 20
-0.1389126153
 30
0.0
 10
-8.6917658986
 20
-0.1386910266
 30
0.0
 10
-8.6869452349
 20
-0.138470534
 30
0.0
 10
-8.6829715113
 20
-0.1382511167
 30
0.0
 10
-8.6801940138
 20
-0.1380592227
 30
0.0
 10
-8.6784024638
 20
-0.1378994235
 30
0.0
 10
-8.6776507118
 20
-0.1378186308
 30
0.0
 10
-8.6773111973
 20
-0.1377768858
 30
0.0
  0
LINE
  5
7B3
100
AcDbEntity
  8
0
100
AcDbLine
 62
7
  6
CONTINUOUS
 10
-8.6773111973
 20
-0.1377768858
 11
-8.6754740246
 21
-0.1373982745
  0
SPLINE
  5
7B4
100
AcDbEntity
  8
0
100
AcDbSpline
 62
7
  6
CONTINUOUS
 70
0
 71
3
 72
60
 73
56
 74
0
 42
0.0000001
 43
0.0000001
 44
0.0000000001
 40
0.0
 40
0.0
 40
0.0
 40
0.0
 40
0.000084305
 40
0.0001446253
 40
0.0002197171
 40
0.0004174531
 40
0.0006813122
 40
0.0010126531
 40
0.001412109
 40
0.0018800045
 40
0.0024165119
 40
0.0036956455
 40
0.0052497632
 40
0.0070787153
 40
0.0091819419
 40
0.0115581639
 40
0.014205948
 40
0.0171238273
 40
0.0203103131
 40
0.0274830011
 40
0.0357087807
 40
0.0449682115
 40
0.0552414975
 40
0.0665068297
 40
0.0787379222
 40
0.0919078646
 40
0.1059886329
 40
0.120947899
 40
0.1367522831
 40
0.170757134
 40
0.2077001334
 40
0.2472545679
 40
0.2890693517
 40
0.332772964
 40
0.3779784438
 40
0.4242840662
 40
0.4712792246
 40
0.5185469261
 40
0.5656676754
 40
0.6578010609
 40
0.7444169081
 40
0.7846863499
 40
0.8224480232
 40
0.8573656942
 40
0.88913094
 40
0.9174615742
 40
0.9421057645
 40
0.9628468541
 40
0.9716939636
 40
0.9794999107
 40
0.9862469141
 40
0.9919194001
 40
0.9965068433
 40
0.9983907526
 40
1.0
 40
1.0
 40
1.0
 40
1.0
 10
-9.4674019579
 20
-0.1822996212
 30
0.0
 10
-9.4673988232
 20
-0.182277666
 30
0.0
 10
-9.4673722802
 20
-0.1822449795
 30
0.0
 10
-9.4673254153
 20
-0.1822123915
 30
0.0
 10
-9.4672474025
 20
-0.182171312
 30
0.0
 10
-9.4671144151
 20
-0.1821232414
 30
0.0
 10
-9.4669130197
 20
-0.1820683544
 30
0.0
 10
-9.4666571433
 20
-0.1820132597
 30
0.0
 10
-9.466346685
 20
-0.1819577627
 30
0.0
 10
-9.4659815652
 20
-0.1819020981
 30
0.0
 10
-9.4653860483
 20
-0.1818229828
 30
0.0
 10
-9.4645047427
 20
-0.1817264974
 30
0.0
 10
-9.4632832552
 20
-0.1816156517
 30
0.0
 10
-9.4618442504
 20
-0.1815044318
 30
0.0
 10
-9.4601884538
 20
-0.1813929046
 30
0.0
 10
-9.4583168341
 20
-0.1812811766
 30
0.0
 10
-9.4562305768
 20
-0.1811692998
 30
0.0
 10
-9.4539308962
 20
-0.1810573079
 30
0.0
 10
-9.4504416087
 20
-0.1809016644
 30
0.0
 10
-9.4455562709
 20
-0.1807095675
 30
0.0
 10
-9.4390734173
 20
-0.1804865988
 30
0.0
 10
-9.431774487
 20
-0.180263217
 30
0.0
 10
-9.4236756279
 20
-0.1800395301
 30
0.0
 10
-9.4147947588
 20
-0.1798156587
 30
0.0
 10
-9.4051516595
 20
-0.1795916007
 30
0.0
 10
-9.3947677313
 20
-0.1793674092
 30
0.0
 10
-9.3836659578
 20
-0.1791431442
 30
0.0
 10
-9.37187102
 20
-0.1789187824
 30
0.0
 10
-9.3548353496
 20
-0.1786120053
 30
0.0
 10
-9.3320168949
 20
-0.1782315445
 30
0.0
 10
-9.3029508611
 20
-0.1777847959
 30
0.0
 10
-9.2718300747
 20
-0.1773376797
 30
0.0
 10
-9.2389306291
 20
-0.1768902629
 30
0.0
 10
-9.2045444544
 20
-0.1764426272
 30
0.0
 10
-9.1689767957
 20
-0.1759948515
 30
0.0
 10
-9.1325431758
 20
-0.1755469682
 30
0.0
 10
-9.0955670149
 20
-0.1750990265
 30
0.0
 10
-9.0583764059
 20
-0.1746510667
 30
0.0
 10
-9.0093123202
 20
-0.1740582406
 30
0.0
 10
-8.9498979603
 20
-0.1733276746
 30
0.0
 10
-8.8922863473
 20
-0.1725762359
 30
0.0
 10
-8.8489775375
 20
-0.1719650093
 30
0.0
 10
-8.8192678384
 20
-0.1715181471
 30
0.0
 10
-8.7917955709
 20
-0.1710718065
 30
0.0
 10
-8.7668046384
 20
-0.1706261835
 30
0.0
 10
-8.7445167613
 20
-0.1701817364
 30
0.0
 10
-8.7251295992
 20
-0.1697386849
 30
0.0
 10
-8.7108679657
 20
-0.1693544653
 30
0.0
 10
-8.701035823
 20
-0.1690398808
 30
0.0
 10
-8.6948840607
 20
-0.1688170968
 30
0.0
 10
-8.6895680099
 20
-0.1685951729
 30
0.0
 10
-8.6850994792
 20
-0.1683741138
 30
0.0
 10
-8.6819105231
 20
-0.168181299
 30
0.0
 10
-8.679790712
 20
-0.1680222572
 30
0.0
 10
-8.6788752447
 20
-0.1679420269
 30
0.0
 10
-8.6784538959
 20
-0.1679010237
 30
0.0
  0
LINE
  5
7B5
100
AcDbEntity
  8
0
100
AcDbLine
 62
7
  6
CONTINUOUS
 10
-8.6784538959
 20
-0.1679010237
 11
-8.675473871
 21
-0.1673982748
  0
LINE
  5
7B6
100
AcDbEntity
  8
0
100
AcDbLine
 62
7
  6
CONTINUOUS
 10
-9.4670895307
 20
-0.1224976754
 11
-9.4673311798
 21
-0.1223982744
  0
LINE
  5
7B7
100
AcDbEntity
  8
0
100
AcDbLine
 62
7
  6
CONTINUOUS
 10
-9.4671514246
 20
-0.1524778075
 11
-9.4673312193
 21
-0.1523982747
  0
LINE
  5
7B8
100
AcDbEntity
  8
0
100
AcDbLine
 62
7
  6
CONTINUOUS
 10
-9.467189176
 20
-0.1824645453
 11
-9.4673314569
 21
-0.1823982748
  0
SPLINE
  5
7B9
100
AcDbEntity
  8
0
100
AcDbSpline
 62
7
  6
CONTINUOUS
 70
0
 71
3
 72
30
 73
26
 74
0
 42
0.0000001
 43
0.0000001
 44
0.0000000001
 40
0.0
 40
0.0
 40
0.0
 40
0.0
 40
0.0010985074
 40
0.0026536183
 40
0.0046806683
 40
0.0071860924
 40
0.0101730259
 40
0.0136431188
 40
0.0220357181
 40
0.0323670228
 40
0.0446365526
 40
0.0588386767
 40
0.0749643693
 40
0.0930041514
 40
0.112948302
 40
0.1585099316
 40
0.2115533033
 40
0.2719483038
 40
0.3395601478
 40
0.4142417162
 40
0.4958129658
 40
0.5840882154
 40
0.6788730906
 40
0.7799423945
 40
1.0
 40
1.0
 40
1.0
 40
1.0
 10
-9.4834284741
 20
-0.1119680069
 30
0.0
 10
-9.4833912385
 20
-0.1119443112
 30
0.0
 10
-9.4832926553
 20
-0.1119014667
 30
0.0
 10
-9.4831129391
 20
-0.1118462999
 30
0.0
 10
-9.4828745604
 20
-0.1117905441
 30
0.0
 10
-9.4825777058
 20
-0.1117343218
 30
0.0
 10
-9.4822220163
 20
-0.1116778395
 30
0.0
 10
-9.4816308487
 20
-0.1115970965
 30
0.0
 10
-9.4807444271
 20
-0.1114989771
 30
0.0
 10
-9.4795042279
 20
-0.1113864634
 30
0.0
 10
-9.4780298364
 20
-0.1112735265
 30
0.0
 10
-9.4763220944
 20
-0.111160213
 30
0.0
 10
-9.4743820834
 20
-0.1110466747
 30
0.0
 10
-9.4722110308
 20
-0.1109329571
 30
0.0
 10
-9.4688580882
 20
-0.1107740334
 30
0.0
 10
-9.4640989911
 20
-0.1105784433
 30
0.0
 10
-9.457714674
 20
-0.1103521199
 30
0.0
 10
-9.4504439536
 20
-0.1101252721
 30
0.0
 10
-9.4423034931
 20
-0.1098980279
 30
0.0
 10
-9.4333119211
 20
-0.1096705533
 30
0.0
 10
-9.4234898986
 20
-0.1094428533
 30
0.0
 10
-9.4128599692
 20
-0.1092149964
 30
0.0
 10
-9.4014464818
 20
-0.1089870409
 30
0.0
 10
-9.3847388957
 20
-0.108674002
 30
0.0
 10
-9.3718385314
 20
-0.1084530833
 30
0.0
 10
-9.362998239
 20
-0.1083081336
 30
0.0
  0
SPLINE
  5
7BA
100
AcDbEntity
  8
0
100
AcDbSpline
 62
7
  6
CONTINUOUS
 70
0
 71
3
 72
69
 73
65
 74
0
 42
0.0000001
 43
0.0000001
 44
0.0000000001
 40
0.0
 40
0.0
 40
0.0
 40
0.0
 40
0.0001628181
 40
0.0003941558
 40
0.0006963917
 40
0.001070556
 40
0.0015171092
 40
0.0020362424
 40
0.0032924644
 40
0.0048392445
 40
0.0066761135
 40
0.0088024065
 40
0.0112173552
 40
0.013919819
 40
0.0169079825
 40
0.0237337191
 40
0.03167909
 40
0.0407268864
 40
0.0508545708
 40
0.0620384743
 40
0.0742536322
 40
0.087470121
 40
0.1016568019
 40
0.1167815506
 40
0.1496975481
 40
0.185909524
 40
0.2250757079
 40
0.2668282168
 40
0.3107746749
 40
0.3565009205
 40
0.4035772956
 40
0.4515608588
 40
0.4999999959
 40
0.5484392682
 40
0.5964226705
 40
0.6434991164
 40
0.6892255619
 40
0.7331715722
 40
0.7749244533
 40
0.8140907513
 40
0.8503020895
 40
0.8832187831
 40
0.8983427826
 40
0.9125301196
 40
0.9257467923
 40
0.9379610777
 40
0.9491456292
 40
0.9592736241
 40
0.968320453
 40
0.9762664292
 40
0.9830926034
 40
0.9860802407
 40
0.9887822029
 40
0.9911971997
 40
0.9933239758
 40
0.9951613339
 40
0.99670818
 40
0.9979639021
 40
0.9984827308
 40
0.9989290453
 40
0.9993031121
 40
0.9996054182
 40
0.9998369426
 40
1.0
 40
1.0
 40
1.0
 40
1.0
 10
-9.4834282583
 20
-0.1419680074
 30
0.0
 10
-9.4833905437
 20
-0.1419439439
 30
0.0
 10
-9.4832903326
 20
-0.1419005308
 30
0.0
 10
-9.483107398
 20
-0.1418446849
 30
0.0
 10
-9.4828642108
 20
-0.141788236
 30
0.0
 10
-9.4825609391
 20
-0.1417313101
 30
0.0
 10
-9.4821972041
 20
-0.1416741181
 30
0.0
 10
-9.4815921665
 20
-0.1415923383
 30
0.0
 10
-9.480684643
 20
-0.1414929808
 30
0.0
 10
-9.479414813
 20
-0.141379046
 30
0.0
 10
-9.477905137
 20
-0.1412646599
 30
0.0
 10
-9.4761563707
 20
-0.1411498859
 30
0.0
 10
-9.4741693315
 20
-0.1410348965
 30
0.0
 10
-9.4719451368
 20
-0.1409197392
 30
0.0
 10
-9.4685097813
 20
-0.140758805
 30
0.0
 10
-9.4636340579
 20
-0.1405607286
 30
0.0
 10
-9.4570933508
 20
-0.1403314724
 30
0.0
 10
-9.4496448975
 20
-0.1401017714
 30
0.0
 10
-9.441306236
 20
-0.1398716389
 30
0.0
 10
-9.4320969903
 20
-0.1396412295
 30
0.0
 10
-9.4220387993
 20
-0.1394106478
 30
0.0
 10
-9.4111553421
 20
-0.1391798973
 30
0.0
 10
-9.3994722552
 20
-0.138949008
 30
0.0
 10
-9.3823770055
 20
-0.1386320542
 30
0.0
 10
-9.3592302606
 20
-0.1382395479
 30
0.0
 10
-9.329477895
 20
-0.1377800741
 30
0.0
 10
-9.2972972696
 20
-0.1373200651
 30
0.0
 10
-9.2629912502
 20
-0.1368596588
 30
0.0
 10
-9.226882578
 20
-0.1363989823
 30
0.0
 10
-9.18931096
 20
-0.1359380969
 30
0.0
 10
-9.1506299907
 20
-0.1354770802
 30
0.0
 10
-9.1112035516
 20
-0.1350159785
 30
0.0
 10
-9.0714026056
 20
-0.1345548326
 30
0.0
 10
-9.0316017037
 20
-0.1340936908
 30
0.0
 10
-8.9921752522
 20
-0.1336325857
 30
0.0
 10
-8.9534942528
 20
-0.133171569
 30
0.0
 10
-8.9159226834
 20
-0.1327106898
 30
0.0
 10
-8.8798139772
 20
-0.1322500028
 30
0.0
 10
-8.8455079471
 20
-0.1317896026
 30
0.0
 10
-8.8133273631
 20
-0.1313296023
 30
0.0
 10
-8.7835749506
 20
-0.1308701017
 30
0.0
 10
-8.7604283949
 20
-0.1304776338
 30
0.0
 10
-8.7433329801
 20
-0.130160645
 30
0.0
 10
-8.7316498679
 20
-0.1299297735
 30
0.0
 10
-8.7207664194
 20
-0.1296990335
 30
0.0
 10
-8.7107082403
 20
-0.1294684188
 30
0.0
 10
-8.7014989705
 20
-0.1292380298
 30
0.0
 10
-8.6931603108
 20
-0.1290079186
 30
0.0
 10
-8.6857118732
 20
-0.1287781689
 30
0.0
 10
-8.6791711447
 20
-0.1285489356
 30
0.0
 10
-8.674295278
 20
-0.128350888
 30
0.0
 10
-8.6708600859
 20
-0.1281899295
 30
0.0
 10
-8.6686361615
 20
-0.1280747583
 30
0.0
 10
-8.6666491142
 20
-0.1279597686
 30
0.0
 10
-8.6649000664
 20
-0.1278450042
 30
0.0
 10
-8.6633901033
 20
-0.1277306322
 30
0.0
 10
-8.6621202563
 20
-0.1276167136
 30
0.0
 10
-8.6612129384
 20
-0.127517339
 30
0.0
 10
-8.6606081915
 20
-0.127435548
 30
0.0
 10
-8.6602446358
 20
-0.1273783499
 30
0.0
 10
-8.6599414395
 20
-0.1273214173
 30
0.0
 10
-8.6596982093
 20
-0.1272649667
 30
0.0
 10
-8.6595151316
 20
-0.1272091186
 30
0.0
 10
-8.6594147948
 20
-0.1271657149
 30
0.0
 10
-8.6593769969
 20
-0.1271416599
 30
0.0
  0
SPLINE
  5
7BB
100
AcDbEntity
  8
0
100
AcDbSpline
 62
7
  6
CONTINUOUS
 70
0
 71
3
 72
69
 73
65
 74
0
 42
0.0000001
 43
0.0000001
 44
0.0000000001
 40
0.0
 40
0.0
 40
0.0
 40
0.0
 40
0.0001630519
 40
0.0003945692
 40
0.0006968676
 40
0.0010709278
 40
0.0015172378
 40
0.0020360655
 40
0.0032918013
 40
0.0048386685
 40
0.0066760263
 40
0.0088027899
 40
0.011217772
 40
0.0139197273
 40
0.0169073754
 40
0.0237335736
 40
0.0316795245
 40
0.0407263532
 40
0.050854374
 40
0.0620389028
 40
0.0742531847
 40
0.0874698838
 40
0.1016572012
 40
0.1167811947
 40
0.1496978978
 40
0.1859092514
 40
0.2250755291
 40
0.2668284219
 40
0.3107744394
 40
0.356500874
 40
0.4035773291
 40
0.4515607317
 40
0.5000000045
 40
0.5484391446
 40
0.596422704
 40
0.6434990901
 40
0.6892253302
 40
0.7331717847
 40
0.7749243115
 40
0.8140904809
 40
0.8503024579
 40
0.883218475
 40
0.8983432075
 40
0.9125298824
 40
0.9257463952
 40
0.9379615391
 40
0.9491454315
 40
0.959273142
 40
0.9683209277
 40
0.9762662821
 40
0.983092046
 40
0.9860802153
 40
0.9887826665
 40
0.9911975938
 40
0.9933238867
 40
0.9951607683
 40
0.9967075634
 40
0.9979637927
 40
0.9984829237
 40
0.9989294691
 40
0.9993036199
 40
0.9996058464
 40
0.9998371808
 40
1.0
 40
1.0
 40
1.0
 40
1.0
 10
-9.4834281838
 20
-0.1719680068
 30
0.0
 10
-9.4833903877
 20
-0.1719439518
 30
0.0
 10
-9.4832900547
 20
-0.171900548
 30
0.0
 10
-9.4831069828
 20
-0.1718446998
 30
0.0
 10
-9.4828637586
 20
-0.1717882492
 30
0.0
 10
-9.4825605676
 20
-0.1717313166
 30
0.0
 10
-9.4821970154
 20
-0.1716741184
 30
0.0
 10
-9.4815922662
 20
-0.171592327
 30
0.0
 10
-9.4806849389
 20
-0.1714929531
 30
0.0
 10
-9.4794150823
 20
-0.1713790354
 30
0.0
 10
-9.4779051171
 20
-0.1712646627
 30
0.0
 10
-9.4761560769
 20
-0.1711498982
 30
0.0
 10
-9.4741690391
 20
-0.1710349082
 30
0.0
 10
-9.4719451177
 20
-0.1709197368
 30
0.0
 10
-9.4685099181
 20
-0.1707587789
 30
0.0
 10
-9.4636340488
 20
-0.170560732
 30
0.0
 10
-9.457093321
 20
-0.1703314972
 30
0.0
 10
-9.4496448835
 20
-0.1701017478
 30
0.0
 10
-9.4413062232
 20
-0.1698716376
 30
0.0
 10
-9.4320969538
 20
-0.1696412476
 30
0.0
 10
-9.422038775
 20
-0.1694106329
 30
0.0
 10
-9.4111553259
 20
-0.1691798937
 30
0.0
 10
-9.3994722138
 20
-0.1689490215
 30
0.0
 10
-9.382376804
 20
-0.1686320329
 30
0.0
 10
-9.3592302439
 20
-0.1682395649
 30
0.0
 10
-9.3294778309
 20
-0.1677800647
 30
0.0
 10
-9.2972972461
 20
-0.1673200638
 30
0.0
 10
-9.2629912175
 20
-0.166859664
 30
0.0
 10
-9.2268825102
 20
-0.166398977
 30
0.0
 10
-9.1893109404
 20
-0.1659380976
 30
0.0
 10
-9.1506299425
 20
-0.1654770811
 30
0.0
 10
-9.1112034895
 20
-0.1650159759
 30
0.0
 10
-9.0714025878
 20
-0.1645548341
 30
0.0
 10
-9.0316016431
 20
-0.1640936883
 30
0.0
 10
-8.9921752024
 20
-0.1636325864
 30
0.0
 10
-8.9534942338
 20
-0.1631715699
 30
0.0
 10
-8.9159226165
 20
-0.1627106844
 30
0.0
 10
-8.879813943
 20
-0.1622500078
 30
0.0
 10
-8.8455079248
 20
-0.1617896019
 30
0.0
 10
-8.813327299
 20
-0.1613295925
 30
0.0
 10
-8.7835749326
 20
-0.1608701186
 30
0.0
 10
-8.7604281873
 20
-0.1604776129
 30
0.0
 10
-8.7433329388
 20
-0.1601606587
 30
0.0
 10
-8.7316498518
 20
-0.1599297691
 30
0.0
 10
-8.7207663938
 20
-0.1596990193
 30
0.0
 10
-8.7107082034
 20
-0.1594684372
 30
0.0
 10
-8.7014989577
 20
-0.1592380272
 30
0.0
 10
-8.6931602952
 20
-0.1590078958
 30
0.0
 10
-8.6857118425
 20
-0.1587781945
 30
0.0
 10
-8.6791711356
 20
-0.1585489373
 30
0.0
 10
-8.6742954078
 20
-0.1583508619
 30
0.0
 10
-8.6708600467
 20
-0.1581899279
 30
0.0
 10
-8.6686358598
 20
-0.1580747706
 30
0.0
 10
-8.6666488301
 20
-0.1579597802
 30
0.0
 10
-8.6649000663
 20
-0.1578450064
 30
0.0
 10
-8.6633903828
 20
-0.1577306205
 30
0.0
 10
-8.6621205432
 20
-0.157616686
 30
0.0
 10
-8.6612130141
 20
-0.1575173289
 30
0.0
 10
-8.6606079773
 20
-0.1574355489
 30
0.0
 10
-8.6602442488
 20
-0.1573783572
 30
0.0
 10
-8.6599409858
 20
-0.1573214306
 30
0.0
 10
-8.6596978062
 20
-0.1572649814
 30
0.0
 10
-8.6595148749
 20
-0.1572091354
 30
0.0
 10
-8.6594146644
 20
-0.1571657224
 30
0.0
 10
-8.6593769493
 20
-0.1571416594
 30
0.0
  0
SPLINE
  5
7BC
100
AcDbEntity
  8
02___PRT_ALL_AXES
100
AcDbSpline
 62
7
  6
CONTINUOUS
 70
0
 71
3
 72
51
 73
47
 74
0
 42
0.0000001
 43
0.0000001
 44
0.0000000001
 40
0.0
 40
0.0
 40
0.0
 40
0.0
 40
0.0108809856
 40
0.0218770049
 40
0.0330389222
 40
0.0444135471
 40
0.0560426165
 40
0.067963137
 40
0.080207157
 40
0.0928013064
 40
0.1191103275
 40
0.1328644626
 40
0.1470259671
 40
0.1615981837
 40
0.1765805165
 40
0.2077497869
 40
0.2404724089
 40
0.2746367973
 40
0.310096348
 40
0.3466759441
 40
0.3841776794
 40
0.4223859986
 40
0.4610724234
 40
0.5
 40
0.5389275766
 40
0.5776140014
 40
0.6158223206
 40
0.6533240559
 40
0.689903652
 40
0.7253632027
 40
0.7595275911
 40
0.7922502131
 40
0.8234194835
 40
0.8384018163
 40
0.8529740329
 40
0.8671355374
 40
0.8808896725
 40
0.9071986936
 40
0.919792843
 40
0.932036863
 40
0.9439573835
 40
0.9555864529
 40
0.9669610778
 40
0.9781229951
 40
0.9891190144
 40
1.0
 40
1.0
 40
1.0
 40
1.0
 10
-8.7304298181
 20
11.5894663337
 30
0.0
 10
-8.7301594126
 20
11.5867604885
 30
0.0
 10
-8.7293834623
 20
11.5813406801
 30
0.0
 10
-8.7275325973
 20
11.573284725
 30
0.0
 10
-8.7249952651
 20
11.5652882407
 30
0.0
 10
-8.7217780077
 20
11.5573699549
 30
0.0
 10
-8.7178884916
 20
11.5495475612
 30
0.0
 10
-8.7133363363
 20
11.5418386296
 30
0.0
 10
-8.7081318468
 20
11.5342600448
 30
0.0
 10
-8.7002257597
 20
11.5242068521
 30
0.0
 10
-8.6911433394
 20
11.5146353072
 30
0.0
 10
-8.6810563575
 20
11.5055798915
 30
0.0
 10
-8.6727990255
 20
11.4988963907
 30
0.0
 10
-8.6639819423
 20
11.4924382125
 30
0.0
 10
-8.6513391717
 20
11.4840358206
 30
0.0
 10
-8.6342219412
 20
11.4742109751
 30
0.0
 10
-8.6120659438
 20
11.4636896818
 30
0.0
 10
-8.5882228493
 20
11.4543751317
 30
0.0
 10
-8.562904967
 20
11.4463496222
 30
0.0
 10
-8.5363363842
 20
11.4396837572
 30
0.0
 10
-8.5087532048
 20
11.4344366651
 30
0.0
 10
-8.4804007505
 20
11.4306549773
 30
0.0
 10
-8.4515314773
 20
11.4283723865
 30
0.0
 10
-8.4224025966
 20
11.4276092518
 30
0.0
 10
-8.3932737159
 20
11.4283723865
 30
0.0
 10
-8.3644044428
 20
11.4306549773
 30
0.0
 10
-8.3360519885
 20
11.4344366651
 30
0.0
 10
-8.3084688091
 20
11.4396837572
 30
0.0
 10
-8.2819002263
 20
11.4463496222
 30
0.0
 10
-8.256582344
 20
11.4543751317
 30
0.0
 10
-8.2327392495
 20
11.4636896818
 30
0.0
 10
-8.210583252
 20
11.4742109751
 30
0.0
 10
-8.1934660216
 20
11.4840358206
 30
0.0
 10
-8.180823251
 20
11.4924382125
 30
0.0
 10
-8.1720061678
 20
11.4988963907
 30
0.0
 10
-8.1637488358
 20
11.5055798915
 30
0.0
 10
-8.1536618539
 20
11.5146353072
 30
0.0
 10
-8.1445794336
 20
11.5242068521
 30
0.0
 10
-8.1366733465
 20
11.5342600448
 30
0.0
 10
-8.131468857
 20
11.5418386296
 30
0.0
 10
-8.1269167017
 20
11.5495475612
 30
0.0
 10
-8.1230271855
 20
11.5573699549
 30
0.0
 10
-8.1198099282
 20
11.5652882407
 30
0.0
 10
-8.117272596
 20
11.573284725
 30
0.0
 10
-8.115421731
 20
11.5813406801
 30
0.0
 10
-8.1146457806
 20
11.5867604885
 30
0.0
 10
-8.1143753752
 20
11.5894663337
 30
0.0
  0
SPLINE
  5
7BD
100
AcDbEntity
  8
0
100
AcDbSpline
 62
7
  6
CONTINUOUS
 70
0
 71
3
 72
11
 73
7
 74
0
 42
0.0000001
 43
0.0000001
 44
0.0000000001
 40
0.0
 40
0.0
 40
0.0
 40
0.0
 40
0.2381542134
 40
0.4813214077
 40
0.7340345033
 40
1.0
 40
1.0
 40
1.0
 40
1.0
 10
-8.0199025966
 20
12.7077478036
 30
0.0
 10
-8.0199025966
 20
12.7091978091
 30
0.0
 10
-8.0201644791
 20
12.7121346225
 30
0.0
 10
-8.0213325851
 20
12.7164696708
 30
0.0
 10
-8.0232591561
 20
12.7207095057
 30
0.0
 10
-8.0249839758
 20
12.7233692684
 30
0.0
 10
-8.0259506727
 20
12.7246683998
 30
0.0
  0
SPLINE
  5
7BE
100
AcDbEntity
  8
0
100
AcDbSpline
 62
7
  6
CONTINUOUS
 70
0
 71
3
 72
11
 73
7
 74
0
 42
0.0000001
 43
0.0000001
 44
0.0000000001
 40
0.0
 40
0.0
 40
0.0
 40
0.0
 40
0.2659654967
 40
0.5186785923
 40
0.7618457866
 40
1.0
 40
1.0
 40
1.0
 40
1.0
 10
-8.8188545206
 20
12.7246683998
 30
0.0
 10
-8.8198212175
 20
12.7233692684
 30
0.0
 10
-8.8215460372
 20
12.7207095057
 30
0.0
 10
-8.8234726082
 20
12.7164696708
 30
0.0
 10
-8.8246407142
 20
12.7121346225
 30
0.0
 10
-8.8249025966
 20
12.7091978091
 30
0.0
 10
-8.8249025966
 20
12.7077478036
 30
0.0
  0
SPLINE
  5
7BF
100
AcDbEntity
  8
0
100
AcDbSpline
 62
7
  6
CONTINUOUS
 70
0
 71
3
 72
19
 73
15
 74
0
 42
0.0000001
 43
0.0000001
 44
0.0000000001
 40
0.0
 40
0.0
 40
0.0
 40
0.0
 40
0.1445378964
 40
0.2869088487
 40
0.4250551799
 40
0.4919634578
 40
0.5571322557
 40
0.6203733331
 40
0.6815258174
 40
0.7404593074
 40
0.7970790435
 40
0.8513302331
 40
0.9032074663
 40
1.0
 40
1.0
 40
1.0
 40
1.0
 10
-8.5588695941
 20
13.0021164691
 30
0.0
 10
-8.5627902467
 20
13.0021164691
 30
0.0
 10
-8.5705767316
 20
13.0018000785
 30
0.0
 10
-8.582031617
 20
13.000382851
 30
0.0
 10
-8.5912639111
 20
12.9984220667
 30
0.0
 10
-8.5983108969
 20
12.9963964437
 30
0.0
 10
-8.6033270805
 20
12.9946840747
 30
0.0
 10
-8.6081028168
 20
12.9927716941
 30
0.0
 10
-8.6126125131
 20
12.9906696738
 30
0.0
 10
-8.6168319384
 20
12.9883890982
 30
0.0
 10
-8.620738046
 20
12.9859422013
 30
0.0
 10
-8.6243108294
 20
12.9833412745
 30
0.0
 10
-8.6285040031
 20
12.9797717367
 30
0.0
 10
-8.6312541458
 20
12.9767821161
 30
0.0
 10
-8.6328215181
 20
12.9746757448
 30
0.0
  0
SPLINE
  5
7C0
100
AcDbEntity
  8
0
100
AcDbSpline
 62
7
  6
CONTINUOUS
 70
0
 71
3
 72
19
 73
15
 74
0
 42
0.0000001
 43
0.0000001
 44
0.0000000001
 40
0.0
 40
0.0
 40
0.0
 40
0.0
 40
0.0967925337
 40
0.1486697669
 40
0.2029209565
 40
0.2595406926
 40
0.3184741826
 40
0.3796266669
 40
0.4428677443
 40
0.5080365422
 40
0.5749448201
 40
0.7130911513
 40
0.8554621036
 40
1.0
 40
1.0
 40
1.0
 40
1.0
 10
-8.2119836752
 20
12.9746757448
 30
0.0
 10
-8.2135510475
 20
12.9767821161
 30
0.0
 10
-8.2163011902
 20
12.9797717367
 30
0.0
 10
-8.2204943639
 20
12.9833412745
 30
0.0
 10
-8.2240671473
 20
12.9859422013
 30
0.0
 10
-8.2279732549
 20
12.9883890982
 30
0.0
 10
-8.2321926802
 20
12.9906696738
 30
0.0
 10
-8.2367023765
 20
12.9927716941
 30
0.0
 10
-8.2414781128
 20
12.9946840747
 30
0.0
 10
-8.2464942963
 20
12.9963964437
 30
0.0
 10
-8.2535412822
 20
12.9984220667
 30
0.0
 10
-8.2627735763
 20
13.000382851
 30
0.0
 10
-8.2742284617
 20
13.0018000785
 30
0.0
 10
-8.2820149465
 20
13.0021164691
 30
0.0
 10
-8.2859355992
 20
13.0021164691
 30
0.0
  0
SPLINE
  5
7C1
100
AcDbEntity
  8
0
100
AcDbSpline
 62
7
  6
CONTINUOUS
 70
0
 71
3
 72
31
 73
27
 74
0
 42
0.0000001
 43
0.0000001
 44
0.0000000001
 40
0.0
 40
0.0
 40
0.0
 40
0.0
 40
0.0013099853
 40
0.0028696978
 40
0.0048350029
 40
0.0072847913
 40
0.0102590252
 40
0.0137793207
 40
0.0178576296
 40
0.0224997082
 40
0.0334833716
 40
0.0467357482
 40
0.0622433697
 40
0.0799763753
 40
0.0998999612
 40
0.1219723187
 40
0.1461412358
 40
0.1723525712
 40
0.2306530334
 40
0.2963243666
 40
0.368741598
 40
0.4472149551
 40
0.5309932106
 40
0.619274531
 40
0.8059127878
 40
1.0
 40
1.0
 40
1.0
 40
1.0
 10
-8.9664025966
 20
-1.2136894293
 30
0.0
 10
-8.9664025966
 20
-1.2137135708
 30
0.0
 10
-8.9664164908
 20
-1.2137667536
 30
0.0
 10
-8.9664714272
 20
-1.2138386021
 30
0.0
 10
-8.9665572907
 20
-1.2139084466
 30
0.0
 10
-8.9666749097
 20
-1.2139777387
 30
0.0
 10
-8.966824709
 20
-1.2140469401
 30
0.0
 10
-8.9670070054
 20
-1.2141160623
 30
0.0
 10
-8.9672218509
 20
-1.2141850687
 30
0.0
 10
-8.9675717708
 20
-1.2142823623
 30
0.0
 10
-8.9680910076
 20
-1.214400264
 30
0.0
 10
-8.9688112053
 20
-1.2145341301
 30
0.0
 10
-8.9696578438
 20
-1.2146663979
 30
0.0
 10
-8.9706289453
 20
-1.2147967326
 30
0.0
 10
-8.9717222654
 20
-1.2149246492
 30
0.0
 10
-8.9729352008
 20
-1.2150497671
 30
0.0
 10
-8.974264855
 20
-1.2151717831
 30
0.0
 10
-8.9762610183
 20
-1.2153357117
 30
0.0
 10
-8.9790221717
 20
-1.215527527
 30
0.0
 10
-8.9826355851
 20
-1.2157336246
 30
0.0
 10
-8.9866222382
 20
-1.2159207252
 30
0.0
 10
-8.99094376
 20
-1.2160869015
 30
0.0
 10
-8.9955585944
 20
-1.2162304484
 30
0.0
 10
-9.0021670235
 20
-1.2163926923
 30
0.0
 10
-9.0108094231
 20
-1.2165267101
 30
0.0
 10
-9.0178257964
 20
-1.2165621573
 30
0.0
 10
-9.0214025966
 20
-1.2165621573
 30
0.0
  0
SPLINE
  5
7C2
100
AcDbEntity
  8
0
100
AcDbSpline
 62
7
  6
CONTINUOUS
 70
0
 71
3
 72
37
 73
33
 74
0
 42
0.0000001
 43
0.0000001
 44
0.0000000001
 40
0.0
 40
0.0
 40
0.0
 40
0.0
 40
0.0312659935
 40
0.0625336474
 40
0.0937981027
 40
0.1250605507
 40
0.1563212322
 40
0.1875790904
 40
0.218825809
 40
0.2500662967
 40
0.2813019684
 40
0.31252808
 40
0.3437536789
 40
0.3749845242
 40
0.4062300794
 40
0.4375007897
 40
0.5000456253
 40
0.5625879762
 40
0.5938556162
 40
0.6250969601
 40
0.656322661
 40
0.6875402572
 40
0.7187582305
 40
0.7499834786
 40
0.7812142171
 40
0.8124521797
 40
0.8437004087
 40
0.8749539859
 40
0.9062091185
 40
0.9374693957
 40
0.9687342816
 40
1.0
 40
1.0
 40
1.0
 40
1.0
 10
-8.3324025966
 20
13.372259392
 30
0.0
 10
-8.3324025966
 20
13.3751369508
 30
0.0
 10
-8.3327022237
 20
13.3808967
 30
0.0
 10
-8.3340450947
 20
13.3894392734
 30
0.0
 10
-8.3362659167
 20
13.3977972972
 30
0.0
 10
-8.3393383761
 20
13.4058800952
 30
0.0
 10
-8.3432269514
 20
13.4136027452
 30
0.0
 10
-8.3478861755
 20
13.4208844658
 30
0.0
 10
-8.3532615869
 20
13.4276521218
 30
0.0
 10
-8.3592921696
 20
13.4338398394
 30
0.0
 10
-8.3659089455
 20
13.4393927805
 30
0.0
 10
-8.3730399957
 20
13.4442645674
 30
0.0
 10
-8.3806093415
 20
13.4484209161
 30
0.0
 10
-8.3885407751
 20
13.4518387787
 30
0.0
 10
-8.3967603296
 20
13.4545035787
 30
0.0
 10
-8.4080003251
 20
13.4570430239
 30
0.0
 10
-8.4224150548
 20
13.4583134695
 30
0.0
 10
-8.4368291781
 20
13.4570393918
 30
0.0
 10
-8.4480676497
 20
13.4544972908
 30
0.0
 10
-8.4562854546
 20
13.4518308188
 30
0.0
 10
-8.4642146181
 20
13.4484117421
 30
0.0
 10
-8.4717813095
 20
13.4442546273
 30
0.0
 10
-8.4789092253
 20
13.4393826322
 30
0.0
 10
-8.4855233017
 20
13.4338305367
 30
0.0
 10
-8.4915508447
 20
13.4276435862
 30
0.0
 10
-8.4969240259
 20
13.4208774908
 30
0.0
 10
-8.501581187
 20
13.4135972457
 30
0.0
 10
-8.5054684471
 20
13.4058764299
 30
0.0
 10
-8.5085399432
 20
13.3977951019
 30
0.0
 10
-8.5107602999
 20
13.3894383212
 30
0.0
 10
-8.5121029699
 20
13.3808963923
 30
0.0
 10
-8.5124025966
 20
13.3751369255
 30
0.0
 10
-8.5124025966
 20
13.372259392
 30
0.0
  0
SPLINE
  5
7C3
100
AcDbEntity
  8
0
100
AcDbSpline
 62
7
  6
CONTINUOUS
 70
0
 71
3
 72
21
 73
17
 74
0
 42
0.0000001
 43
0.0000001
 44
0.0000000001
 40
0.0
 40
0.0
 40
0.0
 40
0.0
 40
0.1161099088
 40
0.2296735249
 40
0.2860048377
 40
0.3423562396
 40
0.3990802887
 40
0.4565821999
 40
0.5153301623
 40
0.5758160942
 40
0.638550523
 40
0.7040158134
 40
0.7726286085
 40
0.8447182328
 40
0.9205046115
 40
1.0
 40
1.0
 40
1.0
 40
1.0
 10
-8.1649025966
 20
13.2254137203
 30
0.0
 10
-8.1668511924
 20
13.2253206492
 30
0.0
 10
-8.1706996485
 20
13.224867306
 30
0.0
 10
-8.1753445531
 20
13.2235394401
 30
0.0
 10
-8.1788252242
 20
13.2219987617
 30
0.0
 10
-8.181307637
 20
13.2205963713
 30
0.0
 10
-8.1836494797
 20
13.2189352102
 30
0.0
 10
-8.1858313316
 20
13.2170067907
 30
0.0
 10
-8.187831834
 20
13.2148042366
 30
0.0
 10
-8.1896289594
 20
13.212323197
 30
0.0
 10
-8.1911999183
 20
13.2095624652
 30
0.0
 10
-8.1925222616
 20
13.2065250486
 30
0.0
 10
-8.1935755386
 20
13.2032191544
 30
0.0
 10
-8.1943410581
 20
13.1996578048
 30
0.0
 10
-8.1948039762
 20
13.1958611157
 30
0.0
 10
-8.1949025966
 20
13.1932507259
 30
0.0
 10
-8.1949025966
 20
13.1919150865
 30
0.0
  0
SPLINE
  5
7C4
100
AcDbEntity
  8
0
100
AcDbSpline
 62
7
  6
CONTINUOUS
 70
0
 71
3
 72
21
 73
17
 74
0
 42
0.0000001
 43
0.0000001
 44
0.0000000001
 40
0.0
 40
0.0
 40
0.0
 40
0.0
 40
0.1161094767
 40
0.2296725558
 40
0.2860038969
 40
0.3423553358
 40
0.3990794042
 40
0.4565812946
 40
0.5153292865
 40
0.5758152995
 40
0.6385497309
 40
0.7040149252
 40
0.772627418
 40
0.8447170038
 40
0.920504235
 40
1.0
 40
1.0
 40
1.0
 40
1.0
 10
-8.1649025966
 20
13.2254137203
 30
0.0
 10
-8.1629540082
 20
13.2253206495
 30
0.0
 10
-8.1591055677
 20
13.2248673111
 30
0.0
 10
-8.1544606794
 20
13.2235394491
 30
0.0
 10
-8.1509800105
 20
13.2219987852
 30
0.0
 10
-8.1484975965
 20
13.2205963941
 30
0.0
 10
-8.1461557478
 20
13.2189352403
 30
0.0
 10
-8.1439738954
 20
13.2170068207
 30
0.0
 10
-8.141973385
 20
13.2148042719
 30
0.0
 10
-8.1401762584
 20
13.2123232307
 30
0.0
 10
-8.1386052926
 20
13.2095625033
 30
0.0
 10
-8.1372829488
 20
13.2065250938
 30
0.0
 10
-8.1362296709
 20
13.2032192082
 30
0.0
 10
-8.1354641362
 20
13.1996578525
 30
0.0
 10
-8.1350012287
 20
13.1958611419
 30
0.0
 10
-8.1349025966
 20
13.1932507322
 30
0.0
 10
-8.1349025966
 20
13.1919150865
 30
0.0
  0
SPLINE
  5
7C5
100
AcDbEntity
  8
0
100
AcDbSpline
 62
7
  6
CONTINUOUS
 70
0
 71
3
 72
21
 73
17
 74
0
 42
0.0000001
 43
0.0000001
 44
0.0000000001
 40
0.0
 40
0.0
 40
0.0
 40
0.0
 40
0.1161099088
 40
0.2296735249
 40
0.2860048377
 40
0.3423562396
 40
0.3990802887
 40
0.4565821999
 40
0.5153301623
 40
0.5758160942
 40
0.638550523
 40
0.7040158134
 40
0.7726286085
 40
0.8447182328
 40
0.9205046115
 40
1.0
 40
1.0
 40
1.0
 40
1.0
 10
-8.6799025966
 20
13.2254137203
 30
0.0
 10
-8.6818511924
 20
13.2253206492
 30
0.0
 10
-8.6856996485
 20
13.224867306
 30
0.0
 10
-8.6903445531
 20
13.2235394401
 30
0.0
 10
-8.6938252242
 20
13.2219987617
 30
0.0
 10
-8.696307637
 20
13.2205963713
 30
0.0
 10
-8.6986494797
 20
13.2189352102
 30
0.0
 10
-8.7008313316
 20
13.2170067907
 30
0.0
 10
-8.702831834
 20
13.2148042366
 30
0.0
 10
-8.7046289594
 20
13.212323197
 30
0.0
 10
-8.7061999183
 20
13.2095624652
 30
0.0
 10
-8.7075222616
 20
13.2065250486
 30
0.0
 10
-8.7085755386
 20
13.2032191544
 30
0.0
 10
-8.7093410581
 20
13.1996578048
 30
0.0
 10
-8.7098039762
 20
13.1958611157
 30
0.0
 10
-8.7099025966
 20
13.1932507259
 30
0.0
 10
-8.7099025966
 20
13.1919150865
 30
0.0
  0
SPLINE
  5
7C6
100
AcDbEntity
  8
0
100
AcDbSpline
 62
7
  6
CONTINUOUS
 70
0
 71
3
 72
21
 73
17
 74
0
 42
0.0000001
 43
0.0000001
 44
0.0000000001
 40
0.0
 40
0.0
 40
0.0
 40
0.0
 40
0.1161094767
 40
0.2296725558
 40
0.2860038969
 40
0.3423553358
 40
0.3990794042
 40
0.4565812946
 40
0.5153292865
 40
0.5758152995
 40
0.6385497309
 40
0.7040149252
 40
0.772627418
 40
0.8447170038
 40
0.920504235
 40
1.0
 40
1.0
 40
1.0
 40
1.0
 10
-8.6799025966
 20
13.2254137203
 30
0.0
 10
-8.6779540082
 20
13.2253206495
 30
0.0
 10
-8.6741055677
 20
13.2248673111
 30
0.0
 10
-8.6694606794
 20
13.2235394491
 30
0.0
 10
-8.6659800105
 20
13.2219987852
 30
0.0
 10
-8.6634975965
 20
13.2205963941
 30
0.0
 10
-8.6611557478
 20
13.2189352403
 30
0.0
 10
-8.6589738954
 20
13.2170068207
 30
0.0
 10
-8.656973385
 20
13.2148042719
 30
0.0
 10
-8.6551762584
 20
13.2123232307
 30
0.0
 10
-8.6536052926
 20
13.2095625033
 30
0.0
 10
-8.6522829488
 20
13.2065250938
 30
0.0
 10
-8.6512296709
 20
13.2032192082
 30
0.0
 10
-8.6504641362
 20
13.1996578525
 30
0.0
 10
-8.6500012287
 20
13.1958611419
 30
0.0
 10
-8.6499025966
 20
13.1932507322
 30
0.0
 10
-8.6499025966
 20
13.1919150865
 30
0.0
  0
SPLINE
  5
7C7
100
AcDbEntity
  8
0
100
AcDbSpline
 62
7
  6
CONTINUOUS
 70
0
 71
3
 72
31
 73
27
 74
0
 42
0.0000001
 43
0.0000001
 44
0.0000000001
 40
0.0
 40
0.0
 40
0.0
 40
0.0
 40
0.1940872122
 40
0.380725469
 40
0.4690067894
 40
0.5527850449
 40
0.631258402
 40
0.7036756334
 40
0.7693469666
 40
0.8276474288
 40
0.8538587642
 40
0.8780276813
 40
0.9001000388
 40
0.9200236247
 40
0.9377566303
 40
0.9532642518
 40
0.9665166284
 40
0.9775002918
 40
0.9821423704
 40
0.9862206793
 40
0.9897409748
 40
0.9927152087
 40
0.9951649971
 40
0.9971303022
 40
0.9986900147
 40
1.0
 40
1.0
 40
1.0
 40
1.0
 10
-9.0214025966
 20
-1.2165621573
 30
0.0
 10
-9.0249793969
 20
-1.2165621573
 30
0.0
 10
-9.0319957701
 20
-1.2165267101
 30
0.0
 10
-9.0406381698
 20
-1.2163926923
 30
0.0
 10
-9.0472465989
 20
-1.2162304484
 30
0.0
 10
-9.0518614333
 20
-1.2160869015
 30
0.0
 10
-9.056182955
 20
-1.2159207252
 30
0.0
 10
-9.0601696082
 20
-1.2157336246
 30
0.0
 10
-9.0637830216
 20
-1.215527527
 30
0.0
 10
-9.066544175
 20
-1.2153357117
 30
0.0
 10
-9.0685403383
 20
-1.2151717831
 30
0.0
 10
-9.0698699925
 20
-1.2150497671
 30
0.0
 10
-9.0710829279
 20
-1.2149246492
 30
0.0
 10
-9.072176248
 20
-1.2147967326
 30
0.0
 10
-9.0731473495
 20
-1.2146663979
 30
0.0
 10
-9.073993988
 20
-1.2145341301
 30
0.0
 10
-9.0747141857
 20
-1.214400264
 30
0.0
 10
-9.0752334225
 20
-1.2142823623
 30
0.0
 10
-9.0755833424
 20
-1.2141850687
 30
0.0
 10
-9.0757981879
 20
-1.2141160623
 30
0.0
 10
-9.0759804843
 20
-1.2140469401
 30
0.0
 10
-9.0761302835
 20
-1.2139777387
 30
0.0
 10
-9.0762479026
 20
-1.2139084466
 30
0.0
 10
-9.0763337661
 20
-1.2138386021
 30
0.0
 10
-9.0763887025
 20
-1.2137667536
 30
0.0
 10
-9.0764025966
 20
-1.2137135708
 30
0.0
 10
-9.0764025966
 20
-1.2136894293
 30
0.0
  0
SPLINE
  5
7C8
100
AcDbEntity
  8
0
100
AcDbSpline
 62
7
  6
CONTINUOUS
 70
0
 71
3
 72
23
 73
19
 74
0
 42
0.0000001
 43
0.0000001
 44
0.0000000001
 40
0.0
 40
0.0
 40
0.0
 40
0.0
 40
0.0438037968
 40
0.0885409796
 40
0.1350409428
 40
0.1839948148
 40
0.2359019639
 40
0.2910806856
 40
0.3496806018
 40
0.4117061302
 40
0.477039689
 40
0.5454626512
 40
0.6166733582
 40
0.6903025913
 40
0.7659288596
 40
0.8430835841
 40
0.9212844784
 40
1.0
 40
1.0
 40
1.0
 40
1.0
 10
-8.8249025966
 20
12.5390951868
 30
0.0
 10
-8.8249025966
 20
12.5376401861
 30
0.0
 10
-8.8246387319
 20
12.534692821
 30
0.0
 10
-8.8234626279
 20
12.5303429133
 30
0.0
 10
-8.8215220682
 20
12.5260886217
 30
0.0
 10
-8.8188430869
 20
12.5219728021
 30
0.0
 10
-8.8154557292
 20
12.5180319547
 30
0.0
 10
-8.8113950278
 20
12.5143007286
 30
0.0
 10
-8.8067005791
 20
12.5108119428
 30
0.0
 10
-8.8014172036
 20
12.5075968596
 30
0.0
 10
-8.7955949543
 20
12.5046848263
 30
0.0
 10
-8.7892889621
 20
12.5021028528
 30
0.0
 10
-8.7825590677
 20
12.4998751798
 30
0.0
 10
-8.7754692651
 20
12.4980228396
 30
0.0
 10
-8.7680872769
 20
12.4965635341
 30
0.0
 10
-8.760483274
 20
12.4955109186
 30
0.0
 10
-8.7527305441
 20
12.4948754511
 30
0.0
 10
-8.7475172361
 20
12.4947338663
 30
0.0
 10
-8.7449025966
 20
12.4947338663
 30
0.0
  0
SPLINE
  5
7C9
100
AcDbEntity
  8
0
100
AcDbSpline
 62
7
  6
CONTINUOUS
 70
0
 71
3
 72
23
 73
19
 74
0
 42
0.0000001
 43
0.0000001
 44
0.0000000001
 40
0.0
 40
0.0
 40
0.0
 40
0.0
 40
0.0787155216
 40
0.1569164159
 40
0.2340711404
 40
0.3096974087
 40
0.3833266418
 40
0.4545373488
 40
0.522960311
 40
0.5882938698
 40
0.6503193982
 40
0.7089193144
 40
0.7640980361
 40
0.8160051852
 40
0.8649590572
 40
0.9114590204
 40
0.9561962032
 40
1.0
 40
1.0
 40
1.0
 40
1.0
 10
-8.0999025966
 20
12.4947338663
 30
0.0
 10
-8.0972879572
 20
12.4947338663
 30
0.0
 10
-8.0920746492
 20
12.4948754511
 30
0.0
 10
-8.0843219193
 20
12.4955109186
 30
0.0
 10
-8.0767179164
 20
12.4965635341
 30
0.0
 10
-8.0693359281
 20
12.4980228396
 30
0.0
 10
-8.0622461255
 20
12.4998751798
 30
0.0
 10
-8.0555162311
 20
12.5021028528
 30
0.0
 10
-8.049210239
 20
12.5046848263
 30
0.0
 10
-8.0433879897
 20
12.5075968596
 30
0.0
 10
-8.0381046142
 20
12.5108119428
 30
0.0
 10
-8.0334101655
 20
12.5143007286
 30
0.0
 10
-8.029349464
 20
12.5180319547
 30
0.0
 10
-8.0259621064
 20
12.5219728021
 30
0.0
 10
-8.0232831251
 20
12.5260886217
 30
0.0
 10
-8.0213425654
 20
12.5303429133
 30
0.0
 10
-8.0201664614
 20
12.534692821
 30
0.0
 10
-8.0199025966
 20
12.5376401861
 30
0.0
 10
-8.0199025966
 20
12.5390951868
 30
0.0
  0
SPLINE
  5
7CA
100
AcDbEntity
  8
0
100
AcDbSpline
 62
7
  6
CONTINUOUS
 70
0
 71
3
 72
15
 73
11
 74
0
 42
0.0000001
 43
0.0000001
 44
0.0000000001
 40
0.0
 40
0.0
 40
0.0
 40
0.0
 40
0.2527150067
 40
0.3816127028
 40
0.5109505948
 40
0.6393760089
 40
0.76510878
 40
0.8263274444
 40
0.8860616638
 40
1.0
 40
1.0
 40
1.0
 40
1.0
 10
-8.1649025966
 20
13.1276520239
 30
0.0
 10
-8.1689298355
 20
13.1224779093
 30
0.0
 10
-8.174665823
 20
13.1143797731
 30
0.0
 10
-8.1813783582
 20
13.1029404691
 30
0.0
 10
-8.185883674
 20
13.0939675281
 30
0.0
 10
-8.1896727016
 20
13.0847563642
 30
0.0
 10
-8.1921168092
 20
13.0769330477
 30
0.0
 10
-8.1935415926
 20
13.0706899564
 30
0.0
 10
-8.1945580302
 20
13.0646793847
 30
0.0
 10
-8.1949025966
 20
13.060168445
 30
0.0
 10
-8.1949025966
 20
13.0572123176
 30
0.0
  0
SPLINE
  5
7CB
100
AcDbEntity
  8
0
100
AcDbSpline
 62
7
  6
CONTINUOUS
 70
0
 71
3
 72
15
 73
11
 74
0
 42
0.0000001
 43
0.0000001
 44
0.0000000001
 40
0.0
 40
0.0
 40
0.0
 40
0.0
 40
0.1139383362
 40
0.1736725556
 40
0.23489122
 40
0.3606239911
 40
0.4890494051
 40
0.6183872971
 40
0.7472849933
 40
1.0
 40
1.0
 40
1.0
 40
1.0
 10
-8.1349025966
 20
13.0572123176
 30
0.0
 10
-8.1349025966
 20
13.060168445
 30
0.0
 10
-8.135247163
 20
13.0646793847
 30
0.0
 10
-8.1362636007
 20
13.0706899564
 30
0.0
 10
-8.1376883841
 20
13.0769330477
 30
0.0
 10
-8.1401324917
 20
13.0847563642
 30
0.0
 10
-8.1439215193
 20
13.0939675281
 30
0.0
 10
-8.1484268351
 20
13.1029404691
 30
0.0
 10
-8.1551393703
 20
13.1143797731
 30
0.0
 10
-8.1608753578
 20
13.1224779093
 30
0.0
 10
-8.1649025966
 20
13.1276520239
 30
0.0
  0
SPLINE
  5
7CC
100
AcDbEntity
  8
0
100
AcDbSpline
 62
7
  6
CONTINUOUS
 70
0
 71
3
 72
15
 73
11
 74
0
 42
0.0000001
 43
0.0000001
 44
0.0000000001
 40
0.0
 40
0.0
 40
0.0
 40
0.0
 40
0.2527150067
 40
0.3816127029
 40
0.5109505949
 40
0.6393760089
 40
0.76510878
 40
0.8263274444
 40
0.8860616638
 40
1.0
 40
1.0
 40
1.0
 40
1.0
 10
-8.6799025966
 20
13.1276520239
 30
0.0
 10
-8.6839298355
 20
13.1224779093
 30
0.0
 10
-8.689665823
 20
13.1143797731
 30
0.0
 10
-8.6963783582
 20
13.1029404691
 30
0.0
 10
-8.700883674
 20
13.0939675281
 30
0.0
 10
-8.7046727016
 20
13.0847563642
 30
0.0
 10
-8.7071168092
 20
13.0769330477
 30
0.0
 10
-8.7085415926
 20
13.0706899564
 30
0.0
 10
-8.7095580302
 20
13.0646793847
 30
0.0
 10
-8.7099025966
 20
13.060168445
 30
0.0
 10
-8.7099025966
 20
13.0572123176
 30
0.0
  0
SPLINE
  5
7CD
100
AcDbEntity
  8
0
100
AcDbSpline
 62
7
  6
CONTINUOUS
 70
0
 71
3
 72
15
 73
11
 74
0
 42
0.0000001
 43
0.0000001
 44
0.0000000001
 40
0.0
 40
0.0
 40
0.0
 40
0.0
 40
0.1139383362
 40
0.1736725556
 40
0.23489122
 40
0.3606239911
 40
0.4890494051
 40
0.6183872971
 40
0.7472849933
 40
1.0
 40
1.0
 40
1.0
 40
1.0
 10
-8.6499025966
 20
13.0572123176
 30
0.0
 10
-8.6499025966
 20
13.060168445
 30
0.0
 10
-8.650247163
 20
13.0646793847
 30
0.0
 10
-8.6512636007
 20
13.0706899564
 30
0.0
 10
-8.6526883841
 20
13.0769330477
 30
0.0
 10
-8.6551324917
 20
13.0847563642
 30
0.0
 10
-8.6589215193
 20
13.0939675281
 30
0.0
 10
-8.6634268351
 20
13.1029404691
 30
0.0
 10
-8.6701393703
 20
13.1143797731
 30
0.0
 10
-8.6758753578
 20
13.1224779093
 30
0.0
 10
-8.6799025966
 20
13.1276520239
 30
0.0
  0
SPLINE
  5
7CE
100
AcDbEntity
  8
02___PRT_ALL_AXES
100
AcDbSpline
 62
7
  6
CONTINUOUS
 70
0
 71
3
 72
39
 73
35
 74
0
 42
0.0000001
 43
0.0000001
 44
0.0000000001
 40
0.0
 40
0.0
 40
0.0
 40
0.0
 40
0.021902167
 40
0.0442703584
 40
0.0675205118
 40
0.0919974389
 40
0.1179510131
 40
0.145540326
 40
0.1748402404
 40
0.2058530326
 40
0.2385198773
 40
0.2727313835
 40
0.3083366985
 40
0.3451513428
 40
0.3829640401
 40
0.4215427889
 40
0.460640447
 40
0.5
 40
0.539359553
 40
0.5784572111
 40
0.6170359599
 40
0.6548486572
 40
0.6916633015
 40
0.7272686165
 40
0.7614801227
 40
0.7941469674
 40
0.8251597596
 40
0.854459674
 40
0.8820489869
 40
0.9080025611
 40
0.9324794882
 40
0.9557296416
 40
0.978097833
 40
1.0
 40
1.0
 40
1.0
 40
1.0
 10
-8.5124025966
 20
12.8929279022
 30
0.0
 10
-8.5124025966
 20
12.8912910063
 30
0.0
 10
-8.5121057781
 20
12.8879752256
 30
0.0
 10
-8.5107826161
 20
12.8830815884
 30
0.0
 10
-8.5085995243
 20
12.8782955136
 30
0.0
 10
-8.5055856339
 20
12.8736652224
 30
0.0
 10
-8.5017748542
 20
12.8692317797
 30
0.0
 10
-8.4972065907
 20
12.8650341328
 30
0.0
 10
-8.49192535
 20
12.8611092357
 30
0.0
 10
-8.4859815458
 20
12.8574922693
 30
0.0
 10
-8.4794314961
 20
12.8542162487
 30
0.0
 10
-8.4723372434
 20
12.8513115479
 30
0.0
 10
-8.4647661129
 20
12.8488054061
 30
0.0
 10
-8.4567901252
 20
12.8467215204
 30
0.0
 10
-8.4484853144
 20
12.8450797118
 30
0.0
 10
-8.4399309869
 20
12.8438956557
 30
0.0
 10
-8.4312089316
 20
12.8431806599
 30
0.0
 10
-8.4224025966
 20
12.8429415652
 30
0.0
 10
-8.4135962617
 20
12.8431806599
 30
0.0
 10
-8.4048742064
 20
12.8438956557
 30
0.0
 10
-8.3963198788
 20
12.8450797118
 30
0.0
 10
-8.3880150681
 20
12.8467215204
 30
0.0
 10
-8.3800390804
 20
12.8488054061
 30
0.0
 10
-8.3724679499
 20
12.8513115479
 30
0.0
 10
-8.3653736972
 20
12.8542162487
 30
0.0
 10
-8.3588236475
 20
12.8574922693
 30
0.0
 10
-8.3528798432
 20
12.8611092357
 30
0.0
 10
-8.3475986026
 20
12.8650341328
 30
0.0
 10
-8.3430303391
 20
12.8692317797
 30
0.0
 10
-8.3392195594
 20
12.8736652224
 30
0.0
 10
-8.336205669
 20
12.8782955136
 30
0.0
 10
-8.3340225772
 20
12.8830815884
 30
0.0
 10
-8.3326994152
 20
12.8879752256
 30
0.0
 10
-8.3324025966
 20
12.8912910063
 30
0.0
 10
-8.3324025966
 20
12.8929279022
 30
0.0
  0
LINE
  5
7CF
100
AcDbEntity
  8
0
100
AcDbLine
 62
7
  6
CONTINUOUS
 10
-10.1600936303
 20
-1.5739953816
 11
-10.160415815
 21
-1.5779673996
  0
LINE
  5
7D0
100
AcDbEntity
  8
0
100
AcDbLine
 62
7
  6
CONTINUOUS
 10
-10.160415815
 20
-1.5779673996
 11
-10.1610809535
 21
-1.5863053065
  0
LINE
  5
7D1
100
AcDbEntity
  8
0
100
AcDbLine
 62
7
  6
CONTINUOUS
 10
-10.1610809535
 20
-1.5863053065
 11
-10.1613332965
 21
-1.5895199278
  0
LINE
  5
7D2
100
AcDbEntity
  8
0
100
AcDbLine
 62
7
  6
CONTINUOUS
 10
-10.1613332965
 20
-1.5895199278
 11
-10.1616005307
 21
-1.5929561824
  0
LINE
  5
7D3
100
AcDbEntity
  8
0
100
AcDbLine
 62
7
  6
CONTINUOUS
 10
-10.1641192628
 20
-1.6271449502
 11
-10.1600936304
 21
-1.573995383
  0
LINE
  5
7D4
100
AcDbEntity
  8
0
100
AcDbLine
 62
7
  6
CONTINUOUS
 10
-10.1663690886
 20
-1.661124743
 11
-10.1665959338
 21
-1.6647774991
  0
LINE
  5
7D5
100
AcDbEntity
  8
0
100
AcDbLine
 62
7
  6
CONTINUOUS
 10
-10.1665959338
 20
-1.6647774991
 11
-10.1668561615
 21
-1.6690273673
  0
LINE
  5
7D6
100
AcDbEntity
  8
0
100
AcDbLine
 62
7
  6
CONTINUOUS
 10
-10.1668561615
 20
-1.6690273673
 11
-10.1672903198
 21
-1.6762681185
  0
LINE
  5
7D7
100
AcDbEntity
  8
0
100
AcDbLine
 62
7
  6
CONTINUOUS
 10
-10.1672903198
 20
-1.6762681185
 11
-10.1675267906
 21
-1.6802945363
  0
LINE
  5
7D8
100
AcDbEntity
  8
0
100
AcDbLine
 62
7
  6
CONTINUOUS
 10
-10.1818367529
 20
-1.8844936053
 11
-10.1817055478
 21
-1.8830548566
  0
LINE
  5
7D9
100
AcDbEntity
  8
0
100
AcDbLine
 62
7
  6
CONTINUOUS
 10
-10.1948157183
 20
-2.0667351904
 11
-10.1951860989
 21
-2.0740887881
  0
LINE
  5
7DA
100
AcDbEntity
  8
0
100
AcDbLine
 62
7
  6
CONTINUOUS
 10
-10.1951860989
 20
-2.0740887881
 11
-10.1953994947
 21
-2.0784444842
  0
LINE
  5
7DB
100
AcDbEntity
  8
0
100
AcDbLine
 62
7
  6
CONTINUOUS
 10
-10.1953994947
 20
-2.0784444842
 11
-10.1954700629
 21
-2.0798965747
  0
LINE
  5
7DC
100
AcDbEntity
  8
0
100
AcDbLine
 62
7
  6
CONTINUOUS
 10
-10.1154255376
 20
-0.8003732966
 11
-10.1568059618
 21
-1.3909244777
  0
LINE
  5
7DD
100
AcDbEntity
  8
0
100
AcDbLine
 62
7
  6
CONTINUOUS
 10
-10.1817055483
 20
-1.8830548614
 11
-10.1822682723
 21
-1.8892483624
  0
LINE
  5
7DE
100
AcDbEntity
  8
0
100
AcDbLine
 62
7
  6
CONTINUOUS
 10
-10.1822682723
 20
-1.8892483624
 11
-10.1828888439
 21
-1.8961899027
  0
SPLINE
  5
7DF
100
AcDbEntity
  8
0
100
AcDbSpline
 62
7
  6
CONTINUOUS
 70
0
 71
3
 72
14
 73
10
 74
0
 42
0.0000001
 43
0.0000001
 44
0.0000000001
 40
0.0
 40
0.0
 40
0.0
 40
0.0
 40
0.0192339811
 40
0.0762552152
 40
0.1687603551
 40
0.2932352928
 40
0.4447343938
 40
0.6175762029
 40
1.0
 40
1.0
 40
1.0
 40
1.0
 10
-10.1954700628
 20
-2.079896572
 30
0.0
 10
-10.1954419222
 20
-2.0792650774
 30
0.0
 10
-10.195314325
 20
-2.0767621947
 30
0.0
 10
-10.1950477444
 20
-2.0712223375
 30
0.0
 10
-10.1945859473
 20
-2.0622291621
 30
0.0
 10
-10.1939436494
 20
-2.0501362023
 30
0.0
 10
-10.1931141334
 20
-2.03540926
 30
0.0
 10
-10.1917286847
 20
-2.0122228933
 30
0.0
 10
-10.1905300716
 20
-1.9940133167
 30
0.0
 10
-10.1896531476
 20
-1.9814756588
 30
0.0
  0
LINE
  5
7E0
100
AcDbEntity
  8
0
100
AcDbLine
 62
7
  6
CONTINUOUS
 10
4.9306524907
 20
-0.1496416598
 11
4.9306524777
 21
-0.1494680069
  0
LINE
  5
7E1
100
AcDbEntity
  8
0
100
AcDbLine
 62
7
  6
CONTINUOUS
 10
4.9145554149
 20
-0.1092113919
 11
4.9144088397
 21
-0.1091435492
  0
LINE
  5
7E2
100
AcDbEntity
  8
0
100
AcDbLine
 62
7
  6
CONTINUOUS
 10
4.9145551962
 20
-0.1392113921
 11
4.9143686755
 21
-0.1391295872
  0
LINE
  5
7E3
100
AcDbEntity
  8
0
100
AcDbLine
 62
7
  6
CONTINUOUS
 10
4.9145551908
 20
-0.1692113924
 11
4.9143016932
 21
-0.1691084206
  0
LINE
  5
7E4
100
AcDbEntity
  8
0
100
AcDbLine
 62
7
  6
CONTINUOUS
 10
4.1226979008
 20
-0.124211392
 11
4.1255032821
 21
-0.1237258844
  0
SPLINE
  5
7E5
100
AcDbEntity
  8
0
100
AcDbSpline
 62
7
  6
CONTINUOUS
 70
0
 71
3
 72
55
 73
51
 74
0
 42
0.0000001
 43
0.0000001
 44
0.0000000001
 40
0.0
 40
0.0
 40
0.0
 40
0.0
 40
0.0015605828
 40
0.0033938524
 40
0.0078742933
 40
0.0134324418
 40
0.0200581323
 40
0.0277362187
 40
0.0364493065
 40
0.0569056684
 40
0.0812462045
 40
0.1092586311
 40
0.1406956638
 40
0.1752802331
 40
0.2127091127
 40
0.252651441
 40
0.338652574
 40
0.4302607979
 40
0.5242563519
 40
0.5711169525
 40
0.6173351875
 40
0.6625041656
 40
0.7062255848
 40
0.7481152182
 40
0.7878034277
 40
0.824940932
 40
0.8592014438
 40
0.8902818984
 40
0.9045439204
 40
0.9179101525
 40
0.9303520086
 40
0.9418427088
 40
0.9523557463
 40
0.9618683828
 40
0.9703607955
 40
0.9778133621
 40
0.9842096105
 40
0.9870077416
 40
0.9895372188
 40
0.9917965805
 40
0.9937844148
 40
0.9954997725
 40
0.9969423331
 40
0.9981120288
 40
0.9985946745
 40
0.9990093423
 40
0.9993563035
 40
0.9996360819
 40
0.9998497675
 40
1.0
 40
1.0
 40
1.0
 40
1.0
 10
4.1255032821
 20
-0.1237258844
 30
0.0
 10
4.1259118174
 20
-0.1236849439
 30
0.0
 10
4.1268011764
 20
-0.1236049181
 30
0.0
 10
4.1288668187
 20
-0.1234463209
 30
0.0
 10
4.1319844826
 20
-0.1232542328
 30
0.0
 10
4.1363632806
 20
-0.1230340881
 30
0.0
 10
4.1415842229
 20
-0.1228130575
 30
0.0
 10
4.1476357982
 20
-0.1225911432
 30
0.0
 10
4.1573251526
 20
-0.122277607
 30
0.0
 10
4.1713982353
 20
-0.1218947861
 30
0.0
 10
4.1905489482
 20
-0.1214534482
 30
0.0
 10
4.2125892556
 20
-0.1210107029
 30
0.0
 10
4.2373251671
 20
-0.1205667655
 30
0.0
 10
4.2645388475
 20
-0.1201221063
 30
0.0
 10
4.293990493
 20
-0.1196769205
 30
0.0
 10
4.3369686259
 20
-0.1190677609
 30
0.0
 10
4.3942004995
 20
-0.118318881
 30
0.0
 10
4.4656529717
 20
-0.1174386658
 30
0.0
 10
4.5268087724
 20
-0.1167039068
 30
0.0
 10
4.5760235035
 20
-0.1161082743
 30
0.0
 10
4.6123930741
 20
-0.1156620413
 30
0.0
 10
4.6479366798
 20
-0.1152159083
 30
0.0
 10
4.6823413617
 20
-0.1147699069
 30
0.0
 10
4.7153039582
 20
-0.1143241188
 30
0.0
 10
4.7465341977
 20
-0.1138786006
 30
0.0
 10
4.7757570437
 20
-0.1134334697
 30
0.0
 10
4.8027149584
 20
-0.1129888683
 30
0.0
 10
4.8236546744
 20
-0.1126089126
 30
0.0
 10
4.8390975979
 20
-0.1123021007
 30
0.0
 10
4.8496374798
 20
-0.1120787099
 30
0.0
 10
4.8594480688
 20
-0.1118554426
 30
0.0
 10
4.8685077919
 20
-0.1116323458
 30
0.0
 10
4.876796604
 20
-0.1114094308
 30
0.0
 10
4.8842962765
 20
-0.1111867604
 30
0.0
 10
4.8909903781
 20
-0.1109645122
 30
0.0
 10
4.8968640802
 20
-0.1107427392
 30
0.0
 10
4.9012396575
 20
-0.1105510538
 30
0.0
 10
4.9043202223
 20
-0.1103953052
 30
0.0
 10
4.9063132154
 20
-0.1102838857
 30
0.0
 10
4.9080926675
 20
-0.1101726474
 30
0.0
 10
4.9096574729
 20
-0.1100616226
 30
0.0
 10
4.9110068076
 20
-0.1099509617
 30
0.0
 10
4.9121400731
 20
-0.1098407406
 30
0.0
 10
4.9129487654
 20
-0.109744595
 30
0.0
 10
4.9134868224
 20
-0.1096654349
 30
0.0
 10
4.9138095338
 20
-0.109610103
 30
0.0
 10
4.9140779492
 20
-0.1095550401
 30
0.0
 10
4.9142924698
 20
-0.1095004193
 30
0.0
 10
4.9144528947
 20
-0.1094464183
 30
0.0
 10
4.914539977
 20
-0.1094042759
 30
0.0
 10
4.9145719634
 20
-0.1093810568
 30
0.0
  0
SPLINE
  5
7E6
100
AcDbEntity
  8
0
100
AcDbSpline
 62
7
  6
CONTINUOUS
 70
0
 71
3
 72
9
 73
5
 74
0
 42
0.0000001
 43
0.0000001
 44
0.0000000001
 40
0.0
 40
0.0
 40
0.0
 40
0.0
 40
0.3169396367
 40
1.0
 40
1.0
 40
1.0
 40
1.0
 10
4.9145719634
 20
-0.1093810568
 30
0.0
 10
4.9145803391
 20
-0.1093749768
 30
0.0
 10
4.9146054591
 20
-0.1093550399
 30
0.0
 10
4.9146265521
 20
-0.1093240519
 30
0.0
 10
4.9146265119
 20
-0.1093017462
 30
0.0
  0
LINE
  5
7E7
100
AcDbEntity
  8
0
100
AcDbLine
 62
7
  6
CONTINUOUS
 10
4.1226980247
 20
-0.1542113922
 11
4.1243975384
 21
-0.1538500223
  0
SPLINE
  5
7E8
100
AcDbEntity
  8
0
100
AcDbSpline
 62
7
  6
CONTINUOUS
 70
0
 71
3
 72
51
 73
47
 74
0
 42
0.0000001
 43
0.0000001
 44
0.0000000001
 40
0.0
 40
0.0
 40
0.0
 40
0.0
 40
0.0012569222
 40
0.0027867254
 40
0.0066621259
 40
0.0116193844
 40
0.0176499158
 40
0.0247399926
 40
0.0328735718
 40
0.0420342458
 40
0.0522016806
 40
0.0754632541
 40
0.1024556204
 40
0.1329405081
 40
0.1666492352
 40
0.20328634
 40
0.2425279057
 40
0.2840290569
 40
0.3274244632
 40
0.4183549098
 40
0.5121233372
 40
0.6054337043
 40
0.6508885081
 40
0.6950061248
 40
0.7373987904
 40
0.7776924784
 40
0.8155325467
 40
0.8505865008
 40
0.8825443128
 40
0.9111260492
 40
0.9240706017
 40
0.936079812
 40
0.9471260415
 40
0.9571853625
 40
0.966236715
 40
0.974259227
 40
0.9812351259
 40
0.9871506899
 40
0.9919926653
 40
0.9940074549
 40
0.9957504342
 40
0.9972211343
 40
0.9984192879
 40
0.9993450687
 40
0.9997062087
 40
1.0
 40
1.0
 40
1.0
 40
1.0
 10
4.1243975384
 20
-0.1538500223
 30
0.0
 10
4.1247258925
 20
-0.1538081134
 30
0.0
 10
4.1254554093
 20
-0.1537271808
 30
0.0
 10
4.1272026594
 20
-0.1535671597
 30
0.0
 10
4.1299251662
 20
-0.1533753278
 30
0.0
 10
4.1338333668
 20
-0.1531560431
 30
0.0
 10
4.138589241
 20
-0.1529356529
 30
0.0
 10
4.1441822929
 20
-0.1527141179
 30
0.0
 10
4.150600227
 20
-0.152491993
 30
0.0
 10
4.1578290099
 20
-0.1522694428
 30
0.0
 10
4.1690409438
 20
-0.1519581879
 30
0.0
 10
4.184948721
 20
-0.1515759353
 30
0.0
 10
4.2062071757
 20
-0.1511334192
 30
0.0
 10
4.2302174525
 20
-0.1506897964
 30
0.0
 10
4.2567680966
 20
-0.150245295
 30
0.0
 10
4.2856251487
 20
-0.1498002581
 30
0.0
 10
4.3165346001
 20
-0.1493547937
 30
0.0
 10
4.3492240587
 20
-0.1489090319
 30
0.0
 10
4.3955251828
 20
-0.1483049974
 30
0.0
 10
4.4555905283
 20
-0.1475606657
 30
0.0
 10
4.5288005748
 20
-0.146679739
 30
0.0
 10
4.5900351752
 20
-0.145939551
 30
0.0
 10
4.6381946808
 20
-0.1453394452
 30
0.0
 10
4.6729455907
 20
-0.1448933954
 30
0.0
 10
4.7063371778
 20
-0.1444475446
 30
0.0
 10
4.7380753858
 20
-0.1440019434
 30
0.0
 10
4.7678807056
 20
-0.1435566817
 30
0.0
 10
4.7954904718
 20
-0.1431119496
 30
0.0
 10
4.8206616688
 20
-0.1426678279
 30
0.0
 10
4.8400104108
 20
-0.1422871475
 30
0.0
 10
4.8541059346
 20
-0.1419790854
 30
0.0
 10
4.8635841194
 20
-0.1417558926
 30
0.0
 10
4.8723022387
 20
-0.1415328626
 30
0.0
 10
4.8802411175
 20
-0.1413100387
 30
0.0
 10
4.8873833497
 20
-0.1410875584
 30
0.0
 10
4.8937131194
 20
-0.1408654902
 30
0.0
 10
4.8992165213
 20
-0.1406440907
 30
0.0
 10
4.903881554
 20
-0.1404235638
 30
0.0
 10
4.9072398429
 20
-0.1402314887
 30
0.0
 10
4.9094991594
 20
-0.1400735809
 30
0.0
 10
4.9108716709
 20
-0.1399628123
 30
0.0
 10
4.9120283983
 20
-0.139852668
 30
0.0
 10
4.912968748
 20
-0.1397431345
 30
0.0
 10
4.9136164256
 20
-0.1396471808
 30
0.0
 10
4.914024961
 20
-0.1395668849
 30
0.0
 10
4.9141927081
 20
-0.139526267
 30
0.0
 10
4.9142671549
 20
-0.1395051947
 30
0.0
  0
LINE
  5
7E9
100
AcDbEntity
  8
0
100
AcDbLine
 62
7
  6
CONTINUOUS
 10
4.9142671549
 20
-0.1395051947
 11
4.9146262448
 21
-0.1393017461
  0
SPLINE
  5
7EA
100
AcDbEntity
  8
0
100
AcDbSpline
 62
7
  6
CONTINUOUS
 70
0
 71
3
 72
18
 73
14
 74
0
 42
0.0000001
 43
0.0000001
 44
0.0000000001
 40
0.0
 40
0.0
 40
0.0
 40
0.0
 40
0.0252831989
 40
0.0468958667
 40
0.0754936708
 40
0.1113404039
 40
0.1545646976
 40
0.2052367705
 40
0.2633979033
 40
0.4022752388
 40
0.5713131772
 40
0.7705519532
 40
1.0
 40
1.0
 40
1.0
 40
1.0
 10
4.1226265982
 20
-0.1148079202
 30
0.0
 10
4.1226266174
 20
-0.1147712618
 30
0.0
 10
4.1226895329
 20
-0.1147171632
 30
0.0
 10
4.1227839576
 20
-0.114671564
 30
0.0
 10
4.1229027618
 20
-0.1146277907
 30
0.0
 10
4.1230524127
 20
-0.1145852616
 30
0.0
 10
4.1232357439
 20
-0.1145419529
 30
0.0
 10
4.1234518878
 20
-0.114498694
 30
0.0
 10
4.1238057855
 20
-0.114437102
 30
0.0
 10
4.124331318
 20
-0.1143620411
 30
0.0
 10
4.1250616215
 20
-0.1142758255
 30
0.0
 10
4.1259239761
 20
-0.1141893177
 30
0.0
 10
4.126543197
 20
-0.1141352856
 30
0.0
 10
4.1268747497
 20
-0.1141079203
 30
0.0
  0
SPLINE
  5
7EB
100
AcDbEntity
  8
0
100
AcDbSpline
 62
7
  6
CONTINUOUS
 70
0
 71
3
 72
19
 73
15
 74
0
 42
0.0000001
 43
0.0000001
 44
0.0000000001
 40
0.0
 40
0.0
 40
0.0
 40
0.0
 40
0.0093543262
 40
0.0202817617
 40
0.046820812
 40
0.0795445739
 40
0.1183618395
 40
0.1631497728
 40
0.2137805157
 40
0.3319423355
 40
0.4714344425
 40
0.6305813689
 40
0.8074758682
 40
1.0
 40
1.0
 40
1.0
 40
1.0
 10
4.1268747497
 20
-0.1141079203
 30
0.0
 10
4.1274516854
 20
-0.1140603018
 30
0.0
 10
4.1287034087
 20
-0.1139670858
 30
0.0
 10
4.1315950736
 20
-0.1137823017
 30
0.0
 10
4.1359331846
 20
-0.1135581533
 30
0.0
 10
4.1419975168
 20
-0.1133011125
 30
0.0
 10
4.1491920133
 20
-0.1130430598
 30
0.0
 10
4.1574952564
 20
-0.1127839846
 30
0.0
 10
4.1707077787
 20
-0.1124188568
 30
0.0
 10
4.1897809988
 20
-0.1119727316
 30
0.0
 10
4.2155698327
 20
-0.1114578811
 30
0.0
 10
4.2449939722
 20
-0.1109413579
 30
0.0
 10
4.2777004493
 20
-0.1104235139
 30
0.0
 10
4.3005597009
 20
-0.1100904796
 30
0.0
 10
4.3124729732
 20
-0.1099222411
 30
0.0
  0
LINE
  5
7EC
100
AcDbEntity
  8
0
100
AcDbLine
 62
7
  6
CONTINUOUS
 10
4.3124729732
 20
-0.1099222411
 11
4.3267130611
 21
-0.1097236075
  0
LINE
  5
7ED
100
AcDbEntity
  8
0
100
AcDbLine
 62
7
  6
CONTINUOUS
 10
4.3267130611
 20
-0.1097236075
 11
4.4362792794
 21
-0.1083080963
  0
SPLINE
  5
7EE
100
AcDbEntity
  8
0
100
AcDbSpline
 62
7
  6
CONTINUOUS
 70
0
 71
3
 72
18
 73
14
 74
0
 42
0.0000001
 43
0.0000001
 44
0.0000000001
 40
0.0
 40
0.0
 40
0.0
 40
0.0
 40
0.0285732298
 40
0.0510463754
 40
0.0801747303
 40
0.1163130963
 40
0.1596430612
 40
0.2102677238
 40
0.2682502701
 40
0.4064332173
 40
0.5743964478
 40
0.7722354794
 40
1.0
 40
1.0
 40
1.0
 40
1.0
 10
4.122626805
 20
-0.14480792
 30
0.0
 10
4.122626869
 20
-0.1447795948
 30
0.0
 10
4.1226662953
 20
-0.1447351527
 30
0.0
 10
4.122733019
 20
-0.1446959063
 30
0.0
 10
4.1228132059
 20
-0.1446599652
 30
0.0
 10
4.1229147637
 20
-0.1446248182
 30
0.0
 10
4.1230388477
 20
-0.1445891849
 30
0.0
 10
4.123185195
 20
-0.1445535662
 30
0.0
 10
4.1234245846
 20
-0.1445029206
 30
0.0
 10
4.1237803265
 20
-0.144441155
 30
0.0
 10
4.1242749159
 20
-0.1443702101
 30
0.0
 10
4.1248590445
 20
-0.1442990307
 30
0.0
 10
4.1252786197
 20
-0.1442545723
 30
0.0
 10
4.1255032821
 20
-0.1442320582
 30
0.0
  0
SPLINE
  5
7EF
100
AcDbEntity
  8
0
100
AcDbSpline
 62
7
  6
CONTINUOUS
 70
0
 71
3
 72
55
 73
51
 74
0
 42
0.0000001
 43
0.0000001
 44
0.0000000001
 40
0.0
 40
0.0
 40
0.0
 40
0.0
 40
0.001559315
 40
0.0033909047
 40
0.007866759
 40
0.0134187031
 40
0.0200366013
 40
0.0277053547
 40
0.0364076091
 40
0.0568380196
 40
0.0811473299
 40
0.1091238722
 40
0.1405210305
 40
0.1750625388
 40
0.2124460046
 40
0.2523414649
 40
0.3382483929
 40
0.4297684239
 40
0.5236898327
 40
0.5705210509
 40
0.6167162501
 40
0.6618693429
 40
0.7055828053
 40
0.7474730676
 40
0.7871710141
 40
0.8243278895
 40
0.8586176673
 40
0.8897375132
 40
0.9040230649
 40
0.9174154061
 40
0.9298858475
 40
0.9414076639
 40
0.9519543595
 40
0.9615030307
 40
0.9700338723
 40
0.977527281
 40
0.9839665768
 40
0.986787041
 40
0.9893393932
 40
0.9916221725
 40
0.99363396
 40
0.9953737358
 40
0.9968411477
 40
0.9980360997
 40
0.9985315053
 40
0.9989590006
 40
0.999318825
 40
0.9996114363
 40
0.9998377687
 40
1.0
 40
1.0
 40
1.0
 40
1.0
 10
4.1255032821
 20
-0.1442320582
 30
0.0
 10
4.1259114754
 20
-0.144191152
 30
0.0
 10
4.1268000392
 20
-0.1441111906
 30
0.0
 10
4.1288636515
 20
-0.1439527198
 30
0.0
 10
4.1319779594
 20
-0.1437607791
 30
0.0
 10
4.1363517616
 20
-0.143540801
 30
0.0
 10
4.1415664378
 20
-0.1433199383
 30
0.0
 10
4.1476105084
 20
-0.1430981937
 30
0.0
 10
4.1572874904
 20
-0.1427849003
 30
0.0
 10
4.171342332
 20
-0.1424023724
 30
0.0
 10
4.190468087
 20
-0.1419613709
 30
0.0
 10
4.2124797018
 20
-0.1415189643
 30
0.0
 10
4.2371837401
 20
-0.1410753662
 30
0.0
 10
4.2643629785
 20
-0.1406310476
 30
0.0
 10
4.2937782866
 20
-0.1401862026
 30
0.0
 10
4.3367062914
 20
-0.1395774927
 30
0.0
 10
4.3938764287
 20
-0.1388291588
 30
0.0
 10
4.4652596364
 20
-0.1379496033
 30
0.0
 10
4.5263634826
 20
-0.1372154307
 30
0.0
 10
4.5755436979
 20
-0.1366202841
 30
0.0
 10
4.6118943984
 20
-0.1361743908
 30
0.0
 10
4.6474247918
 20
-0.1357285961
 30
0.0
 10
4.6818225162
 20
-0.135282932
 30
0.0
 10
4.7147849327
 20
-0.13483748
 30
0.0
 10
4.7460222257
 20
-0.1343922946
 30
0.0
 10
4.7752597103
 20
-0.1339474944
 30
0.0
 10
4.8022401233
 20
-0.1335032182
 30
0.0
 10
4.8232035821
 20
-0.1331235767
 30
0.0
 10
4.8386695548
 20
-0.1328170357
 30
0.0
 10
4.849229763
 20
-0.1325938128
 30
0.0
 10
4.8590626936
 20
-0.1323707101
 30
0.0
 10
4.8681467648
 20
-0.1321477757
 30
0.0
 10
4.8764619064
 20
-0.1319250228
 30
0.0
 10
4.8839898551
 20
-0.131702508
 30
0.0
 10
4.890714147
 20
-0.1314804068
 30
0.0
 10
4.8966199114
 20
-0.1312587763
 30
0.0
 10
4.9010233585
 20
-0.1310672578
 30
0.0
 10
4.9041271036
 20
-0.130911684
 30
0.0
 10
4.9061381332
 20
-0.1308003369
 30
0.0
 10
4.907936061
 20
-0.1306891645
 30
0.0
 10
4.9095197647
 20
-0.1305782005
 30
0.0
 10
4.9108883945
 20
-0.1304675821
 30
0.0
 10
4.9120413311
 20
-0.1303573855
 30
0.0
 10
4.9128666552
 20
-0.1302613162
 30
0.0
 10
4.9134182377
 20
-0.1301823151
 30
0.0
 10
4.9137511915
 20
-0.1301269866
 30
0.0
 10
4.9140299423
 20
-0.1300719013
 30
0.0
 10
4.9142547849
 20
-0.1300172271
 30
0.0
 10
4.9144255948
 20
-0.1299630957
 30
0.0
 10
4.914519691
 20
-0.1299212065
 30
0.0
 10
4.9145556883
 20
-0.1298982745
 30
0.0
  0
SPLINE
  5
7F0
100
AcDbEntity
  8
0
100
AcDbSpline
 62
7
  6
CONTINUOUS
 70
0
 71
3
 72
16
 73
12
 74
0
 42
0.0000001
 43
0.0000001
 44
0.0000000001
 40
0.0
 40
0.0
 40
0.0
 40
0.0
 40
0.0337853177
 40
0.0577757516
 40
0.0878901304
 40
0.1681546809
 40
0.2764985653
 40
0.4135987049
 40
0.5797773082
 40
0.7752096866
 40
1.0
 40
1.0
 40
1.0
 40
1.0
 10
4.1226270528
 20
-0.1748079201
 30
0.0
 10
4.1226270827
 20
-0.1747869482
 30
0.0
 10
4.122648921
 20
-0.1747529261
 30
0.0
 10
4.1226918343
 20
-0.1747202836
 30
0.0
 10
4.1227647871
 20
-0.1746787635
 30
0.0
 10
4.1228920806
 20
-0.1746305904
 30
0.0
 10
4.1230867441
 20
-0.1745755297
 30
0.0
 10
4.1233363192
 20
-0.1745202946
 30
0.0
 10
4.1236408803
 20
-0.1744646064
 30
0.0
 10
4.1240006065
 20
-0.1744087561
 30
0.0
 10
4.1242591251
 20
-0.1743738623
 30
0.0
 10
4.1243975384
 20
-0.1743561961
 30
0.0
  0
SPLINE
  5
7F1
100
AcDbEntity
  8
0
100
AcDbSpline
 62
7
  6
CONTINUOUS
 70
0
 71
3
 72
51
 73
47
 74
0
 42
0.0000001
 43
0.0000001
 44
0.0000000001
 40
0.0
 40
0.0
 40
0.0
 40
0.0
 40
0.0012569222
 40
0.0027867254
 40
0.0066621259
 40
0.0116193844
 40
0.0176499158
 40
0.0247399926
 40
0.0328735718
 40
0.0420342458
 40
0.0522016806
 40
0.0754632541
 40
0.1024556204
 40
0.1329405081
 40
0.1666492352
 40
0.20328634
 40
0.2425279057
 40
0.2840290569
 40
0.3274244632
 40
0.4183549098
 40
0.5121233372
 40
0.6054337043
 40
0.6508885081
 40
0.6950061248
 40
0.7373987904
 40
0.7776924784
 40
0.8155325467
 40
0.8505865008
 40
0.8825443128
 40
0.9111260492
 40
0.9240706017
 40
0.936079812
 40
0.9471260415
 40
0.9571853625
 40
0.966236715
 40
0.974259227
 40
0.9812351259
 40
0.9871506899
 40
0.9919926653
 40
0.9940074549
 40
0.9957504342
 40
0.9972211343
 40
0.9984192879
 40
0.9993450687
 40
0.9997062087
 40
1.0
 40
1.0
 40
1.0
 40
1.0
 10
4.1243975384
 20
-0.1743561961
 30
0.0
 10
4.1247258925
 20
-0.1743142873
 30
0.0
 10
4.1254554093
 20
-0.1742333547
 30
0.0
 10
4.1272026594
 20
-0.1740733335
 30
0.0
 10
4.1299251662
 20
-0.1738815016
 30
0.0
 10
4.1338333668
 20
-0.173662217
 30
0.0
 10
4.138589241
 20
-0.1734418267
 30
0.0
 10
4.1441822929
 20
-0.1732202917
 30
0.0
 10
4.150600227
 20
-0.1729981669
 30
0.0
 10
4.1578290099
 20
-0.1727756166
 30
0.0
 10
4.1690409438
 20
-0.1724643617
 30
0.0
 10
4.184948721
 20
-0.1720821092
 30
0.0
 10
4.2062071757
 20
-0.1716395931
 30
0.0
 10
4.2302174525
 20
-0.1711959703
 30
0.0
 10
4.2567680966
 20
-0.1707514688
 30
0.0
 10
4.2856251487
 20
-0.1703064319
 30
0.0
 10
4.3165346001
 20
-0.1698609675
 30
0.0
 10
4.3492240587
 20
-0.1694152057
 30
0.0
 10
4.3955251828
 20
-0.1688111712
 30
0.0
 10
4.4555905283
 20
-0.1680668395
 30
0.0
 10
4.5288005748
 20
-0.1671859129
 30
0.0
 10
4.5900351752
 20
-0.1664457249
 30
0.0
 10
4.6381946808
 20
-0.165845619
 30
0.0
 10
4.6729455907
 20
-0.1653995692
 30
0.0
 10
4.7063371778
 20
-0.1649537184
 30
0.0
 10
4.7380753858
 20
-0.1645081172
 30
0.0
 10
4.7678807056
 20
-0.1640628555
 30
0.0
 10
4.7954904718
 20
-0.1636181234
 30
0.0
 10
4.8206616688
 20
-0.1631740017
 30
0.0
 10
4.8400104108
 20
-0.1627933213
 30
0.0
 10
4.8541059346
 20
-0.1624852592
 30
0.0
 10
4.8635841194
 20
-0.1622620664
 30
0.0
 10
4.8723022387
 20
-0.1620390364
 30
0.0
 10
4.8802411175
 20
-0.1618162125
 30
0.0
 10
4.8873833497
 20
-0.1615937323
 30
0.0
 10
4.8937131194
 20
-0.1613716641
 30
0.0
 10
4.8992165213
 20
-0.1611502645
 30
0.0
 10
4.903881554
 20
-0.1609297376
 30
0.0
 10
4.9072398429
 20
-0.1607376625
 30
0.0
 10
4.9094991594
 20
-0.1605797547
 30
0.0
 10
4.9108716709
 20
-0.1604689862
 30
0.0
 10
4.9120283983
 20
-0.1603588418
 30
0.0
 10
4.912968748
 20
-0.1602493083
 30
0.0
 10
4.9136164256
 20
-0.1601533546
 30
0.0
 10
4.914024961
 20
-0.1600730587
 30
0.0
 10
4.9141927081
 20
-0.1600324409
 30
0.0
 10
4.9142671549
 20
-0.1600113685
 30
0.0
  0
LINE
  5
7F2
100
AcDbEntity
  8
0
100
AcDbLine
 62
7
  6
CONTINUOUS
 10
4.9142671549
 20
-0.1600113685
 11
4.9145555414
 21
-0.1598982742
  0
LINE
  5
7F3
100
AcDbEntity
  8
0
100
AcDbLine
 62
7
  6
CONTINUOUS
 10
4.1228228061
 20
-0.1149581575
 11
4.1226975675
 21
-0.1148982747
  0
LINE
  5
7F4
100
AcDbEntity
  8
0
100
AcDbLine
 62
7
  6
CONTINUOUS
 10
4.1228026401
 20
-0.1449502969
 11
4.1226975336
 21
-0.1448982743
  0
LINE
  5
7F5
100
AcDbEntity
  8
0
100
AcDbLine
 62
7
  6
CONTINUOUS
 10
4.123082891
 20
-0.1750371469
 11
4.1226977845
 21
-0.1748982742
  0
SPLINE
  5
7F6
100
AcDbEntity
  8
0
100
AcDbSpline
 62
7
  6
CONTINUOUS
 70
0
 71
3
 72
38
 73
34
 74
0
 42
0.0000001
 43
0.0000001
 44
0.0000000001
 40
0.0
 40
0.0
 40
0.0
 40
0.0
 40
0.0968151273
 40
0.1927601298
 40
0.2868653755
 40
0.3782771136
 40
0.4661380259
 40
0.5496160344
 40
0.6279276525
 40
0.7003394914
 40
0.7661689415
 40
0.7964197877
 40
0.8247975802
 40
0.8512380118
 40
0.8756773213
 40
0.8980571257
 40
0.9183277405
 40
0.9364403584
 40
0.9523509807
 40
0.9660257224
 40
0.9720145306
 40
0.977432286
 40
0.9822756942
 40
0.986542819
 40
0.9902319968
 40
0.993341779
 40
0.9958711311
 40
0.9969180933
 40
0.9978200555
 40
0.9985774676
 40
0.9991914089
 40
0.9996639938
 40
1.0
 40
1.0
 40
1.0
 40
1.0
 10
4.5186265935
 20
-0.1973079203
 30
0.0
 10
4.5314072318
 20
-0.1971538217
 30
0.0
 10
4.5568536425
 20
-0.1968470113
 30
0.0
 10
4.5947229062
 20
-0.1963861238
 30
0.0
 10
4.6318787598
 20
-0.195925301
 30
0.0
 10
4.6679672672
 20
-0.1954646405
 30
0.0
 10
4.7026526475
 20
-0.1950041783
 30
0.0
 10
4.7356083902
 20
-0.1945439916
 30
0.0
 10
4.766524337
 20
-0.1940841937
 30
0.0
 10
4.7951100468
 20
-0.1936249277
 30
0.0
 10
4.817350993
 20
-0.1932326261
 30
0.0
 10
4.833778943
 20
-0.192915824
 30
0.0
 10
4.8450074238
 20
-0.1926850421
 30
0.0
 10
4.8554684938
 20
-0.1924544084
 30
0.0
 10
4.8651375044
 20
-0.1922239255
 30
0.0
 10
4.8739917278
 20
-0.1919936189
 30
0.0
 10
4.8820103984
 20
-0.1917636024
 30
0.0
 10
4.8891746323
 20
-0.1915339959
 30
0.0
 10
4.8954675872
 20
-0.1913048318
 30
0.0
 10
4.9001599725
 20
-0.1911068645
 30
0.0
 10
4.9034673181
 20
-0.1909460278
 30
0.0
 10
4.9056095658
 20
-0.1908309176
 30
0.0
 10
4.9075241645
 20
-0.1907159709
 30
0.0
 10
4.9092101083
 20
-0.1906012436
 30
0.0
 10
4.9106666164
 20
-0.1904868975
 30
0.0
 10
4.9118929037
 20
-0.1903729968
 30
0.0
 10
4.912770128
 20
-0.190273687
 30
0.0
 10
4.9133557076
 20
-0.1901919812
 30
0.0
 10
4.9137084466
 20
-0.1901347986
 30
0.0
 10
4.914003143
 20
-0.1900778685
 30
0.0
 10
4.9142401624
 20
-0.1900213863
 30
0.0
 10
4.9144194021
 20
-0.189965484
 30
0.0
 10
4.9145178779
 20
-0.1899221308
 30
0.0
 10
4.9145552764
 20
-0.1898982742
 30
0.0
  0
SPLINE
  5
7F7
100
AcDbEntity
  8
0
100
AcDbSpline
 62
7
  6
CONTINUOUS
 70
0
 71
3
 72
29
 73
25
 74
0
 42
0.0000001
 43
0.0000001
 44
0.0000000001
 40
0.0
 40
0.0
 40
0.0
 40
0.0
 40
0.1870856161
 40
0.2785601795
 40
0.3675820829
 40
0.4533725009
 40
0.535167748
 40
0.6122494494
 40
0.6839410203
 40
0.7496079361
 40
0.8086748373
 40
0.8606212248
 40
0.8837783064
 40
0.9049885671
 40
0.9242074259
 40
0.9413906585
 40
0.9565001504
 40
0.9695057535
 40
0.9803781315
 40
0.9890927802
 40
0.9926365753
 40
0.9956361931
 40
0.9980907076
 40
1.0
 40
1.0
 40
1.0
 40
1.0
 10
4.5186265935
 20
-0.1768017464
 30
0.0
 10
4.5432680353
 20
-0.1765046398
 30
0.0
 10
4.5799577868
 20
-0.1760623581
 30
0.0
 10
4.6283726093
 20
-0.175462978
 30
0.0
 10
4.6634455312
 20
-0.1750168975
 30
0.0
 10
4.6972433733
 20
-0.1745709931
 30
0.0
 10
4.7294682924
 20
-0.1741253085
 30
0.0
 10
4.7598359056
 20
-0.1736799439
 30
0.0
 10
4.7880788317
 20
-0.1732350389
 30
0.0
 10
4.8139485126
 20
-0.1727907641
 30
0.0
 10
4.8372169176
 20
-0.1723473368
 30
0.0
 10
4.8548859801
 20
-0.1719658669
 30
0.0
 10
4.8675688195
 20
-0.1716563726
 30
0.0
 10
4.8759415414
 20
-0.1714334074
 30
0.0
 10
4.8835270814
 20
-0.1712107395
 30
0.0
 10
4.8903086491
 20
-0.1709884312
 30
0.0
 10
4.8962713169
 20
-0.1707665743
 30
0.0
 10
4.9014021061
 20
-0.1705456278
 30
0.0
 10
4.9056896666
 20
-0.1703257043
 30
0.0
 10
4.9087305987
 20
-0.1701336045
 30
0.0
 10
4.9107341663
 20
-0.1699747415
 30
0.0
 10
4.9119143194
 20
-0.1698644793
 30
0.0
 10
4.9128780786
 20
-0.1697549245
 30
0.0
 10
4.9134472275
 20
-0.1696728957
 30
0.0
 10
4.913694921
 20
-0.1696293326
 30
0.0
  0
LINE
  5
7F8
100
AcDbEntity
  8
0
100
AcDbLine
 62
7
  6
CONTINUOUS
 10
4.913694921
 20
-0.1696293326
 11
4.9146260733
 21
-0.1693017464
  0
SPLINE
  5
7F9
100
AcDbEntity
  8
0
100
AcDbSpline
 62
7
  6
CONTINUOUS
 70
0
 71
3
 72
69
 73
65
 74
0
 42
0.0000001
 43
0.0000001
 44
0.0000000001
 40
0.0
 40
0.0
 40
0.0
 40
0.0
 40
0.0001630491
 40
0.0003945627
 40
0.0006968574
 40
0.0010709143
 40
0.0015172222
 40
0.0020360496
 40
0.0032917928
 40
0.0048386701
 40
0.0066760274
 40
0.0088027846
 40
0.0112177594
 40
0.0139197116
 40
0.0169073655
 40
0.0237335751
 40
0.0316795132
 40
0.0407263425
 40
0.0508543757
 40
0.0620388929
 40
0.0742531737
 40
0.0874698856
 40
0.1016571931
 40
0.116781184
 40
0.1496978913
 40
0.1859092529
 40
0.2250755205
 40
0.2668284188
 40
0.3107744402
 40
0.3565008693
 40
0.403577329
 40
0.4515607318
 40
0.5000000047
 40
0.5484391464
 40
0.5964227038
 40
0.6434990953
 40
0.6892253329
 40
0.7331717852
 40
0.7749243211
 40
0.8140904835
 40
0.8503024605
 40
0.8832184878
 40
0.8983432116
 40
0.9125298842
 40
0.9257464089
 40
0.9379615451
 40
0.9491454328
 40
0.9592731562
 40
0.9683209359
 40
0.9762662828
 40
0.9830920604
 40
0.9860802322
 40
0.9887826767
 40
0.9911975936
 40
0.9933238869
 40
0.9951607749
 40
0.9967075775
 40
0.9979638102
 40
0.9984829398
 40
0.998929481
 40
0.9993036249
 40
0.9996058472
 40
0.99983718
 40
1.0
 40
1.0
 40
1.0
 40
1.0
 10
4.1066010125
 20
-0.1344680068
 30
0.0
 10
4.1066388077
 20
-0.1344439519
 30
0.0
 10
4.1067391387
 20
-0.1344005479
 30
0.0
 10
4.1069222077
 20
-0.1343446997
 30
0.0
 10
4.1071654288
 20
-0.1342882491
 30
0.0
 10
4.1074686172
 20
-0.1342313165
 30
0.0
 10
4.1078321679
 20
-0.1341741183
 30
0.0
 10
4.1084369185
 20
-0.1340923267
 30
0.0
 10
4.1093442506
 20
-0.1339929531
 30
0.0
 10
4.1106141118
 20
-0.1338790359
 30
0.0
 10
4.1121240779
 20
-0.1337646628
 30
0.0
 10
4.1138731142
 20
-0.1336498982
 30
0.0
 10
4.1158601473
 20
-0.1335349081
 30
0.0
 10
4.1180840674
 20
-0.1334197366
 30
0.0
 10
4.1215192708
 20
-0.1332587789
 30
0.0
 10
4.1263951413
 20
-0.1330607325
 30
0.0
 10
4.1329358687
 20
-0.1328314969
 30
0.0
 10
4.1403843061
 20
-0.1326017476
 30
0.0
 10
4.1487229668
 20
-0.1323716379
 30
0.0
 10
4.1579322359
 20
-0.1321412474
 30
0.0
 10
4.1679904146
 20
-0.1319106327
 30
0.0
 10
4.178873864
 20
-0.131679894
 30
0.0
 10
4.190556976
 20
-0.1314490214
 30
0.0
 10
4.2076523833
 20
-0.1311320329
 30
0.0
 10
4.2307989457
 20
-0.1307395649
 30
0.0
 10
4.2605513588
 20
-0.1302800649
 30
0.0
 10
4.2927319441
 20
-0.1298200637
 30
0.0
 10
4.327037972
 20
-0.129359664
 30
0.0
 10
4.3631466798
 20
-0.1288989771
 30
0.0
 10
4.4007182498
 20
-0.1284380975
 30
0.0
 10
4.4393992469
 20
-0.1279770812
 30
0.0
 10
4.4788257006
 20
-0.1275159759
 30
0.0
 10
4.5186266023
 20
-0.1270548341
 30
0.0
 10
4.5584275464
 20
-0.1265936883
 30
0.0
 10
4.5978539878
 20
-0.1261325864
 30
0.0
 10
4.6365349561
 20
-0.12567157
 30
0.0
 10
4.674106573
 20
-0.1252106844
 30
0.0
 10
4.7102152472
 20
-0.1247500077
 30
0.0
 10
4.7445212649
 20
-0.124289602
 30
0.0
 10
4.7767018907
 20
-0.1238295925
 30
0.0
 10
4.8064542575
 20
-0.1233701184
 30
0.0
 10
4.8296010029
 20
-0.1229776131
 30
0.0
 10
4.8466962509
 20
-0.1226606587
 30
0.0
 10
4.8583793381
 20
-0.1224297689
 30
0.0
 10
4.8692627964
 20
-0.1221990196
 30
0.0
 10
4.8793209865
 20
-0.1219684372
 30
0.0
 10
4.8885302321
 20
-0.1217380269
 30
0.0
 10
4.8968688951
 20
-0.1215078961
 30
0.0
 10
4.9043173476
 20
-0.1212781946
 30
0.0
 10
4.9108580544
 20
-0.1210489368
 30
0.0
 10
4.9157337846
 20
-0.1208508619
 30
0.0
 10
4.9191691482
 20
-0.1206899281
 30
0.0
 10
4.921393331
 20
-0.1205747707
 30
0.0
 10
4.9233803561
 20
-0.1204597799
 30
0.0
 10
4.9251291189
 20
-0.1203450062
 30
0.0
 10
4.9266388063
 20
-0.1202306204
 30
0.0
 10
4.9279086507
 20
-0.1201166861
 30
0.0
 10
4.9288161824
 20
-0.1200173292
 30
0.0
 10
4.9294212186
 20
-0.1199355491
 30
0.0
 10
4.9297849436
 20
-0.1198783575
 30
0.0
 10
4.9300882023
 20
-0.1198214305
 30
0.0
 10
4.9303313783
 20
-0.1197649812
 30
0.0
 10
4.9305143082
 20
-0.1197091351
 30
0.0
 10
4.9306145183
 20
-0.1196657223
 30
0.0
 10
4.9306522338
 20
-0.1196416594
 30
0.0
  0
SPLINE
  5
7FA
100
AcDbEntity
  8
0
100
AcDbSpline
 62
7
  6
CONTINUOUS
 70
0
 71
3
 72
69
 73
65
 74
0
 42
0.0000001
 43
0.0000001
 44
0.0000000001
 40
0.0
 40
0.0
 40
0.0
 40
0.0
 40
0.0001629163
 40
0.0003944545
 40
0.0006969069
 40
0.0010712046
 40
0.0015177841
 40
0.0020368606
 40
0.0032928215
 40
0.0048393154
 40
0.0066760796
 40
0.0088026419
 40
0.0112179723
 40
0.0139204453
 40
0.0169083689
 40
0.0237336826
 40
0.0316796555
 40
0.0407272898
 40
0.050854538
 40
0.0620389726
 40
0.0742540389
 40
0.0874700966
 40
0.1016572211
 40
0.1167819452
 40
0.1496978815
 40
0.1859095243
 40
0.2250760306
 40
0.2668283797
 40
0.310774697
 40
0.3565011105
 40
0.4035773202
 40
0.4515608841
 40
0.5000000065
 40
0.54843921
 40
0.5964226684
 40
0.6434989247
 40
0.6892254799
 40
0.7331715075
 40
0.7749240668
 40
0.8140906886
 40
0.8503019315
 40
0.8832182403
 40
0.8983425701
 40
0.912530093
 40
0.9257461944
 40
0.9379608086
 40
0.9491456198
 40
0.9592729901
 40
0.9683201278
 40
0.9762664334
 40
0.9830919538
 40
0.98607961
 40
0.9887818249
 40
0.991197104
 40
0.9933239883
 40
0.9951610873
 40
0.9967075369
 40
0.9979632375
 40
0.9984821662
 40
0.9989286199
 40
0.9993028386
 40
0.9996052831
 40
0.9998369067
 40
1.0
 40
1.0
 40
1.0
 40
1.0
 10
4.1066006458
 20
-0.1644680072
 30
0.0
 10
4.1066383884
 20
-0.1644439374
 30
0.0
 10
4.1067386911
 20
-0.164400525
 30
0.0
 10
4.106921776
 20
-0.1643446903
 30
0.0
 10
4.1071651196
 20
-0.1642882466
 30
0.0
 10
4.1074684959
 20
-0.1642313182
 30
0.0
 10
4.1078322591
 20
-0.1641741225
 30
0.0
 10
4.1084372162
 20
-0.1640923425
 30
0.0
 10
4.1093445725
 20
-0.1639929783
 30
0.0
 10
4.1106142232
 20
-0.1638790384
 30
0.0
 10
4.1121238664
 20
-0.1637646484
 30
0.0
 10
4.113872785
 20
-0.1636498845
 30
0.0
 10
4.1158600078
 20
-0.1635349067
 30
0.0
 10
4.1180842452
 20
-0.1634197432
 30
0.0
 10
4.121519423
 20
-0.1632588028
 30
0.0
 10
4.1263951322
 20
-0.1630607083
 30
0.0
 10
4.1329358497
 20
-0.1628314885
 30
0.0
 10
4.1403843084
 20
-0.1626017729
 30
0.0
 10
4.1487229566
 20
-0.1623716256
 30
0.0
 10
4.1579322098
 20
-0.1621412386
 30
0.0
 10
4.1679904097
 20
-0.1619106505
 30
0.0
 10
4.1788738521
 20
-0.1616798875
 30
0.0
 10
4.1905569439
 20
-0.1614490139
 30
0.0
 10
4.2076523031
 20
-0.1611320516
 30
0.0
 10
4.2307989483
 20
-0.1607395514
 30
0.0
 10
4.2605513138
 20
-0.160280068
 30
0.0
 10
4.2927319139
 20
-0.1598200693
 30
0.0
 10
4.327037962
 20
-0.159359658
 30
0.0
 10
4.3631466218
 20
-0.1588989802
 30
0.0
 10
4.4007182268
 20
-0.1584380992
 30
0.0
 10
4.4393992226
 20
-0.1579770788
 30
0.0
 10
4.4788256386
 20
-0.1575159786
 30
0.0
 10
4.5186265884
 20
-0.1570548329
 30
0.0
 10
4.5584275092
 20
-0.1565936897
 30
0.0
 10
4.5978539314
 20
-0.1561325874
 30
0.0
 10
4.63653495
 20
-0.1556715669
 30
0.0
 10
4.6741065271
 20
-0.15521069
 30
0.0
 10
4.7102152039
 20
-0.1547500056
 30
0.0
 10
4.7445212619
 20
-0.1542895975
 30
0.0
 10
4.7767018417
 20
-0.1538296049
 30
0.0
 10
4.8064542312
 20
-0.1533701056
 30
0.0
 10
4.8296007609
 20
-0.1529776267
 30
0.0
 10
4.8466962233
 20
-0.1526606449
 30
0.0
 10
4.8583793283
 20
-0.1524297827
 30
0.0
 10
4.8692627681
 20
-0.1521990233
 30
0.0
 10
4.8793209588
 20
-0.151968418
 30
0.0
 10
4.8885302252
 20
-0.1517380434
 30
0.0
 10
4.8968688743
 20
-0.1515079053
 30
0.0
 10
4.9043173207
 20
-0.1512781648
 30
0.0
 10
4.9108580503
 20
-0.1510489579
 30
0.0
 10
4.915733835
 20
-0.1508508774
 30
0.0
 10
4.9191689244
 20
-0.1506899241
 30
0.0
 10
4.9213930029
 20
-0.1505747568
 30
0.0
 10
4.9233802288
 20
-0.1504597716
 30
0.0
 10
4.9251293145
 20
-0.1503450153
 30
0.0
 10
4.9266391278
 20
-0.1502306417
 30
0.0
 10
4.9279087867
 20
-0.1501166991
 30
0.0
 10
4.9288160175
 20
-0.1500173287
 30
0.0
 10
4.929420826
 20
-0.1499355445
 30
0.0
 10
4.9297844908
 20
-0.1498783471
 30
0.0
 10
4.9300878073
 20
-0.1498214155
 30
0.0
 10
4.9303311484
 20
-0.1497649673
 30
0.0
 10
4.9305143048
 20
-0.1497091226
 30
0.0
 10
4.9306146846
 20
-0.1496657203
 30
0.0
 10
4.9306524907
 20
-0.1496416598
 30
0.0
  0
SPLINE
  5
7FB
100
AcDbEntity
  8
0
100
AcDbSpline
 62
7
  6
CONTINUOUS
 70
0
 71
3
 72
38
 73
34
 74
0
 42
0.0000001
 43
0.0000001
 44
0.0000000001
 40
0.0
 40
0.0
 40
0.0
 40
0.0
 40
0.0968625573
 40
0.1928513551
 40
0.2869988259
 40
0.3784496824
 40
0.4663438464
 40
0.5498492757
 40
0.6281811557
 40
0.7006047718
 40
0.7664378267
 40
0.7966862514
 40
0.8250599906
 40
0.8514937628
 40
0.8759229645
 40
0.8982910492
 40
0.9185473348
 40
0.9366418056
 40
0.9525326909
 40
0.9661851874
 40
0.9721613104
 40
0.9775653723
 40
0.9823949092
 40
0.9866478411
 40
0.9903222033
 40
0.993416234
 40
0.9959285644
 40
0.9969664483
 40
0.9978590874
 40
0.9986070699
 40
0.9992114261
 40
0.9996741721
 40
1.0
 40
1.0
 40
1.0
 40
1.0
 10
4.5186265935
 20
-0.1870548334
 30
0.0
 10
4.5319331222
 20
-0.1869006598
 30
0.0
 10
4.5584261465
 20
-0.1865937056
 30
0.0
 10
4.5978526637
 20
-0.1861326013
 30
0.0
 10
4.6365356459
 20
-0.1856715626
 30
0.0
 10
4.6741064715
 20
-0.1852106863
 30
0.0
 10
4.7102151336
 20
-0.1847500058
 30
0.0
 10
4.7445213013
 20
-0.1842896047
 30
0.0
 10
4.7767018581
 20
-0.1838295949
 30
0.0
 10
4.806454245
 20
-0.1833701091
 30
0.0
 10
4.8296009337
 20
-0.1829776262
 30
0.0
 10
4.8466962268
 20
-0.1826606525
 30
0.0
 10
4.8583793231
 20
-0.1824297663
 30
0.0
 10
4.8692627846
 20
-0.1821990309
 30
0.0
 10
4.8793209657
 20
-0.1819684296
 30
0.0
 10
4.8885302189
 20
-0.1817380215
 30
0.0
 10
4.896868888
 20
-0.1815079122
 30
0.0
 10
4.9043173292
 20
-0.1812781853
 30
0.0
 10
4.9108580399
 20
-0.1810489278
 30
0.0
 10
4.9157338947
 20
-0.1808508711
 30
0.0
 10
4.9191692426
 20
-0.1806899368
 30
0.0
 10
4.921393239
 20
-0.1805747651
 30
0.0
 10
4.923380156
 20
-0.1804597716
 30
0.0
 10
4.9251290058
 20
-0.1803450016
 30
0.0
 10
4.9266388802
 20
-0.1802306215
 30
0.0
 10
4.9279088457
 20
-0.1801166951
 30
0.0
 10
4.9288163665
 20
-0.1800173449
 30
0.0
 10
4.9294212689
 20
-0.1799355538
 30
0.0
 10
4.9297848365
 20
-0.1798783556
 30
0.0
 10
4.9300879772
 20
-0.1798214233
 30
0.0
 10
4.9303311078
 20
-0.1797649727
 30
0.0
 10
4.9305140638
 20
-0.1797091249
 30
0.0
 10
4.9306143127
 20
-0.1796657167
 30
0.0
 10
4.9306520625
 20
-0.1796416596
 30
0.0
  0
LINE
  5
7FC
100
AcDbEntity
  8
02___PRT_ALL_AXES
100
AcDbLine
 62
7
  6
CONTINUOUS
 10
3.8923992926
 20
8.1884504124
 11
3.8928284851
 21
8.1878061262
  0
LINE
  5
7FD
100
AcDbEntity
  8
02___PRT_ALL_AXES
100
AcDbLine
 62
7
  6
CONTINUOUS
 10
-0.8553607687
 20
5.0252559431
 11
-0.8557898737
 21
5.0259002875
  0
LINE
  5
7FE
100
AcDbEntity
  8
02___PRT_ALL_AXES
100
AcDbLine
 62
7
  6
CONTINUOUS
 10
3.9157841759
 20
8.1527812569
 11
3.9159939976
 21
8.1524558872
  0
LINE
  5
7FF
100
AcDbEntity
  8
02___PRT_ALL_AXES
100
AcDbLine
 62
7
  6
CONTINUOUS
 10
4.3711264884
 20
6.6074663937
 11
4.3711265672
 21
6.6070792367
  0
LINE
  5
800
100
AcDbEntity
  8
02___PRT_ALL_AXES
100
AcDbLine
 62
7
  6
CONTINUOUS
 10
4.3711265672
 20
6.6070792367
 11
4.3711265935
 21
6.6066920797
  0
SPLINE
  5
801
100
AcDbEntity
  8
02___PRT_ALL_AXES
100
AcDbSpline
 62
7
  6
CONTINUOUS
 70
0
 71
3
 72
24
 73
20
 74
0
 42
0.0000001
 43
0.0000001
 44
0.0000000001
 40
0.0
 40
0.0
 40
0.0
 40
0.0
 40
0.0587460316
 40
0.1176132605
 40
0.1767065268
 40
0.2361397662
 40
0.2660206077
 40
0.2960227992
 40
0.3564239086
 40
0.4174331646
 40
0.4791162142
 40
0.5415248344
 40
0.6046961745
 40
0.6686526126
 40
0.7334019401
 40
0.7989377353
 40
0.8652399365
 40
0.9322756133
 40
1.0
 40
1.0
 40
1.0
 40
1.0
 10
-8.1139025966
 20
-11.9993022858
 30
0.0
 10
-8.1139025966
 20
-12.0050352539
 30
0.0
 10
-8.1143654572
 20
-12.016518333
 30
0.0
 10
-8.1164437575
 20
-12.0336550866
 30
0.0
 10
-8.1198972993
 20
-12.0506372911
 30
0.0
 10
-8.1239011011
 20
-12.0645725818
 30
0.0
 10
-8.1277660447
 20
-12.0755590388
 30
0.0
 10
-8.1320880384
 20
-12.0864755741
 30
0.0
 10
-8.138318108
 20
-12.0998913529
 30
0.0
 10
-8.1470512442
 20
-12.115498166
 30
0.0
 10
-8.1570196662
 20
-12.1305818075
 30
0.0
 10
-8.1681779434
 20
-12.1450741167
 30
0.0
 10
-8.1804756837
 20
-12.1589104955
 30
0.0
 10
-8.1938572939
 20
-12.1720292047
 30
0.0
 10
-8.2082625217
 20
-12.1843717909
 30
0.0
 10
-8.2236265641
 20
-12.1958832133
 30
0.0
 10
-8.2398806783
 20
-12.2065122662
 30
0.0
 10
-8.256951075
 20
-12.2162112867
 30
0.0
 10
-8.2687694383
 20
-12.2220015545
 30
0.0
 10
-8.2747886499
 20
-12.2247310325
 30
0.0
  0
SPLINE
  5
802
100
AcDbEntity
  8
0
100
AcDbSpline
 62
7
  6
CONTINUOUS
 70
0
 71
3
 72
23
 73
19
 74
0
 42
0.0000001
 43
0.0000001
 44
0.0000000001
 40
0.0
 40
0.0
 40
0.0
 40
0.0
 40
0.1358134502
 40
0.2032786538
 40
0.2701691427
 40
0.3363161314
 40
0.4015791735
 40
0.4658455669
 40
0.5290367364
 40
0.5911125183
 40
0.6520745454
 40
0.7119684302
 40
0.7415519895
 40
0.7709062139
 40
0.8289782147
 40
0.8863755047
 40
0.9433109984
 40
1.0
 40
1.0
 40
1.0
 40
1.0
 10
-8.0999025966
 20
-10.9217175284
 30
0.0
 10
-8.0946826779
 20
-10.9217175284
 30
0.0
 10
-8.0868493256
 20
-10.9223556233
 30
0.0
 10
-8.0766755118
 20
-10.9244738264
 30
0.0
 10
-8.0692792401
 20
-10.9266724621
 30
0.0
 10
-8.0621770694
 20
-10.9294634652
 30
0.0
 10
-8.055435988
 20
-10.9328203607
 30
0.0
 10
-8.0491210143
 20
-10.9367113909
 30
0.0
 10
-8.0432928349
 20
-10.9410996433
 30
0.0
 10
-8.0380076346
 20
-10.9459436484
 30
0.0
 10
-8.0333169342
 20
-10.9511969706
 30
0.0
 10
-8.0299265583
 20
-10.9558952466
 30
0.0
 10
-8.0275609986
 20
-10.9598044568
 30
0.0
 10
-8.0254448815
 20
-10.9637748534
 30
0.0
 10
-8.0232374097
 20
-10.9688983814
 30
0.0
 10
-8.0213195911
 20
-10.9752562623
 30
0.0
 10
-8.020161193
 20
-10.9817411139
 30
0.0
 10
-8.0199025966
 20
-10.9861125344
 30
0.0
 10
-8.0199025966
 20
-10.9882913464
 30
0.0
  0
SPLINE
  5
803
100
AcDbEntity
  8
0
100
AcDbSpline
 62
7
  6
CONTINUOUS
 70
0
 71
3
 72
20
 73
16
 74
0
 42
0.0000001
 43
0.0000001
 44
0.0000000001
 40
0.0
 40
0.0
 40
0.0
 40
0.0
 40
0.0772931413
 40
0.1501998133
 40
0.2839189578
 40
0.3458202578
 40
0.4051532361
 40
0.4626042904
 40
0.5188876919
 40
0.5747201433
 40
0.630789825
 40
0.6877093479
 40
0.7460066358
 40
0.8682431638
 40
1.0
 40
1.0
 40
1.0
 40
1.0
 10
-8.1349025966
 20
-10.7225149688
 30
0.0
 10
-8.1349025966
 20
-10.7220193721
 30
0.0
 10
-8.1349348169
 20
-10.7210556714
 30
0.0
 10
-8.1351342132
 20
-10.7192452972
 30
0.0
 10
-8.1355370199
 20
-10.7175584913
 30
0.0
 10
-8.1361654634
 20
-10.7160462809
 30
0.0
 10
-8.136722032
 20
-10.7150418568
 30
0.0
 10
-8.1373721082
 20
-10.7141392342
 30
0.0
 10
-8.1381117973
 20
-10.7133386715
 30
0.0
 10
-8.1389368349
 20
-10.7126401522
 30
0.0
 10
-8.1398421611
 20
-10.7120423244
 30
0.0
 10
-8.1408231589
 20
-10.7115435816
 30
0.0
 10
-8.1422477119
 20
-10.7109993934
 30
0.0
 10
-8.1442137108
 20
-10.710563845
 30
0.0
 10
-8.1458450274
 20
-10.7104644698
 30
0.0
 10
-8.1466898401
 20
-10.7104638808
 30
0.0
  0
SPLINE
  5
804
100
AcDbEntity
  8
0
100
AcDbSpline
 62
7
  6
CONTINUOUS
 70
0
 71
3
 72
20
 73
16
 74
0
 42
0.0000001
 43
0.0000001
 44
0.0000000001
 40
0.0
 40
0.0
 40
0.0
 40
0.0
 40
0.1317568362
 40
0.2539933642
 40
0.3122906521
 40
0.369210175
 40
0.4252798567
 40
0.4811123081
 40
0.5373957096
 40
0.5948467639
 40
0.6541797422
 40
0.7160810422
 40
0.8498001867
 40
0.9227068587
 40
1.0
 40
1.0
 40
1.0
 40
1.0
 10
-8.1831153532
 20
-10.7104638808
 30
0.0
 10
-8.1839601659
 20
-10.7104644698
 30
0.0
 10
-8.1855914825
 20
-10.710563845
 30
0.0
 10
-8.1875574814
 20
-10.7109993934
 30
0.0
 10
-8.1889820344
 20
-10.7115435816
 30
0.0
 10
-8.1899630322
 20
-10.7120423244
 30
0.0
 10
-8.1908683584
 20
-10.7126401522
 30
0.0
 10
-8.191693396
 20
-10.7133386715
 30
0.0
 10
-8.1924330851
 20
-10.7141392342
 30
0.0
 10
-8.1930831612
 20
-10.7150418568
 30
0.0
 10
-8.1936397299
 20
-10.7160462809
 30
0.0
 10
-8.1942681734
 20
-10.7175584913
 30
0.0
 10
-8.1946709801
 20
-10.7192452972
 30
0.0
 10
-8.1948703764
 20
-10.7210556714
 30
0.0
 10
-8.1949025966
 20
-10.7220193721
 30
0.0
 10
-8.1949025966
 20
-10.7225149688
 30
0.0
  0
SPLINE
  5
805
100
AcDbEntity
  8
02___PRT_ALL_AXES
100
AcDbSpline
 62
7
  6
CONTINUOUS
 70
0
 71
3
 72
22
 73
18
 74
0
 42
0.0000001
 43
0.0000001
 44
0.0000000001
 40
0.0
 40
0.0
 40
0.0
 40
0.0
 40
0.1358726577
 40
0.2028562158
 40
0.269061313
 40
0.3344213905
 40
0.3988889407
 40
0.4624373314
 40
0.5250623692
 40
0.5867834766
 40
0.6476442146
 40
0.7077119538
 40
0.7670771445
 40
0.8258519109
 40
0.8841639373
 40
0.9421651357
 40
1.0
 40
1.0
 40
1.0
 40
1.0
 10
-8.3786921038
 20
-11.882070351
 30
0.0
 10
-8.3713046693
 20
-11.8839778417
 30
0.0
 10
-8.3604458395
 20
-11.887574874
 30
0.0
 10
-8.3466773532
 20
-11.8938177153
 30
0.0
 10
-8.3368702524
 20
-11.8991432213
 30
0.0
 10
-8.3276008239
 20
-11.9050991289
 30
0.0
 10
-8.3189262804
 20
-11.9116486997
 30
0.0
 10
-8.3109016438
 20
-11.9187510614
 30
0.0
 10
-8.3035775892
 20
-11.9263619699
 30
0.0
 10
-8.2970005167
 20
-11.9344338451
 30
0.0
 10
-8.2912122575
 20
-11.9429161945
 30
0.0
 10
-8.2862497947
 20
-11.9517558189
 30
0.0
 10
-8.2821450129
 20
-11.9608971937
 30
0.0
 10
-8.2789245543
 20
-11.9702824715
 30
0.0
 10
-8.2766088416
 20
-11.9798527254
 30
0.0
 10
-8.2752136072
 20
-11.9895458175
 30
0.0
 10
-8.2749025966
 20
-11.9960546557
 30
0.0
 10
-8.2749025966
 20
-11.9993022858
 30
0.0
  0
SPLINE
  5
806
100
AcDbEntity
  8
02___PRT_ALL_AXES
100
AcDbSpline
 62
7
  6
CONTINUOUS
 70
0
 71
3
 72
24
 73
20
 74
0
 42
0.0000001
 43
0.0000001
 44
0.0000000001
 40
0.0
 40
0.0
 40
0.0
 40
0.0
 40
0.0683130144
 40
0.1362121277
 40
0.2035465426
 40
0.236965236
 40
0.2701931392
 40
0.3360080913
 40
0.4009092494
 40
0.4648273185
 40
0.5277221153
 40
0.5895851756
 40
0.6504416016
 40
0.7103508982
 40
0.7694065862
 40
0.8277342064
 40
0.8854880449
 40
0.9428451283
 40
1.0
 40
1.0
 40
1.0
 40
1.0
 10
-8.3809646804
 20
-11.744903503
 30
0.0
 10
-8.3718412867
 20
-11.7459326142
 30
0.0
 10
-8.3537189222
 20
-11.7486672322
 30
0.0
 10
-8.3270312117
 20
-11.7547906448
 30
0.0
 10
-8.3053690733
 20
-11.7615490532
 30
0.0
 10
-8.2885210967
 20
-11.7679165526
 30
0.0
 10
-8.2721267438
 20
-11.774866817
 30
0.0
 10
-8.2523686116
 20
-11.7846785622
 30
0.0
 10
-8.2299502329
 20
-11.7982158506
 30
0.0
 10
-8.2090743604
 20
-11.8133734201
 30
0.0
 10
-8.1899101996
 20
-11.8300305098
 30
0.0
 10
-8.1726124839
 20
-11.8480547811
 30
0.0
 10
-8.1573217506
 20
-11.8673026388
 30
0.0
 10
-8.1441628118
 20
-11.8876203232
 30
0.0
 10
-8.1332438042
 20
-11.9088450202
 30
0.0
 10
-8.1246550387
 20
-11.930805566
 30
0.0
 10
-8.1184681713
 20
-11.9533252257
 30
0.0
 10
-8.1147350062
 20
-11.9762174769
 30
0.0
 10
-8.1139025966
 20
-11.9916206856
 30
0.0
 10
-8.1139025966
 20
-11.9993022858
 30
0.0
  0
SPLINE
  5
807
100
AcDbEntity
  8
0
100
AcDbSpline
 62
7
  6
CONTINUOUS
 70
0
 71
3
 72
33
 73
29
 74
0
 42
0.0000001
 43
0.0000001
 44
0.0000000001
 40
0.0
 40
0.0
 40
0.0
 40
0.0
 40
0.0041243031
 40
0.0075338819
 40
0.0119984215
 40
0.0175540165
 40
0.0242133115
 40
0.0408456125
 40
0.0618408081
 40
0.0869968334
 40
0.148806154
 40
0.2240938539
 40
0.3099391457
 40
0.4031269659
 40
0.5000290507
 40
0.5969150975
 40
0.6900775466
 40
0.7759110903
 40
0.8511965593
 40
0.9130060863
 40
0.9381623941
 40
0.9591582123
 40
0.9757903239
 40
0.9824489607
 40
0.9880037162
 40
0.9924673848
 40
0.9958762173
 40
1.0
 40
1.0
 40
1.0
 40
1.0
 10
-10.1641192628
 20
-16.1537225991
 30
0.0
 10
-10.1642665289
 20
-16.1537225991
 30
0.0
 10
-10.1644890276
 20
-16.1534865235
 30
0.0
 10
-10.164675758
 20
-16.153118186
 30
0.0
 10
-10.164850162
 20
-16.1526647748
 30
0.0
 10
-10.1650170082
 20
-16.1520947324
 30
0.0
 10
-10.1652569611
 20
-16.1510917846
 30
0.0
 10
-10.1655330545
 20
-16.1495341857
 30
0.0
 10
-10.1658309963
 20
-16.1473117618
 30
0.0
 10
-10.1662317232
 20
-16.1434773707
 30
0.0
 10
-10.166650087
 20
-16.137697723
 30
0.0
 10
-10.1670345787
 20
-16.1297460834
 30
0.0
 10
-10.1673170245
 20
-16.1206690634
 30
0.0
 10
-10.1674884528
 20
-16.1108175187
 30
0.0
 10
-10.1675463377
 20
-16.1005704312
 30
0.0
 10
-10.1674884409
 20
-16.0903242493
 30
0.0
 10
-10.1673169548
 20
-16.080474604
 30
0.0
 10
-10.1670345369
 20
-16.0713989895
 30
0.0
 10
-10.1666500692
 20
-16.0634478408
 30
0.0
 10
-10.1662316739
 20
-16.0576682575
 30
0.0
 10
-10.1658309199
 20
-16.0538338293
 30
0.0
 10
-10.1655329923
 20
-16.0516113787
 30
0.0
 10
-10.1652569305
 20
-16.0500537812
 30
0.0
 10
-10.1650169838
 20
-16.0490508945
 30
0.0
 10
-10.1648501462
 20
-16.0484809354
 30
0.0
 10
-10.1646757491
 20
-16.048027621
 30
0.0
 10
-10.164489015
 20
-16.0476593529
 30
0.0
 10
-10.1642665104
 20
-16.0474233865
 30
0.0
 10
-10.1641192628
 20
-16.0474233865
 30
0.0
  0
SPLINE
  5
808
100
AcDbEntity
  8
0
100
AcDbSpline
 62
7
  6
CONTINUOUS
 70
0
 71
3
 72
35
 73
31
 74
0
 42
0.0000001
 43
0.0000001
 44
0.0000000001
 40
0.0
 40
0.0
 40
0.0
 40
0.0
 40
0.0041065024
 40
0.007499912
 40
0.0119482401
 40
0.0174897696
 40
0.0241389208
 40
0.0318996852
 40
0.0407686178
 40
0.0617487507
 40
0.0868811975
 40
0.1487093644
 40
0.2239962165
 40
0.3098846157
 40
0.4030833867
 40
0.5000135799
 40
0.5969401913
 40
0.6901284695
 40
0.7760108701
 40
0.8512992854
 40
0.913127662
 40
0.9382567173
 40
0.9592331928
 40
0.9681008203
 40
0.9758608191
 40
0.9825096326
 40
0.9880511362
 40
0.992499632
 40
0.9958932814
 40
1.0
 40
1.0
 40
1.0
 40
1.0
 10
-10.1896531476
 20
-16.1989981897
 30
0.0
 10
-10.1899245672
 20
-16.1989981897
 30
0.0
 10
-10.1903347681
 20
-16.1985623286
 30
0.0
 10
-10.1906735542
 20
-16.1978804981
 30
0.0
 10
-10.1909886239
 20
-16.1970416171
 30
0.0
 10
-10.1912871496
 20
-16.1959862387
 30
0.0
 10
-10.1915829247
 20
-16.1946994359
 30
0.0
 10
-10.1918692644
 20
-16.1931878316
 30
0.0
 10
-10.1922613487
 20
-16.1907326904
 30
0.0
 10
-10.1927104138
 20
-16.1871257031
 30
0.0
 10
-10.1933932718
 20
-16.1800235474
 30
0.0
 10
-10.1940836908
 20
-16.1693198796
 30
0.0
 10
-10.1947040959
 20
-16.1545930399
 30
0.0
 10
-10.1951466447
 20
-16.1377853705
 30
0.0
 10
-10.1954115867
 20
-16.1195435989
 30
0.0
 10
-10.1954998872
 20
-16.1005705514
 30
0.0
 10
-10.1954115404
 20
-16.0815981978
 30
0.0
 10
-10.1951466026
 20
-16.0633577532
 30
0.0
 10
-10.1947040363
 20
-16.0465510704
 30
0.0
 10
-10.1940835232
 20
-16.0318245162
 30
0.0
 10
-10.1933932127
 20
-16.0211209484
 30
0.0
 10
-10.1927103622
 20
-16.0140192453
 30
0.0
 10
-10.1922613107
 20
-16.0104128127
 30
0.0
 10
-10.1918692458
 20
-16.0079580519
 30
0.0
 10
-10.1915829165
 20
-16.0064466078
 30
0.0
 10
-10.1912871469
 20
-16.00515988
 30
0.0
 10
-10.1909886231
 20
-16.0041045161
 30
0.0
 10
-10.1906735543
 20
-16.0032656041
 30
0.0
 10
-10.1903347716
 20
-16.0025837399
 30
0.0
 10
-10.1899245815
 20
-16.002147796
 30
0.0
 10
-10.1896531476
 20
-16.002147796
 30
0.0
  0
SPLINE
  5
809
100
AcDbEntity
  8
0
100
AcDbSpline
 62
7
  6
CONTINUOUS
 70
0
 71
3
 72
35
 73
31
 74
0
 42
0.0000001
 43
0.0000001
 44
0.0000000001
 40
0.0
 40
0.0
 40
0.0
 40
0.0
 40
0.0041858492
 40
0.007637234
 40
0.012144167
 40
0.017741989
 40
0.0244435464
 40
0.0322517694
 40
0.0411623946
 40
0.062207017
 40
0.0873781568
 40
0.1492077664
 40
0.2244148917
 40
0.310179136
 40
0.4032348779
 40
0.5000171876
 40
0.5967948766
 40
0.6898367612
 40
0.7755925387
 40
0.8508010394
 40
0.91263107
 40
0.9377987559
 40
0.9588396378
 40
0.9677489344
 40
0.975556368
 40
0.9822575525
 40
0.9878553074
 40
0.9923623669
 40
0.9958139564
 40
1.0
 40
1.0
 40
1.0
 40
1.0
 10
-10.1896531475
 20
-16.002147796
 30
0.0
 10
-10.1893758807
 20
-16.002147796
 30
0.0
 10
-10.1889546344
 20
-16.0025833558
 30
0.0
 10
-10.188583559
 20
-16.0032649235
 30
0.0
 10
-10.1882334384
 20
-16.0041042845
 30
0.0
 10
-10.1878899853
 20
-16.0051600547
 30
0.0
 10
-10.1875408173
 20
-16.0064471159
 30
0.0
 10
-10.1871924954
 20
-16.0079587148
 30
0.0
 10
-10.1867015708
 20
-16.0104119286
 30
0.0
 10
-10.1861114063
 20
-16.0140163508
 30
0.0
 10
-10.1851657274
 20
-16.021111097
 30
0.0
 10
-10.1841194159
 20
-16.0318073909
 30
0.0
 10
-10.1830948702
 20
-16.046531046
 30
0.0
 10
-10.1823115506
 20
-16.0633406916
 30
0.0
 10
-10.1818158974
 20
-16.0815906328
 30
0.0
 10
-10.1816492636
 20
-16.10057609
 30
0.0
 10
-10.1818159954
 20
-16.1195606277
 30
0.0
 10
-10.1823116006
 20
-16.1378087848
 30
0.0
 10
-10.1830950173
 20
-16.1546170379
 30
0.0
 10
-10.184119653
 20
-16.1693402415
 30
0.0
 10
-10.1851658476
 20
-16.1800364369
 30
0.0
 10
-10.1861115035
 20
-16.1871307343
 30
0.0
 10
-10.1867016349
 20
-16.19073459
 30
0.0
 10
-10.1871925266
 20
-16.1931874145
 30
0.0
 10
-10.1875408319
 20
-16.1946988477
 30
0.0
 10
-10.1878899906
 20
-16.1959858273
 30
0.0
 10
-10.1882334397
 20
-16.1970415756
 30
0.0
 10
-10.1885835584
 20
-16.1978809595
 30
0.0
 10
-10.1889546309
 20
-16.1985625562
 30
0.0
 10
-10.1893758679
 20
-16.1989981897
 30
0.0
 10
-10.1896531475
 20
-16.1989981897
 30
0.0
  0
SPLINE
  5
80A
100
AcDbEntity
  8
0
100
AcDbSpline
 62
7
  6
CONTINUOUS
 70
0
 71
3
 72
33
 73
29
 74
0
 42
0.0000001
 43
0.0000001
 44
0.0000000001
 40
0.0
 40
0.0
 40
0.0
 40
0.0
 40
0.0041671866
 40
0.007607967
 40
0.0121039877
 40
0.0176897782
 40
0.0243771544
 40
0.0410571666
 40
0.062086435
 40
0.0872623534
 40
0.1490721066
 40
0.2243181549
 40
0.3100975643
 40
0.4032136802
 40
0.5000397865
 40
0.5968440355
 40
0.6899254549
 40
0.7756882455
 40
0.8509303337
 40
0.9127401719
 40
0.9379165695
 40
0.9589466345
 40
0.975626534
 40
0.9823132628
 40
0.9878982112
 40
0.992393349
 40
0.9958333654
 40
1.0
 40
1.0
 40
1.0
 40
1.0
 10
-10.1641192628
 20
-16.0474233865
 30
0.0
 10
-10.1639702912
 20
-16.0474233865
 30
0.0
 10
-10.163744557
 20
-16.0476593544
 30
0.0
 10
-10.1635484105
 20
-16.0480276169
 30
0.0
 10
-10.1633638085
 20
-16.0484811583
 30
0.0
 10
-10.163183918
 20
-16.0490513076
 30
0.0
 10
-10.1629217589
 20
-16.0500538475
 30
0.0
 10
-10.1626117902
 20
-16.0516109576
 30
0.0
 10
-10.1622671197
 20
-16.0538329715
 30
0.0
 10
-10.1617900442
 20
-16.0576651526
 30
0.0
 10
-10.1612683913
 20
-16.0634426464
 30
0.0
 10
-10.1607672366
 20
-16.0713934711
 30
0.0
 10
-10.1603849743
 20
-16.0804712794
 30
0.0
 10
-10.1601481158
 20
-16.0903255758
 30
0.0
 10
-10.1600658718
 20
-16.1005764999
 30
0.0
 10
-10.1601480476
 20
-16.1108261859
 30
0.0
 10
-10.16038513
 20
-16.1206778602
 30
0.0
 10
-10.1607673186
 20
-16.1297536924
 30
0.0
 10
-10.1612684206
 20
-16.1377037867
 30
0.0
 10
-10.1617900904
 20
-16.1434811573
 30
0.0
 10
-10.1622671948
 20
-16.1473133838
 30
0.0
 10
-10.1626118605
 20
-16.1495354398
 30
0.0
 10
-10.1629218049
 20
-16.151092557
 30
0.0
 10
-10.163183957
 20
-16.1520950389
 30
0.0
 10
-10.1633638361
 20
-16.1526651051
 30
0.0
 10
-10.1635484276
 20
-16.1531185494
 30
0.0
 10
-10.1637445732
 20
-16.1534867411
 30
0.0
 10
-10.163970311
 20
-16.1537225991
 30
0.0
 10
-10.1641192628
 20
-16.1537225991
 30
0.0
  0
ENDSEC
  0
SECTION
  2
OBJECTS
  0
DICTIONARY
  5
C
100
AcDbDictionary
280
0
281
1
  3
ACAD_GROUP
350
D
  3
ACAD_MLINESTYLE
350
17
  3
ACAD_LAYOUT
350
1A
  3
ACAD_PLOTSETTINGS
350
19
  3
ACAD_PLOTSTYLENAME
350
E
  0
DICTIONARY
  5
D
102
{ACAD_REACTORS
330
C
102
}
100
AcDbDictionary
280
0
281
1
  0
ACDBDICTIONARYWDFLT
  5
E
102
{ACAD_REACTORS
330
C
102
}
100
AcDbDictionary
281
1
  3
Normal
350
F
100
AcDbDictionaryWithDefault
340
F
  0
DICTIONARY
  5
17
102
{ACAD_REACTORS
330
C
102
}
100
AcDbDictionary
280
0
281
1
  3
Standard
350
18
  0
DICTIONARY
  5
19
102
{ACAD_REACTORS
330
C
102
}
100
AcDbDictionary
281
1
  0
DICTIONARY
  5
1A
102
{ACAD_REACTORS
330
C
102
}
100
AcDbDictionary
281
1
  3
Model
350
80B
  3
Layout1
350
80C
  0
ACDBPLACEHOLDER
  5
F
102
{ACAD_REACTORS
330
E
102
}
  0
MLINESTYLE
  5
18
102
{ACAD_REACTORS
330
17
102
}
100
AcDbMlineStyle
  2
STANDARD
 70
0
  3

 62
256
 51
90.0
 52
90.0
 71
2
 49
0.5
 62
256
  6
BYLAYER
 49
-0.5
 62
256
  6
BYLAYER
  0
LAYOUT
  5
80B
102
{ACAD_REACTORS
330
1A
102
}
100
AcDbPlotSettings
  1

  2
none_device
  4

  6

 40
0.0
 41
0.0
 42
0.0
 43
0.0
 44
431.8
 45
279.4
 46
0.0
 47
0.0
 48
0.0
 49
0.0
140
0.0
141
0.0
142
1.0
143
1.0
 70
1024
 72
0
 73
0
 74
0
  7

 75
0
147
1.0
148
0.0
149
0.0
100
AcDbLayout
  1
Model
 70
0
 71
0
 10
0.0
 20
0.0
 11
17.0
 21
11.0
 12
0.0
 22
0.0
 32
0.0
 14
0.0
 24
0.0
 34
0.0
 15
0.0
 25
0.0
 35
0.0
146
0.0
 13
0.0
 23
0.0
 33
0.0
 16
1.0
 26
0.0
 36
0.0
 17
0.0
 27
1.0
 37
0.0
 76
0
330
21A
345
0
346
0
  0
LAYOUT
  5
80C
102
{ACAD_REACTORS
330
1A
102
}
100
AcDbPlotSettings
  1

  2
none_device
  4

  6

 40
0.0
 41
0.0
 42
0.0
 43
0.0
 44
431.8
 45
279.4
 46
0.0
 47
0.0
 48
0.0
 49
0.0
140
0.0
141
0.0
142
1.0
143
1.0
 70
0
 72
0
 73
0
 74
0
  7

 75
0
147
1.0
148
0.0
149
0.0
100
AcDbLayout
  1
Layout1
 70
0
 71
1
 10
0.0
 20
0.0
 11
17.0
 21
11.0
 12
0.0
 22
0.0
 32
0.0
 14
0.0
 24
0.0
 34
0.0
 15
0.0
 25
0.0
 35
0.0
146
0.0
 13
0.0
 23
0.0
 33
0.0
 16
1.0
 26
0.0
 36
0.0
 17
0.0
 27
1.0
 37
0.0
 76
0
330
21B
345
0
346
0
  0
ENDSEC
  0
EOF
