999
DXF file: N:\Master\master\M3_ProE_files\Lenexa\MADAM DXF\40042.dxf
999
Pro/ENGINEER 2010280 by Parametric Technology Corporation
  0
SECTION
  2
HEADER
  9
$ACADVER
  1
AC1021
  9
$DWGCODEPAGE
  3
ANSI_1252
  9
$EXTMAX
 10
17.0
 20
11.0
 30
0.0
  9
$EXTMIN
 10
0.0
 20
-0.0
 30
0.0
  9
$LIMMIN
 10
0.0
 20
-0.0
  9
$LIMMAX
 10
17.0
 20
11.0
  9
$VIEWCTR
 10
8.5
 20
5.5
  9
$VIEWSIZE
 40
11.0
  9
$CLAYER
  8
0
  9
$LTSCALE
 40
0.935
  9
$CELTYPE
  6
BYLAYER
  9
$DIMSCALE
 40
1.0
  9
$DIMASZ
 40
0.125
  9
$DIMEXO
 40
0.10625
  9
$DIMDLI
 40
0.646
  9
$DIMEXE
 40
0.306
  9
$DIMCEN
 40
0.153
  9
$DIMLFAC
 40
1.0
  9
$DIMBLK
  1
_FILLED
  9
$DIMTXT
 40
0.125
  9
$DIMTOL
 70
1
  9
$DIMLIM
 70
0
  9
$DIMTFAC
 40
1.0
  9
$DIMTP
 40
0.01
  9
$DIMTM
 40
0.01
  9
$PDMODE
 70
3
  9
$PDSIZE
 40
0.3125
  9
$HANDSEED
  5
409
  9
$TILEMODE
 70
1
  9
$MEASUREMENT
 70
0
  9
$INSUNITS
 70
1
  0
ENDSEC
  0
SECTION
  2
CLASSES
  0
CLASS
  1
ACDBDICTIONARYWDFLT
  2
AcDbDictionaryWithDefault
  3
AutoCAD 2000
 90
0
 91
1
280
0
281
0
  0
CLASS
  1
ACDBPLACEHOLDER
  2
AcDbPlaceHolder
  3
AutoCAD 2000
 90
0
 91
1
280
0
281
0
  0
CLASS
  1
LAYOUT
  2
AcDbLayout
  3
AutoCAD 2000
 90
0
 91
0
280
0
281
0
  0
ENDSEC
  0
SECTION
  2
TABLES
  0
TABLE
  2
VPORT
  5
8
100
AcDbSymbolTable
 70
2
  0
VPORT
  5
1F4
100
AcDbSymbolTableRecord
100
AcDbViewportTableRecord
  2
*ACTIVE
 70
0
 10
0.0
 20
0.0
 11
1.0
 21
1.0
 12
8.5
 22
5.5
 13
0.0
 23
0.0
 14
1.0
 24
1.0
 15
0.0
 25
0.0
 16
0.0
 26
0.0
 36
1.0
 17
0.0
 27
0.0
 37
0.0
 40
11.0
 41
1.5454545455
 42
50.0
 43
0.0
 44
0.0
 50
0.0
 51
0.0
 71
0
 72
100
 73
1
 74
1
 75
0
 76
0
 77
0
 78
0
  0
ENDTAB
  0
TABLE
  2
LTYPE
  5
5
100
AcDbSymbolTable
 70
6
  0
LTYPE
  5
14
100
AcDbSymbolTableRecord
100
AcDbLinetypeTableRecord
  2
BYBLOCK
 70
0
  3

 72
65
 73
0
 40
0.0
  0
LTYPE
  5
15
100
AcDbSymbolTableRecord
100
AcDbLinetypeTableRecord
  2
BYLAYER
 70
0
  3

 72
65
 73
0
 40
0.0
  0
LTYPE
  5
16
100
AcDbSymbolTableRecord
100
AcDbLinetypeTableRecord
  2
CONTINUOUS
 70
64
  3
Solid line
 72
65
 73
0
 40
0.0
  0
LTYPE
  5
1F5
100
AcDbSymbolTableRecord
100
AcDbLinetypeTableRecord
  2
CENTER
 70
64
  3
____ _ ____ _ ____ _ ____ _ ____ _ ____ _ ____
 72
65
 73
4
 40
0.6
 49
0.375
 74
0
 49
-0.075
 74
0
 49
0.075
 74
0
 49
-0.075
 74
0
  0
LTYPE
  5
1F6
100
AcDbSymbolTableRecord
100
AcDbLinetypeTableRecord
  2
HIDDEN
 70
64
  3
- - - - - - - - - - - - - - - - - - - -
 72
65
 73
2
 40
0.2
 49
0.1
 74
0
 49
-0.1
 74
0
  0
LTYPE
  5
1F7
100
AcDbSymbolTableRecord
100
AcDbLinetypeTableRecord
  2
PHANTOM
 70
64
  3
_____ _ _ _____ _ _ _____ _ _ _____
 72
65
 73
6
 40
0.8
 49
0.45
 74
0
 49
-0.05
 74
0
 49
0.1
 74
0
 49
-0.05
 74
0
 49
0.1
 74
0
 49
-0.05
 74
0
  0
LTYPE
  5
1F8
100
AcDbSymbolTableRecord
100
AcDbLinetypeTableRecord
  2
DOT
 70
64
  3
. . . . . . . . . . . . . . . . . . . .
 72
65
 73
2
 40
0.2
 49
0.1
 74
0
 49
-0.1
 74
0
  0
LTYPE
  5
1F9
100
AcDbSymbolTableRecord
100
AcDbLinetypeTableRecord
  2
DASHED
 70
64
  3
- - - - - - - - - - - - - - - - - - - -
 72
65
 73
2
 40
0.2
 49
0.1
 74
0
 49
-0.1
 74
0
  0
ENDTAB
  0
TABLE
  2
LAYER
  5
2
100
AcDbSymbolTable
 70
36
  0
LAYER
  5
10
100
AcDbSymbolTableRecord
100
AcDbLayerTableRecord
  2
0
 70
0
 62
7
  6
CONTINUOUS
370
-3
390
F
  0
LAYER
  5
1FA
100
AcDbSymbolTableRecord
100
AcDbLayerTableRecord
  2
DEFAULT_1
 70
0
 62
7
  6
CENTER
370
-3
390
F
  0
LAYER
  5
1FB
100
AcDbSymbolTableRecord
100
AcDbLayerTableRecord
  2
DEFAULT_2
 70
0
 62
8
  6
HIDDEN
370
-3
390
F
  0
LAYER
  5
1FC
100
AcDbSymbolTableRecord
100
AcDbLayerTableRecord
  2
DEFAULT_3
 70
0
 62
7
  6
PHANTOM
370
-3
390
F
  0
LAYER
  5
1FD
100
AcDbSymbolTableRecord
100
AcDbLayerTableRecord
  2
01_ALL_DTM_PLN
 70
0
 62
7
  6
CONTINUOUS
370
-3
390
F
  0
LAYER
  5
1FE
100
AcDbSymbolTableRecord
100
AcDbLayerTableRecord
  2
01__ASM_ALL_DTM_PLN
 70
0
 62
7
  6
CONTINUOUS
370
-3
390
F
  0
LAYER
  5
1FF
100
AcDbSymbolTableRecord
100
AcDbLayerTableRecord
  2
01__ASM_DEF_DTM_PLN
 70
0
 62
7
  6
CONTINUOUS
370
-3
390
F
  0
LAYER
  5
200
100
AcDbSymbolTableRecord
100
AcDbLayerTableRecord
  2
01___PRT_ALL_DTM_PLN
 70
0
 62
7
  6
CONTINUOUS
370
-3
390
F
  0
LAYER
  5
201
100
AcDbSymbolTableRecord
100
AcDbLayerTableRecord
  2
01___PRT_DEF_DTM_PLN
 70
0
 62
7
  6
CONTINUOUS
370
-3
390
F
  0
LAYER
  5
202
100
AcDbSymbolTableRecord
100
AcDbLayerTableRecord
  2
02_ALL_AXES
 70
0
 62
7
  6
CONTINUOUS
370
-3
390
F
  0
LAYER
  5
203
100
AcDbSymbolTableRecord
100
AcDbLayerTableRecord
  2
02__ASM_ALL_AXES
 70
0
 62
7
  6
CONTINUOUS
370
-3
390
F
  0
LAYER
  5
204
100
AcDbSymbolTableRecord
100
AcDbLayerTableRecord
  2
02___PRT_ALL_AXES
 70
0
 62
7
  6
CONTINUOUS
370
-3
390
F
  0
LAYER
  5
205
100
AcDbSymbolTableRecord
100
AcDbLayerTableRecord
  2
03_ALL_CURVES
 70
0
 62
7
  6
CONTINUOUS
370
-3
390
F
  0
LAYER
  5
206
100
AcDbSymbolTableRecord
100
AcDbLayerTableRecord
  2
03__ASM_ALL_CURVES
 70
0
 62
7
  6
CONTINUOUS
370
-3
390
F
  0
LAYER
  5
207
100
AcDbSymbolTableRecord
100
AcDbLayerTableRecord
  2
03___PRT_ALL_CURVES
 70
0
 62
7
  6
CONTINUOUS
370
-3
390
F
  0
LAYER
  5
208
100
AcDbSymbolTableRecord
100
AcDbLayerTableRecord
  2
04_ALL_DTM_PNT
 70
0
 62
7
  6
CONTINUOUS
370
-3
390
F
  0
LAYER
  5
209
100
AcDbSymbolTableRecord
100
AcDbLayerTableRecord
  2
04__ASM_ALL_DTM_PNT
 70
0
 62
7
  6
CONTINUOUS
370
-3
390
F
  0
LAYER
  5
20A
100
AcDbSymbolTableRecord
100
AcDbLayerTableRecord
  2
04___PRT_ALL_DTM_PNT
 70
0
 62
7
  6
CONTINUOUS
370
-3
390
F
  0
LAYER
  5
20B
100
AcDbSymbolTableRecord
100
AcDbLayerTableRecord
  2
05_ALL_DTM_CSYS
 70
0
 62
7
  6
CONTINUOUS
370
-3
390
F
  0
LAYER
  5
20C
100
AcDbSymbolTableRecord
100
AcDbLayerTableRecord
  2
05__ASM_ALL_DTM_CSYS
 70
0
 62
7
  6
CONTINUOUS
370
-3
390
F
  0
LAYER
  5
20D
100
AcDbSymbolTableRecord
100
AcDbLayerTableRecord
  2
05__ASM_DEF_DTM_CSYS
 70
0
 62
7
  6
CONTINUOUS
370
-3
390
F
  0
LAYER
  5
20E
100
AcDbSymbolTableRecord
100
AcDbLayerTableRecord
  2
05___PRT_ALL_DTM_CSYS
 70
0
 62
7
  6
CONTINUOUS
370
-3
390
F
  0
LAYER
  5
20F
100
AcDbSymbolTableRecord
100
AcDbLayerTableRecord
  2
05___PRT_DEF_DTM_CSYS
 70
0
 62
7
  6
CONTINUOUS
370
-3
390
F
  0
LAYER
  5
210
100
AcDbSymbolTableRecord
100
AcDbLayerTableRecord
  2
06_ALL_SURFS
 70
0
 62
7
  6
CONTINUOUS
370
-3
390
F
  0
LAYER
  5
211
100
AcDbSymbolTableRecord
100
AcDbLayerTableRecord
  2
06__ASM_ALL_SURFS
 70
0
 62
7
  6
CONTINUOUS
370
-3
390
F
  0
LAYER
  5
212
100
AcDbSymbolTableRecord
100
AcDbLayerTableRecord
  2
06___PRT_ALL_SURFS
 70
0
 62
7
  6
CONTINUOUS
370
-3
390
F
  0
LAYER
  5
213
100
AcDbSymbolTableRecord
100
AcDbLayerTableRecord
  2
07__ASM_ALL_SKELETONS
 70
0
 62
7
  6
CONTINUOUS
370
-3
390
F
  0
LAYER
  5
214
100
AcDbSymbolTableRecord
100
AcDbLayerTableRecord
  2
1_ALL_PLANES
 70
0
 62
7
  6
CONTINUOUS
370
-3
390
F
  0
LAYER
  5
215
100
AcDbSymbolTableRecord
100
AcDbLayerTableRecord
  2
1__DEF_PLANES
 70
0
 62
7
  6
CONTINUOUS
370
-3
390
F
  0
LAYER
  5
216
100
AcDbSymbolTableRecord
100
AcDbLayerTableRecord
  2
2_ALL_CSYS
 70
0
 62
7
  6
CONTINUOUS
370
-3
390
F
  0
LAYER
  5
217
100
AcDbSymbolTableRecord
100
AcDbLayerTableRecord
  2
2__DEF_CSYS
 70
0
 62
7
  6
CONTINUOUS
370
-3
390
F
  0
LAYER
  5
218
100
AcDbSymbolTableRecord
100
AcDbLayerTableRecord
  2
AXIS
 70
0
 62
7
  6
CONTINUOUS
370
-3
390
F
  0
LAYER
  5
219
100
AcDbSymbolTableRecord
100
AcDbLayerTableRecord
  2
COLOR1
 70
0
 62
7
  6
CONTINUOUS
370
-3
390
F
  0
LAYER
  5
21A
100
AcDbSymbolTableRecord
100
AcDbLayerTableRecord
  2
CS
 70
0
 62
7
  6
CONTINUOUS
370
-3
390
F
  0
LAYER
  5
21B
100
AcDbSymbolTableRecord
100
AcDbLayerTableRecord
  2
DEF_DTMS
 70
0
 62
7
  6
CONTINUOUS
370
-3
390
F
  0
LAYER
  5
21C
100
AcDbSymbolTableRecord
100
AcDbLayerTableRecord
  2
LAYER_4720
 70
0
 62
7
  6
CONTINUOUS
370
-3
390
F
  0
LAYER
  5
21D
100
AcDbSymbolTableRecord
100
AcDbLayerTableRecord
  2
NONE
 70
0
 62
7
  6
CONTINUOUS
370
-3
390
F
  0
LAYER
  5
21E
100
AcDbSymbolTableRecord
100
AcDbLayerTableRecord
  2
PLANE
 70
0
 62
7
  6
CONTINUOUS
370
-3
390
F
  0
LAYER
  5
21F
100
AcDbSymbolTableRecord
100
AcDbLayerTableRecord
  2
PLANES
 70
0
 62
7
  6
CONTINUOUS
370
-3
390
F
  0
LAYER
  5
220
100
AcDbSymbolTableRecord
100
AcDbLayerTableRecord
  2
___SHELL
 70
0
 62
7
  6
CONTINUOUS
370
-3
390
F
  0
ENDTAB
  0
TABLE
  2
STYLE
  5
3
100
AcDbSymbolTable
 70
1
  0
STYLE
  5
11
100
AcDbSymbolTableRecord
100
AcDbTextStyleTableRecord
  2
STANDARD
 70
0
 40
0.0
 41
0.8
 50
0.0
 71
0
 42
0.2
  3
txt
  4

  0
STYLE
  5
221
100
AcDbSymbolTableRecord
100
AcDbTextStyleTableRecord
  2
TEXTSTYLE_1
 70
0
 40
0.0
 41
0.8
 50
0.0
 71
0
 42
0.2
  3
gdt
  4

  0
ENDTAB
  0
TABLE
  2
VIEW
  5
6
100
AcDbSymbolTable
 70
0
  0
ENDTAB
  0
TABLE
  2
UCS
  5
7
100
AcDbSymbolTable
 70
0
  0
ENDTAB
  0
TABLE
  2
APPID
  5
9
100
AcDbSymbolTable
 70
1
  0
APPID
  5
222
100
AcDbSymbolTableRecord
100
AcDbRegAppTableRecord
  2
ACAD
 70
0
  0
ENDTAB
  0
TABLE
  2
BLOCK_RECORD
  5
1
100
AcDbSymbolTable
 70
0
  0
BLOCK_RECORD
  5
223
100
AcDbSymbolTableRecord
100
AcDbBlockTableRecord
  2
*Model_Space
  0
BLOCK_RECORD
  5
224
100
AcDbSymbolTableRecord
100
AcDbBlockTableRecord
  2
*Paper_Space
  0
ENDTAB
  0
TABLE
  2
DIMSTYLE
  5
A
100
AcDbSymbolTable
 70
1
100
AcDbDimStyleTable
 71
0
  0
DIMSTYLE
105
225
100
AcDbSymbolTableRecord
100
AcDbDimStyleTableRecord
  2
STANDARD
 70
0
  3

  4

 40
1.0
 41
0.125
 42
0.0625
 43
0.38
 44
0.18
 45
0.0
 46
0.0
 47
0.01
 48
0.01
140
0.125
141
0.09
142
0.0
143
25.4
144
1.0
145
0.0
146
1.0
147
0.09
 71
1.0
 72
0.0
 73
1
 74
1
 75
0
 76
0
 77
0
 78
4
170
0
171
2
172
0
173
0
174
0
175
0
176
0
177
0
178
0
270
2
271
2
272
2
273
2
274
2
275
0
280
0
281
0
282
0
283
1
284
4
285
0
286
0
287
3
288
0
340
11
  0
ENDTAB
  0
ENDSEC
  0
SECTION
  2
BLOCKS
  0
BLOCK
  5
20
100
AcDbEntity
  8
0
100
AcDbBlockBegin
  2
*Model_Space
 70
0
 10
0.0
 20
0.0
 30
0.0
  3
*Model_Space
  1

  0
ENDBLK
  5
21
100
AcDbEntity
  8
0
100
AcDbBlockEnd
  0
BLOCK
  5
1C
100
AcDbEntity
  8
0
100
AcDbBlockBegin
  2
*Paper_Space
 70
0
 10
0.0
 20
0.0
 30
0.0
  3
*Paper_Space
  1

  0
ENDBLK
  5
1D
100
AcDbEntity
  8
0
100
AcDbBlockEnd
  0
ENDSEC
  0
SECTION
  2
ENTITIES
  0
MTEXT
  5
226
100
AcDbEntity
  8
0
100
AcDbMText
 62
2
  6
CONTINUOUS
  7
STANDARD
 71
1
 72
1
 10
18.6992011843
 20
12.7968443978
 30
0.0
 11
1.0
 21
0.0
 31
0.0
 44
0.9
  1
40042
 40
4.0
 41
16.0
  0
LINE
  5
227
100
AcDbEntity
  8
0
100
AcDbLine
 62
7
  6
CONTINUOUS
 10
-0.7270681631
 20
15.6935520832
 11
-0.7132519211
 21
15.7174825163
  0
LINE
  5
228
100
AcDbEntity
  8
0
100
AcDbLine
 62
7
  6
CONTINUOUS
 10
-0.7270681631
 20
15.6935512328
 11
-0.7270681631
 21
15.3845529336
  0
LINE
  5
229
100
AcDbEntity
  8
0
100
AcDbLine
 62
7
  6
CONTINUOUS
 10
-0.7270681631
 20
5.0685512328
 11
-0.7270681631
 21
4.7595529336
  0
LINE
  5
22A
100
AcDbEntity
  8
0
100
AcDbLine
 62
7
  6
CONTINUOUS
 10
-0.7132798647
 20
4.7356664012
 11
-0.7129354464
 21
4.735076765
  0
LINE
  5
22B
100
AcDbEntity
  8
0
100
AcDbLine
 62
7
  6
CONTINUOUS
 10
-0.7270681631
 20
4.7595520832
 11
-0.7132519211
 21
4.7356216501
  0
LINE
  5
22C
100
AcDbEntity
  8
0
100
AcDbLine
 62
7
  6
CONTINUOUS
 10
-0.5670681631
 20
4.6940536666
 11
-0.5670681631
 21
5.1340504997
  0
LINE
  5
22D
100
AcDbEntity
  8
0
100
AcDbLine
 62
7
  6
CONTINUOUS
 10
-0.5670681631
 20
15.3190536667
 11
-0.5670681631
 21
15.7590504997
  0
LINE
  5
22E
100
AcDbEntity
  8
0
100
AcDbLine
 62
3
  6
CONTINUOUS
 10
-0.5470681631
 20
3.8440520832
 11
-0.5470681631
 21
16.7747276577
  0
LINE
  5
22F
100
AcDbEntity
  8
0
100
AcDbLine
 62
7
  6
CONTINUOUS
 10
-0.5074681631
 20
3.8440520832
 11
-0.5074681631
 21
16.7747276577
  0
LINE
  5
230
100
AcDbEntity
  8
0
100
AcDbLine
 62
3
  6
CONTINUOUS
 10
-0.5070681631
 20
3.8343928249
 11
-0.5070681631
 21
4.2447928249
  0
LINE
  5
231
100
AcDbEntity
  8
0
100
AcDbLine
 62
7
  6
CONTINUOUS
 10
-0.4916681631
 20
4.4740520832
 11
-0.4916681631
 21
16.0040520832
  0
LINE
  5
232
100
AcDbEntity
  8
0
100
AcDbLine
 62
7
  6
CONTINUOUS
 10
-0.4674681631
 20
3.8343928249
 11
-0.4674681631
 21
4.4740520832
  0
LINE
  5
233
100
AcDbEntity
  8
0
100
AcDbLine
 62
7
  6
CONTINUOUS
 10
-0.4674681631
 20
16.353304915
 11
-0.4674681631
 21
16.6073276577
  0
LINE
  5
234
100
AcDbEntity
  8
0
100
AcDbLine
 62
3
  6
CONTINUOUS
 10
-0.4670681631
 20
16.8543276577
 11
-0.4670681631
 21
16.6073276577
  0
LINE
  5
235
100
AcDbEntity
  8
0
100
AcDbLine
 62
7
  6
CONTINUOUS
 10
-0.3916681631
 20
3.8040520832
 11
-0.3916681631
 21
15.8240520832
  0
LINE
  5
236
100
AcDbEntity
  8
0
100
AcDbLine
 62
7
  6
CONTINUOUS
 10
-0.3916681631
 20
16.0040520832
 11
-0.3916681631
 21
16.6073276577
  0
LINE
  5
237
100
AcDbEntity
  8
0
100
AcDbLine
 62
7
  6
CONTINUOUS
 10
-0.3866681631
 20
3.9740520832
 11
-0.3866681631
 21
4.4740520832
  0
LINE
  5
238
100
AcDbEntity
  8
0
100
AcDbLine
 62
7
  6
CONTINUOUS
 10
-0.3866681631
 20
15.8240520832
 11
-0.3866681631
 21
16.3240520832
  0
LINE
  5
239
100
AcDbEntity
  8
0
100
AcDbLine
 62
7
  6
CONTINUOUS
 10
0.1083318369
 20
15.8240520832
 11
0.1083318369
 21
4.4740520832
  0
LINE
  5
23A
100
AcDbEntity
  8
0
100
AcDbLine
 62
7
  6
CONTINUOUS
 10
-0.7270681631
 20
5.0685520832
 11
-0.7132519211
 21
5.0924825163
  0
LINE
  5
23B
100
AcDbEntity
  8
0
100
AcDbLine
 62
3
  6
CONTINUOUS
 10
9.4833318369
 20
3.7447928249
 11
-0.4174681631
 21
3.7447928249
  0
LINE
  5
23C
100
AcDbEntity
  8
0
100
AcDbLine
 62
7
  6
CONTINUOUS
 10
-0.4174681631
 20
3.7843928249
 11
9.4833318369
 21
3.7843928249
  0
LINE
  5
23D
100
AcDbEntity
  8
0
100
AcDbLine
 62
7
  6
CONTINUOUS
 10
9.4733318369
 20
3.8040520832
 11
-0.3916681631
 21
3.8040520832
  0
LINE
  5
23E
100
AcDbEntity
  8
0
100
AcDbLine
 62
7
  6
CONTINUOUS
 10
9.6129318369
 20
3.8440520832
 11
9.5733318369
 21
3.8440520832
  0
LINE
  5
23F
100
AcDbEntity
  8
0
100
AcDbLine
 62
7
  6
CONTINUOUS
 10
-0.5470681631
 20
3.8440520832
 11
-0.5074681631
 21
3.8440520832
  0
LINE
  5
240
100
AcDbEntity
  8
0
100
AcDbLine
 62
7
  6
CONTINUOUS
 10
9.4733318369
 20
3.9740520832
 11
-0.3866681631
 21
3.9740520832
  0
LINE
  5
241
100
AcDbEntity
  8
0
100
AcDbLine
 62
7
  6
CONTINUOUS
 10
9.5729318369
 20
4.2447928249
 11
9.5333318369
 21
4.2447928249
  0
LINE
  5
242
100
AcDbEntity
  8
0
100
AcDbLine
 62
7
  6
CONTINUOUS
 10
-0.5070681631
 20
4.2447928249
 11
-0.4674681631
 21
4.2447928249
  0
LINE
  5
243
100
AcDbEntity
  8
0
100
AcDbLine
 62
7
  6
CONTINUOUS
 10
9.5729318369
 20
4.3602183066
 11
9.5333318369
 21
4.3602183066
  0
LINE
  5
244
100
AcDbEntity
  8
0
100
AcDbLine
 62
7
  6
CONTINUOUS
 10
-0.5070681631
 20
4.3602183066
 11
-0.4674681631
 21
4.3602183066
  0
LINE
  5
245
100
AcDbEntity
  8
0
100
AcDbLine
 62
7
  6
CONTINUOUS
 10
-0.4916681631
 20
4.4740520832
 11
9.5733318369
 21
4.4740520832
  0
LINE
  5
246
100
AcDbEntity
  8
0
100
AcDbLine
 62
7
  6
CONTINUOUS
 10
9.6329318369
 20
4.6940520832
 11
9.6129318369
 21
4.6940520832
  0
LINE
  5
247
100
AcDbEntity
  8
0
100
AcDbLine
 62
7
  6
CONTINUOUS
 10
-0.5670681631
 20
4.6940520832
 11
-0.5470681631
 21
4.6940520832
  0
LINE
  5
248
100
AcDbEntity
  8
0
100
AcDbLine
 62
7
  6
CONTINUOUS
 10
9.7787991201
 20
4.7350735099
 11
9.6509318369
 21
4.7350735099
  0
LINE
  5
249
100
AcDbEntity
  8
0
100
AcDbLine
 62
7
  6
CONTINUOUS
 10
-0.7129354464
 20
4.735076765
 11
-0.5850681631
 21
4.735076765
  0
LINE
  5
24A
100
AcDbEntity
  8
0
100
AcDbLine
 62
7
  6
CONTINUOUS
 10
-0.5074681631
 20
4.7510520832
 11
-0.4916681631
 21
4.7510520832
  0
LINE
  5
24B
100
AcDbEntity
  8
0
100
AcDbLine
 62
7
  6
CONTINUOUS
 10
-0.7129354464
 20
4.8236281469
 11
-0.5850681631
 21
4.8236281469
  0
LINE
  5
24C
100
AcDbEntity
  8
0
100
AcDbLine
 62
7
  6
CONTINUOUS
 10
9.7787991201
 20
4.824615083
 11
9.6509318369
 21
4.824615083
  0
LINE
  5
24D
100
AcDbEntity
  8
0
100
AcDbLine
 62
7
  6
CONTINUOUS
 10
-0.7129354464
 20
5.002603465
 11
-0.5850681631
 21
5.002603465
  0
LINE
  5
24E
100
AcDbEntity
  8
0
100
AcDbLine
 62
7
  6
CONTINUOUS
 10
9.7787991201
 20
5.0035936563
 11
9.6509318369
 21
5.0035936563
  0
LINE
  5
24F
100
AcDbEntity
  8
0
100
AcDbLine
 62
7
  6
CONTINUOUS
 10
-0.5074681631
 20
5.0770520832
 11
-0.4916681631
 21
5.0770520832
  0
LINE
  5
250
100
AcDbEntity
  8
0
100
AcDbLine
 62
7
  6
CONTINUOUS
 10
-0.7129354464
 20
5.0930274014
 11
-0.5850681631
 21
5.0930274014
  0
LINE
  5
251
100
AcDbEntity
  8
0
100
AcDbLine
 62
7
  6
CONTINUOUS
 10
9.7787991201
 20
5.0930306564
 11
9.6509318369
 21
5.0930306564
  0
LINE
  5
252
100
AcDbEntity
  8
0
100
AcDbLine
 62
7
  6
CONTINUOUS
 10
9.6329318369
 20
5.1340520832
 11
9.6129318369
 21
5.1340520832
  0
LINE
  5
253
100
AcDbEntity
  8
0
100
AcDbLine
 62
7
  6
CONTINUOUS
 10
-0.5670681631
 20
5.1340520832
 11
-0.5470681631
 21
5.1340520832
  0
LINE
  5
254
100
AcDbEntity
  8
0
100
AcDbLine
 62
7
  6
CONTINUOUS
 10
-0.5070681631
 20
5.2786645888
 11
-0.4916681631
 21
5.2786645888
  0
LINE
  5
255
100
AcDbEntity
  8
0
100
AcDbLine
 62
7
  6
CONTINUOUS
 10
-0.7132798647
 20
15.3606664013
 11
-0.7129354464
 21
15.3600767669
  0
LINE
  5
256
100
AcDbEntity
  8
0
100
AcDbLine
 62
7
  6
CONTINUOUS
 10
-0.7270681631
 20
15.3845520832
 11
-0.7132519211
 21
15.3606216501
  0
LINE
  5
257
100
AcDbEntity
  8
0
100
AcDbLine
 62
7
  6
CONTINUOUS
 10
9.7929318369
 20
15.3845520832
 11
9.7787991201
 21
15.36007351
  0
LINE
  5
258
100
AcDbEntity
  8
0
100
AcDbLine
 62
7
  6
CONTINUOUS
 10
9.7929318369
 20
5.0685520832
 11
9.7787991201
 21
5.0930306564
  0
LINE
  5
259
100
AcDbEntity
  8
0
100
AcDbLine
 62
7
  6
CONTINUOUS
 10
8.9733318369
 20
15.8240520832
 11
8.9733318369
 21
4.4740520832
  0
LINE
  5
25A
100
AcDbEntity
  8
0
100
AcDbLine
 62
7
  6
CONTINUOUS
 10
9.4733318369
 20
3.8040520832
 11
9.4733318369
 21
16.6073276577
  0
LINE
  5
25B
100
AcDbEntity
  8
0
100
AcDbLine
 62
3
  6
CONTINUOUS
 10
9.5329318369
 20
16.8543276577
 11
9.5329318369
 21
16.6073276577
  0
LINE
  5
25C
100
AcDbEntity
  8
0
100
AcDbLine
 62
7
  6
CONTINUOUS
 10
9.5333318369
 20
16.6073276577
 11
9.5333318369
 21
16.3543276577
  0
LINE
  5
25D
100
AcDbEntity
  8
0
100
AcDbLine
 62
7
  6
CONTINUOUS
 10
9.5333318369
 20
4.4740520832
 11
9.5333318369
 21
3.8343928249
  0
LINE
  5
25E
100
AcDbEntity
  8
0
100
AcDbLine
 62
3
  6
CONTINUOUS
 10
9.5729318369
 20
4.2447928249
 11
9.5729318369
 21
3.8343928249
  0
LINE
  5
25F
100
AcDbEntity
  8
0
100
AcDbLine
 62
7
  6
CONTINUOUS
 10
9.5733318369
 20
16.7747276577
 11
9.5733318369
 21
3.8440520832
  0
LINE
  5
260
100
AcDbEntity
  8
0
100
AcDbLine
 62
3
  6
CONTINUOUS
 10
9.6129318369
 20
16.7747276577
 11
9.6129318369
 21
3.8440520832
  0
LINE
  5
261
100
AcDbEntity
  8
0
100
AcDbLine
 62
7
  6
CONTINUOUS
 10
9.6329318369
 20
4.6940535094
 11
9.6329318369
 21
5.134050657
  0
LINE
  5
262
100
AcDbEntity
  8
0
100
AcDbLine
 62
7
  6
CONTINUOUS
 10
9.6329318369
 20
15.3190535094
 11
9.6329318369
 21
15.7590506569
  0
LINE
  5
263
100
AcDbEntity
  8
0
100
AcDbLine
 62
7
  6
CONTINUOUS
 10
9.7929318369
 20
4.75955307
 11
9.7929318369
 21
5.0685510963
  0
LINE
  5
264
100
AcDbEntity
  8
0
100
AcDbLine
 62
7
  6
CONTINUOUS
 10
9.7929318369
 20
15.38455307
 11
9.7929318369
 21
15.6935510963
  0
LINE
  5
265
100
AcDbEntity
  8
0
100
AcDbLine
 62
7
  6
CONTINUOUS
 10
9.7929318369
 20
4.7595520832
 11
9.7787991201
 21
4.7350735099
  0
LINE
  5
266
100
AcDbEntity
  8
0
100
AcDbLine
 62
7
  6
CONTINUOUS
 10
9.6329318369
 20
15.3190520832
 11
9.6129318369
 21
15.3190520832
  0
LINE
  5
267
100
AcDbEntity
  8
0
100
AcDbLine
 62
7
  6
CONTINUOUS
 10
-0.5670681631
 20
15.3190520832
 11
-0.5470681631
 21
15.3190520832
  0
LINE
  5
268
100
AcDbEntity
  8
0
100
AcDbLine
 62
7
  6
CONTINUOUS
 10
9.7787991201
 20
15.36007351
 11
9.6509318369
 21
15.36007351
  0
LINE
  5
269
100
AcDbEntity
  8
0
100
AcDbLine
 62
7
  6
CONTINUOUS
 10
-0.7129354464
 20
15.3600767669
 11
-0.5850681631
 21
15.3600767669
  0
LINE
  5
26A
100
AcDbEntity
  8
0
100
AcDbLine
 62
7
  6
CONTINUOUS
 10
-0.5074681631
 20
15.3760520832
 11
-0.4916681631
 21
15.3760520832
  0
LINE
  5
26B
100
AcDbEntity
  8
0
100
AcDbLine
 62
7
  6
CONTINUOUS
 10
-0.7129354464
 20
15.4486278736
 11
-0.5850681631
 21
15.4486278736
  0
LINE
  5
26C
100
AcDbEntity
  8
0
100
AcDbLine
 62
7
  6
CONTINUOUS
 10
9.7787991201
 20
15.4496153579
 11
9.6509318369
 21
15.4496153579
  0
LINE
  5
26D
100
AcDbEntity
  8
0
100
AcDbLine
 62
7
  6
CONTINUOUS
 10
-0.7129354464
 20
15.6276031899
 11
-0.5850681631
 21
15.6276031899
  0
LINE
  5
26E
100
AcDbEntity
  8
0
100
AcDbLine
 62
7
  6
CONTINUOUS
 10
9.7787991201
 20
15.628593931
 11
9.6509318369
 21
15.628593931
  0
LINE
  5
26F
100
AcDbEntity
  8
0
100
AcDbLine
 62
7
  6
CONTINUOUS
 10
9.7929318369
 20
15.6935520832
 11
9.7787991201
 21
15.7180306563
  0
LINE
  5
270
100
AcDbEntity
  8
0
100
AcDbLine
 62
7
  6
CONTINUOUS
 10
-0.5074681631
 20
15.7020520832
 11
-0.4916681631
 21
15.7020520832
  0
LINE
  5
271
100
AcDbEntity
  8
0
100
AcDbLine
 62
7
  6
CONTINUOUS
 10
-0.7129354464
 20
15.7180273994
 11
-0.5850681631
 21
15.7180273994
  0
LINE
  5
272
100
AcDbEntity
  8
0
100
AcDbLine
 62
7
  6
CONTINUOUS
 10
9.7787991201
 20
15.7180306563
 11
9.6509318369
 21
15.7180306563
  0
LINE
  5
273
100
AcDbEntity
  8
0
100
AcDbLine
 62
7
  6
CONTINUOUS
 10
9.6329318369
 20
15.7590520832
 11
9.6129318369
 21
15.7590520832
  0
LINE
  5
274
100
AcDbEntity
  8
0
100
AcDbLine
 62
7
  6
CONTINUOUS
 10
-0.5670681631
 20
15.7590520832
 11
-0.5470681631
 21
15.7590520832
  0
LINE
  5
275
100
AcDbEntity
  8
0
100
AcDbLine
 62
7
  6
CONTINUOUS
 10
9.4733318369
 20
15.8240520832
 11
-0.3916681631
 21
15.8240520832
  0
LINE
  5
276
100
AcDbEntity
  8
0
100
AcDbLine
 62
7
  6
CONTINUOUS
 10
-0.4916681631
 20
16.0040520832
 11
-0.3916681631
 21
16.0040520832
  0
LINE
  5
277
100
AcDbEntity
  8
0
100
AcDbLine
 62
7
  6
CONTINUOUS
 10
9.4733318369
 20
16.0040520832
 11
9.5733318369
 21
16.0040520832
  0
LINE
  5
278
100
AcDbEntity
  8
0
100
AcDbLine
 62
7
  6
CONTINUOUS
 10
-0.3866681631
 20
16.3240520832
 11
9.4733318369
 21
16.3240520832
  0
LINE
  5
279
100
AcDbEntity
  8
0
100
AcDbLine
 62
7
  6
CONTINUOUS
 10
-0.5070681631
 20
16.353304915
 11
-0.4674681631
 21
16.353304915
  0
LINE
  5
27A
100
AcDbEntity
  8
0
100
AcDbLine
 62
7
  6
CONTINUOUS
 10
9.5729318369
 20
16.3543276577
 11
9.5333318369
 21
16.3543276577
  0
LINE
  5
27B
100
AcDbEntity
  8
0
100
AcDbLine
 62
3
  6
CONTINUOUS
 10
9.5329318369
 20
16.6073276577
 11
-0.4670681631
 21
16.6073276577
  0
LINE
  5
27C
100
AcDbEntity
  8
0
100
AcDbLine
 62
7
  6
CONTINUOUS
 10
9.6129318369
 20
16.7747276577
 11
9.5733318369
 21
16.7747276577
  0
LINE
  5
27D
100
AcDbEntity
  8
0
100
AcDbLine
 62
7
  6
CONTINUOUS
 10
-0.5470681631
 20
16.7747276577
 11
-0.5074681631
 21
16.7747276577
  0
LINE
  5
27E
100
AcDbEntity
  8
0
100
AcDbLine
 62
3
  6
CONTINUOUS
 10
9.5329318369
 20
16.8543276577
 11
-0.4670681631
 21
16.8543276577
  0
LINE
  5
27F
100
AcDbEntity
  8
0
100
AcDbLine
 62
7
  6
CONTINUOUS
 10
-0.7270681631
 20
27.6504146728
 11
-0.7270681631
 21
27.3414157878
  0
LINE
  5
280
100
AcDbEntity
  8
0
100
AcDbLine
 62
7
  6
CONTINUOUS
 10
-0.5850681631
 20
27.6514531191
 11
-0.5850681631
 21
27.3403773416
  0
LINE
  5
281
100
AcDbEntity
  8
0
100
AcDbLine
 62
7
  6
CONTINUOUS
 10
-0.5670681631
 20
27.2759155612
 11
-0.5670681631
 21
27.7159148995
  0
LINE
  5
282
100
AcDbEntity
  8
0
100
AcDbLine
 62
3
  6
CONTINUOUS
 10
-0.5470681631
 20
26.2759152303
 11
-0.5470681631
 21
32.2221863327
  0
LINE
  5
283
100
AcDbEntity
  8
0
100
AcDbLine
 62
7
  6
CONTINUOUS
 10
-0.5074681631
 20
26.2759152303
 11
-0.5074681631
 21
29.0381943716
  0
LINE
  5
284
100
AcDbEntity
  8
0
100
AcDbLine
 62
7
  6
CONTINUOUS
 10
-0.4674681631
 20
29.0070167208
 11
-0.4674681631
 21
29.0408738636
  0
LINE
  5
285
100
AcDbEntity
  8
0
100
AcDbLine
 62
7
  6
CONTINUOUS
 10
-0.4670681631
 20
32.3087332868
 11
-0.4670681631
 21
32.3082248163
  0
LINE
  5
286
100
AcDbEntity
  8
0
100
AcDbLine
 62
3
  6
CONTINUOUS
 10
-0.4670681631
 20
26.3292263617
 11
-0.4670681631
 21
26.2396263617
  0
LINE
  5
287
100
AcDbEntity
  8
0
100
AcDbLine
 62
3
  6
CONTINUOUS
 10
-0.4670681631
 20
29.0408738636
 11
-0.4670681631
 21
29.1309551174
  0
LINE
  5
288
100
AcDbEntity
  8
0
100
AcDbLine
 62
3
  6
CONTINUOUS
 10
-0.4670681631
 20
32.3087332868
 11
-0.4670681631
 21
32.3143685867
  0
LINE
  5
289
100
AcDbEntity
  8
0
100
AcDbLine
 62
3
  6
CONTINUOUS
 10
-0.4574681631
 20
29.1309551174
 11
-0.4574681631
 21
32.3087332868
  0
LINE
  5
28A
100
AcDbEntity
  8
0
100
AcDbLine
 62
7
  6
CONTINUOUS
 10
-0.4411247599
 20
29.0408738636
 11
-0.4411247601
 21
29.0255940803
  0
LINE
  5
28B
100
AcDbEntity
  8
0
100
AcDbLine
 62
7
  6
CONTINUOUS
 10
-0.4372077311
 20
29.0408738636
 11
-0.4372077313
 21
29.0281625512
  0
LINE
  5
28C
100
AcDbEntity
  8
0
100
AcDbLine
 62
3
  6
CONTINUOUS
 10
-0.4174681631
 20
26.3292263617
 11
-0.4174681631
 21
29.0408738636
  0
LINE
  5
28D
100
AcDbEntity
  8
0
100
AcDbLine
 62
7
  6
CONTINUOUS
 10
-0.3916681631
 20
26.1344550467
 11
-0.3916681631
 21
26.2396263617
  0
LINE
  5
28E
100
AcDbEntity
  8
0
100
AcDbLine
 62
7
  6
CONTINUOUS
 10
-0.3866681631
 20
26.1344550467
 11
-0.3866681631
 21
26.2396263617
  0
LINE
  5
28F
100
AcDbEntity
  8
0
100
AcDbLine
 62
7
  6
CONTINUOUS
 10
-0.7270681631
 20
27.6504152303
 11
-0.7267479144
 21
27.6509699173
  0
LINE
  5
290
100
AcDbEntity
  8
0
100
AcDbLine
 62
7
  6
CONTINUOUS
 10
-0.7270681631
 20
27.3414152303
 11
-0.7267479144
 21
27.3408605433
  0
LINE
  5
291
100
AcDbEntity
  8
0
100
AcDbLine
 62
7
  6
CONTINUOUS
 10
-0.4711538438
 20
29.1299395843
 11
-0.4670681631
 21
29.1044052991
  0
LINE
  5
292
100
AcDbEntity
  8
02___PRT_ALL_AXES
100
AcDbLine
 62
7
  6
CONTINUOUS
 10
1.5880768369
 20
26.1177550467
 11
1.5880768369
 21
24.6858550467
  0
LINE
  5
293
100
AcDbEntity
  8
02___PRT_ALL_AXES
100
AcDbLine
 62
7
  6
CONTINUOUS
 10
7.4935564304
 20
24.6858550467
 11
1.5881072433
 21
24.6858550467
  0
LINE
  5
294
100
AcDbEntity
  8
0
100
AcDbLine
 62
7
  6
CONTINUOUS
 10
4.3785794859
 20
29.9361830333
 11
4.3746969948
 21
29.9238871089
  0
LWPOLYLINE
  5
295
100
AcDbEntity
  8
0
100
AcDbPolyline
 62
7
  6
CONTINUOUS
 90
3
 70
0
 10
4.3746969948
 20
29.9238871089
 10
4.3758030297
 20
29.9070323047
 10
4.3759432658
 20
29.9067676828
  0
LINE
  5
296
100
AcDbEntity
  8
0
100
AcDbLine
 62
7
  6
CONTINUOUS
 10
7.4935868369
 20
26.1177550467
 11
1.5880768369
 21
26.1177550467
  0
LINE
  5
297
100
AcDbEntity
  8
0
100
AcDbLine
 62
7
  6
CONTINUOUS
 10
-0.3916681631
 20
26.1344550467
 11
9.4733318369
 21
26.1344550467
  0
LINE
  5
298
100
AcDbEntity
  8
0
100
AcDbLine
 62
3
  6
CONTINUOUS
 10
9.5329318369
 20
26.2396263617
 11
-0.4670681631
 21
26.2396263617
  0
LINE
  5
299
100
AcDbEntity
  8
0
100
AcDbLine
 62
7
  6
CONTINUOUS
 10
9.6129318369
 20
26.2759152303
 11
9.5733318369
 21
26.2759152303
  0
LINE
  5
29A
100
AcDbEntity
  8
0
100
AcDbLine
 62
7
  6
CONTINUOUS
 10
-0.5470681631
 20
26.2759152303
 11
-0.5074681631
 21
26.2759152303
  0
LINE
  5
29B
100
AcDbEntity
  8
0
100
AcDbLine
 62
7
  6
CONTINUOUS
 10
9.5729318369
 20
26.2759194846
 11
9.5333318369
 21
26.2759194846
  0
LINE
  5
29C
100
AcDbEntity
  8
0
100
AcDbLine
 62
7
  6
CONTINUOUS
 10
-0.5070681631
 20
26.2759194846
 11
-0.4674681631
 21
26.2759194846
  0
LINE
  5
29D
100
AcDbEntity
  8
0
100
AcDbLine
 62
3
  6
CONTINUOUS
 10
9.5729318369
 20
26.3292263617
 11
9.5363923099
 21
26.3292263617
  0
LINE
  5
29E
100
AcDbEntity
  8
0
100
AcDbLine
 62
3
  6
CONTINUOUS
 10
9.5329318369
 20
26.3292263617
 11
-0.4670681631
 21
26.3292263617
  0
LINE
  5
29F
100
AcDbEntity
  8
0
100
AcDbLine
 62
3
  6
CONTINUOUS
 10
-0.4705286362
 20
26.3292263617
 11
-0.5070681631
 21
26.3292263617
  0
LINE
  5
2A0
100
AcDbEntity
  8
0
100
AcDbLine
 62
7
  6
CONTINUOUS
 10
9.6329318369
 20
27.2759152303
 11
9.6129318369
 21
27.2759152303
  0
LINE
  5
2A1
100
AcDbEntity
  8
0
100
AcDbLine
 62
7
  6
CONTINUOUS
 10
-0.5670681631
 20
27.2759152303
 11
-0.5470681631
 21
27.2759152303
  0
LINE
  5
2A2
100
AcDbEntity
  8
0
100
AcDbLine
 62
7
  6
CONTINUOUS
 10
-0.7129354464
 20
27.3403773416
 11
-0.5850681631
 21
27.3403773416
  0
LINE
  5
2A3
100
AcDbEntity
  8
0
100
AcDbLine
 62
7
  6
CONTINUOUS
 10
9.7787991201
 20
27.3409455855
 11
9.6509318369
 21
27.3409455855
  0
LINE
  5
2A4
100
AcDbEntity
  8
0
100
AcDbLine
 62
7
  6
CONTINUOUS
 10
-0.7129354464
 20
27.4948337939
 11
-0.5850681631
 21
27.4948337939
  0
LINE
  5
2A5
100
AcDbEntity
  8
0
100
AcDbLine
 62
7
  6
CONTINUOUS
 10
9.7787991201
 20
27.4959759228
 11
9.6509318369
 21
27.4959759228
  0
LINE
  5
2A6
100
AcDbEntity
  8
0
100
AcDbLine
 62
7
  6
CONTINUOUS
 10
-0.7129354464
 20
27.6503716826
 11
-0.5850681631
 21
27.6503716826
  0
LINE
  5
2A7
100
AcDbEntity
  8
0
100
AcDbLine
 62
7
  6
CONTINUOUS
 10
9.7787991201
 20
27.6509455677
 11
9.6509318369
 21
27.6509455677
  0
LINE
  5
2A8
100
AcDbEntity
  8
0
100
AcDbLine
 62
7
  6
CONTINUOUS
 10
-0.7129354464
 20
27.6514531191
 11
-0.5850681631
 21
27.6514531191
  0
LINE
  5
2A9
100
AcDbEntity
  8
0
100
AcDbLine
 62
7
  6
CONTINUOUS
 10
9.6329318369
 20
27.7159152303
 11
9.6129318369
 21
27.7159152303
  0
LINE
  5
2AA
100
AcDbEntity
  8
0
100
AcDbLine
 62
7
  6
CONTINUOUS
 10
-0.5670681631
 20
27.7159152303
 11
-0.5470681631
 21
27.7159152303
  0
LINE
  5
2AB
100
AcDbEntity
  8
0
100
AcDbLine
 62
7
  6
CONTINUOUS
 10
9.7920359967
 20
27.3409213724
 11
9.7787991201
 21
27.3409455855
  0
LINE
  5
2AC
100
AcDbEntity
  8
0
100
AcDbLine
 62
7
  6
CONTINUOUS
 10
9.7787991201
 20
27.6509455677
 11
9.7926431565
 21
27.6509152392
  0
LINE
  5
2AD
100
AcDbEntity
  8
0
100
AcDbLine
 62
7
  6
CONTINUOUS
 10
9.7926431565
 20
27.3409152214
 11
9.7920359967
 21
27.3409213724
  0
LINE
  5
2AE
100
AcDbEntity
  8
02___PRT_ALL_AXES
100
AcDbLine
 62
7
  6
CONTINUOUS
 10
7.4935868369
 20
26.1177550467
 11
7.4935868369
 21
24.6858550467
  0
LINE
  5
2AF
100
AcDbEntity
  8
0
100
AcDbLine
 62
7
  6
CONTINUOUS
 10
9.6129318369
 20
29.0381943716
 11
9.5733318369
 21
29.0381943716
  0
LINE
  5
2B0
100
AcDbEntity
  8
0
100
AcDbLine
 62
7
  6
CONTINUOUS
 10
-0.5470681631
 20
29.0381943716
 11
-0.5074681631
 21
29.0381943716
  0
LINE
  5
2B1
100
AcDbEntity
  8
0
100
AcDbLine
 62
3
  6
CONTINUOUS
 10
9.5329318369
 20
29.0408738636
 11
-0.4670681631
 21
29.0408738636
  0
LINE
  5
2B2
100
AcDbEntity
  8
0
100
AcDbLine
 62
3
  6
CONTINUOUS
 10
9.5329318369
 20
29.1274208176
 11
-0.4670681631
 21
29.1274208176
  0
LINE
  5
2B3
100
AcDbEntity
  8
0
100
AcDbLine
 62
3
  6
CONTINUOUS
 10
-0.4574681631
 20
29.1309551174
 11
-0.4670681631
 21
29.1309551174
  0
LINE
  5
2B4
100
AcDbEntity
  8
0
100
AcDbLine
 62
3
  6
CONTINUOUS
 10
9.5233318369
 20
29.1309551174
 11
9.5329318369
 21
29.1309551174
  0
LINE
  5
2B5
100
AcDbEntity
  8
0
100
AcDbLine
 62
7
  6
CONTINUOUS
 10
4.4316000276
 20
29.95280114
 11
4.4240578523
 21
29.9558286272
  0
LWPOLYLINE
  5
2B6
100
AcDbEntity
  8
0
100
AcDbPolyline
 62
7
  6
CONTINUOUS
 90
4
 70
0
 10
4.4103064127
 20
29.9572523538
 10
4.4021342239
 20
29.9556200962
 10
4.3875136627
 20
29.9474083449
 10
4.3785794866
 20
29.9361830345
  0
LINE
  5
2B7
100
AcDbEntity
  8
0
100
AcDbLine
 62
7
  6
CONTINUOUS
 10
9.5370175176
 20
29.1299395843
 11
9.5329318369
 21
29.1044052991
  0
LINE
  5
2B8
100
AcDbEntity
  8
0
100
AcDbLine
 62
7
  6
CONTINUOUS
 10
9.7929318369
 20
27.3414152303
 11
9.7926413985
 21
27.3409121763
  0
LINE
  5
2B9
100
AcDbEntity
  8
0
100
AcDbLine
 62
7
  6
CONTINUOUS
 10
9.4733318369
 20
26.1344550467
 11
9.4733318369
 21
26.2396263617
  0
LINE
  5
2BA
100
AcDbEntity
  8
0
100
AcDbLine
 62
3
  6
CONTINUOUS
 10
9.4833318369
 20
29.0408738636
 11
9.4833318369
 21
26.3292263617
  0
LINE
  5
2BB
100
AcDbEntity
  8
0
100
AcDbLine
 62
3
  6
CONTINUOUS
 10
9.5096639803
 20
29.0408738636
 11
9.5096639802
 21
29.0238396732
  0
LINE
  5
2BC
100
AcDbEntity
  8
0
100
AcDbLine
 62
7
  6
CONTINUOUS
 10
9.5227884956
 20
29.0408738636
 11
9.5227884953
 21
29.0148290813
  0
LINE
  5
2BD
100
AcDbEntity
  8
0
100
AcDbLine
 62
3
  6
CONTINUOUS
 10
9.5233318369
 20
32.3087332868
 11
9.5233318369
 21
29.1309551174
  0
LINE
  5
2BE
100
AcDbEntity
  8
0
100
AcDbLine
 62
7
  6
CONTINUOUS
 10
9.5329318369
 20
32.3087332868
 11
9.5329318369
 21
32.3082248163
  0
LINE
  5
2BF
100
AcDbEntity
  8
0
100
AcDbLine
 62
3
  6
CONTINUOUS
 10
9.5329318369
 20
26.3292263617
 11
9.5329318369
 21
26.2396263617
  0
LINE
  5
2C0
100
AcDbEntity
  8
0
100
AcDbLine
 62
3
  6
CONTINUOUS
 10
9.5329318369
 20
29.0408738636
 11
9.5329318369
 21
29.1309551174
  0
LINE
  5
2C1
100
AcDbEntity
  8
0
100
AcDbLine
 62
3
  6
CONTINUOUS
 10
9.5329318369
 20
32.3087332868
 11
9.5329318369
 21
32.3143685867
  0
LINE
  5
2C2
100
AcDbEntity
  8
0
100
AcDbLine
 62
7
  6
CONTINUOUS
 10
9.5333318369
 20
29.0408738636
 11
9.5333318369
 21
29.0070167208
  0
LINE
  5
2C3
100
AcDbEntity
  8
0
100
AcDbLine
 62
7
  6
CONTINUOUS
 10
9.5733318369
 20
29.0381943716
 11
9.5733318369
 21
26.2759152303
  0
LINE
  5
2C4
100
AcDbEntity
  8
0
100
AcDbLine
 62
3
  6
CONTINUOUS
 10
9.6129318369
 20
32.2221863327
 11
9.6129318369
 21
26.2759152303
  0
LINE
  5
2C5
100
AcDbEntity
  8
0
100
AcDbLine
 62
7
  6
CONTINUOUS
 10
9.6329318369
 20
27.2759157701
 11
9.6329318369
 21
27.7159146905
  0
LINE
  5
2C6
100
AcDbEntity
  8
0
100
AcDbLine
 62
7
  6
CONTINUOUS
 10
9.6509318369
 20
27.3409455855
 11
9.6509318369
 21
27.6509455677
  0
LINE
  5
2C7
100
AcDbEntity
  8
0
100
AcDbLine
 62
7
  6
CONTINUOUS
 10
9.7929318369
 20
27.3414156278
 11
9.7929318369
 21
27.6504148328
  0
LINE
  5
2C8
100
AcDbEntity
  8
0
100
AcDbLine
 62
7
  6
CONTINUOUS
 10
9.7929318369
 20
27.6504152303
 11
9.7926413985
 21
27.6509182843
  0
LINE
  5
2C9
100
AcDbEntity
  8
0
100
AcDbLine
 62
3
  6
CONTINUOUS
 10
-0.4574681631
 20
32.3087332868
 11
-0.4670681631
 21
32.3087332868
  0
LINE
  5
2CA
100
AcDbEntity
  8
0
100
AcDbLine
 62
3
  6
CONTINUOUS
 10
9.5233318369
 20
32.3087332868
 11
9.5329318369
 21
32.3087332868
  0
LINE
  5
2CB
100
AcDbEntity
  8
0
100
AcDbLine
 62
3
  6
CONTINUOUS
 10
-0.4670681631
 20
32.3113214772
 11
9.5329318369
 21
32.3113214772
  0
LINE
  5
2CC
100
AcDbEntity
  8
0
100
AcDbLine
 62
3
  6
CONTINUOUS
 10
-0.4670681631
 20
32.3143745232
 11
9.5329318369
 21
32.3143745232
  0
LINE
  5
2CD
100
AcDbEntity
  8
0
100
AcDbLine
 62
3
  6
CONTINUOUS
 10
18.0375001368
 20
29.0408738636
 11
18.0375001368
 21
26.3292263617
  0
LINE
  5
2CE
100
AcDbEntity
  8
0
100
AcDbLine
 62
3
  6
CONTINUOUS
 10
18.1171001368
 20
29.0381943716
 11
18.1171001368
 21
26.2759152303
  0
LINE
  5
2CF
100
AcDbEntity
  8
0
100
AcDbLine
 62
7
  6
CONTINUOUS
 10
18.2845001368
 20
26.2396263617
 11
18.2845001368
 21
26.2759152303
  0
LINE
  5
2D0
100
AcDbEntity
  8
0
100
AcDbLine
 62
7
  6
CONTINUOUS
 10
18.5677757112
 20
26.1344550467
 11
18.5677757112
 21
26.2594550467
  0
LINE
  5
2D1
100
AcDbEntity
  8
0
100
AcDbLine
 62
7
  6
CONTINUOUS
 10
18.8877757112
 20
26.2594550467
 11
18.8877757112
 21
26.2759152303
  0
LINE
  5
2D2
100
AcDbEntity
  8
0
100
AcDbLine
 62
7
  6
CONTINUOUS
 10
19.0677757112
 20
26.2594550467
 11
19.0677757112
 21
26.1344550467
  0
LINE
  5
2D3
100
AcDbEntity
  8
0
100
AcDbLine
 62
3
  6
CONTINUOUS
 10
18.1171001368
 20
29.1309551174
 11
18.117372248
 21
29.1299395843
  0
LINE
  5
2D4
100
AcDbEntity
  8
0
100
AcDbLine
 62
7
  6
CONTINUOUS
 10
19.1737971381
 20
27.4959759228
 11
19.2633389859
 21
27.6509455677
  0
LINE
  5
2D5
100
AcDbEntity
  8
0
100
AcDbLine
 62
7
  6
CONTINUOUS
 10
20.7411745554
 20
29.9573845726
 11
20.7412098801
 21
29.9178698161
  0
LINE
  5
2D6
100
AcDbEntity
  8
0
100
AcDbLine
 62
7
  6
CONTINUOUS
 10
20.7412098801
 20
29.9178698161
 11
20.7411766582
 21
29.8786465566
  0
LINE
  5
2D7
100
AcDbEntity
  8
0
100
AcDbLine
 62
7
  6
CONTINUOUS
 10
19.5317542844
 20
27.4958545378
 11
19.4422124365
 21
27.340884893
  0
LINE
  5
2D8
100
AcDbEntity
  8
0
100
AcDbLine
 62
7
  6
CONTINUOUS
 10
19.2632338634
 20
27.3409455855
 11
19.1737971381
 21
27.4959759228
  0
LINE
  5
2D9
100
AcDbEntity
  8
0
100
AcDbLine
 62
7
  6
CONTINUOUS
 10
19.4423175591
 20
27.6508848752
 11
19.5317542844
 21
27.4958545378
  0
LINE
  5
2DA
100
AcDbEntity
  8
02___PRT_ALL_AXES
100
AcDbLine
 62
7
  6
CONTINUOUS
 10
22.2800207112
 20
26.1177550467
 11
22.2800207112
 21
24.6858550467
  0
LINE
  5
2DB
100
AcDbEntity
  8
02___PRT_ALL_AXES
100
AcDbLine
 62
7
  6
CONTINUOUS
 10
28.1855240928
 20
24.6858550467
 11
22.2800273296
 21
24.6858550467
  0
LINE
  5
2DC
100
AcDbEntity
  8
0
100
AcDbLine
 62
7
  6
CONTINUOUS
 10
18.5677757112
 20
26.1344550467
 11
30.9177757112
 21
26.1344550467
  0
LINE
  5
2DD
100
AcDbEntity
  8
0
100
AcDbLine
 62
3
  6
CONTINUOUS
 10
18.1271001368
 20
26.2396263617
 11
18.2845001368
 21
26.2396263617
  0
LINE
  5
2DE
100
AcDbEntity
  8
0
100
AcDbLine
 62
7
  6
CONTINUOUS
 10
18.5677757112
 20
26.2594550467
 11
30.9877757112
 21
26.2594550467
  0
LINE
  5
2DF
100
AcDbEntity
  8
0
100
AcDbLine
 62
3
  6
CONTINUOUS
 10
18.1171001368
 20
26.2759152303
 11
31.1470349695
 21
26.2759194846
  0
LINE
  5
2E0
100
AcDbEntity
  8
0
100
AcDbLine
 62
3
  6
CONTINUOUS
 10
18.1171001368
 20
26.3292263617
 11
18.0641801167
 21
26.3292263617
  0
LINE
  5
2E1
100
AcDbEntity
  8
0
100
AcDbLine
 62
7
  6
CONTINUOUS
 10
18.0375001368
 20
26.3292263617
 11
18.0641801167
 21
26.3292263617
  0
LINE
  5
2E2
100
AcDbEntity
  8
02___PRT_ALL_AXES
100
AcDbLine
 62
7
  6
CONTINUOUS
 10
28.1855307112
 20
26.1177550467
 11
28.1855307112
 21
24.6858550467
  0
LINE
  5
2E3
100
AcDbEntity
  8
0
100
AcDbLine
 62
7
  6
CONTINUOUS
 10
31.1439819235
 20
28.3373136072
 11
31.1057312608
 21
28.327064373
  0
LINE
  5
2E4
100
AcDbEntity
  8
0
100
AcDbLine
 62
7
  6
CONTINUOUS
 10
19.4422124365
 20
27.340884893
 11
19.2632338634
 21
27.3409455855
  0
LINE
  5
2E5
100
AcDbEntity
  8
0
100
AcDbLine
 62
7
  6
CONTINUOUS
 10
30.0672127114
 20
27.3408850515
 11
29.8882341381
 21
27.3409454268
  0
LINE
  5
2E6
100
AcDbEntity
  8
0
100
AcDbLine
 62
7
  6
CONTINUOUS
 10
19.2633389859
 20
27.6509455677
 11
19.4423175591
 21
27.6508848752
  0
LINE
  5
2E7
100
AcDbEntity
  8
0
100
AcDbLine
 62
7
  6
CONTINUOUS
 10
29.8883387111
 20
27.6509454091
 11
30.0673172843
 21
27.6508850339
  0
LINE
  5
2E8
100
AcDbEntity
  8
0
100
AcDbLine
 62
7
  6
CONTINUOUS
 10
29.798797138
 20
27.4959756056
 11
29.8883387111
 21
27.6509454091
  0
LINE
  5
2E9
100
AcDbEntity
  8
0
100
AcDbLine
 62
3
  6
CONTINUOUS
 10
31.0574349695
 20
28.2245234208
 11
31.0477757112
 21
28.2148641625
  0
LINE
  5
2EA
100
AcDbEntity
  8
0
100
AcDbLine
 62
7
  6
CONTINUOUS
 10
31.1470349695
 20
28.3141234208
 11
31.1074349695
 21
28.3141234208
  0
LINE
  5
2EB
100
AcDbEntity
  8
0
100
AcDbLine
 62
7
  6
CONTINUOUS
 10
30.1567542845
 20
27.4958548551
 11
30.0672127114
 21
27.3408850515
  0
LINE
  5
2EC
100
AcDbEntity
  8
0
100
AcDbLine
 62
7
  6
CONTINUOUS
 10
18.0375001368
 20
29.0408738636
 11
18.0771001368
 21
29.0408738636
  0
LINE
  5
2ED
100
AcDbEntity
  8
0
100
AcDbLine
 62
7
  6
CONTINUOUS
 10
20.740719864
 20
29.8786490637
 11
20.890566689
 21
29.8741032403
  0
LINE
  5
2EE
100
AcDbEntity
  8
0
100
AcDbLine
 62
7
  6
CONTINUOUS
 10
29.8882341381
 20
27.3409454268
 11
29.798797138
 21
27.4959756056
  0
LINE
  5
2EF
100
AcDbEntity
  8
0
100
AcDbLine
 62
7
  6
CONTINUOUS
 10
30.0673172843
 20
27.6508850339
 11
30.1567542845
 21
27.4958548551
  0
LINE
  5
2F0
100
AcDbEntity
  8
0
100
AcDbLine
 62
7
  6
CONTINUOUS
 10
30.4177757112
 20
26.2759152303
 11
30.4177757112
 21
26.1344550467
  0
LINE
  5
2F1
100
AcDbEntity
  8
0
100
AcDbLine
 62
7
  6
CONTINUOUS
 10
30.9177757112
 20
26.1344550467
 11
30.9177757112
 21
26.2594550467
  0
LWPOLYLINE
  5
2F2
100
AcDbEntity
  8
0
100
AcDbPolyline
 62
7
  6
CONTINUOUS
 90
3
 70
0
 10
21.2960659923
 20
29.9827564512
 10
21.0723239693
 20
29.967453828
 10
20.7409459552
 20
29.9573820564
  0
LINE
  5
2F3
100
AcDbEntity
  8
0
100
AcDbLine
 62
7
  6
CONTINUOUS
 10
20.7409483289
 20
29.8786490668
 11
20.7460721359
 21
29.8788074589
  0
LINE
  5
2F4
100
AcDbEntity
  8
0
100
AcDbLine
 62
7
  6
CONTINUOUS
 10
21.2019960573
 20
29.957550488
 11
20.9363186554
 21
29.9572940343
  0
LINE
  5
2F5
100
AcDbEntity
  8
0
100
AcDbLine
 62
7
  6
CONTINUOUS
 10
20.7411766539
 20
29.8788057355
 11
20.9083362532
 21
29.8788645807
  0
LINE
  5
2F6
100
AcDbEntity
  8
0
100
AcDbLine
 62
7
  6
CONTINUOUS
 10
20.9363186554
 20
29.9572940343
 11
20.7411745596
 21
29.9572253937
  0
LINE
  5
2F7
100
AcDbEntity
  8
0
100
AcDbLine
 62
3
  6
CONTINUOUS
 10
31.0219973343
 20
28.4077414426
 11
31.034244783
 21
28.4006703748
  0
LINE
  5
2F8
100
AcDbEntity
  8
0
100
AcDbLine
 62
3
  6
CONTINUOUS
 10
31.0477757112
 20
26.2759152303
 11
31.0477757112
 21
28.3115352303
  0
LINE
  5
2F9
100
AcDbEntity
  8
0
100
AcDbLine
 62
3
  6
CONTINUOUS
 10
31.1470349695
 20
26.2759194846
 11
31.1470349695
 21
28.3141234208
  0
LINE
  5
2FA
100
AcDbEntity
  8
0
100
AcDbLine
 62
7
  6
CONTINUOUS
 10
30.0961261188
 20
32.2479647096
 11
30.070355237
 21
32.2410594227
  0
LINE
  5
2FB
100
AcDbEntity
  8
0
100
AcDbLine
 62
3
  6
CONTINUOUS
 10
29.9999199065
 20
32.2221863327
 11
30.070355237
 21
32.2410594227
  0
LINE
  5
2FC
100
AcDbEntity
  8
0
100
AcDbLine
 62
3
  6
CONTINUOUS
 10
31.0477757112
 20
28.3115352303
 11
29.97672972
 21
32.3087332868
  0
LINE
  5
2FD
100
AcDbEntity
  8
0
100
AcDbLine
 62
3
  6
CONTINUOUS
 10
31.1439819235
 20
28.3373136072
 11
30.0961261188
 21
32.2479647096
  0
LINE
  5
2FE
100
AcDbEntity
  8
0
100
AcDbLine
 62
7
  6
CONTINUOUS
 10
29.9966382125
 20
32.2730708145
 11
29.9869789542
 21
32.270482624
  0
LINE
  5
2FF
100
AcDbEntity
  8
0
100
AcDbLine
 62
3
  6
CONTINUOUS
 10
29.9863889783
 20
32.3113214772
 11
18.1039099503
 21
29.1274208176
  0
ARC
  5
300
100
AcDbEntity
  8
0
100
AcDbCircle
 62
7
  6
CONTINUOUS
 10
3.5941661807
 20
9.4386216041
 40
1.6180825131
100
AcDbArc
 50
117.8805298332
 51
118.0372910017
  0
ARC
  5
301
100
AcDbEntity
  8
0
100
AcDbCircle
 62
7
  6
CONTINUOUS
 10
3.7780484329
 20
10.262115088
 40
1.6178430236
100
AcDbArc
 50
66.4524312979
 51
66.6091833433
  0
ARC
  5
302
100
AcDbEntity
  8
0
100
AcDbCircle
 62
7
  6
CONTINUOUS
 10
4.1152628107
 20
8.7829379114
 40
1.6099920452
100
AcDbArc
 50
169.3019222476
 51
169.4595053542
  0
ARC
  5
303
100
AcDbEntity
  8
0
100
AcDbCircle
 62
7
  6
CONTINUOUS
 10
-0.3004181631
 20
8.1640520832
 40
0.23125
100
AcDbArc
 50
145.7945420619
 51
153.6895453954
  0
ARC
  5
304
100
AcDbEntity
  8
0
100
AcDbCircle
 62
7
  6
CONTINUOUS
 10
-0.3004181631
 20
8.1640520832
 40
0.23125
100
AcDbArc
 50
206.3104546046
 51
214.2054579381
  0
CIRCLE
  5
305
100
AcDbEntity
  8
0
100
AcDbCircle
 62
7
  6
CONTINUOUS
 10
0.5543718369
 20
4.7899920832
 40
0.09375
  0
ARC
  5
306
100
AcDbEntity
  8
0
100
AcDbCircle
 62
3
  6
CONTINUOUS
 10
-0.4174681631
 20
3.8343928249
 40
0.0896
100
AcDbArc
 50
180.0
 51
270.0
  0
ARC
  5
307
100
AcDbEntity
  8
0
100
AcDbCircle
 62
7
  6
CONTINUOUS
 10
-0.6440624721
 20
5.0452285501
 40
0.0829777779
100
AcDbArc
 50
164.3936889952
 51
165.4690259443
  0
ARC
  5
308
100
AcDbEntity
  8
0
100
AcDbCircle
 62
7
  6
CONTINUOUS
 10
-0.388783054
 20
3.857434438
 40
0.078671219
100
AcDbArc
 50
190.1850332156
 51
200.4074454583
  0
CIRCLE
  5
309
100
AcDbEntity
  8
02___PRT_ALL_AXES
100
AcDbCircle
 62
7
  6
CONTINUOUS
 10
3.2971106817
 20
6.6564436025
 40
0.065
  0
CIRCLE
  5
30A
100
AcDbEntity
  8
0
100
AcDbCircle
 62
7
  6
CONTINUOUS
 10
3.2971106817
 20
6.6564436025
 40
0.06
  0
ARC
  5
30B
100
AcDbEntity
  8
0
100
AcDbCircle
 62
7
  6
CONTINUOUS
 10
-0.4174681631
 20
3.8343928249
 40
0.05
100
AcDbArc
 50
180.0
 51
270.0
  0
ARC
  5
30C
100
AcDbEntity
  8
0
100
AcDbCircle
 62
3
  6
CONTINUOUS
 10
-0.5226312467
 20
16.4482110707
 40
0.3300953491
100
AcDbArc
 50
87.151148516
 51
87.3760671554
  0
ARC
  5
30D
100
AcDbEntity
  8
0
100
AcDbCircle
 62
3
  6
CONTINUOUS
 10
-0.5218724389
 20
16.4653535274
 40
0.3129361284
100
AcDbArc
 50
87.3711650759
 51
88.5811046894
  0
ARC
  5
30E
100
AcDbEntity
  8
0
100
AcDbCircle
 62
7
  6
CONTINUOUS
 10
-0.3004181631
 20
11.1640520832
 40
0.23125
100
AcDbArc
 50
145.7945420619
 51
153.6895453954
  0
ARC
  5
30F
100
AcDbEntity
  8
0
100
AcDbCircle
 62
7
  6
CONTINUOUS
 10
-0.3004181631
 20
11.1640520832
 40
0.23125
100
AcDbArc
 50
206.3104546046
 51
214.2054579381
  0
CIRCLE
  5
310
100
AcDbEntity
  8
0
100
AcDbCircle
 62
7
  6
CONTINUOUS
 10
0.5543718369
 20
15.5740520832
 40
0.09375
  0
ARC
  5
311
100
AcDbEntity
  8
0
100
AcDbCircle
 62
3
  6
CONTINUOUS
 10
-0.4174681631
 20
16.7647276577
 40
0.0896
100
AcDbArc
 50
123.7101598012
 51
180.0
  0
ARC
  5
312
100
AcDbEntity
  8
0
100
AcDbCircle
 62
7
  6
CONTINUOUS
 10
-0.6440619501
 20
15.6702283937
 40
0.0829783015
100
AcDbArc
 50
164.3936809006
 51
165.4690675952
  0
CIRCLE
  5
313
100
AcDbEntity
  8
02___PRT_ALL_AXES
100
AcDbCircle
 62
7
  6
CONTINUOUS
 10
1.5382233562
 20
10.9027732384
 40
0.065
  0
ARC
  5
314
100
AcDbEntity
  8
0
100
AcDbCircle
 62
7
  6
CONTINUOUS
 10
4.9530488236
 20
8.7730314947
 40
1.5994323719
100
AcDbArc
 50
220.715812762
 51
220.8744126899
  0
CIRCLE
  5
315
100
AcDbEntity
  8
02___PRT_ALL_AXES
100
AcDbCircle
 62
7
  6
CONTINUOUS
 10
4.5408318369
 20
9.6590520832
 40
3.452755
  0
CIRCLE
  5
316
100
AcDbEntity
  8
02___PRT_ALL_AXES
100
AcDbCircle
 62
7
  6
CONTINUOUS
 10
4.5408318369
 20
9.6590520832
 40
2.952755
  0
CIRCLE
  5
317
100
AcDbEntity
  8
0
100
AcDbCircle
 62
7
  6
CONTINUOUS
 10
4.5408318369
 20
9.6590520832
 40
2.929155
  0
CIRCLE
  5
318
100
AcDbEntity
  8
0
100
AcDbCircle
 62
7
  6
CONTINUOUS
 10
4.5408318369
 20
9.6590520832
 40
2.4
  0
ARC
  5
319
100
AcDbEntity
  8
0
100
AcDbCircle
 62
7
  6
CONTINUOUS
 10
4.5408318587
 20
9.6594555758
 40
2.0890302054
100
AcDbArc
 50
298.9094837332
 51
346.3378081898
  0
ARC
  5
31A
100
AcDbEntity
  8
0
100
AcDbCircle
 62
7
  6
CONTINUOUS
 10
4.5408318587
 20
9.6594555758
 40
2.0890302054
100
AcDbArc
 50
350.3380551566
 51
37.766379604
  0
ARC
  5
31B
100
AcDbEntity
  8
0
100
AcDbCircle
 62
7
  6
CONTINUOUS
 10
4.5408318587
 20
9.6594555758
 40
2.0890302054
100
AcDbArc
 50
41.7666265718
 51
89.1949510421
  0
ARC
  5
31C
100
AcDbEntity
  8
0
100
AcDbCircle
 62
7
  6
CONTINUOUS
 10
4.5408318587
 20
9.6594555758
 40
2.0890302054
100
AcDbArc
 50
196.0523408622
 51
243.48066532
  0
ARC
  5
31D
100
AcDbEntity
  8
0
100
AcDbCircle
 62
7
  6
CONTINUOUS
 10
4.5408318587
 20
9.6594555758
 40
2.0890302054
100
AcDbArc
 50
247.480912289
 51
294.9092367643
  0
ARC
  5
31E
100
AcDbEntity
  8
0
100
AcDbCircle
 62
7
  6
CONTINUOUS
 10
4.5408318587
 20
9.6594555758
 40
2.0890302054
100
AcDbArc
 50
93.1951980115
 51
140.6235224808
  0
ARC
  5
31F
100
AcDbEntity
  8
0
100
AcDbCircle
 62
7
  6
CONTINUOUS
 10
4.5408318587
 20
9.6594555758
 40
2.0890302054
100
AcDbArc
 50
144.6237694484
 51
192.0520938954
  0
CIRCLE
  5
320
100
AcDbEntity
  8
0
100
AcDbCircle
 62
7
  6
CONTINUOUS
 10
4.5408318578
 20
9.6594534777
 40
1.99688531
  0
CIRCLE
  5
321
100
AcDbEntity
  8
0
100
AcDbCircle
 62
7
  6
CONTINUOUS
 10
4.5408318578
 20
9.6594534777
 40
1.8807918423
  0
CIRCLE
  5
322
100
AcDbEntity
  8
0
100
AcDbCircle
 62
7
  6
CONTINUOUS
 10
4.5408318574
 20
9.6594526858
 40
1.8457950115
  0
CIRCLE
  5
323
100
AcDbEntity
  8
0
100
AcDbCircle
 62
7
  6
CONTINUOUS
 10
4.5408318517
 20
9.6594393968
 40
1.8346456693
  0
CIRCLE
  5
324
100
AcDbEntity
  8
0
100
AcDbCircle
 62
7
  6
CONTINUOUS
 10
4.5408318489
 20
9.6594331386
 40
1.6653543307
  0
CIRCLE
  5
325
100
AcDbEntity
  8
0
100
AcDbCircle
 62
7
  6
CONTINUOUS
 10
4.5408318425
 20
9.6594182666
 40
1.2026058013
  0
CIRCLE
  5
326
100
AcDbEntity
  8
0
100
AcDbCircle
 62
7
  6
CONTINUOUS
 10
4.5408318405
 20
9.659413634
 40
0.6692913386
  0
CIRCLE
  5
327
100
AcDbEntity
  8
0
100
AcDbCircle
 62
7
  6
CONTINUOUS
 10
4.5408318403
 20
9.6594133211
 40
0.2952755906
  0
ARC
  5
328
100
AcDbEntity
  8
0
100
AcDbCircle
 62
7
  6
CONTINUOUS
 10
5.4911954375
 20
9.4242860245
 40
1.5946465123
100
AcDbArc
 50
272.1394520522
 51
272.298497859
  0
ARC
  5
329
100
AcDbEntity
  8
0
100
AcDbCircle
 62
7
  6
CONTINUOUS
 10
5.3136464248
 20
10.2583037394
 40
1.5989900826
100
AcDbArc
 50
323.5737993151
 51
323.732384171
  0
CIRCLE
  5
32A
100
AcDbEntity
  8
0
100
AcDbCircle
 62
7
  6
CONTINUOUS
 10
8.5272918369
 20
4.7899920832
 40
0.09375
  0
ARC
  5
32B
100
AcDbEntity
  8
0
100
AcDbCircle
 62
3
  6
CONTINUOUS
 10
9.4833318369
 20
3.8343928249
 40
0.0896
100
AcDbArc
 50
270.0
 51
360.0
  0
ARC
  5
32C
100
AcDbEntity
  8
0
100
AcDbCircle
 62
7
  6
CONTINUOUS
 10
9.7116013936
 20
4.782374008
 40
0.0812973624
100
AcDbArc
 50
344.4198108242
 51
345.3331752238
  0
ARC
  5
32D
100
AcDbEntity
  8
0
100
AcDbCircle
 62
7
  6
CONTINUOUS
 10
9.4546467277
 20
3.857434438
 40
0.078671219
100
AcDbArc
 50
339.5925545417
 51
349.8149667844
  0
ARC
  5
32E
100
AcDbEntity
  8
0
100
AcDbCircle
 62
7
  6
CONTINUOUS
 10
9.4833318369
 20
3.8343928249
 40
0.05
100
AcDbArc
 50
270.0
 51
360.0
  0
CIRCLE
  5
32F
100
AcDbEntity
  8
02___PRT_ALL_AXES
100
AcDbCircle
 62
7
  6
CONTINUOUS
 10
7.5434403175
 20
8.415330928
 40
0.065
  0
ARC
  5
330
100
AcDbEntity
  8
0
100
AcDbCircle
 62
7
  6
CONTINUOUS
 10
4.5446133715
 20
10.6340461686
 40
1.6092916217
100
AcDbArc
 50
15.0145067393
 51
15.172070463
  0
CIRCLE
  5
331
100
AcDbEntity
  8
0
100
AcDbCircle
 62
7
  6
CONTINUOUS
 10
7.4733318369
 20
15.3740520832
 40
0.4375
  0
ARC
  5
332
100
AcDbEntity
  8
0
100
AcDbCircle
 62
3
  6
CONTINUOUS
 10
9.5884949204
 20
16.4482110708
 40
0.330095349
100
AcDbArc
 50
92.6239328446
 51
92.848851484
  0
ARC
  5
333
100
AcDbEntity
  8
0
100
AcDbCircle
 62
3
  6
CONTINUOUS
 10
9.5877361127
 20
16.4653535274
 40
0.3129361284
100
AcDbArc
 50
91.4188953106
 51
92.6288349241
  0
CIRCLE
  5
334
100
AcDbEntity
  8
0
100
AcDbCircle
 62
7
  6
CONTINUOUS
 10
8.5272918369
 20
15.5740520832
 40
0.09375
  0
ARC
  5
335
100
AcDbEntity
  8
0
100
AcDbCircle
 62
3
  6
CONTINUOUS
 10
9.4833318369
 20
16.7647276577
 40
0.0896
100
AcDbArc
 50
0.0
 51
56.2898401988
  0
ARC
  5
336
100
AcDbEntity
  8
0
100
AcDbCircle
 62
7
  6
CONTINUOUS
 10
9.7116008752
 20
15.407374163
 40
0.0812978823
100
AcDbArc
 50
344.4198026975
 51
345.3332179418
  0
CIRCLE
  5
337
100
AcDbEntity
  8
02___PRT_ALL_AXES
100
AcDbCircle
 62
7
  6
CONTINUOUS
 10
5.7845529921
 20
12.6616605638
 40
0.065
  0
CIRCLE
  5
338
100
AcDbEntity
  8
0
100
AcDbCircle
 62
7
  6
CONTINUOUS
 10
5.7845529921
 20
12.6616605638
 40
0.06
  0
ARC
  5
339
100
AcDbEntity
  8
0
100
AcDbCircle
 62
7
  6
CONTINUOUS
 10
1.4699768369
 20
26.1177550467
 40
0.1181
100
AcDbArc
 50
0.0
 51
8.2367657412
  0
ARC
  5
33A
100
AcDbEntity
  8
0
100
AcDbCircle
 62
7
  6
CONTINUOUS
 10
7.6116868369
 20
26.1177550467
 40
0.1181
100
AcDbArc
 50
171.7632342588
 51
180.0
  0
ARC
  5
33B
100
AcDbEntity
  8
0
100
AcDbCircle
 62
7
  6
CONTINUOUS
 10
9.4733318369
 20
26.3594550467
 40
0.1
100
AcDbArc
 50
306.6087539376
 51
342.3694771184
  0
ARC
  5
33C
100
AcDbEntity
  8
0
100
AcDbCircle
 62
7
  6
CONTINUOUS
 10
-0.3916681631
 20
26.3594550467
 40
0.1
100
AcDbArc
 50
197.6305228816
 51
220.9217007933
  0
ARC
  5
33D
100
AcDbEntity
  8
0
100
AcDbCircle
 62
3
  6
CONTINUOUS
 10
9.5184842943
 20
29.0369111885
 40
0.094856538
100
AcDbArc
 50
54.53030289
 51
78.7329828766
  0
ARC
  5
33E
100
AcDbEntity
  8
0
100
AcDbCircle
 62
3
  6
CONTINUOUS
 10
-0.4526206206
 20
29.0369111885
 40
0.094856538
100
AcDbArc
 50
101.2670171233
 51
125.46969711
  0
ARC
  5
33F
100
AcDbEntity
  8
0
100
AcDbCircle
 62
3
  6
CONTINUOUS
 10
-0.4574656781
 20
29.0381679593
 40
0.0927871582
100
AcDbArc
 50
90.0015344849
 51
96.1709944501
  0
ARC
  5
340
100
AcDbEntity
  8
0
100
AcDbCircle
 62
3
  6
CONTINUOUS
 10
-0.4574660168
 20
32.2159487581
 40
0.0927845287
100
AcDbArc
 50
90.0013254155
 51
95.9021286895
  0
ARC
  5
341
100
AcDbEntity
  8
0
100
AcDbCircle
 62
3
  6
CONTINUOUS
 10
9.5233296905
 20
29.0381705887
 40
0.0927845287
100
AcDbArc
 50
84.0978713097
 51
89.9986745845
  0
ARC
  5
342
100
AcDbEntity
  8
0
100
AcDbCircle
 62
3
  6
CONTINUOUS
 10
9.523329899
 20
32.2159501923
 40
0.0927830945
100
AcDbArc
 50
84.2947506355
 51
89.9988032935
  0
ARC
  5
343
100
AcDbEntity
  8
0
100
AcDbCircle
 62
3
  6
CONTINUOUS
 10
9.5233421521
 20
32.2161082953
 40
0.0926245566
100
AcDbArc
 50
81.5096414616
 51
84.2925702968
  0
ARC
  5
344
100
AcDbEntity
  8
0
100
AcDbCircle
 62
3
  6
CONTINUOUS
 10
-0.4574790813
 20
32.2161129353
 40
0.0926198784
100
AcDbArc
 50
95.9045332151
 51
98.4904134136
  0
ARC
  5
345
100
AcDbEntity
  8
0
100
AcDbCircle
 62
3
  6
CONTINUOUS
 10
9.5233427551
 20
29.038334766
 40
0.0926198784
100
AcDbArc
 50
81.5095867641
 51
84.0954667842
  0
ARC
  5
346
100
AcDbEntity
  8
0
100
AcDbCircle
 62
3
  6
CONTINUOUS
 10
-0.4574800556
 20
29.0383421303
 40
0.092612451
100
AcDbArc
 50
96.1737341952
 51
98.4904897382
  0
ARC
  5
347
100
AcDbEntity
  8
0
100
AcDbCircle
 62
7
  6
CONTINUOUS
 10
4.4160359842
 20
29.9181285667
 40
0.0417384982
100
AcDbArc
 50
173.3388357669
 51
192.4093236958
  0
ARC
  5
348
100
AcDbEntity
  8
0
100
AcDbCircle
 62
7
  6
CONTINUOUS
 10
4.4146035022
 20
29.9178587465
 40
0.0402815244
100
AcDbArc
 50
192.4723577285
 51
197.1901282836
  0
CIRCLE
  5
349
100
AcDbEntity
  8
0
100
AcDbCircle
 62
7
  6
CONTINUOUS
 10
4.1510412293
 20
29.9180162518
 40
0.039369704
  0
ARC
  5
34A
100
AcDbEntity
  8
0
100
AcDbCircle
 62
7
  6
CONTINUOUS
 10
9.6509318369
 20
27.6689468726
 40
0.018
100
AcDbArc
 50
180.0041571363
 51
270.0
  0
ARC
  5
34B
100
AcDbEntity
  8
0
100
AcDbCircle
 62
7
  6
CONTINUOUS
 10
9.6509318369
 20
27.3229468925
 40
0.018
100
AcDbArc
 50
90.0
 51
180.1973466501
  0
ARC
  5
34C
100
AcDbEntity
  8
0
100
AcDbCircle
 62
3
  6
CONTINUOUS
 10
18.6812593539
 20
29.1105876009
 40
0.5678217441
100
AcDbArc
 50
182.1542235331
 51
182.6469533155
  0
ARC
  5
34D
100
AcDbEntity
  8
0
100
AcDbCircle
 62
3
  6
CONTINUOUS
 10
18.525884984
 20
29.105100573
 40
0.4123510829
100
AcDbArc
 50
181.0378560863
 51
182.2038679218
  0
CIRCLE
  5
34E
100
AcDbEntity
  8
0
100
AcDbCircle
 62
7
  6
CONTINUOUS
 10
29.9777757112
 20
27.4959152303
 40
0.22
  0
CIRCLE
  5
34F
100
AcDbEntity
  8
0
100
AcDbCircle
 62
7
  6
CONTINUOUS
 10
19.3527757112
 20
27.4959152303
 40
0.22
  0
CIRCLE
  5
350
100
AcDbEntity
  8
0
100
AcDbCircle
 62
7
  6
CONTINUOUS
 10
29.9777757112
 20
27.4959152303
 40
0.1545
  0
CIRCLE
  5
351
100
AcDbEntity
  8
0
100
AcDbCircle
 62
7
  6
CONTINUOUS
 10
19.3527757112
 20
27.4959152303
 40
0.1545
  0
ARC
  5
352
100
AcDbEntity
  8
0
100
AcDbCircle
 62
7
  6
CONTINUOUS
 10
28.3036307112
 20
26.1177550467
 40
0.1181
100
AcDbArc
 50
171.7632342588
 51
180.0
  0
ARC
  5
353
100
AcDbEntity
  8
0
100
AcDbCircle
 62
7
  6
CONTINUOUS
 10
22.1619207112
 20
26.1177550467
 40
0.1181
100
AcDbArc
 50
0.0
 51
8.2367657412
  0
ARC
  5
354
100
AcDbEntity
  8
0
100
AcDbCircle
 62
7
  6
CONTINUOUS
 10
18.6051757112
 20
26.3594550467
 40
0.1
100
AcDbArc
 50
236.8316157553
 51
270.0
  0
ARC
  5
355
100
AcDbEntity
  8
0
100
AcDbCircle
 62
7
  6
CONTINUOUS
 10
30.9877757112
 20
26.3594550467
 40
0.1
100
AcDbArc
 50
270.0
 51
303.1600117815
  0
ARC
  5
356
100
AcDbEntity
  8
0
100
AcDbCircle
 62
3
  6
CONTINUOUS
 10
29.8177757112
 20
27.4959152303
 40
0.09375
100
AcDbArc
 50
117.6311565601
 51
242.1436876666
  0
ARC
  5
357
100
AcDbEntity
  8
0
100
AcDbCircle
 62
3
  6
CONTINUOUS
 10
18.1271001368
 20
29.0408738636
 40
0.0896
100
AcDbArc
 50
105.0
 51
180.0
  0
ARC
  5
358
100
AcDbEntity
  8
0
100
AcDbCircle
 62
3
  6
CONTINUOUS
 10
18.1271001368
 20
26.3292263617
 40
0.0896
100
AcDbArc
 50
180.0
 51
270.0
  0
ARC
  5
359
100
AcDbEntity
  8
0
100
AcDbCircle
 62
3
  6
CONTINUOUS
 10
31.0574349695
 20
28.3141234208
 40
0.0896
100
AcDbArc
 50
0.0
 51
15.0
  0
ARC
  5
35A
100
AcDbEntity
  8
0
100
AcDbCircle
 62
3
  6
CONTINUOUS
 10
30.0095791647
 20
32.2247745232
 40
0.0896
100
AcDbArc
 50
15.0
 51
105.0
  0
ARC
  5
35B
100
AcDbEntity
  8
0
100
AcDbCircle
 62
7
  6
CONTINUOUS
 10
18.1271001368
 20
26.3292263617
 40
0.05
100
AcDbArc
 50
180.0
 51
258.9487948383
  0
ARC
  5
35C
100
AcDbEntity
  8
0
100
AcDbCircle
 62
7
  6
CONTINUOUS
 10
31.0574349695
 20
28.3141234208
 40
0.05
100
AcDbArc
 50
0.0
 51
15.0
  0
ARC
  5
35D
100
AcDbEntity
  8
0
100
AcDbCircle
 62
7
  6
CONTINUOUS
 10
18.1271001368
 20
29.0408738636
 40
0.05
100
AcDbArc
 50
105.0
 51
180.0
  0
ARC
  5
35E
100
AcDbEntity
  8
0
100
AcDbCircle
 62
7
  6
CONTINUOUS
 10
30.0095791647
 20
32.2247745232
 40
0.05
100
AcDbArc
 50
15.0
 51
105.0
  0
SPLINE
  5
35F
100
AcDbEntity
  8
0
100
AcDbSpline
 62
7
  6
CONTINUOUS
 70
0
 71
3
 72
20
 73
16
 74
0
 42
0.0000001
 43
0.0000001
 44
0.0000000001
 40
0.0
 40
0.0
 40
0.0
 40
0.0
 40
0.0624510172
 40
0.1250358146
 40
0.1875892952
 40
0.250113175
 40
0.3126275857
 40
0.3751444592
 40
0.437682991
 40
0.5002027103
 40
0.5627223503
 40
0.6252433614
 40
0.7501308518
 40
0.8751337127
 40
1.0
 40
1.0
 40
1.0
 40
1.0
 10
9.6509318369
 20
5.0930306564
 30
0.0
 10
9.6502973724
 20
5.0930306564
 30
0.0
 10
9.6490258173
 20
5.0931096574
 30
0.0
 10
9.6471473037
 20
5.0934559583
 30
0.0
 10
9.6453230904
 20
5.0940257148
 30
0.0
 10
9.6435788006
 20
5.0948038157
 30
0.0
 10
9.6419334706
 20
5.0957726122
 30
0.0
 10
9.6404034383
 20
5.0969145251
 30
0.0
 10
9.6389997307
 20
5.0982082159
 30
0.0
 10
9.6377323113
 20
5.0996353764
 30
0.0
 10
9.6366072103
 20
5.1011768217
 30
0.0
 10
9.635302342
 20
5.103358354
 30
0.0
 10
9.634040797
 20
5.1062896949
 30
0.0
 10
9.6331341326
 20
5.1100034881
 30
0.0
 10
9.6329318369
 20
5.1125466992
 30
0.0
 10
9.6329318369
 20
5.113815265
 30
0.0
  0
SPLINE
  5
360
100
AcDbEntity
  8
0
100
AcDbSpline
 62
7
  6
CONTINUOUS
 70
0
 71
3
 72
20
 73
16
 74
0
 42
0.0000001
 43
0.0000001
 44
0.0000000001
 40
0.0
 40
0.0
 40
0.0
 40
0.0
 40
0.0624510172
 40
0.1250358146
 40
0.1875892952
 40
0.250113175
 40
0.3126275857
 40
0.3751444592
 40
0.437682991
 40
0.5002027103
 40
0.5627223503
 40
0.6252433614
 40
0.7501308518
 40
0.8751337127
 40
1.0
 40
1.0
 40
1.0
 40
1.0
 10
9.6509318369
 20
4.7350735099
 30
0.0
 10
9.6502973724
 20
4.7350735099
 30
0.0
 10
9.6490258173
 20
4.7349945089
 30
0.0
 10
9.6471473037
 20
4.734648208
 30
0.0
 10
9.6453230904
 20
4.7340784515
 30
0.0
 10
9.6435788006
 20
4.7333003507
 30
0.0
 10
9.6419334706
 20
4.7323315541
 30
0.0
 10
9.6404034383
 20
4.7311896413
 30
0.0
 10
9.6389997307
 20
4.7298959504
 30
0.0
 10
9.6377323113
 20
4.7284687899
 30
0.0
 10
9.6366072103
 20
4.7269273446
 30
0.0
 10
9.635302342
 20
4.7247458124
 30
0.0
 10
9.634040797
 20
4.7218144715
 30
0.0
 10
9.6331341326
 20
4.7181006783
 30
0.0
 10
9.6329318369
 20
4.7155574672
 30
0.0
 10
9.6329318369
 20
4.7142889014
 30
0.0
  0
SPLINE
  5
361
100
AcDbEntity
  8
0
100
AcDbSpline
 62
7
  6
CONTINUOUS
 70
0
 71
3
 72
11
 73
7
 74
0
 42
0.0000001
 43
0.0000001
 44
0.0000000001
 40
0.0
 40
0.0
 40
0.0
 40
0.0
 40
0.2572982802
 40
0.5096930317
 40
0.7571651964
 40
1.0
 40
1.0
 40
1.0
 40
1.0
 10
9.7787991201
 20
4.7350735099
 30
0.0
 10
9.7799930034
 20
4.7371425845
 30
0.0
 10
9.7822665559
 20
4.7412952204
 30
0.0
 10
9.7853102727
 20
4.7476361009
 30
0.0
 10
9.7879026092
 20
4.754030868
 30
0.0
 10
9.7893060246
 20
4.7583669118
 30
0.0
 10
9.7899115244
 20
4.7605386114
 30
0.0
  0
SPLINE
  5
362
100
AcDbEntity
  8
0
100
AcDbSpline
 62
7
  6
CONTINUOUS
 70
0
 71
3
 72
19
 73
15
 74
0
 42
0.0000001
 43
0.0000001
 44
0.0000000001
 40
0.0
 40
0.0
 40
0.0
 40
0.0
 40
0.1228811336
 40
0.1837101059
 40
0.2442987535
 40
0.304799166
 40
0.3653696895
 40
0.4261634573
 40
0.487323383
 40
0.5489743369
 40
0.611218796
 40
0.7377517094
 40
0.8673259188
 40
1.0
 40
1.0
 40
1.0
 40
1.0
 10
9.7902496425
 20
4.7617896916
 30
0.0
 10
9.7909305251
 20
4.7643917452
 30
0.0
 10
9.7917533064
 20
4.7683382811
 30
0.0
 10
9.7923965616
 20
4.7736489486
 30
0.0
 10
9.792645641
 20
4.7776254641
 30
0.0
 10
9.7926593229
 20
4.7816039647
 30
0.0
 10
9.7924372047
 20
4.7855807799
 30
0.0
 10
9.7919828881
 20
4.7895522355
 30
0.0
 10
9.7913000648
 20
4.7935146788
 30
0.0
 10
9.7903976278
 20
4.7974653848
 30
0.0
 10
9.78890451
 20
4.8027416441
 30
0.0
 10
9.7865265838
 20
4.8093024079
 30
0.0
 10
9.7829848161
 20
4.8170479442
 30
0.0
 10
9.780250491
 20
4.8220997663
 30
0.0
 10
9.7787991201
 20
4.824615083
 30
0.0
  0
SPLINE
  5
363
100
AcDbEntity
  8
0
100
AcDbSpline
 62
7
  6
CONTINUOUS
 70
0
 71
3
 72
21
 73
17
 74
0
 42
0.0000001
 43
0.0000001
 44
0.0000000001
 40
0.0
 40
0.0
 40
0.0
 40
0.0
 40
0.1249878026
 40
0.1874878902
 40
0.249989133
 40
0.3124908106
 40
0.3749936016
 40
0.4374965967
 40
0.5
 40
0.5625034033
 40
0.6250063984
 40
0.6875091894
 40
0.750010867
 40
0.8125121098
 40
0.8750121974
 40
1.0
 40
1.0
 40
1.0
 40
1.0
 10
9.7787991201
 20
4.824615083
 30
0.0
 10
9.7808987626
 20
4.8318884574
 30
0.0
 10
9.783784002
 20
4.8428795005
 30
0.0
 10
9.7869633021
 20
4.8576855916
 30
0.0
 10
9.7889783475
 20
4.8688646452
 30
0.0
 10
9.7905897058
 20
4.8801093984
 30
0.0
 10
9.7917660434
 20
4.8914084381
 30
0.0
 10
9.7924823815
 20
4.9027462843
 30
0.0
 10
9.7927235521
 20
4.9141043697
 30
0.0
 10
9.7924823815
 20
4.9254624551
 30
0.0
 10
9.7917660434
 20
4.9368003013
 30
0.0
 10
9.7905897058
 20
4.948099341
 30
0.0
 10
9.7889783475
 20
4.9593440942
 30
0.0
 10
9.7869633021
 20
4.9705231478
 30
0.0
 10
9.783784002
 20
4.9853292389
 30
0.0
 10
9.7808987626
 20
4.996320282
 30
0.0
 10
9.7787991201
 20
5.0035936563
 30
0.0
  0
SPLINE
  5
364
100
AcDbEntity
  8
0
100
AcDbSpline
 62
7
  6
CONTINUOUS
 70
0
 71
3
 72
19
 73
15
 74
0
 42
0.0000001
 43
0.0000001
 44
0.0000000001
 40
0.0
 40
0.0
 40
0.0
 40
0.0
 40
0.1326960813
 40
0.2622836335
 40
0.3888212049
 40
0.4510650002
 40
0.5127135343
 40
0.5738695785
 40
0.6346583642
 40
0.6952232317
 40
0.755717777
 40
0.8163008233
 40
0.8771249197
 40
1.0
 40
1.0
 40
1.0
 40
1.0
 10
9.7787991201
 20
5.0035936563
 30
0.0
 10
9.7802504484
 20
5.0061059618
 30
0.0
 10
9.7829846943
 20
5.0111517159
 30
0.0
 10
9.7865264768
 20
5.0188881887
 30
0.0
 10
9.7889044657
 20
5.0254414033
 30
0.0
 10
9.7903976134
 20
5.0307115907
 30
0.0
 10
9.7913000553
 20
5.0346576913
 30
0.0
 10
9.791982883
 20
5.0386155181
 30
0.0
 10
9.7924372029
 20
5.0425823497
 30
0.0
 10
9.7926593229
 20
5.0465545361
 30
0.0
 10
9.7926456409
 20
5.0505284064
 30
0.0
 10
9.7923965595
 20
5.0545002936
 30
0.0
 10
9.7917532934
 20
5.0598048297
 30
0.0
 10
9.7909305065
 20
5.0637467318
 30
0.0
 10
9.7902496425
 20
5.0663456758
 30
0.0
  0
SPLINE
  5
365
100
AcDbEntity
  8
0
100
AcDbSpline
 62
7
  6
CONTINUOUS
 70
0
 71
3
 72
11
 73
7
 74
0
 42
0.0000001
 43
0.0000001
 44
0.0000000001
 40
0.0
 40
0.0
 40
0.0
 40
0.0
 40
0.2425251814
 40
0.4898540317
 40
0.7423449041
 40
1.0
 40
1.0
 40
1.0
 40
1.0
 10
9.7902496425
 20
5.0663456758
 30
0.0
 10
9.7896538566
 20
5.0686198655
 30
0.0
 10
9.7882473049
 20
5.0731619435
 30
0.0
 10
9.7855938349
 20
5.0798569875
 30
0.0
 10
9.782439667
 20
5.0864926858
 30
0.0
 10
9.7800671642
 20
5.0908344079
 30
0.0
 10
9.7788183396
 20
5.0929973775
 30
0.0
  0
SPLINE
  5
366
100
AcDbEntity
  8
0
100
AcDbSpline
 62
7
  6
CONTINUOUS
 70
0
 71
3
 72
20
 73
16
 74
0
 42
0.0000001
 43
0.0000001
 44
0.0000000001
 40
0.0
 40
0.0
 40
0.0
 40
0.0
 40
0.0837677002
 40
0.1667913546
 40
0.3264988305
 40
0.4737277638
 40
0.60569637
 40
0.6657500194
 40
0.7219692861
 40
0.7745740224
 40
0.8239520913
 40
0.8705865085
 40
0.9150398219
 40
0.9579467345
 40
1.0
 40
1.0
 40
1.0
 40
1.0
 10
9.6509318369
 20
5.0035936563
 30
0.0
 10
9.6502982684
 20
5.0035936563
 30
0.0
 10
9.6490363688
 20
5.0036326678
 30
0.0
 10
9.6465761785
 20
5.0038583816
 30
0.0
 10
9.6436676351
 20
5.004398854
 30
0.0
 10
9.6405027747
 20
5.0054325484
 30
0.0
 10
9.6381960417
 20
5.0065846934
 30
0.0
 10
9.6366421164
 20
5.0076427795
 30
0.0
 10
9.6356580155
 20
5.0084604308
 30
0.0
 10
9.6348215093
 20
5.0093193897
 30
0.0
 10
9.6341345244
 20
5.0102126177
 30
0.0
 10
9.6335983633
 20
5.0111334809
 30
0.0
 10
9.633214449
 20
5.0120753102
 30
0.0
 10
9.6329835405
 20
5.0130302615
 30
0.0
 10
9.6329318369
 20
5.013673967
 30
0.0
 10
9.6329318369
 20
5.0139920325
 30
0.0
  0
SPLINE
  5
367
100
AcDbEntity
  8
0
100
AcDbSpline
 62
7
  6
CONTINUOUS
 70
0
 71
3
 72
20
 73
16
 74
0
 42
0.0000001
 43
0.0000001
 44
0.0000000001
 40
0.0
 40
0.0
 40
0.0
 40
0.0
 40
0.0837973681
 40
0.1668497007
 40
0.3266075112
 40
0.4738716823
 40
0.6058554692
 40
0.6659080823
 40
0.7221203292
 40
0.7747120326
 40
0.8240712264
 40
0.8706813794
 40
0.9151058606
 40
0.9579806153
 40
1.0
 40
1.0
 40
1.0
 40
1.0
 10
9.6509318369
 20
4.824615083
 30
0.0
 10
9.6502982691
 20
4.824615083
 30
0.0
 10
9.6490363772
 20
4.8245761176
 30
0.0
 10
9.6465762207
 20
4.8243506711
 30
0.0
 10
9.6436677624
 20
4.8238108557
 30
0.0
 10
9.6405029562
 20
4.8227784086
 30
0.0
 10
9.6381961696
 20
4.8216276187
 30
0.0
 10
9.6366421732
 20
4.8205707311
 30
0.0
 10
9.6356580716
 20
4.8197540436
 30
0.0
 10
9.6348215608
 20
4.8188960955
 30
0.0
 10
9.6341345668
 20
4.8180039146
 30
0.0
 10
9.6335983928
 20
4.8170841244
 30
0.0
 10
9.6332144642
 20
4.8161433831
 30
0.0
 10
9.632983544
 20
4.8151895264
 30
0.0
 10
9.6329318369
 20
4.8145465472
 30
0.0
 10
9.6329318369
 20
4.8142288508
 30
0.0
  0
SPLINE
  5
368
100
AcDbEntity
  8
0
100
AcDbSpline
 62
7
  6
CONTINUOUS
 70
0
 71
3
 72
20
 73
16
 74
0
 42
0.0000001
 43
0.0000001
 44
0.0000000001
 40
0.0
 40
0.0
 40
0.0
 40
0.0
 40
0.0624510173
 40
0.1250358146
 40
0.1875892953
 40
0.2501131751
 40
0.3126275858
 40
0.3751444593
 40
0.4376829911
 40
0.5002027104
 40
0.5627223504
 40
0.6252433615
 40
0.7501308518
 40
0.8751337127
 40
1.0
 40
1.0
 40
1.0
 40
1.0
 10
9.6509318369
 20
15.7180306563
 30
0.0
 10
9.6502973724
 20
15.7180306563
 30
0.0
 10
9.6490258173
 20
15.7181096573
 30
0.0
 10
9.6471473037
 20
15.7184559582
 30
0.0
 10
9.6453230904
 20
15.7190257147
 30
0.0
 10
9.6435788006
 20
15.7198038156
 30
0.0
 10
9.6419334706
 20
15.7207726121
 30
0.0
 10
9.6404034383
 20
15.721914525
 30
0.0
 10
9.6389997307
 20
15.7232082158
 30
0.0
 10
9.6377323113
 20
15.7246353763
 30
0.0
 10
9.6366072103
 20
15.7261768216
 30
0.0
 10
9.635302342
 20
15.7283583539
 30
0.0
 10
9.634040797
 20
15.7312896948
 30
0.0
 10
9.6331341326
 20
15.735003488
 30
0.0
 10
9.6329318369
 20
15.737546699
 30
0.0
 10
9.6329318369
 20
15.7388152648
 30
0.0
  0
SPLINE
  5
369
100
AcDbEntity
  8
0
100
AcDbSpline
 62
7
  6
CONTINUOUS
 70
0
 71
3
 72
20
 73
16
 74
0
 42
0.0000001
 43
0.0000001
 44
0.0000000001
 40
0.0
 40
0.0
 40
0.0
 40
0.0
 40
0.0624510173
 40
0.1250358146
 40
0.1875892953
 40
0.2501131751
 40
0.3126275858
 40
0.3751444593
 40
0.4376829911
 40
0.5002027104
 40
0.5627223504
 40
0.6252433615
 40
0.7501308518
 40
0.8751337127
 40
1.0
 40
1.0
 40
1.0
 40
1.0
 10
9.6509318369
 20
15.36007351
 30
0.0
 10
9.6502973724
 20
15.36007351
 30
0.0
 10
9.6490258173
 20
15.359994509
 30
0.0
 10
9.6471473037
 20
15.3596482082
 30
0.0
 10
9.6453230904
 20
15.3590784516
 30
0.0
 10
9.6435788006
 20
15.3583003508
 30
0.0
 10
9.6419334706
 20
15.3573315542
 30
0.0
 10
9.6404034383
 20
15.3561896414
 30
0.0
 10
9.6389997307
 20
15.3548959505
 30
0.0
 10
9.6377323113
 20
15.3534687901
 30
0.0
 10
9.6366072103
 20
15.3519273447
 30
0.0
 10
9.635302342
 20
15.3497458125
 30
0.0
 10
9.634040797
 20
15.3468144716
 30
0.0
 10
9.6331341326
 20
15.3431006784
 30
0.0
 10
9.6329318369
 20
15.3405574673
 30
0.0
 10
9.6329318369
 20
15.3392889015
 30
0.0
  0
SPLINE
  5
36A
100
AcDbEntity
  8
0
100
AcDbSpline
 62
7
  6
CONTINUOUS
 70
0
 71
3
 72
11
 73
7
 74
0
 42
0.0000001
 43
0.0000001
 44
0.0000000001
 40
0.0
 40
0.0
 40
0.0
 40
0.0
 40
0.2572982075
 40
0.5096929358
 40
0.7571651266
 40
1.0
 40
1.0
 40
1.0
 40
1.0
 10
9.7787991201
 20
15.36007351
 30
0.0
 10
9.7799930001
 20
15.3621425852
 30
0.0
 10
9.7822665466
 20
15.3662952224
 30
0.0
 10
9.7853102565
 20
15.372636104
 30
0.0
 10
9.7879025888
 20
15.3790308721
 30
0.0
 10
9.7893060036
 20
15.383366916
 30
0.0
 10
9.7899115038
 20
15.3855386157
 30
0.0
  0
SPLINE
  5
36B
100
AcDbEntity
  8
0
100
AcDbSpline
 62
7
  6
CONTINUOUS
 70
0
 71
3
 72
19
 73
15
 74
0
 42
0.0000001
 43
0.0000001
 44
0.0000000001
 40
0.0
 40
0.0
 40
0.0
 40
0.0
 40
0.1228811495
 40
0.1837101346
 40
0.2442987969
 40
0.3047992247
 40
0.3653697631
 40
0.426163544
 40
0.4873234798
 40
0.5489744401
 40
0.6112189009
 40
0.7377518021
 40
0.8673259765
 40
1.0
 40
1.0
 40
1.0
 40
1.0
 10
9.7902496425
 20
15.3867897737
 30
0.0
 10
9.7909305251
 20
15.3893918355
 30
0.0
 10
9.7917533064
 20
15.3933383835
 30
0.0
 10
9.7923965616
 20
15.3986490671
 30
0.0
 10
9.792645641
 20
15.4026255948
 30
0.0
 10
9.7926593229
 20
15.4066041075
 30
0.0
 10
9.7924372047
 20
15.4105809349
 30
0.0
 10
9.7919828881
 20
15.4145524027
 30
0.0
 10
9.7913000649
 20
15.4185148581
 30
0.0
 10
9.7903976278
 20
15.4224655762
 30
0.0
 10
9.7889045101
 20
15.4277418514
 30
0.0
 10
9.7865265841
 20
15.4343026351
 30
0.0
 10
9.7829848164
 20
15.4420481952
 30
0.0
 10
9.7802504911
 20
15.4471000332
 30
0.0
 10
9.7787991201
 20
15.4496153579
 30
0.0
  0
SPLINE
  5
36C
100
AcDbEntity
  8
0
100
AcDbSpline
 62
7
  6
CONTINUOUS
 70
0
 71
3
 72
21
 73
17
 74
0
 42
0.0000001
 43
0.0000001
 44
0.0000000001
 40
0.0
 40
0.0
 40
0.0
 40
0.0
 40
0.1249878026
 40
0.1874878902
 40
0.249989133
 40
0.3124908106
 40
0.3749936016
 40
0.4374965967
 40
0.5
 40
0.5625034033
 40
0.6250063984
 40
0.6875091894
 40
0.750010867
 40
0.8125121098
 40
0.8750121974
 40
1.0
 40
1.0
 40
1.0
 40
1.0
 10
9.7787991201
 20
15.4496153579
 30
0.0
 10
9.7808987626
 20
15.4568887322
 30
0.0
 10
9.783784002
 20
15.4678797753
 30
0.0
 10
9.7869633021
 20
15.4826858664
 30
0.0
 10
9.7889783475
 20
15.49386492
 30
0.0
 10
9.7905897058
 20
15.5051096732
 30
0.0
 10
9.7917660434
 20
15.5164087129
 30
0.0
 10
9.7924823815
 20
15.5277465591
 30
0.0
 10
9.7927235521
 20
15.5391046444
 30
0.0
 10
9.7924823815
 20
15.5504627298
 30
0.0
 10
9.7917660434
 20
15.561800576
 30
0.0
 10
9.7905897058
 20
15.5730996157
 30
0.0
 10
9.7889783475
 20
15.5843443689
 30
0.0
 10
9.7869633021
 20
15.5955234225
 30
0.0
 10
9.783784002
 20
15.6103295136
 30
0.0
 10
9.7808987626
 20
15.6213205567
 30
0.0
 10
9.7787991201
 20
15.628593931
 30
0.0
  0
SPLINE
  5
36D
100
AcDbEntity
  8
0
100
AcDbSpline
 62
7
  6
CONTINUOUS
 70
0
 71
3
 72
19
 73
15
 74
0
 42
0.0000001
 43
0.0000001
 44
0.0000000001
 40
0.0
 40
0.0
 40
0.0
 40
0.0
 40
0.1326961392
 40
0.2622837266
 40
0.3888213102
 40
0.4510651037
 40
0.5127136315
 40
0.5738696655
 40
0.634658438
 40
0.6952232906
 40
0.7557178205
 40
0.816300852
 40
0.8771249357
 40
1.0
 40
1.0
 40
1.0
 40
1.0
 10
9.7787991201
 20
15.628593931
 30
0.0
 10
9.7802504483
 20
15.6311062286
 30
0.0
 10
9.782984694
 20
15.6361519667
 30
0.0
 10
9.7865264765
 20
15.6438884157
 30
0.0
 10
9.7889044656
 20
15.6504416105
 30
0.0
 10
9.7903976133
 20
15.6557117819
 30
0.0
 10
9.7913000553
 20
15.6596578704
 30
0.0
 10
9.7919828829
 20
15.6636156851
 30
0.0
 10
9.7924372029
 20
15.6675825045
 30
0.0
 10
9.7926593229
 20
15.6715546787
 30
0.0
 10
9.7926456409
 20
15.675528537
 30
0.0
 10
9.7923965595
 20
15.679500412
 30
0.0
 10
9.7917532934
 20
15.6848049319
 30
0.0
 10
9.7909305065
 20
15.6887468219
 30
0.0
 10
9.7902496425
 20
15.6913457577
 30
0.0
  0
SPLINE
  5
36E
100
AcDbEntity
  8
0
100
AcDbSpline
 62
7
  6
CONTINUOUS
 70
0
 71
3
 72
11
 73
7
 74
0
 42
0.0000001
 43
0.0000001
 44
0.0000000001
 40
0.0
 40
0.0
 40
0.0
 40
0.0
 40
0.2425251271
 40
0.4898539585
 40
0.7423448493
 40
1.0
 40
1.0
 40
1.0
 40
1.0
 10
9.7902496425
 20
15.6913457577
 30
0.0
 10
9.7896538566
 20
15.6936199406
 30
0.0
 10
9.7882473047
 20
15.6981620049
 30
0.0
 10
9.7855938347
 20
15.7048570283
 30
0.0
 10
9.7824396668
 20
15.7114927062
 30
0.0
 10
9.7800671641
 20
15.7158344147
 30
0.0
 10
9.7788183396
 20
15.7179973775
 30
0.0
  0
SPLINE
  5
36F
100
AcDbEntity
  8
0
100
AcDbSpline
 62
7
  6
CONTINUOUS
 70
0
 71
3
 72
20
 73
16
 74
0
 42
0.0000001
 43
0.0000001
 44
0.0000000001
 40
0.0
 40
0.0
 40
0.0
 40
0.0
 40
0.0837676223
 40
0.1667912013
 40
0.326498545
 40
0.4737273858
 40
0.6056959522
 40
0.6657496043
 40
0.7219688894
 40
0.77457366
 40
0.8239517784
 40
0.8705862593
 40
0.9150396485
 40
0.9579466455
 40
1.0
 40
1.0
 40
1.0
 40
1.0
 10
9.6509318369
 20
15.628593931
 30
0.0
 10
9.6502982684
 20
15.628593931
 30
0.0
 10
9.6490363687
 20
15.6286329426
 30
0.0
 10
9.6465761784
 20
15.6288586572
 30
0.0
 10
9.6436676348
 20
15.6293991313
 30
0.0
 10
9.6405027743
 20
15.630432829
 30
0.0
 10
9.6381960413
 20
15.6315849775
 30
0.0
 10
9.6366421163
 20
15.6326430668
 30
0.0
 10
9.6356580153
 20
15.6334607206
 30
0.0
 10
9.6348215092
 20
15.6343196821
 30
0.0
 10
9.6341345242
 20
15.6352129129
 30
0.0
 10
9.6335983632
 20
15.6361337789
 30
0.0
 10
9.633214449
 20
15.637075611
 30
0.0
 10
9.6329835405
 20
15.6380305653
 30
0.0
 10
9.6329318369
 20
15.6386742726
 30
0.0
 10
9.6329318369
 20
15.6389923392
 30
0.0
  0
SPLINE
  5
370
100
AcDbEntity
  8
0
100
AcDbSpline
 62
7
  6
CONTINUOUS
 70
0
 71
3
 72
20
 73
16
 74
0
 42
0.0000001
 43
0.0000001
 44
0.0000000001
 40
0.0
 40
0.0
 40
0.0
 40
0.0
 40
0.083797446
 40
0.1668498541
 40
0.3266077968
 40
0.4738720606
 40
0.6058558875
 40
0.6659084978
 40
0.7221207263
 40
0.7747123954
 40
0.8240715396
 40
0.8706816289
 40
0.9151060342
 40
0.9579807044
 40
1.0
 40
1.0
 40
1.0
 40
1.0
 10
9.6509318369
 20
15.4496153579
 30
0.0
 10
9.6502982692
 20
15.4496153579
 30
0.0
 10
9.6490363772
 20
15.4495763925
 30
0.0
 10
9.6465762208
 20
15.4493509467
 30
0.0
 10
9.6436677627
 20
15.4488111331
 30
0.0
 10
9.6405029567
 20
15.4477786893
 30
0.0
 10
9.6381961699
 20
15.4466279029
 30
0.0
 10
9.6366421733
 20
15.4455710185
 30
0.0
 10
9.6356580718
 20
15.4447543335
 30
0.0
 10
9.6348215609
 20
15.443896388
 30
0.0
 10
9.6341345669
 20
15.4430042099
 30
0.0
 10
9.6335983929
 20
15.4420844225
 30
0.0
 10
9.6332144642
 20
15.4411436841
 30
0.0
 10
9.632983544
 20
15.4401898302
 30
0.0
 10
9.6329318369
 20
15.439546853
 30
0.0
 10
9.6329318369
 20
15.4392291575
 30
0.0
  0
SPLINE
  5
371
100
AcDbEntity
  8
0
100
AcDbSpline
 62
7
  6
CONTINUOUS
 70
0
 71
3
 72
20
 73
16
 74
0
 42
0.0000001
 43
0.0000001
 44
0.0000000001
 40
0.0
 40
0.0
 40
0.0
 40
0.0
 40
0.0624516423
 40
0.125037033
 40
0.1875910433
 40
0.2501153651
 40
0.3126301137
 40
0.3751472114
 40
0.4376858517
 40
0.5002055662
 40
0.5627250952
 40
0.6252458994
 40
0.7501327346
 40
0.8751347109
 40
1.0
 40
1.0
 40
1.0
 40
1.0
 10
-0.5850681631
 20
5.0930274014
 30
0.0
 10
-0.5844336987
 20
5.0930274014
 30
0.0
 10
-0.583162144
 20
5.0931064009
 30
0.0
 10
-0.5812836309
 20
5.0934526953
 30
0.0
 10
-0.5794594179
 20
5.0940224412
 30
0.0
 10
-0.5777151283
 20
5.0948005276
 30
0.0
 10
-0.5760697983
 20
5.0957693063
 30
0.0
 10
-0.5745397659
 20
5.0969111982
 30
0.0
 10
-0.5731360582
 20
5.0982048654
 30
0.0
 10
-0.5718686386
 20
5.0996319999
 30
0.0
 10
-0.5707435373
 20
5.1011734173
 30
0.0
 10
-0.5694386696
 20
5.1033549085
 30
0.0
 10
-0.5681771243
 20
5.1062861953
 30
0.0
 10
-0.5672704591
 20
5.1099999226
 30
0.0
 10
-0.5670681631
 20
5.112543089
 30
0.0
 10
-0.5670681631
 20
5.1138116318
 30
0.0
  0
SPLINE
  5
372
100
AcDbEntity
  8
0
100
AcDbSpline
 62
7
  6
CONTINUOUS
 70
0
 71
3
 72
20
 73
16
 74
0
 42
0.0000001
 43
0.0000001
 44
0.0000000001
 40
0.0
 40
0.0
 40
0.0
 40
0.0
 40
0.0624516423
 40
0.125037033
 40
0.1875910433
 40
0.2501153651
 40
0.3126301137
 40
0.3751472114
 40
0.4376858517
 40
0.5002055662
 40
0.5627250952
 40
0.6252458994
 40
0.7501327346
 40
0.8751347109
 40
1.0
 40
1.0
 40
1.0
 40
1.0
 10
-0.5850681631
 20
4.735076765
 30
0.0
 10
-0.5844336987
 20
4.735076765
 30
0.0
 10
-0.583162144
 20
4.7349977655
 30
0.0
 10
-0.5812836309
 20
4.7346514711
 30
0.0
 10
-0.5794594179
 20
4.7340817252
 30
0.0
 10
-0.5777151283
 20
4.7333036388
 30
0.0
 10
-0.5760697983
 20
4.73233486
 30
0.0
 10
-0.5745397659
 20
4.7311929682
 30
0.0
 10
-0.5731360582
 20
4.7298993009
 30
0.0
 10
-0.5718686386
 20
4.7284721664
 30
0.0
 10
-0.5707435373
 20
4.7269307491
 30
0.0
 10
-0.5694386696
 20
4.7247492578
 30
0.0
 10
-0.5681771243
 20
4.7218179711
 30
0.0
 10
-0.5672704591
 20
4.7181042438
 30
0.0
 10
-0.5670681631
 20
4.7155610774
 30
0.0
 10
-0.5670681631
 20
4.7142925345
 30
0.0
  0
SPLINE
  5
373
100
AcDbEntity
  8
0
100
AcDbSpline
 62
7
  6
CONTINUOUS
 70
0
 71
3
 72
20
 73
16
 74
0
 42
0.0000001
 43
0.0000001
 44
0.0000000001
 40
0.0
 40
0.0
 40
0.0
 40
0.0
 40
0.0835177207
 40
0.1662997548
 40
0.325583291
 40
0.4725157398
 40
0.6043570752
 40
0.6644197914
 40
0.7206984962
 40
0.7734132331
 40
0.822950361
 40
0.8697890258
 40
0.9144848332
 40
0.957662045
 40
1.0
 40
1.0
 40
1.0
 40
1.0
 10
-0.5850681631
 20
4.8236281469
 30
0.0
 10
-0.5844345888
 20
4.8236281469
 30
0.0
 10
-0.5831726233
 20
4.823588747
 30
0.0
 10
-0.5807121469
 20
4.8233607768
 30
0.0
 10
-0.5778028831
 20
4.8228147573
 30
0.0
 10
-0.5746375662
 20
4.8217705338
 30
0.0
 10
-0.5723312888
 20
4.8206069571
 30
0.0
 10
-0.5707779648
 20
4.8195387611
 30
0.0
 10
-0.5697938704
 20
4.8187129783
 30
0.0
 10
-0.5689574046
 20
4.8178454916
 30
0.0
 10
-0.5682704961
 20
4.8169434294
 30
0.0
 10
-0.5677344435
 20
4.8160135143
 30
0.0
 10
-0.5673506496
 20
4.8150625054
 30
0.0
 10
-0.5671198376
 20
4.8140983178
 30
0.0
 10
-0.5670681631
 20
4.8134484829
 30
0.0
 10
-0.5670681631
 20
4.8131273026
 30
0.0
  0
SPLINE
  5
374
100
AcDbEntity
  8
0
100
AcDbSpline
 62
7
  6
CONTINUOUS
 70
0
 71
3
 72
21
 73
17
 74
0
 42
0.0000001
 43
0.0000001
 44
0.0000000001
 40
0.0
 40
0.0
 40
0.0
 40
0.0
 40
0.0840400227
 40
0.1673267199
 40
0.3274945247
 40
0.4750422578
 40
0.5431763466
 40
0.6072478319
 40
0.6672856057
 40
0.7234326378
 40
0.7759084179
 40
0.8251023247
 40
0.87150156
 40
0.9156763694
 40
0.9582731953
 40
1.0
 40
1.0
 40
1.0
 40
1.0
 10
-0.5850681631
 20
5.002603465
 30
0.0
 10
-0.5844346013
 20
5.002603465
 30
0.0
 10
-0.5831727886
 20
5.0026420368
 30
0.0
 10
-0.5807128349
 20
5.0028652427
 30
0.0
 10
-0.5778056597
 20
5.0033993375
 30
0.0
 10
-0.5750997396
 20
5.0042731099
 30
0.0
 10
-0.573177105
 20
5.0051445386
 30
0.0
 10
-0.5719076732
 20
5.0058473503
 30
0.0
 10
-0.5707789718
 20
5.0066074425
 30
0.0
 10
-0.5697948777
 20
5.0074159303
 30
0.0
 10
-0.5689583253
 20
5.0082653266
 30
0.0
 10
-0.5682712561
 20
5.0091486359
 30
0.0
 10
-0.5677349722
 20
5.0100593385
 30
0.0
 10
-0.5673509204
 20
5.0109908645
 30
0.0
 10
-0.5671199006
 20
5.0119354515
 30
0.0
 10
-0.5670681631
 20
5.0125722808
 30
0.0
 10
-0.5670681631
 20
5.0128868513
 30
0.0
  0
SPLINE
  5
375
100
AcDbEntity
  8
0
100
AcDbSpline
 62
7
  6
CONTINUOUS
 70
0
 71
3
 72
19
 73
15
 74
0
 42
0.0000001
 43
0.0000001
 44
0.0000000001
 40
0.0
 40
0.0
 40
0.0
 40
0.0
 40
0.1328850768
 40
0.2625873038
 40
0.3891649484
 40
0.4514030584
 40
0.5130308104
 40
0.5741535027
 40
0.6348994687
 40
0.6954157188
 40
0.755859831
 40
0.81639473
 40
0.8771769212
 40
1.0
 40
1.0
 40
1.0
 40
1.0
 10
-0.7129354464
 20
4.8236281469
 30
0.0
 10
-0.71438641
 20
4.8211413436
 30
0.0
 10
-0.7171199763
 20
4.816146981
 30
0.0
 10
-0.7206618848
 20
4.8084872685
 30
0.0
 10
-0.7230404112
 20
4.8019979869
 30
0.0
 10
-0.7245338158
 20
4.7967792198
 30
0.0
 10
-0.7254362996
 20
4.7928721214
 30
0.0
 10
-0.726119165
 20
4.7889533906
 30
0.0
 10
-0.7265735141
 20
4.7850257195
 30
0.0
 10
-0.7267956493
 20
4.7810927333
 30
0.0
 10
-0.7267819665
 20
4.7771580748
 30
0.0
 10
-0.7265328674
 20
4.7732253838
 30
0.0
 10
-0.7258895081
 20
4.767972771
 30
0.0
 10
-0.7250666733
 20
4.7640701132
 30
0.0
 10
-0.7243859687
 20
4.761497507
 30
0.0
  0
SPLINE
  5
376
100
AcDbEntity
  8
0
100
AcDbSpline
 62
7
  6
CONTINUOUS
 70
0
 71
3
 72
11
 73
7
 74
0
 42
0.0000001
 43
0.0000001
 44
0.0000000001
 40
0.0
 40
0.0
 40
0.0
 40
0.0
 40
0.2425149676
 40
0.4898366954
 40
0.7423263615
 40
1.0
 40
1.0
 40
1.0
 40
1.0
 10
-0.7243859687
 20
4.761497507
 30
0.0
 10
-0.72380295
 20
4.7592940879
 30
0.0
 10
-0.7224310436
 20
4.7548932036
 30
0.0
 10
-0.719851776
 20
4.7484049618
 30
0.0
 10
-0.7167904177
 20
4.7419728426
 30
0.0
 10
-0.7144891852
 20
4.7377637044
 30
0.0
 10
-0.7132779161
 20
4.7356666767
 30
0.0
  0
SPLINE
  5
377
100
AcDbEntity
  8
0
100
AcDbSpline
 62
7
  6
CONTINUOUS
 70
0
 71
3
 72
21
 73
17
 74
0
 42
0.0000001
 43
0.0000001
 44
0.0000000001
 40
0.0
 40
0.0
 40
0.0
 40
0.0
 40
0.1249878796
 40
0.1874879834
 40
0.249989228
 40
0.3124908946
 40
0.3749936641
 40
0.4374966299
 40
0.5
 40
0.5625033701
 40
0.6250063359
 40
0.6875091054
 40
0.750010772
 40
0.8125120166
 40
0.8750121204
 40
1.0
 40
1.0
 40
1.0
 40
1.0
 10
-0.7129354464
 20
5.002603465
 30
0.0
 10
-0.7150350883
 20
4.9953302247
 30
0.0
 10
-0.7179203275
 20
4.9843393828
 30
0.0
 10
-0.7210996281
 20
4.9695335592
 30
0.0
 10
-0.7231146736
 20
4.9583547088
 30
0.0
 10
-0.7247260319
 20
4.9471101599
 30
0.0
 10
-0.7259023696
 20
4.9358113255
 30
0.0
 10
-0.7266187077
 20
4.9244736851
 30
0.0
 10
-0.7268598784
 20
4.9131158059
 30
0.0
 10
-0.7266187077
 20
4.9017579267
 30
0.0
 10
-0.7259023696
 20
4.8904202864
 30
0.0
 10
-0.7247260319
 20
4.8791214519
 30
0.0
 10
-0.7231146736
 20
4.8678769031
 30
0.0
 10
-0.7210996281
 20
4.8566980527
 30
0.0
 10
-0.7179203275
 20
4.8418922291
 30
0.0
 10
-0.7150350883
 20
4.8309013871
 30
0.0
 10
-0.7129354464
 20
4.8236281469
 30
0.0
  0
LINE
  5
378
100
AcDbEntity
  8
0
100
AcDbLine
 62
7
  6
CONTINUOUS
 10
-0.7129354464
 20
5.0930274014
 11
-0.7132504937
 21
5.0924734746
  0
SPLINE
  5
379
100
AcDbEntity
  8
0
100
AcDbSpline
 62
7
  6
CONTINUOUS
 70
0
 71
3
 72
11
 73
7
 74
0
 42
0.0000001
 43
0.0000001
 44
0.0000000001
 40
0.0
 40
0.0
 40
0.0
 40
0.0
 40
0.2569199895
 40
0.5091853265
 40
0.7567896613
 40
1.0
 40
1.0
 40
1.0
 40
1.0
 10
-0.7132504937
 20
5.0924734746
 30
0.0
 10
-0.7143979109
 20
5.0904466442
 30
0.0
 10
-0.7165841593
 20
5.0863789496
 30
0.0
 10
-0.7195157393
 20
5.0801723195
 30
0.0
 10
-0.7220221
 20
5.0739149117
 30
0.0
 10
-0.7233880069
 20
5.0696752476
 30
0.0
 10
-0.7239811032
 20
5.0675517222
 30
0.0
  0
SPLINE
  5
37A
100
AcDbEntity
  8
0
100
AcDbSpline
 62
7
  6
CONTINUOUS
 70
0
 71
3
 72
20
 73
16
 74
0
 42
0.0000001
 43
0.0000001
 44
0.0000000001
 40
0.0
 40
0.0
 40
0.0
 40
0.0
 40
0.1229287928
 40
0.1837969743
 40
0.2444308645
 40
0.3049787287
 40
0.3655949492
 40
0.4264288102
 40
0.487619675
 40
0.54928941
 40
0.6115380403
 40
0.738029475
 40
0.8023904553
 40
0.8675118642
 40
1.0
 40
1.0
 40
1.0
 40
1.0
 10
-0.7243859687
 20
5.0660479523
 30
0.0
 10
-0.7250670054
 20
5.0634196626
 30
0.0
 10
-0.7258897402
 20
5.0594340298
 30
0.0
 10
-0.7265329055
 20
5.054071624
 30
0.0
 10
-0.7267819678
 20
5.050056055
 30
0.0
 10
-0.726795649
 20
5.046038485
 30
0.0
 10
-0.7265735455
 20
5.0420226126
 30
0.0
 10
-0.7261192568
 20
5.0380121382
 30
0.0
 10
-0.7254364708
 20
5.0340107463
 30
0.0
 10
-0.7245340715
 20
5.0300211651
 30
0.0
 10
-0.7230412164
 20
5.0246937519
 30
0.0
 10
-0.7211501094
 20
5.0194240491
 30
0.0
 10
-0.7189236238
 20
5.0142263578
 30
0.0
 10
-0.7164506861
 20
5.0089941609
 30
0.0
 10
-0.7143871725
 20
5.0051441901
 30
0.0
 10
-0.7129354464
 20
5.002603465
 30
0.0
  0
SPLINE
  5
37B
100
AcDbEntity
  8
0
100
AcDbSpline
 62
7
  6
CONTINUOUS
 70
0
 71
3
 72
20
 73
16
 74
0
 42
0.0000001
 43
0.0000001
 44
0.0000000001
 40
0.0
 40
0.0
 40
0.0
 40
0.0
 40
0.0624516427
 40
0.1250370337
 40
0.1875910443
 40
0.2501153664
 40
0.3126301152
 40
0.375147213
 40
0.4376858534
 40
0.5002055679
 40
0.5627250969
 40
0.6252459009
 40
0.7501327357
 40
0.8751347115
 40
1.0
 40
1.0
 40
1.0
 40
1.0
 10
-0.5850681631
 20
15.7180273994
 30
0.0
 10
-0.5844336987
 20
15.7180273994
 30
0.0
 10
-0.583162144
 20
15.7181063989
 30
0.0
 10
-0.5812836309
 20
15.7184526933
 30
0.0
 10
-0.5794594179
 20
15.7190224393
 30
0.0
 10
-0.5777151283
 20
15.7198005257
 30
0.0
 10
-0.5760697983
 20
15.7207693044
 30
0.0
 10
-0.5745397659
 20
15.7219111963
 30
0.0
 10
-0.5731360582
 20
15.7232048635
 30
0.0
 10
-0.5718686386
 20
15.724631998
 30
0.0
 10
-0.5707435373
 20
15.7261734153
 30
0.0
 10
-0.5694386696
 20
15.7283549065
 30
0.0
 10
-0.5681771243
 20
15.7312861932
 30
0.0
 10
-0.5672704591
 20
15.7349999205
 30
0.0
 10
-0.5670681631
 20
15.7375430868
 30
0.0
 10
-0.5670681631
 20
15.7388116297
 30
0.0
  0
SPLINE
  5
37C
100
AcDbEntity
  8
0
100
AcDbSpline
 62
7
  6
CONTINUOUS
 70
0
 71
3
 72
20
 73
16
 74
0
 42
0.0000001
 43
0.0000001
 44
0.0000000001
 40
0.0
 40
0.0
 40
0.0
 40
0.0
 40
0.0624516427
 40
0.1250370337
 40
0.1875910443
 40
0.2501153664
 40
0.3126301152
 40
0.375147213
 40
0.4376858534
 40
0.5002055679
 40
0.5627250969
 40
0.6252459009
 40
0.7501327357
 40
0.8751347115
 40
1.0
 40
1.0
 40
1.0
 40
1.0
 10
-0.5850681631
 20
15.3600767669
 30
0.0
 10
-0.5844336987
 20
15.3600767669
 30
0.0
 10
-0.583162144
 20
15.3599977674
 30
0.0
 10
-0.5812836309
 20
15.359651473
 30
0.0
 10
-0.5794594179
 20
15.3590817271
 30
0.0
 10
-0.5777151283
 20
15.3583036407
 30
0.0
 10
-0.5760697983
 20
15.357334862
 30
0.0
 10
-0.5745397659
 20
15.3561929701
 30
0.0
 10
-0.5731360582
 20
15.3548993029
 30
0.0
 10
-0.5718686386
 20
15.3534721684
 30
0.0
 10
-0.5707435373
 20
15.3519307511
 30
0.0
 10
-0.5694386696
 20
15.3497492599
 30
0.0
 10
-0.5681771243
 20
15.3468179731
 30
0.0
 10
-0.5672704591
 20
15.3431042459
 30
0.0
 10
-0.5670681631
 20
15.3405610795
 30
0.0
 10
-0.5670681631
 20
15.3392925367
 30
0.0
  0
SPLINE
  5
37D
100
AcDbEntity
  8
0
100
AcDbSpline
 62
7
  6
CONTINUOUS
 70
0
 71
3
 72
20
 73
16
 74
0
 42
0.0000001
 43
0.0000001
 44
0.0000000001
 40
0.0
 40
0.0
 40
0.0
 40
0.0
 40
0.0835176434
 40
0.1662996028
 40
0.3255830079
 40
0.4725153651
 40
0.6043566613
 40
0.6644193805
 40
0.7206981037
 40
0.7734128747
 40
0.8229500518
 40
0.8697887797
 40
0.914484662
 40
0.9576619572
 40
1.0
 40
1.0
 40
1.0
 40
1.0
 10
-0.5850681631
 20
15.4486278736
 30
0.0
 10
-0.5844345888
 20
15.4486278736
 30
0.0
 10
-0.5831726233
 20
15.4485884736
 30
0.0
 10
-0.5807121468
 20
15.4483605028
 30
0.0
 10
-0.5778028828
 20
15.4478144815
 30
0.0
 10
-0.5746375658
 20
15.4467702547
 30
0.0
 10
-0.5723312885
 20
15.4456066746
 30
0.0
 10
-0.5707779647
 20
15.4445384755
 30
0.0
 10
-0.5697938703
 20
15.4437126901
 30
0.0
 10
-0.5689574045
 20
15.4428452008
 30
0.0
 10
-0.568270496
 20
15.4419431358
 30
0.0
 10
-0.5677344434
 20
15.4410132179
 30
0.0
 10
-0.5673506496
 20
15.4400622061
 30
0.0
 10
-0.5671198376
 20
15.4390980157
 30
0.0
 10
-0.5670681631
 20
15.4384481789
 30
0.0
 10
-0.5670681631
 20
15.4381269977
 30
0.0
  0
SPLINE
  5
37E
100
AcDbEntity
  8
0
100
AcDbSpline
 62
7
  6
CONTINUOUS
 70
0
 71
3
 72
21
 73
17
 74
0
 42
0.0000001
 43
0.0000001
 44
0.0000000001
 40
0.0
 40
0.0
 40
0.0
 40
0.0
 40
0.084040101
 40
0.1673268739
 40
0.3274948116
 40
0.475042638
 40
0.5431767541
 40
0.6072482522
 40
0.6672860235
 40
0.7234330373
 40
0.7759087831
 40
0.8251026401
 40
0.8715018114
 40
0.9156765444
 40
0.9582732851
 40
1.0
 40
1.0
 40
1.0
 40
1.0
 10
-0.5850681631
 20
15.6276031899
 30
0.0
 10
-0.5844346013
 20
15.6276031899
 30
0.0
 10
-0.5831727886
 20
15.6276417616
 30
0.0
 10
-0.580712835
 20
15.6278649668
 30
0.0
 10
-0.57780566
 20
15.6283990598
 30
0.0
 10
-0.5750997398
 20
15.6292728295
 30
0.0
 10
-0.5731771051
 20
15.6301442555
 30
0.0
 10
-0.5719076733
 20
15.630847065
 30
0.0
 10
-0.570778972
 20
15.6316071549
 30
0.0
 10
-0.5697948778
 20
15.6324156401
 30
0.0
 10
-0.5689583254
 20
15.6332650337
 30
0.0
 10
-0.5682712562
 20
15.6341483403
 30
0.0
 10
-0.5677349723
 20
15.63505904
 30
0.0
 10
-0.5673509205
 20
15.6359905632
 30
0.0
 10
-0.5671199006
 20
15.6369351473
 30
0.0
 10
-0.5670681631
 20
15.6375719747
 30
0.0
 10
-0.5670681631
 20
15.6378865442
 30
0.0
  0
SPLINE
  5
37F
100
AcDbEntity
  8
0
100
AcDbSpline
 62
7
  6
CONTINUOUS
 70
0
 71
3
 72
19
 73
15
 74
0
 42
0.0000001
 43
0.0000001
 44
0.0000000001
 40
0.0
 40
0.0
 40
0.0
 40
0.0
 40
0.1328851363
 40
0.2625873994
 40
0.3891650566
 40
0.4514031648
 40
0.5130309103
 40
0.5741535921
 40
0.6348995446
 40
0.6954157794
 40
0.7558598757
 40
0.8163947595
 40
0.8771769376
 40
1.0
 40
1.0
 40
1.0
 40
1.0
 10
-0.7129354464
 20
15.4486278736
 30
0.0
 10
-0.7143864099
 20
15.4461410783
 30
0.0
 10
-0.7171199759
 20
15.4411467316
 30
0.0
 10
-0.7206618845
 20
15.4334870431
 30
0.0
 10
-0.7230404111
 20
15.4269977813
 30
0.0
 10
-0.7245338157
 20
15.4217790302
 30
0.0
 10
-0.7254362996
 20
15.4178719439
 30
0.0
 10
-0.726119165
 20
15.4139532252
 30
0.0
 10
-0.7265735141
 20
15.4100255663
 30
0.0
 10
-0.7267956493
 20
15.4060925922
 30
0.0
 10
-0.7267819665
 20
15.402157946
 30
0.0
 10
-0.7265328674
 20
15.3982252671
 30
0.0
 10
-0.7258895081
 20
15.3929726705
 30
0.0
 10
-0.7250666732
 20
15.3890700248
 30
0.0
 10
-0.7243859687
 20
15.3864974269
 30
0.0
  0
SPLINE
  5
380
100
AcDbEntity
  8
0
100
AcDbSpline
 62
7
  6
CONTINUOUS
 70
0
 71
3
 72
11
 73
7
 74
0
 42
0.0000001
 43
0.0000001
 44
0.0000000001
 40
0.0
 40
0.0
 40
0.0
 40
0.0
 40
0.242514913
 40
0.4898366219
 40
0.7423263064
 40
1.0
 40
1.0
 40
1.0
 40
1.0
 10
-0.7243859687
 20
15.3864974269
 30
0.0
 10
-0.72380295
 20
15.3842940144
 30
0.0
 10
-0.7224310434
 20
15.3798931435
 30
0.0
 10
-0.7198517758
 20
15.3734049218
 30
0.0
 10
-0.7167904175
 20
15.3669728226
 30
0.0
 10
-0.7144891851
 20
15.3627636979
 30
0.0
 10
-0.7132779161
 20
15.3606666768
 30
0.0
  0
SPLINE
  5
381
100
AcDbEntity
  8
0
100
AcDbSpline
 62
7
  6
CONTINUOUS
 70
0
 71
3
 72
21
 73
17
 74
0
 42
0.0000001
 43
0.0000001
 44
0.0000000001
 40
0.0
 40
0.0
 40
0.0
 40
0.0
 40
0.1249878796
 40
0.1874879834
 40
0.249989228
 40
0.3124908947
 40
0.3749936641
 40
0.43749663
 40
0.5
 40
0.56250337
 40
0.6250063359
 40
0.6875091053
 40
0.750010772
 40
0.8125120166
 40
0.8750121204
 40
1.0
 40
1.0
 40
1.0
 40
1.0
 10
-0.7129354464
 20
15.6276031899
 30
0.0
 10
-0.7150350883
 20
15.6203299497
 30
0.0
 10
-0.7179203275
 20
15.6093391079
 30
0.0
 10
-0.7210996281
 20
15.5945332844
 30
0.0
 10
-0.7231146736
 20
15.5833544342
 30
0.0
 10
-0.7247260319
 20
15.5721098854
 30
0.0
 10
-0.7259023696
 20
15.560811051
 30
0.0
 10
-0.7266187077
 20
15.5494734108
 30
0.0
 10
-0.7268598784
 20
15.5381155318
 30
0.0
 10
-0.7266187077
 20
15.5267576527
 30
0.0
 10
-0.7259023696
 20
15.5154200125
 30
0.0
 10
-0.7247260319
 20
15.5041211781
 30
0.0
 10
-0.7231146736
 20
15.4928766294
 30
0.0
 10
-0.7210996281
 20
15.4816977791
 30
0.0
 10
-0.7179203275
 20
15.4668919556
 30
0.0
 10
-0.7150350883
 20
15.4559011138
 30
0.0
 10
-0.7129354464
 20
15.4486278736
 30
0.0
  0
LINE
  5
382
100
AcDbEntity
  8
0
100
AcDbLine
 62
7
  6
CONTINUOUS
 10
-0.7129354464
 20
15.7180273994
 11
-0.7132504921
 21
15.7174734739
  0
SPLINE
  5
383
100
AcDbEntity
  8
0
100
AcDbSpline
 62
7
  6
CONTINUOUS
 70
0
 71
3
 72
11
 73
7
 74
0
 42
0.0000001
 43
0.0000001
 44
0.0000000001
 40
0.0
 40
0.0
 40
0.0
 40
0.0
 40
0.256919921
 40
0.5091852363
 40
0.7567895955
 40
1.0
 40
1.0
 40
1.0
 40
1.0
 10
-0.7132504921
 20
15.7174734739
 30
0.0
 10
-0.7143979062
 20
15.7154466429
 30
0.0
 10
-0.716584149
 20
15.7113789472
 30
0.0
 10
-0.7195157225
 20
15.7051723162
 30
0.0
 10
-0.7220220794
 20
15.6989149076
 30
0.0
 10
-0.7233879858
 20
15.6946752434
 30
0.0
 10
-0.7239810824
 20
15.6925517179
 30
0.0
  0
SPLINE
  5
384
100
AcDbEntity
  8
0
100
AcDbSpline
 62
7
  6
CONTINUOUS
 70
0
 71
3
 72
20
 73
16
 74
0
 42
0.0000001
 43
0.0000001
 44
0.0000000001
 40
0.0
 40
0.0
 40
0.0
 40
0.0
 40
0.1229288082
 40
0.1837970021
 40
0.2444309066
 40
0.3049787857
 40
0.3655950205
 40
0.4264288942
 40
0.4876197689
 40
0.5492895101
 40
0.611538142
 40
0.738029565
 40
0.8023905311
 40
0.8675119201
 40
1.0
 40
1.0
 40
1.0
 40
1.0
 10
-0.7243859687
 20
15.6910478689
 30
0.0
 10
-0.7250670055
 20
15.6884195711
 30
0.0
 10
-0.7258897402
 20
15.6844339262
 30
0.0
 10
-0.7265329056
 20
15.6790715043
 30
0.0
 10
-0.7267819678
 20
15.6750559232
 30
0.0
 10
-0.726795649
 20
15.6710383411
 30
0.0
 10
-0.7265735455
 20
15.6670224567
 30
0.0
 10
-0.7261192568
 20
15.6630119701
 30
0.0
 10
-0.7254364708
 20
15.6590105662
 30
0.0
 10
-0.7245340715
 20
15.6550209729
 30
0.0
 10
-0.7230412165
 20
15.6496935439
 30
0.0
 10
-0.7211501096
 20
15.6444238252
 30
0.0
 10
-0.7189236239
 20
15.639226118
 30
0.0
 10
-0.7164506863
 20
15.6339939055
 30
0.0
 10
-0.7143871727
 20
15.6301439228
 30
0.0
 10
-0.7129354464
 20
15.6276031899
 30
0.0
  0
SPLINE
  5
385
100
AcDbEntity
  8
0
100
AcDbSpline
 62
7
  6
CONTINUOUS
 70
0
 71
3
 72
22
 73
18
 74
0
 42
0.0000001
 43
0.0000001
 44
0.0000000001
 40
0.0
 40
0.0
 40
0.0
 40
0.0
 40
0.0584663086
 40
0.0872285664
 40
0.1155671688
 40
0.1433443353
 40
0.1703329667
 40
0.1962345983
 40
0.2090431058
 40
0.2224330441
 40
0.2526199194
 40
0.2856318636
 40
0.352610271
 40
0.4854872026
 40
0.6164626298
 40
0.7456391531
 40
1.0
 40
1.0
 40
1.0
 40
1.0
 10
4.5701833444
 20
11.7482795719
 30
0.0
 10
4.5734848048
 20
11.7452884581
 30
0.0
 10
4.5782874348
 20
11.740683374
 30
0.0
 10
4.5842490733
 20
11.734197941
 30
0.0
 10
4.5883609927
 20
11.7292024785
 30
0.0
 10
4.5920115587
 20
11.724010835
 30
0.0
 10
4.5949329931
 20
11.7186014072
 30
0.0
 10
4.596380745
 20
11.713677816
 30
0.0
 10
4.5959213428
 20
11.709653748
 30
0.0
 10
4.593696075
 20
11.7058183539
 30
0.0
 10
4.5881214881
 20
11.7031138904
 30
0.0
 10
4.5783228874
 20
11.7017157557
 30
0.0
 10
4.5604670128
 20
11.7024547138
 30
0.0
 10
4.5356244006
 20
11.7068964731
 30
0.0
 10
4.5066267637
 20
11.7144843975
 30
0.0
 10
4.4693871374
 20
11.7267928006
 30
0.0
 10
4.4422497267
 20
11.7377011988
 30
0.0
 10
4.4243938588
 20
11.7452382559
 30
0.0
  0
SPLINE
  5
386
100
AcDbEntity
  8
0
100
AcDbSpline
 62
7
  6
CONTINUOUS
 70
0
 71
3
 72
22
 73
18
 74
0
 42
0.0000001
 43
0.0000001
 44
0.0000000001
 40
0.0
 40
0.0
 40
0.0
 40
0.0
 40
0.0584659484
 40
0.0872280135
 40
0.1155664152
 40
0.1433433757
 40
0.1703318061
 40
0.1962332894
 40
0.2090417988
 40
0.2224318347
 40
0.2526190693
 40
0.2856313199
 40
0.3526101369
 40
0.4854874936
 40
0.6164630682
 40
0.7456395555
 40
1.0
 40
1.0
 40
1.0
 40
1.0
 10
2.9260238487
 20
10.9847639508
 30
0.0
 10
2.930420771
 20
10.9854801832
 30
0.0
 10
2.9370154832
 20
10.9863637705
 30
0.0
 10
2.9458029118
 20
10.9869811134
 30
0.0
 10
2.952272177
 20
10.987081281
 30
0.0
 10
2.9586071705
 20
10.9866984289
 30
0.0
 10
2.9646578272
 20
10.9856097305
 30
0.0
 10
2.9694098261
 20
10.9836717713
 30
0.0
 10
2.9722694606
 20
10.9808035939
 30
0.0
 10
2.9738805853
 20
10.9766724452
 30
0.0
 10
2.9725192745
 20
10.9706278529
 30
0.0
 10
2.9675030323
 20
10.9620952618
 30
0.0
 10
2.9557923553
 20
10.9485957249
 30
0.0
 10
2.9368306108
 20
10.9319424111
 30
0.0
 10
2.9128185341
 20
10.9140022001
 30
0.0
 10
2.8799771482
 20
10.8925613657
 30
0.0
 10
2.854528913
 20
10.8781458488
 30
0.0
 10
2.8375033878
 20
10.8688849117
 30
0.0
  0
SPLINE
  5
387
100
AcDbEntity
  8
0
100
AcDbSpline
 62
7
  6
CONTINUOUS
 70
0
 71
3
 72
22
 73
18
 74
0
 42
0.0000001
 43
0.0000001
 44
0.0000000001
 40
0.0
 40
0.0
 40
0.0
 40
0.0
 40
0.0584656169
 40
0.0872274856
 40
0.1155656641
 40
0.1433423668
 40
0.1703304939
 40
0.1962316235
 40
0.2090399662
 40
0.2224299003
 40
0.2526171936
 40
0.2856296207
 40
0.3526087839
 40
0.4854866755
 40
0.6164626206
 40
0.7456393469
 40
1.0
 40
1.0
 40
1.0
 40
1.0
 10
2.4978477206
 20
9.223264092
 30
0.0
 10
2.5000291324
 20
9.2271482814
 30
0.0
 10
2.5034499728
 20
9.2328551031
 30
0.0
 10
2.5084460788
 20
9.2401102481
 30
0.0
 10
2.5124012
 20
9.2452305353
 30
0.0
 10
2.5166502399
 20
9.2499446848
 30
0.0
 10
2.5212738457
 20
9.2539964411
 30
0.0
 10
2.5257517471
 20
9.2565033703
 30
0.0
 10
2.5297770693
 20
9.256950808
 30
0.0
 10
2.5340113968
 20
9.2556346604
 30
0.0
 10
2.5378884136
 20
9.2508015811
 30
0.0
 10
2.5414318565
 20
9.2415597421
 30
0.0
 10
2.5446847367
 20
9.2239871562
 30
0.0
 10
2.5458824475
 20
9.1987791381
 30
0.0
 10
2.5449375238
 20
9.1688202654
 30
0.0
 10
2.5412246065
 20
9.1297758139
 30
0.0
 10
2.5366286031
 20
9.1008917409
 30
0.0
 10
2.533253997
 20
9.0818066097
 30
0.0
  0
SPLINE
  5
388
100
AcDbEntity
  8
0
100
AcDbSpline
 62
7
  6
CONTINUOUS
 70
0
 71
3
 72
22
 73
18
 74
0
 42
0.0000001
 43
0.0000001
 44
0.0000000001
 40
0.0
 40
0.0
 40
0.0
 40
0.0
 40
0.0584655639
 40
0.0872273802
 40
0.115565481
 40
0.1433420684
 40
0.1703300182
 40
0.196230855
 40
0.2090389879
 40
0.2224286975
 40
0.2526157049
 40
0.2856280457
 40
0.3526072307
 40
0.4854853644
 40
0.6164616241
 40
0.7456386844
 40
1.0
 40
1.0
 40
1.0
 40
1.0
 10
3.6080803178
 20
7.7902253172
 30
0.0
 10
3.6064035751
 20
7.7943525402
 30
0.0
 10
3.6040745848
 20
7.8005851663
 30
0.0
 10
3.6015171952
 20
7.8090147372
 30
0.0
 10
3.5999798868
 20
7.8152993801
 30
0.0
 10
3.5989433606
 20
7.8215605921
 30
0.0
 10
3.5986582476
 20
7.8277016494
 30
0.0
 10
3.599490086
 20
7.8327656199
 30
0.0
 10
3.6016499454
 20
7.8361916941
 30
0.0
 10
3.6053189631
 20
7.8386815963
 30
0.0
 10
3.6115148522
 20
7.8386993531
 30
0.0
 10
3.6209496719
 20
7.8357075244
 30
0.0
 10
3.6367166199
 20
7.8272944005
 30
0.0
 10
3.6571718714
 20
7.8125139077
 30
0.0
 10
3.6800056464
 20
7.7930961547
 30
0.0
 10
3.7082170903
 20
7.7658495745
 30
0.0
 10
3.7279342141
 20
7.74424745
 30
0.0
 10
3.7407516831
 20
7.7297097611
 30
0.0
  0
LINE
  5
389
100
AcDbEntity
  8
0
100
AcDbLine
 62
7
  6
CONTINUOUS
 10
5.42069385
 20
7.7647550525
 11
5.4283236684
 21
7.7649582456
  0
SPLINE
  5
38A
100
AcDbEntity
  8
0
100
AcDbSpline
 62
7
  6
CONTINUOUS
 70
0
 71
3
 72
12
 73
8
 74
0
 42
0.0000001
 43
0.0000001
 44
0.0000000001
 40
0.0
 40
0.0
 40
0.0
 40
0.0
 40
0.1172243461
 40
0.2063343467
 40
0.3184868161
 40
0.6137433028
 40
1.0
 40
1.0
 40
1.0
 40
1.0
 10
5.4283236684
 20
7.7649582456
 30
0.0
 10
5.4433953783
 20
7.7651978718
 30
0.0
 10
5.4699229886
 20
7.7656861873
 30
0.0
 10
5.5108734186
 20
7.7662140188
 30
0.0
 10
5.5747003099
 20
7.7678777172
 30
0.0
 10
5.6766159828
 20
7.7740725376
 30
0.0
 10
5.7636066711
 20
7.7857661818
 30
0.0
 10
5.8124799326
 20
7.7946150505
 30
0.0
  0
SPLINE
  5
38B
100
AcDbEntity
  8
0
100
AcDbSpline
 62
7
  6
CONTINUOUS
 70
0
 71
3
 72
9
 73
5
 74
0
 42
0.0000001
 43
0.0000001
 44
0.0000000001
 40
0.0
 40
0.0
 40
0.0
 40
0.0
 40
0.4904688346
 40
1.0
 40
1.0
 40
1.0
 40
1.0
 10
5.8124799326
 20
7.7946150505
 30
0.0
 10
5.830466902
 20
7.7978770928
 30
0.0
 10
5.8670518825
 20
7.8050275531
 30
0.0
 10
5.903434206
 20
7.8131243279
 30
0.0
 10
5.9219926118
 20
7.8171539535
 30
0.0
  0
SPLINE
  5
38C
100
AcDbEntity
  8
0
100
AcDbSpline
 62
7
  6
CONTINUOUS
 70
0
 71
3
 72
9
 73
5
 74
0
 42
0.0000001
 43
0.0000001
 44
0.0000000001
 40
0.0
 40
0.0
 40
0.0
 40
0.0
 40
0.481246249
 40
1.0
 40
1.0
 40
1.0
 40
1.0
 10
5.9219926118
 20
7.8171539535
 30
0.0
 10
5.9334586385
 20
7.8196436268
 30
0.0
 10
5.9571452064
 20
7.8255204673
 30
0.0
 10
5.9802964724
 20
7.8332317953
 30
0.0
 10
5.9922053634
 20
7.8374911447
 30
0.0
  0
SPLINE
  5
38D
100
AcDbEntity
  8
0
100
AcDbSpline
 62
7
  6
CONTINUOUS
 70
0
 71
3
 72
10
 73
6
 74
0
 42
0.0000001
 43
0.0000001
 44
0.0000000001
 40
0.0
 40
0.0
 40
0.0
 40
0.0
 40
0.2393338777
 40
0.6131796941
 40
1.0
 40
1.0
 40
1.0
 40
1.0
 10
5.9922053634
 20
7.8374911447
 30
0.0
 10
6.0017085301
 20
7.8408901329
 30
0.0
 10
6.0257637867
 20
7.850406974
 30
0.0
 10
6.0642358702
 20
7.8677329165
 30
0.0
 10
6.0926417772
 20
7.8826690004
 30
0.0
 10
6.1069605414
 20
7.8904832563
 30
0.0
  0
SPLINE
  5
38E
100
AcDbEntity
  8
0
100
AcDbSpline
 62
7
  6
CONTINUOUS
 70
0
 71
3
 72
20
 73
16
 74
0
 42
0.0000001
 43
0.0000001
 44
0.0000000001
 40
0.0
 40
0.0
 40
0.0
 40
0.0
 40
0.1386490979
 40
0.2794064374
 40
0.4221462767
 40
0.4946911038
 40
0.5680733377
 40
0.6047555719
 40
0.6400756105
 40
0.6685626858
 40
0.6876793908
 40
0.7293057005
 40
0.7787423823
 40
0.8861267335
 40
1.0
 40
1.0
 40
1.0
 40
1.0
 10
6.1069605414
 20
7.8904832563
 30
0.0
 10
6.1087866965
 20
7.8914798538
 30
0.0
 10
6.1124268946
 20
7.893561789
 30
0.0
 10
6.1178274384
 20
7.8968727405
 30
0.0
 10
6.1223087648
 20
7.8997833667
 30
0.0
 10
6.1258123723
 20
7.9023363401
 30
0.0
 10
6.1279315758
 20
7.9040670207
 30
0.0
 10
6.1295089179
 20
7.905598779
 30
0.0
 10
6.130435214
 20
7.9067433737
 30
0.0
 10
6.1310979313
 20
7.9079383458
 30
0.0
 10
6.1304337194
 20
7.9092922444
 30
0.0
 10
6.1285507251
 20
7.9093941474
 30
0.0
 10
6.1256825132
 20
7.9092336274
 30
0.0
 10
6.121622419
 20
7.9084517081
 30
0.0
 10
6.118423341
 20
7.9076296636
 30
0.0
 10
6.1167856133
 20
7.907142527
 30
0.0
  0
SPLINE
  5
38F
100
AcDbEntity
  8
0
100
AcDbSpline
 62
7
  6
CONTINUOUS
 70
0
 71
3
 72
12
 73
8
 74
0
 42
0.0000001
 43
0.0000001
 44
0.0000000001
 40
0.0
 40
0.0
 40
0.0
 40
0.0
 40
0.2888980626
 40
0.4183083255
 40
0.5421704433
 40
0.7793912369
 40
1.0
 40
1.0
 40
1.0
 40
1.0
 10
6.1167856133
 20
7.907142527
 30
0.0
 10
6.0879201604
 20
7.898557057
 30
0.0
 10
6.0453984978
 20
7.8883899646
 30
0.0
 10
5.9895887141
 20
7.8794669714
 30
0.0
 10
5.9389985702
 20
7.8720546572
 30
0.0
 10
5.8790130769
 20
7.8631971107
 30
0.0
 10
5.8317579893
 20
7.8565061939
 30
0.0
 10
5.8089594093
 20
7.8534947785
 30
0.0
  0
SPLINE
  5
390
100
AcDbEntity
  8
0
100
AcDbSpline
 62
7
  6
CONTINUOUS
 70
0
 71
3
 72
10
 73
6
 74
0
 42
0.0000001
 43
0.0000001
 44
0.0000000001
 40
0.0
 40
0.0
 40
0.0
 40
0.0
 40
0.3836002569
 40
0.6787850044
 40
1.0
 40
1.0
 40
1.0
 40
1.0
 10
5.8089594093
 20
7.8534947785
 30
0.0
 10
5.7766445092
 20
7.849249373
 30
0.0
 10
5.7193768906
 20
7.8423278787
 30
0.0
 10
5.6347191534
 20
7.8349751673
 30
0.0
 10
5.5824195955
 20
7.8320208285
 30
0.0
 10
5.5551496868
 20
7.8309224899
 30
0.0
  0
LINE
  5
391
100
AcDbEntity
  8
0
100
AcDbLine
 62
7
  6
CONTINUOUS
 10
6.5707533568
 20
9.1660329267
 11
6.5753503797
 21
9.1721242569
  0
SPLINE
  5
392
100
AcDbEntity
  8
0
100
AcDbSpline
 62
7
  6
CONTINUOUS
 70
0
 71
3
 72
12
 73
8
 74
0
 42
0.0000001
 43
0.0000001
 44
0.0000000001
 40
0.0
 40
0.0
 40
0.0
 40
0.0
 40
0.1172169282
 40
0.2063247692
 40
0.3184763333
 40
0.6137351636
 40
1.0
 40
1.0
 40
1.0
 40
1.0
 10
6.5753503797
 20
9.1721242569
 30
0.0
 10
6.5845581653
 20
9.1840566022
 30
0.0
 10
6.6007135802
 20
9.2051000087
 30
0.0
 10
6.6258299847
 20
9.237443751
 30
0.0
 10
6.6643214501
 20
9.2883815503
 30
0.0
 10
6.7230178095
 20
9.3719231944
 30
0.0
 10
6.7681105407
 20
9.4472245384
 30
0.0
 10
6.7916629615
 20
9.4909516283
 30
0.0
  0
SPLINE
  5
393
100
AcDbEntity
  8
0
100
AcDbSpline
 62
7
  6
CONTINUOUS
 70
0
 71
3
 72
9
 73
5
 74
0
 42
0.0000001
 43
0.0000001
 44
0.0000000001
 40
0.0
 40
0.0
 40
0.0
 40
0.0
 40
0.4904684162
 40
1.0
 40
1.0
 40
1.0
 40
1.0
 10
6.7916629615
 20
9.4909516283
 30
0.0
 10
6.8003268814
 20
9.5070480758
 30
0.0
 10
6.8175459981
 20
9.5401092435
 30
0.0
 10
6.8338989356
 20
9.573601953
 30
0.0
 10
6.8423190478
 20
9.5906237435
 30
0.0
  0
SPLINE
  5
394
100
AcDbEntity
  8
0
100
AcDbSpline
 62
7
  6
CONTINUOUS
 70
0
 71
3
 72
9
 73
5
 74
0
 42
0.0000001
 43
0.0000001
 44
0.0000000001
 40
0.0
 40
0.0
 40
0.0
 40
0.0
 40
0.4812453765
 40
1.0
 40
1.0
 40
1.0
 40
1.0
 10
6.8423190478
 20
9.5906237435
 30
0.0
 10
6.8475212723
 20
9.6011404381
 30
0.0
 10
6.8576944807
 20
9.6233233225
 30
0.0
 10
6.8660997254
 20
9.646231429
 30
0.0
 10
6.8701945265
 20
9.6581977375
 30
0.0
  0
SPLINE
  5
395
100
AcDbEntity
  8
0
100
AcDbSpline
 62
7
  6
CONTINUOUS
 70
0
 71
3
 72
10
 73
6
 74
0
 42
0.0000001
 43
0.0000001
 44
0.0000000001
 40
0.0
 40
0.0
 40
0.0
 40
0.0
 40
0.2393333627
 40
0.6131790984
 40
1.0
 40
1.0
 40
1.0
 40
1.0
 10
6.8701945265
 20
9.6581977375
 30
0.0
 10
6.8734620846
 20
9.6677467921
 30
0.0
 10
6.8810194146
 20
9.6924874741
 30
0.0
 10
6.8914599582
 20
9.7333685034
 30
0.0
 10
6.8974929735
 20
9.7648894688
 30
0.0
 10
6.9003110134
 20
9.7809563666
 30
0.0
  0
SPLINE
  5
396
100
AcDbEntity
  8
0
100
AcDbSpline
 62
7
  6
CONTINUOUS
 70
0
 71
3
 72
20
 73
16
 74
0
 42
0.0000001
 43
0.0000001
 44
0.0000000001
 40
0.0
 40
0.0
 40
0.0
 40
0.0
 40
0.1386493861
 40
0.2794071199
 40
0.4221475036
 40
0.4946927014
 40
0.5680754807
 40
0.6047579573
 40
0.6400796729
 40
0.6685680012
 40
0.6876836004
 40
0.7293085357
 40
0.7787444734
 40
0.8861276333
 40
1.0
 40
1.0
 40
1.0
 40
1.0
 10
6.9003110134
 20
9.7809563666
 30
0.0
 10
6.9006704151
 20
9.7830054751
 30
0.0
 10
6.9013122878
 20
9.7871495517
 30
0.0
 10
6.902090828
 20
9.793436197
 30
0.0
 10
6.9026092382
 20
9.7987545742
 30
0.0
 10
6.9027976939
 20
9.8030855569
 30
0.0
 10
6.9027658823
 20
9.8058214731
 30
0.0
 10
6.9025517715
 20
9.8080097613
 30
0.0
 10
6.9022344277
 20
9.8094476169
 30
0.0
 10
6.901713418
 20
9.8107109321
 30
0.0
 10
6.9002407412
 20
9.8110355394
 30
0.0
 10
6.8989871335
 20
9.8096270184
 30
0.0
 10
6.8973243891
 20
9.8072844624
 30
0.0
 10
6.8954043745
 20
9.8036226965
 30
0.0
 10
6.8940525378
 20
9.800609043
 30
0.0
 10
6.8934123177
 20
9.7990249057
 30
0.0
  0
SPLINE
  5
397
100
AcDbEntity
  8
0
100
AcDbSpline
 62
7
  6
CONTINUOUS
 70
0
 71
3
 72
12
 73
8
 74
0
 42
0.0000001
 43
0.0000001
 44
0.0000000001
 40
0.0
 40
0.0
 40
0.0
 40
0.0
 40
0.2888998426
 40
0.4183102589
 40
0.5421722578
 40
0.7793924623
 40
1.0
 40
1.0
 40
1.0
 40
1.0
 10
6.8934123177
 20
9.7990249057
 30
0.0
 10
6.8821279073
 20
9.7711043542
 30
0.0
 10
6.8635658894
 20
9.7315209698
 30
0.0
 10
6.8357466272
 20
9.6823242393
 30
0.0
 10
6.8100006636
 20
9.6381504111
 30
0.0
 10
6.7795271043
 20
9.5857301084
 30
0.0
 10
6.7552966098
 20
9.5446135132
 30
0.0
 10
6.7434370688
 20
9.5249115963
 30
0.0
  0
SPLINE
  5
398
100
AcDbEntity
  8
0
100
AcDbSpline
 62
7
  6
CONTINUOUS
 70
0
 71
3
 72
10
 73
6
 74
0
 42
0.0000001
 43
0.0000001
 44
0.0000000001
 40
0.0
 40
0.0
 40
0.0
 40
0.0
 40
0.3836094297
 40
0.67879708
 40
1.0
 40
1.0
 40
1.0
 40
1.0
 10
6.7434370688
 20
9.5249115963
 30
0.0
 10
6.7266093846
 20
9.4970004571
 30
0.0
 10
6.6963173116
 20
9.4479127267
 30
0.0
 10
6.6492874902
 20
9.3771430536
 30
0.0
 10
6.6189927924
 20
9.3344137168
 30
0.0
 10
6.6028525909
 20
9.3124090593
 30
0.0
  0
LINE
  5
399
100
AcDbEntity
  8
0
100
AcDbLine
 62
7
  6
CONTINUOUS
 10
6.1922405727
 20
10.9388681197
 11
6.1903431476
 21
10.9462595084
  0
SPLINE
  5
39A
100
AcDbEntity
  8
0
100
AcDbSpline
 62
7
  6
CONTINUOUS
 70
0
 71
3
 72
12
 73
8
 74
0
 42
0.0000001
 43
0.0000001
 44
0.0000000001
 40
0.0
 40
0.0
 40
0.0
 40
0.0
 40
0.1172150321
 40
0.2063222137
 40
0.3184734281
 40
0.6137327791
 40
1.0
 40
1.0
 40
1.0
 40
1.0
 10
6.1903431476
 20
10.9462595084
 30
0.0
 10
6.1867526619
 20
10.9608971595
 30
0.0
 10
6.1803704674
 20
10.9866470899
 30
0.0
 10
6.1707401141
 20
11.0264484037
 30
0.0
 10
6.1549109516
 20
11.088299855
 30
0.0
 10
6.1261882629
 20
11.1862760454
 30
0.0
 10
6.0954279682
 20
11.2684792215
 30
0.0
 10
6.0759243773
 20
11.3141559928
 30
0.0
  0
SPLINE
  5
39B
100
AcDbEntity
  8
0
100
AcDbSpline
 62
7
  6
CONTINUOUS
 70
0
 71
3
 72
9
 73
5
 74
0
 42
0.0000001
 43
0.0000001
 44
0.0000000001
 40
0.0
 40
0.0
 40
0.0
 40
0.0
 40
0.4904690177
 40
1.0
 40
1.0
 40
1.0
 40
1.0
 10
6.0759243773
 20
11.3141559928
 30
0.0
 10
6.0687410876
 20
11.3309655721
 30
0.0
 10
6.0536277569
 20
11.3650409704
 30
0.0
 10
6.0376373827
 20
11.398708385
 30
0.0
 10
6.0295786795
 20
11.4159042531
 30
0.0
  0
SPLINE
  5
39C
100
AcDbEntity
  8
0
100
AcDbSpline
 62
7
  6
CONTINUOUS
 70
0
 71
3
 72
9
 73
5
 74
0
 42
0.0000001
 43
0.0000001
 44
0.0000000001
 40
0.0
 40
0.0
 40
0.0
 40
0.0
 40
0.4812451112
 40
1.0
 40
1.0
 40
1.0
 40
1.0
 10
6.0295786795
 20
11.4159042531
 30
0.0
 10
6.0245996966
 20
11.4265284639
 30
0.0
 10
6.0135988624
 20
11.4483127985
 30
0.0
 10
6.0009288209
 20
11.4691670693
 30
0.0
 10
5.9941260808
 20
11.4798292991
 30
0.0
  0
SPLINE
  5
39D
100
AcDbEntity
  8
0
100
AcDbSpline
 62
7
  6
CONTINUOUS
 70
0
 71
3
 72
10
 73
6
 74
0
 42
0.0000001
 43
0.0000001
 44
0.0000000001
 40
0.0
 40
0.0
 40
0.0
 40
0.0
 40
0.2393333036
 40
0.6131790486
 40
1.0
 40
1.0
 40
1.0
 40
1.0
 10
5.9941260808
 20
11.4798292991
 30
0.0
 10
5.9886974798
 20
11.4883376529
 30
0.0
 10
5.9740660357
 20
11.5096716239
 30
0.0
 10
5.9486130928
 20
11.5433230603
 30
0.0
 10
5.927730265
 20
11.5676927307
 30
0.0
 10
5.9169255472
 20
11.579913447
 30
0.0
  0
SPLINE
  5
39E
100
AcDbEntity
  8
0
100
AcDbSpline
 62
7
  6
CONTINUOUS
 70
0
 71
3
 72
20
 73
16
 74
0
 42
0.0000001
 43
0.0000001
 44
0.0000000001
 40
0.0
 40
0.0
 40
0.0
 40
0.0
 40
0.1386498751
 40
0.2794080876
 40
0.4221489258
 40
0.4946943204
 40
0.5680772361
 40
0.6047597206
 40
0.6400813302
 40
0.6685692513
 40
0.6876841706
 40
0.7293085039
 40
0.7787442787
 40
0.886127439
 40
1.0
 40
1.0
 40
1.0
 40
1.0
 10
5.9169255472
 20
11.579913447
 30
0.0
 10
5.9155475563
 20
11.5814720287
 30
0.0
 10
5.9127077573
 20
11.5845576395
 30
0.0
 10
5.9082780322
 20
11.5890859666
 30
0.0
 10
5.9044431522
 20
11.5928072155
 30
0.0
 10
5.901174538
 20
11.5956548723
 30
0.0
 10
5.8990156745
 20
11.5973358134
 30
0.0
 10
5.8971713086
 20
11.5985327931
 30
0.0
 10
5.8958493006
 20
11.5991811694
 30
0.0
 10
5.8945367774
 20
11.5995615119
 30
0.0
 10
5.8933648166
 20
11.5986125213
 30
0.0
 10
5.8936845003
 20
11.5967542378
 30
0.0
 10
5.8944793338
 20
11.5939937318
 30
0.0
 10
5.896145192
 20
11.5902095666
 30
0.0
 10
5.8976585581
 20
11.5872737063
 30
0.0
 10
5.8984979424
 20
11.5857854825
 30
0.0
  0
SPLINE
  5
39F
100
AcDbEntity
  8
0
100
AcDbSpline
 62
7
  6
CONTINUOUS
 70
0
 71
3
 72
12
 73
8
 74
0
 42
0.0000001
 43
0.0000001
 44
0.0000000001
 40
0.0
 40
0.0
 40
0.0
 40
0.0
 40
0.2889003718
 40
0.4183107928
 40
0.542172724
 40
0.7793927447
 40
1.0
 40
1.0
 40
1.0
 40
1.0
 10
5.8984979424
 20
11.5857854825
 30
0.0
 10
5.9132918576
 20
11.5595550495
 30
0.0
 10
5.9326669651
 20
11.5203632711
 30
0.0
 10
5.9537868546
 20
11.4679402311
 30
0.0
 10
5.9722723008
 20
11.4202699151
 30
0.0
 10
5.9942578236
 20
11.3637620015
 30
0.0
 10
6.0112980408
 20
11.3191827435
 30
0.0
 10
6.0193080674
 20
11.2976269861
 30
0.0
  0
SPLINE
  5
3A0
100
AcDbEntity
  8
0
100
AcDbSpline
 62
7
  6
CONTINUOUS
 70
0
 71
3
 72
10
 73
6
 74
0
 42
0.0000001
 43
0.0000001
 44
0.0000000001
 40
0.0
 40
0.0
 40
0.0
 40
0.0
 40
0.3836115339
 40
0.6787998039
 40
1.0
 40
1.0
 40
1.0
 40
1.0
 10
6.0193080674
 20
11.2976269861
 30
0.0
 10
6.0306390338
 20
11.2670688027
 30
0.0
 10
6.0501325046
 20
11.2127808806
 30
0.0
 10
6.0761442208
 20
11.1318895824
 30
0.0
 10
6.0906661657
 20
11.0815646704
 30
0.0
 10
6.0978118257
 20
11.0552279413
 30
0.0
  0
LINE
  5
3A1
100
AcDbEntity
  8
0
100
AcDbLine
 62
7
  6
CONTINUOUS
 10
4.5701833444
 20
11.7482795719
 11
4.5632202705
 21
11.7514039698
  0
LINE
  5
3A2
100
AcDbEntity
  8
0
100
AcDbLine
 62
7
  6
CONTINUOUS
 10
4.5632202705
 20
11.7514039698
 11
4.5426610184
 21
11.7608455315
  0
SPLINE
  5
3A3
100
AcDbEntity
  8
0
100
AcDbSpline
 62
7
  6
CONTINUOUS
 70
0
 71
3
 72
22
 73
18
 74
0
 42
0.0000001
 43
0.0000001
 44
0.0000000001
 40
0.0
 40
0.0
 40
0.0
 40
0.0
 40
0.0584658292
 40
0.0872277767
 40
0.1155660038
 40
0.1433427052
 40
0.1703307373
 40
0.1962315627
 40
0.2090396007
 40
0.2224291323
 40
0.2526157242
 40
0.2856277809
 40
0.3526066471
 40
0.4854845477
 40
0.6164608291
 40
0.7456380668
 40
1.0
 40
1.0
 40
1.0
 40
1.0
 10
5.42069385
 20
7.7647550525
 30
0.0
 10
5.4164215748
 20
7.7660173797
 30
0.0
 10
5.4100965329
 20
7.7680824436
 30
0.0
 10
5.4019114137
 20
7.7713386945
 30
0.0
 10
5.396039302
 20
7.7740551482
 30
0.0
 10
5.3904977388
 20
7.7771485173
 30
0.0
 10
5.3855186143
 20
7.7807544452
 30
0.0
 10
5.3820780002
 20
7.7845620865
 30
0.0
 10
5.3807459593
 20
7.7883868251
 30
0.0
 10
5.3810867988
 20
7.7928077849
 30
0.0
 10
5.3849359575
 20
7.7976629871
 30
0.0
 10
5.3931575502
 20
7.8031740309
 30
0.0
 10
5.4095657485
 20
7.8102556377
 30
0.0
 10
5.4338753158
 20
7.8170327415
 30
0.0
 10
5.4632934823
 20
7.8227781991
 30
0.0
 10
5.5021855002
 20
7.8278469395
 30
0.0
 10
5.53136834
 20
7.8297938015
 30
0.0
 10
5.5507260602
 20
7.8307508706
 30
0.0
  0
LINE
  5
3A4
100
AcDbEntity
  8
0
100
AcDbLine
 62
7
  6
CONTINUOUS
 10
3.6080803178
 20
7.7902253172
 11
3.6129975223
 21
7.7843861818
  0
SPLINE
  5
3A5
100
AcDbEntity
  8
0
100
AcDbSpline
 62
7
  6
CONTINUOUS
 70
0
 71
3
 72
12
 73
8
 74
0
 42
0.0000001
 43
0.0000001
 44
0.0000000001
 40
0.0
 40
0.0
 40
0.0
 40
0.0
 40
0.1172316776
 40
0.2063437094
 40
0.3184969609
 40
0.6137510644
 40
1.0
 40
1.0
 40
1.0
 40
1.0
 10
3.6129975223
 20
7.7843861818
 30
0.0
 10
3.6225838281
 20
7.7727514446
 30
0.0
 10
3.6395077979
 20
7.7523146118
 30
0.0
 10
3.6654557667
 20
7.7206256688
 30
0.0
 10
3.7065551246
 20
7.6717596719
 30
0.0
 10
3.7749454628
 20
7.5959394541
 30
0.0
 10
3.838328372
 20
7.5352167686
 30
0.0
 10
3.8757199609
 20
7.5025226119
 30
0.0
  0
SPLINE
  5
3A6
100
AcDbEntity
  8
0
100
AcDbSpline
 62
7
  6
CONTINUOUS
 70
0
 71
3
 72
9
 73
5
 74
0
 42
0.0000001
 43
0.0000001
 44
0.0000000001
 40
0.0
 40
0.0
 40
0.0
 40
0.0
 40
0.4904692312
 40
1.0
 40
1.0
 40
1.0
 40
1.0
 10
3.8757199609
 20
7.5025226119
 30
0.0
 10
3.88948542
 20
7.490493496
 30
0.0
 10
3.9178870177
 20
7.4663480757
 30
0.0
 10
3.9469021051
 20
7.4429511071
 30
0.0
 10
3.961623949
 20
7.4309538071
 30
0.0
  0
SPLINE
  5
3A7
100
AcDbEntity
  8
0
100
AcDbSpline
 62
7
  6
CONTINUOUS
 70
0
 71
3
 72
9
 73
5
 74
0
 42
0.0000001
 43
0.0000001
 44
0.0000000001
 40
0.0
 40
0.0
 40
0.0
 40
0.0
 40
0.4812466583
 40
1.0
 40
1.0
 40
1.0
 40
1.0
 10
3.961623949
 20
7.4309538071
 30
0.0
 10
3.9707196132
 20
7.423541499
 30
0.0
 10
3.9900830226
 20
7.4086865174
 30
0.0
 10
4.0105469783
 20
7.3953939028
 30
0.0
 10
4.0213023389
 20
7.3887387207
 30
0.0
  0
SPLINE
  5
3A8
100
AcDbEntity
  8
0
100
AcDbSpline
 62
7
  6
CONTINUOUS
 70
0
 71
3
 72
10
 73
6
 74
0
 42
0.0000001
 43
0.0000001
 44
0.0000000001
 40
0.0
 40
0.0
 40
0.0
 40
0.0
 40
0.2393344654
 40
0.6131803838
 40
1.0
 40
1.0
 40
1.0
 40
1.0
 10
4.0213023389
 20
7.3887387207
 30
0.0
 10
4.0298850292
 20
7.3834280205
 30
0.0
 10
4.0523240941
 20
7.3705543779
 30
0.0
 10
4.0898574425
 20
7.3512780295
 30
0.0
 10
4.1192460422
 20
7.3383817459
 30
0.0
 10
4.1342832178
 20
7.3320589269
 30
0.0
  0
SPLINE
  5
3A9
100
AcDbEntity
  8
0
100
AcDbSpline
 62
7
  6
CONTINUOUS
 70
0
 71
3
 72
20
 73
16
 74
0
 42
0.0000001
 43
0.0000001
 44
0.0000000001
 40
0.0
 40
0.0
 40
0.0
 40
0.0
 40
0.1386487364
 40
0.279405527
 40
0.4221446497
 40
0.4946889902
 40
0.5680706423
 40
0.6047523933
 40
0.6400732315
 40
0.6685607414
 40
0.6876765579
 40
0.7293031763
 40
0.7787405025
 40
0.8861258891
 40
1.0
 40
1.0
 40
1.0
 40
1.0
 10
4.1342832178
 20
7.3320589269
 30
0.0
 10
4.136200995
 20
7.3312525416
 30
0.0
 10
4.1400983756
 20
7.3297045713
 30
0.0
 10
4.1460542098
 20
7.327546578
 30
0.0
 10
4.1511239222
 20
7.3258576692
 30
0.0
 10
4.1553044043
 20
7.3247101794
 30
0.0
 10
4.1579788094
 20
7.3241323854
 30
0.0
 10
4.1601598762
 20
7.3238541945
 30
0.0
 10
4.1616322843
 20
7.3238436332
 30
0.0
 10
4.1629798687
 20
7.3240705128
 30
0.0
 10
4.1636239518
 20
7.3254341228
 30
0.0
 10
4.1625296506
 20
7.3269697564
 30
0.0
 10
4.1606157414
 20
7.3291121996
 30
0.0
 10
4.1574729327
 20
7.3317990074
 30
0.0
 10
4.1548355725
 20
7.3337876481
 30
0.0
 10
4.153433578
 20
7.334764365
 30
0.0
  0
SPLINE
  5
3AA
100
AcDbEntity
  8
0
100
AcDbSpline
 62
7
  6
CONTINUOUS
 70
0
 71
3
 72
12
 73
8
 74
0
 42
0.0000001
 43
0.0000001
 44
0.0000000001
 40
0.0
 40
0.0
 40
0.0
 40
0.0
 40
0.2888963338
 40
0.4183064309
 40
0.5421685829
 40
0.7793899643
 40
1.0
 40
1.0
 40
1.0
 40
1.0
 10
4.153433578
 20
7.334764365
 30
0.0
 10
4.1287233235
 20
7.3519796114
 30
0.0
 10
4.0942617093
 20
7.3788857607
 30
0.0
 10
4.0524873472
 20
7.4169567467
 30
0.0
 10
4.0151484303
 20
7.4518888575
 30
0.0
 10
3.9708212954
 20
7.4932656319
 30
0.0
 10
3.9361256812
 20
7.5260400729
 30
0.0
 10
3.9195558702
 20
7.5419874576
 30
0.0
  0
SPLINE
  5
3AB
100
AcDbEntity
  8
0
100
AcDbSpline
 62
7
  6
CONTINUOUS
 70
0
 71
3
 72
10
 73
6
 74
0
 42
0.0000001
 43
0.0000001
 44
0.0000000001
 40
0.0
 40
0.0
 40
0.0
 40
0.0
 40
0.3835909245
 40
0.6787726778
 40
1.0
 40
1.0
 40
1.0
 40
1.0
 10
3.9195558702
 20
7.5419874576
 30
0.0
 10
3.8960874964
 20
7.5646059151
 30
0.0
 10
3.8549679424
 20
7.605065394
 30
0.0
 10
3.796431152
 20
7.6666718509
 30
0.0
 10
3.7615094275
 20
7.7057214647
 30
0.0
 10
3.7436447695
 20
7.7263578367
 30
0.0
  0
SPLINE
  5
3AC
100
AcDbEntity
  8
0
100
AcDbSpline
 62
7
  6
CONTINUOUS
 70
0
 71
3
 72
22
 73
18
 74
0
 42
0.0000001
 43
0.0000001
 44
0.0000000001
 40
0.0
 40
0.0
 40
0.0
 40
0.0
 40
0.0584662131
 40
0.0872283766
 40
0.1155668389
 40
0.1433437977
 40
0.1703321096
 40
0.1962332137
 40
0.2090413432
 40
0.222430877
 40
0.2526172371
 40
0.2856290257
 40
0.3526074725
 40
0.4854848403
 40
0.6164608343
 40
0.7456379593
 40
1.0
 40
1.0
 40
1.0
 40
1.0
 10
6.5707533568
 20
9.1660329267
 30
0.0
 10
6.5671026577
 20
9.1634797502
 30
0.0
 10
6.5615444473
 20
9.1598221413
 30
0.0
 10
6.553895162
 20
9.1554529454
 30
0.0
 10
6.548110066
 20
9.152555584
 30
0.0
 10
6.5422363757
 20
9.150151657
 30
0.0
 10
6.5363126221
 20
9.1485070366
 30
0.0
 10
6.5311904249
 20
9.1481910401
 30
0.0
 10
6.5273695413
 20
9.1495342547
 30
0.0
 10
6.5241255382
 20
9.1525571111
 30
0.0
 10
6.522729434
 20
9.1585936691
 30
0.0
 10
6.5235467842
 20
9.1684576443
 30
0.0
 10
6.5282405172
 20
9.1857014178
 30
0.0
 10
6.5380988132
 20
9.2089328938
 30
0.0
 10
6.5519488969
 20
9.2355152373
 30
0.0
 10
6.5722350094
 20
9.2690826674
 30
0.0
 10
6.5889082931
 20
9.2931126637
 30
0.0
 10
6.6002295054
 20
9.3088439219
 30
0.0
  0
SPLINE
  5
3AD
100
AcDbEntity
  8
0
100
AcDbSpline
 62
7
  6
CONTINUOUS
 70
0
 71
3
 72
10
 73
6
 74
0
 42
0.0000001
 43
0.0000001
 44
0.0000000001
 40
0.0
 40
0.0
 40
0.0
 40
0.0
 40
0.1427053009
 40
0.3561896815
 40
1.0
 40
1.0
 40
1.0
 40
1.0
 10
4.5426610184
 20
11.7608455315
 30
0.0
 10
4.5269726558
 20
11.7680618995
 30
0.0
 10
4.4879510523
 20
11.7863732448
 30
0.0
 10
4.3774255468
 20
11.8356158675
 30
0.0
 10
4.2793211139
 20
11.870566874
 30
0.0
 10
4.204229585
 20
11.8913187849
 30
0.0
  0
SPLINE
  5
3AE
100
AcDbEntity
  8
0
100
AcDbSpline
 62
7
  6
CONTINUOUS
 70
0
 71
3
 72
9
 73
5
 74
0
 42
0.0000001
 43
0.0000001
 44
0.0000000001
 40
0.0
 40
0.0
 40
0.0
 40
0.0
 40
0.490468559
 40
1.0
 40
1.0
 40
1.0
 40
1.0
 10
4.204229585
 20
11.8913187849
 30
0.0
 10
4.1866083043
 20
11.8961830334
 30
0.0
 10
4.1505434659
 20
11.9056123668
 30
0.0
 10
4.1142507105
 20
11.9141013168
 30
0.0
 10
4.0957815811
 20
11.9185220296
 30
0.0
  0
SPLINE
  5
3AF
100
AcDbEntity
  8
0
100
AcDbSpline
 62
7
  6
CONTINUOUS
 70
0
 71
3
 72
9
 73
5
 74
0
 42
0.0000001
 43
0.0000001
 44
0.0000000001
 40
0.0
 40
0.0
 40
0.0
 40
0.0
 40
0.481245653
 40
1.0
 40
1.0
 40
1.0
 40
1.0
 10
4.0957815811
 20
11.9185220296
 30
0.0
 10
4.084370674
 20
11.9212532775
 30
0.0
 10
4.0604796752
 20
11.9262345726
 30
0.0
 10
4.0362751241
 20
11.9293309955
 30
0.0
 10
4.0236974344
 20
11.930660109
 30
0.0
  0
SPLINE
  5
3B0
100
AcDbEntity
  8
0
100
AcDbSpline
 62
7
  6
CONTINUOUS
 70
0
 71
3
 72
10
 73
6
 74
0
 42
0.0000001
 43
0.0000001
 44
0.0000000001
 40
0.0
 40
0.0
 40
0.0
 40
0.0
 40
0.239333499
 40
0.6131797941
 40
1.0
 40
1.0
 40
1.0
 40
1.0
 10
4.0236974344
 20
11.930660109
 30
0.0
 10
4.0136605398
 20
11.9317206616
 30
0.0
 10
3.9878581144
 20
11.9335827749
 30
0.0
 10
3.9456782753
 20
11.934663878
 30
0.0
 10
3.9136047591
 20
11.9335311634
 30
0.0
 10
3.8973134561
 20
11.932703124
 30
0.0
  0
SPLINE
  5
3B1
100
AcDbEntity
  8
0
100
AcDbSpline
 62
7
  6
CONTINUOUS
 70
0
 71
3
 72
20
 73
16
 74
0
 42
0.0000001
 43
0.0000001
 44
0.0000000001
 40
0.0
 40
0.0
 40
0.0
 40
0.0
 40
0.1386499782
 40
0.2794081547
 40
0.4221487962
 40
0.494693967
 40
0.5680764903
 40
0.6047586583
 40
0.6400797923
 40
0.6685670227
 40
0.6876814935
 40
0.729306093
 40
0.7787423553
 40
0.886126507
 40
1.0
 40
1.0
 40
1.0
 40
1.0
 10
3.8973134561
 20
11.932703124
 30
0.0
 10
3.8952357291
 20
11.9325975192
 30
0.0
 10
3.891052687
 20
11.9323011072
 30
0.0
 10
3.8847503699
 20
11.9316611552
 30
0.0
 10
3.8794499437
 20
11.9309830724
 30
0.0
 10
3.8751855916
 20
11.9302030442
 30
0.0
 10
3.8725253459
 20
11.9295632249
 30
0.0
 10
3.870439567
 20
11.9288675469
 30
0.0
 10
3.8691084019
 20
11.9282382233
 30
0.0
 10
3.8679926971
 20
11.9274491938
 30
0.0
 10
3.8680040041
 20
11.9259412324
 30
0.0
 10
3.8696562326
 20
11.9250326034
 30
0.0
 10
3.8723101114
 20
11.9239329032
 30
0.0
 10
3.8763074153
 20
11.9228759791
 30
0.0
 10
3.8795463887
 20
11.9222287222
 30
0.0
 10
3.8812333047
 20
11.9219570998
 30
0.0
  0
SPLINE
  5
3B2
100
AcDbEntity
  8
0
100
AcDbSpline
 62
7
  6
CONTINUOUS
 70
0
 71
3
 72
12
 73
8
 74
0
 42
0.0000001
 43
0.0000001
 44
0.0000000001
 40
0.0
 40
0.0
 40
0.0
 40
0.0
 40
0.2888992487
 40
0.4183095255
 40
0.5421714859
 40
0.7793918716
 40
1.0
 40
1.0
 40
1.0
 40
1.0
 10
3.8812333047
 20
11.9219570998
 30
0.0
 10
3.9109654806
 20
11.9171692601
 30
0.0
 10
3.9536878808
 20
11.9078820366
 30
0.0
 10
4.0078431684
 20
11.891709651
 30
0.0
 10
4.0566401321
 20
11.8764408266
 30
0.0
 10
4.1145292279
 20
11.8583984605
 30
0.0
 10
4.160008483
 20
11.8439270299
 30
0.0
 10
4.1818563365
 20
11.836750096
 30
0.0
  0
SPLINE
  5
3B3
100
AcDbEntity
  8
0
100
AcDbSpline
 62
7
  6
CONTINUOUS
 70
0
 71
3
 72
10
 73
6
 74
0
 42
0.0000001
 43
0.0000001
 44
0.0000000001
 40
0.0
 40
0.0
 40
0.0
 40
0.0
 40
0.3836049844
 40
0.6787911225
 40
1.0
 40
1.0
 40
1.0
 40
1.0
 10
4.1818563365
 20
11.836750096
 30
0.0
 10
4.2128135855
 20
11.8265567642
 30
0.0
 10
4.2674138746
 20
11.8079502336
 30
0.0
 10
4.3468802212
 20
11.7778540384
 30
0.0
 10
4.3952838094
 20
11.757832011
 30
0.0
 10
4.4203333885
 20
11.7470009708
 30
0.0
  0
LINE
  5
3B4
100
AcDbEntity
  8
0
100
AcDbLine
 62
7
  6
CONTINUOUS
 10
2.9260238487
 20
10.9847639508
 11
2.9192384622
 21
10.9812674398
  0
SPLINE
  5
3B5
100
AcDbEntity
  8
0
100
AcDbSpline
 62
7
  6
CONTINUOUS
 70
0
 71
3
 72
12
 73
8
 74
0
 42
0.0000001
 43
0.0000001
 44
0.0000000001
 40
0.0
 40
0.0
 40
0.0
 40
0.0
 40
0.1172282246
 40
0.206339065
 40
0.3184916921
 40
0.6137467662
 40
1.0
 40
1.0
 40
1.0
 40
1.0
 10
2.9192384622
 20
10.9812674398
 30
0.0
 10
2.9057649325
 20
10.9745066897
 30
0.0
 10
2.8820777023
 20
10.9625506894
 30
0.0
 10
2.8454129706
 20
10.9443003552
 30
0.0
 10
2.7886307474
 20
10.9150997229
 30
0.0
 10
2.6994978235
 20
10.8652896531
 30
0.0
 10
2.626196714
 20
10.8170045646
 30
0.0
 10
2.5860033712
 20
10.7878239146
 30
0.0
  0
SPLINE
  5
3B6
100
AcDbEntity
  8
0
100
AcDbSpline
 62
7
  6
CONTINUOUS
 70
0
 71
3
 72
9
 73
5
 74
0
 42
0.0000001
 43
0.0000001
 44
0.0000000001
 40
0.0
 40
0.0
 40
0.0
 40
0.0
 40
0.490469005
 40
1.0
 40
1.0
 40
1.0
 40
1.0
 10
2.5860033712
 20
10.7878239146
 30
0.0
 10
2.5712132537
 20
10.7770796594
 30
0.0
 10
2.5413542477
 20
10.7547617462
 30
0.0
 10
2.5120883653
 20
10.7316793051
 30
0.0
 10
2.4971164099
 20
10.7199956357
 30
0.0
  0
SPLINE
  5
3B7
100
AcDbEntity
  8
0
100
AcDbSpline
 62
7
  6
CONTINUOUS
 70
0
 71
3
 72
9
 73
5
 74
0
 42
0.0000001
 43
0.0000001
 44
0.0000000001
 40
0.0
 40
0.0
 40
0.0
 40
0.0
 40
0.4812465937
 40
1.0
 40
1.0
 40
1.0
 40
1.0
 10
2.4971164099
 20
10.7199956357
 30
0.0
 10
2.4878662368
 20
10.7127770371
 30
0.0
 10
2.4690755032
 20
10.6972039106
 30
0.0
 10
2.4515629366
 20
10.6802104132
 30
0.0
 10
2.4426815474
 20
10.6712053722
 30
0.0
  0
SPLINE
  5
3B8
100
AcDbEntity
  8
0
100
AcDbSpline
 62
7
  6
CONTINUOUS
 70
0
 71
3
 72
10
 73
6
 74
0
 42
0.0000001
 43
0.0000001
 44
0.0000000001
 40
0.0
 40
0.0
 40
0.0
 40
0.0
 40
0.2393343589
 40
0.6131802939
 40
1.0
 40
1.0
 40
1.0
 40
1.0
 10
2.4426815474
 20
10.6712053722
 30
0.0
 10
2.4355943375
 20
10.6640193919
 30
0.0
 10
2.4180506941
 20
10.6450070776
 30
0.0
 10
2.3909062408
 20
10.6127034733
 30
0.0
 10
2.3717940536
 20
10.5869209819
 30
0.0
 10
2.3622838374
 20
10.5736675752
 30
0.0
  0
SPLINE
  5
3B9
100
AcDbEntity
  8
0
100
AcDbSpline
 62
7
  6
CONTINUOUS
 70
0
 71
3
 72
20
 73
16
 74
0
 42
0.0000001
 43
0.0000001
 44
0.0000000001
 40
0.0
 40
0.0
 40
0.0
 40
0.0
 40
0.1386496176
 40
0.2794072707
 40
0.4221472123
 40
0.4946919074
 40
0.5680738051
 40
0.6047555705
 40
0.6400762175
 40
0.6685629938
 40
0.6876775851
 40
0.7293031188
 40
0.7787401516
 40
0.8861255391
 40
1.0
 40
1.0
 40
1.0
 40
1.0
 10
2.3622838374
 20
10.5736675752
 30
0.0
 10
2.3610709451
 20
10.5719772924
 30
0.0
 10
2.3586945755
 20
10.5685220355
 30
0.0
 10
2.3552654398
 20
10.5631956628
 30
0.0
 10
2.3524907954
 20
10.5586288318
 30
0.0
 10
2.3504418499
 20
10.5548084788
 30
0.0
 10
2.349283439
 20
10.5523296924
 30
0.0
 10
2.3485268836
 20
10.5502652163
 30
0.0
 10
2.3481889446
 20
10.5488320991
 30
0.0
 10
2.3481102266
 20
10.5474678442
 30
0.0
 10
2.3492963066
 20
10.5465365221
 30
0.0
 10
2.3510368717
 20
10.5472617879
 30
0.0
 10
2.353551393
 20
10.5486510514
 30
0.0
 10
2.3568700804
 20
10.5511173252
 30
0.0
 10
2.3593956547
 20
10.5532461284
 30
0.0
 10
2.3606598213
 20
10.5543956732
 30
0.0
  0
SPLINE
  5
3BA
100
AcDbEntity
  8
0
100
AcDbSpline
 62
7
  6
CONTINUOUS
 70
0
 71
3
 72
12
 73
8
 74
0
 42
0.0000001
 43
0.0000001
 44
0.0000000001
 40
0.0
 40
0.0
 40
0.0
 40
0.0
 40
0.288897295
 40
0.4183073993
 40
0.5421694352
 40
0.7793904824
 40
1.0
 40
1.0
 40
1.0
 40
1.0
 10
2.3606598213
 20
10.5543956732
 30
0.0
 10
2.3829413669
 20
10.5746563538
 30
0.0
 10
2.4168402837
 20
10.6022680029
 30
0.0
 10
2.4632508401
 20
10.6345255592
 30
0.0
 10
2.5056142129
 20
10.6631572314
 30
0.0
 10
2.5558152499
 20
10.6971683455
 30
0.0
 10
2.595486697
 20
10.7237033179
 30
0.0
 10
2.6147204644
 20
10.7363102416
 30
0.0
  0
SPLINE
  5
3BB
100
AcDbEntity
  8
0
100
AcDbSpline
 62
7
  6
CONTINUOUS
 70
0
 71
3
 72
10
 73
6
 74
0
 42
0.0000001
 43
0.0000001
 44
0.0000000001
 40
0.0
 40
0.0
 40
0.0
 40
0.0
 40
0.3835947136
 40
0.6787775767
 40
1.0
 40
1.0
 40
1.0
 40
1.0
 10
2.6147204644
 20
10.7363102416
 30
0.0
 10
2.64199266
 20
10.7541587561
 30
0.0
 10
2.6905850256
 20
10.7852472424
 30
0.0
 10
2.7636667964
 20
10.8286144293
 30
0.0
 10
2.809503802
 20
10.8539762266
 30
0.0
 10
2.8335927567
 20
10.8668089469
 30
0.0
  0
LINE
  5
3BC
100
AcDbEntity
  8
0
100
AcDbLine
 62
7
  6
CONTINUOUS
 10
2.4978477206
 20
9.223264092
 11
2.4963495554
 21
9.2157784334
  0
SPLINE
  5
3BD
100
AcDbEntity
  8
0
100
AcDbSpline
 62
7
  6
CONTINUOUS
 70
0
 71
3
 72
12
 73
8
 74
0
 42
0.0000001
 43
0.0000001
 44
0.0000000001
 40
0.0
 40
0.0
 40
0.0
 40
0.0
 40
0.1172334033
 40
0.2063458088
 40
0.3184991305
 40
0.6137526055
 40
1.0
 40
1.0
 40
1.0
 40
1.0
 10
2.4963495554
 20
9.2157784334
 30
0.0
 10
2.4932324793
 20
9.2010284672
 30
0.0
 10
2.4878087825
 20
9.1750534171
 30
0.0
 10
2.4792144802
 20
9.1350072466
 30
0.0
 10
2.4666379495
 20
9.0724054217
 30
0.0
 10
2.450003768
 20
8.9716607518
 30
0.0
 10
2.4420497268
 20
8.884244846
 30
0.0
 10
2.4398028044
 20
8.8346258761
 30
0.0
  0
SPLINE
  5
3BE
100
AcDbEntity
  8
0
100
AcDbSpline
 62
7
  6
CONTINUOUS
 70
0
 71
3
 72
9
 73
5
 74
0
 42
0.0000001
 43
0.0000001
 44
0.0000000001
 40
0.0
 40
0.0
 40
0.0
 40
0.0
 40
0.4904693069
 40
1.0
 40
1.0
 40
1.0
 40
1.0
 10
2.4398028044
 20
8.8346258761
 30
0.0
 10
2.4389811004
 20
8.816363379
 30
0.0
 10
2.4378123592
 20
8.7791033109
 30
0.0
 10
2.437611221
 20
8.7418302699
 30
0.0
 10
2.4374106467
 20
8.7228398916
 30
0.0
  0
SPLINE
  5
3BF
100
AcDbEntity
  8
0
100
AcDbSpline
 62
7
  6
CONTINUOUS
 70
0
 71
3
 72
9
 73
5
 74
0
 42
0.0000001
 43
0.0000001
 44
0.0000000001
 40
0.0
 40
0.0
 40
0.0
 40
0.0
 40
0.481247225
 40
1.0
 40
1.0
 40
1.0
 40
1.0
 10
2.4374106467
 20
8.7228398916
 30
0.0
 10
2.4372867553
 20
8.7111069975
 30
0.0
 10
2.4377460401
 20
8.686705944
 30
0.0
 10
2.4401128315
 20
8.6624185884
 30
0.0
 10
2.4416156297
 20
8.6498601936
 30
0.0
  0
SPLINE
  5
3C0
100
AcDbEntity
  8
0
100
AcDbSpline
 62
7
  6
CONTINUOUS
 70
0
 71
3
 72
10
 73
6
 74
0
 42
0.0000001
 43
0.0000001
 44
0.0000000001
 40
0.0
 40
0.0
 40
0.0
 40
0.0
 40
0.2393346786
 40
0.6131806514
 40
1.0
 40
1.0
 40
1.0
 40
1.0
 10
2.4416156297
 20
8.6498601936
 30
0.0
 10
2.4428149139
 20
8.6398387461
 30
0.0
 10
2.4467407373
 20
8.6142684517
 30
0.0
 10
2.4550719796
 20
8.5729048856
 30
0.0
 10
2.4633130242
 20
8.5418871062
 30
0.0
 10
2.4677453028
 20
8.5261882881
 30
0.0
  0
SPLINE
  5
3C1
100
AcDbEntity
  8
0
100
AcDbSpline
 62
7
  6
CONTINUOUS
 70
0
 71
3
 72
20
 73
16
 74
0
 42
0.0000001
 43
0.0000001
 44
0.0000000001
 40
0.0
 40
0.0
 40
0.0
 40
0.0
 40
0.138649065
 40
0.2794061012
 40
0.422145367
 40
0.4946896926
 40
0.5680712025
 40
0.6047527824
 40
0.6400732978
 40
0.6685601984
 40
0.6876753887
 40
0.7293018208
 40
0.7787393271
 40
0.8861252641
 40
1.0
 40
1.0
 40
1.0
 40
1.0
 10
2.4677453028
 20
8.5261882881
 30
0.0
 10
2.4683105763
 20
8.5241861292
 30
0.0
 10
2.4695303317
 20
8.520173877
 30
0.0
 10
2.4715565865
 20
8.5141719124
 30
0.0
 10
2.4733970871
 20
8.5091552211
 30
0.0
 10
2.4751064472
 20
8.5051713321
 30
0.0
 10
2.4763221781
 20
8.5027201483
 30
0.0
 10
2.47746455
 20
8.500841472
 30
0.0
 10
2.4783743122
 20
8.4996837234
 30
0.0
 10
2.4793918819
 20
8.4987715932
 30
0.0
 10
2.480859552
 20
8.499118263
 30
0.0
 10
2.4813777983
 20
8.5009312956
 30
0.0
 10
2.4818594699
 20
8.5037634632
 30
0.0
 10
2.4820005076
 20
8.5078958466
 30
0.0
 10
2.4819108677
 20
8.5111977404
 30
0.0
 10
2.4818003394
 20
8.51290285
 30
0.0
  0
SPLINE
  5
3C2
100
AcDbEntity
  8
0
100
AcDbSpline
 62
7
  6
CONTINUOUS
 70
0
 71
3
 72
12
 73
8
 74
0
 42
0.0000001
 43
0.0000001
 44
0.0000000001
 40
0.0
 40
0.0
 40
0.0
 40
0.0
 40
0.2888960062
 40
0.4183060277
 40
0.5421681571
 40
0.7793896416
 40
1.0
 40
1.0
 40
1.0
 40
1.0
 10
2.4818003394
 20
8.51290285
 30
0.0
 10
2.4798526907
 20
8.5429558902
 30
0.0
 10
2.4794014873
 20
8.5866751722
 30
0.0
 10
2.4831193592
 20
8.6430731982
 30
0.0
 10
2.4871486479
 20
8.6940464009
 30
0.0
 10
2.4918591633
 20
8.7545015618
 30
0.0
 10
2.4958494592
 20
8.8020628864
 30
0.0
 10
2.4979857711
 20
8.8249610664
 30
0.0
  0
SPLINE
  5
3C3
100
AcDbEntity
  8
0
100
AcDbSpline
 62
7
  6
CONTINUOUS
 70
0
 71
3
 72
10
 73
6
 74
0
 42
0.0000001
 43
0.0000001
 44
0.0000000001
 40
0.0
 40
0.0
 40
0.0
 40
0.0
 40
0.3835884591
 40
0.6787693709
 40
1.0
 40
1.0
 40
1.0
 40
1.0
 10
2.4979857711
 20
8.8249610664
 30
0.0
 10
2.5010362455
 20
8.8574123026
 30
0.0
 10
2.5070291584
 20
8.9147880025
 30
0.0
 10
2.5186935497
 20
8.9989672511
 30
0.0
 10
2.5274472111
 20
9.0506189324
 30
0.0
 10
2.5324379897
 20
9.0774544163
 30
0.0
  0
SPLINE
  5
3C4
100
AcDbEntity
  8
0
100
AcDbSpline
 62
7
  6
CONTINUOUS
 70
0
 71
3
 72
22
 73
18
 74
0
 42
0.0000001
 43
0.0000001
 44
0.0000000001
 40
0.0
 40
0.0
 40
0.0
 40
0.0
 40
0.0584664264
 40
0.087228728
 40
0.1155673573
 40
0.1433445231
 40
0.1703331018
 40
0.1962345646
 40
0.2090429031
 40
0.2224326179
 40
0.2526191041
 40
0.2856308427
 40
0.3526090852
 40
0.4854860218
 40
0.6164616357
 40
0.7456384427
 40
1.0
 40
1.0
 40
1.0
 40
1.0
 10
6.1922405727
 20
10.9388681197
 30
0.0
 10
6.1919605027
 20
10.9344219819
 30
0.0
 10
6.1913545712
 20
10.927795876
 30
0.0
 10
6.1900011856
 20
10.9190912246
 30
0.0
 10
6.1886594005
 20
10.9127617371
 30
0.0
 10
6.1868765906
 20
10.9066706325
 30
0.0
 10
6.1844689104
 20
10.9010138022
 30
0.0
 10
6.1815222429
 20
10.8968120526
 30
0.0
 10
6.1780897319
 20
10.8946622186
 30
0.0
 10
6.173703719
 20
10.8940106382
 30
0.0
 10
6.168113628
 20
10.896682814
 30
0.0
 10
6.1609112326
 20
10.9034719295
 30
0.0
 10
6.1503560062
 20
10.9178929604
 30
0.0
 10
6.1383395283
 20
10.9400851194
 30
0.0
 10
6.1261921401
 20
10.9674874384
 30
0.0
 10
6.1125964797
 20
11.0042768273
 30
0.0
 10
6.104204905
 20
11.0322950763
 30
0.0
 10
6.0989645186
 20
11.0509546998
 30
0.0
  0
SPLINE
  5
3C5
100
AcDbEntity
  8
0
100
AcDbSpline
 62
7
  6
CONTINUOUS
 70
0
 71
3
 72
11
 73
7
 74
0
 42
0.0000001
 43
0.0000001
 44
0.0000000001
 40
0.0
 40
0.0
 40
0.0
 40
0.0
 40
0.232166074
 40
0.478234587
 40
0.7352121514
 40
1.0
 40
1.0
 40
1.0
 40
1.0
 10
9.4833318369
 20
3.7860965336
 30
0.0
 10
9.4881583895
 20
3.7875216535
 30
0.0
 10
9.4977542003
 20
3.7917515278
 30
0.0
 10
9.5105381552
 20
3.8014949419
 30
0.0
 10
9.5212407002
 20
3.8144220026
 30
0.0
 10
9.5263778742
 20
3.8246232093
 30
0.0
 10
9.5283802803
 20
3.8300022683
 30
0.0
  0
SPLINE
  5
3C6
100
AcDbEntity
  8
0
100
AcDbSpline
 62
7
  6
CONTINUOUS
 70
0
 71
3
 72
11
 73
7
 74
0
 42
0.0000001
 43
0.0000001
 44
0.0000000001
 40
0.0
 40
0.0
 40
0.0
 40
0.0
 40
0.232166074
 40
0.478234587
 40
0.7352121514
 40
1.0
 40
1.0
 40
1.0
 40
1.0
 10
-0.4174681631
 20
3.7860965336
 30
0.0
 10
-0.4222947158
 20
3.7875216535
 30
0.0
 10
-0.4318905265
 20
3.7917515278
 30
0.0
 10
-0.4446744814
 20
3.8014949419
 30
0.0
 10
-0.4553770264
 20
3.8144220026
 30
0.0
 10
-0.4605142005
 20
3.8246232093
 30
0.0
 10
-0.4625166065
 20
3.8300022683
 30
0.0
  0
SPLINE
  5
3C7
100
AcDbEntity
  8
0
100
AcDbSpline
 62
3
  6
CONTINUOUS
 70
0
 71
3
 72
21
 73
17
 74
0
 42
0.0000001
 43
0.0000001
 44
0.0000000001
 40
0.0
 40
0.0
 40
0.0
 40
0.0
 40
0.2178512805
 40
0.4123931749
 40
0.5814232833
 40
0.6557715127
 40
0.7230785202
 40
0.7831595284
 40
0.8358697307
 40
0.8811301437
 40
0.9188991785
 40
0.9349826907
 40
0.9492178156
 40
0.9616434646
 40
0.9723220966
 40
1.0
 40
1.0
 40
1.0
 40
1.0
 10
9.5799872309
 20
16.7781937027
 30
0.0
 10
9.582428951
 20
16.7782534155
 30
0.0
 10
9.587052886
 20
16.7783088284
 30
0.0
 10
9.5935715045
 20
16.7781998829
 30
0.0
 10
9.5984765571
 20
16.7779577283
 30
0.0
 10
9.6019486681
 20
16.777676006
 30
0.0
 10
9.6041983804
 20
16.7774403829
 30
0.0
 10
9.6062003372
 20
16.777174916
 30
0.0
 10
9.6079486038
 20
16.7768833399
 30
0.0
 10
9.6094383497
 20
16.7765696115
 30
0.0
 10
9.6105121006
 20
16.7762805472
 30
0.0
 10
9.6112355605
 20
16.7760347689
 30
0.0
 10
9.6116801388
 20
16.775858048
 30
0.0
 10
9.6120611307
 20
16.7756756735
 30
0.0
 10
9.6125403047
 20
16.7753974593
 30
0.0
 10
9.6129318369
 20
16.7750379698
 30
0.0
 10
9.6129318369
 20
16.7747276577
 30
0.0
  0
SPLINE
  5
3C8
100
AcDbEntity
  8
0
100
AcDbSpline
 62
3
  6
CONTINUOUS
 70
0
 71
3
 72
21
 73
17
 74
0
 42
0.0000001
 43
0.0000001
 44
0.0000000001
 40
0.0
 40
0.0
 40
0.0
 40
0.0
 40
0.2178512805
 40
0.4123931749
 40
0.5814232833
 40
0.6557715127
 40
0.7230785202
 40
0.7831595284
 40
0.8358697307
 40
0.8811301437
 40
0.9188991785
 40
0.9349826907
 40
0.9492178156
 40
0.9616434646
 40
0.9723220966
 40
1.0
 40
1.0
 40
1.0
 40
1.0
 10
-0.5141235572
 20
16.7781937027
 30
0.0
 10
-0.5165652772
 20
16.7782534155
 30
0.0
 10
-0.5211892122
 20
16.7783088284
 30
0.0
 10
-0.5277078308
 20
16.7781998829
 30
0.0
 10
-0.5326128833
 20
16.7779577283
 30
0.0
 10
-0.5360849944
 20
16.777676006
 30
0.0
 10
-0.5383347066
 20
16.7774403829
 30
0.0
 10
-0.5403366634
 20
16.777174916
 30
0.0
 10
-0.54208493
 20
16.7768833399
 30
0.0
 10
-0.5435746759
 20
16.7765696115
 30
0.0
 10
-0.5446484269
 20
16.7762805472
 30
0.0
 10
-0.5453718867
 20
16.7760347689
 30
0.0
 10
-0.545816465
 20
16.775858048
 30
0.0
 10
-0.546197457
 20
16.7756756735
 30
0.0
 10
-0.5466766309
 20
16.7753974593
 30
0.0
 10
-0.5470681631
 20
16.7750379698
 30
0.0
 10
-0.5470681631
 20
16.7747276577
 30
0.0
  0
SPLINE
  5
3C9
100
AcDbEntity
  8
0
100
AcDbSpline
 62
7
  6
CONTINUOUS
 70
0
 71
3
 72
26
 73
22
 74
0
 42
0.0000001
 43
0.0000001
 44
0.0000000001
 40
0.0
 40
0.0
 40
0.0
 40
0.0
 40
0.2151294943
 40
0.4091665508
 40
0.4975197999
 40
0.5796820834
 40
0.6553422434
 40
0.7241996925
 40
0.7859647552
 40
0.8403490108
 40
0.8870910636
 40
0.9259788612
 40
0.9424137179
 40
0.9568091683
 40
0.9691448474
 40
0.9794126332
 40
0.9876091381
 40
0.9937375137
 40
0.9978207811
 40
0.9991267799
 40
1.0
 40
1.0
 40
1.0
 40
1.0
 10
-0.7129354464
 20
27.3403773416
 30
0.0
 10
-0.7139293922
 20
27.3403981459
 30
0.0
 10
-0.7158197975
 20
27.3404393976
 30
0.0
 10
-0.718118278
 20
27.3404952396
 30
0.0
 10
-0.7198023486
 20
27.3405406752
 30
0.0
 10
-0.7209395036
 20
27.3405737633
 30
0.0
 10
-0.7219865205
 20
27.3406069263
 30
0.0
 10
-0.7229392237
 20
27.3406401494
 30
0.0
 10
-0.7237935388
 20
27.3406734047
 30
0.0
 10
-0.7245455684
 20
27.3407066522
 30
0.0
 10
-0.7251917586
 20
27.3407398755
 30
0.0
 10
-0.7256625505
 20
27.3407687955
 30
0.0
 10
-0.7259838647
 20
27.3407925263
 30
0.0
 10
-0.7261826406
 20
27.3408092866
 30
0.0
 10
-0.7263528206
 20
27.3408259928
 30
0.0
 10
-0.7264941614
 20
27.3408426381
 30
0.0
 10
-0.7266067155
 20
27.3408590539
 30
0.0
 10
-0.7266900851
 20
27.340875324
 30
0.0
 10
-0.726741806
 20
27.3408895423
 30
0.0
 10
-0.7267677671
 20
27.3409021854
 30
0.0
 10
-0.7267758021
 20
27.3409088891
 30
0.0
 10
-0.7267778328
 20
27.3409123763
 30
0.0
  0
SPLINE
  5
3CA
100
AcDbEntity
  8
0
100
AcDbSpline
 62
7
  6
CONTINUOUS
 70
0
 71
3
 72
26
 73
22
 74
0
 42
0.0000001
 43
0.0000001
 44
0.0000000001
 40
0.0
 40
0.0
 40
0.0
 40
0.0
 40
0.2151294943
 40
0.4091665508
 40
0.4975197999
 40
0.5796820834
 40
0.6553422434
 40
0.7241996925
 40
0.7859647552
 40
0.8403490108
 40
0.8870910636
 40
0.9259788612
 40
0.9424137179
 40
0.9568091683
 40
0.9691448474
 40
0.9794126332
 40
0.9876091381
 40
0.9937375137
 40
0.9978207811
 40
0.9991267799
 40
1.0
 40
1.0
 40
1.0
 40
1.0
 10
-0.7129354464
 20
27.6514531191
 30
0.0
 10
-0.7139293922
 20
27.6514323148
 30
0.0
 10
-0.7158197975
 20
27.6513910631
 30
0.0
 10
-0.718118278
 20
27.6513352211
 30
0.0
 10
-0.7198023486
 20
27.6512897855
 30
0.0
 10
-0.7209395036
 20
27.6512566974
 30
0.0
 10
-0.7219865205
 20
27.6512235344
 30
0.0
 10
-0.7229392237
 20
27.6511903113
 30
0.0
 10
-0.7237935388
 20
27.6511570559
 30
0.0
 10
-0.7245455684
 20
27.6511238084
 30
0.0
 10
-0.7251917586
 20
27.6510905851
 30
0.0
 10
-0.7256625505
 20
27.6510616652
 30
0.0
 10
-0.7259838647
 20
27.6510379343
 30
0.0
 10
-0.7261826406
 20
27.651021174
 30
0.0
 10
-0.7263528206
 20
27.6510044678
 30
0.0
 10
-0.7264941614
 20
27.6509878226
 30
0.0
 10
-0.7266067155
 20
27.6509714068
 30
0.0
 10
-0.7266900851
 20
27.6509551367
 30
0.0
 10
-0.726741806
 20
27.6509409184
 30
0.0
 10
-0.7267677671
 20
27.6509282752
 30
0.0
 10
-0.7267758021
 20
27.6509215716
 30
0.0
 10
-0.7267778328
 20
27.6509180844
 30
0.0
  0
SPLINE
  5
3CB
100
AcDbEntity
  8
0
100
AcDbSpline
 62
7
  6
CONTINUOUS
 70
0
 71
3
 72
19
 73
15
 74
0
 42
0.0000001
 43
0.0000001
 44
0.0000000001
 40
0.0
 40
0.0
 40
0.0
 40
0.0
 40
0.0670246036
 40
0.1339753777
 40
0.2004801865
 40
0.2663539754
 40
0.3315020627
 40
0.3958405222
 40
0.5218966378
 40
0.6447162888
 40
0.7647872991
 40
0.824101454
 40
0.883044599
 40
1.0
 40
1.0
 40
1.0
 40
1.0
 10
-0.5850681631
 20
27.3403773416
 30
0.0
 10
-0.5844625027
 20
27.3403773416
 30
0.0
 10
-0.5832510064
 20
27.3403149652
 30
0.0
 10
-0.5814572897
 20
27.3400410645
 30
0.0
 10
-0.5797102132
 20
27.3395900747
 30
0.0
 10
-0.5780326331
 20
27.3389720108
 30
0.0
 10
-0.5764414553
 20
27.3382005369
 30
0.0
 10
-0.574469733
 20
27.3369929051
 30
0.0
 10
-0.5722769718
 20
27.3351738744
 30
0.0
 10
-0.5701423065
 20
27.3325892982
 30
0.0
 10
-0.5688055908
 20
27.3301895526
 30
0.0
 10
-0.5680190906
 20
27.3281819406
 30
0.0
 10
-0.5674211133
 20
27.326140238
 30
0.0
 10
-0.567176864
 20
27.3245588396
 30
0.0
 10
-0.5671073524
 20
27.3235042735
 30
0.0
  0
SPLINE
  5
3CC
100
AcDbEntity
  8
0
100
AcDbSpline
 62
7
  6
CONTINUOUS
 70
0
 71
3
 72
19
 73
15
 74
0
 42
0.0000001
 43
0.0000001
 44
0.0000000001
 40
0.0
 40
0.0
 40
0.0
 40
0.0
 40
0.0670246036
 40
0.1339753777
 40
0.2004801865
 40
0.2663539754
 40
0.3315020627
 40
0.3958405222
 40
0.5218966378
 40
0.6447162888
 40
0.7647872991
 40
0.824101454
 40
0.883044599
 40
1.0
 40
1.0
 40
1.0
 40
1.0
 10
-0.5850681631
 20
27.6514531191
 30
0.0
 10
-0.5844625027
 20
27.6514531191
 30
0.0
 10
-0.5832510064
 20
27.6515154954
 30
0.0
 10
-0.5814572897
 20
27.6517893962
 30
0.0
 10
-0.5797102132
 20
27.652240386
 30
0.0
 10
-0.5780326331
 20
27.6528584499
 30
0.0
 10
-0.5764414553
 20
27.6536299238
 30
0.0
 10
-0.574469733
 20
27.6548375555
 30
0.0
 10
-0.5722769718
 20
27.6566565863
 30
0.0
 10
-0.5701423065
 20
27.6592411624
 30
0.0
 10
-0.5688055908
 20
27.661640908
 30
0.0
 10
-0.5680190906
 20
27.6636485201
 30
0.0
 10
-0.5674211133
 20
27.6656902227
 30
0.0
 10
-0.567176864
 20
27.6672716211
 30
0.0
 10
-0.5671073524
 20
27.6683261871
 30
0.0
  0
SPLINE
  5
3CD
100
AcDbEntity
  8
0
100
AcDbSpline
 62
7
  6
CONTINUOUS
 70
0
 71
3
 72
21
 73
17
 74
0
 42
0.0000001
 43
0.0000001
 44
0.0000000001
 40
0.0
 40
0.0
 40
0.0
 40
0.0
 40
0.1256662808
 40
0.1883092412
 40
0.2508274586
 40
0.3132326314
 40
0.3755449109
 40
0.4377899072
 40
0.5
 40
0.5622100928
 40
0.6244550891
 40
0.6867673686
 40
0.7491725414
 40
0.8116907588
 40
0.8743337192
 40
1.0
 40
1.0
 40
1.0
 40
1.0
 10
-0.7129354464
 20
27.6503716826
 30
0.0
 10
-0.7150306344
 20
27.6440643061
 30
0.0
 10
-0.7179142038
 20
27.6345227961
 30
0.0
 10
-0.721097406
 20
27.621642182
 30
0.0
 10
-0.7231130273
 20
27.6119263322
 30
0.0
 10
-0.7247249906
 20
27.6021528361
 30
0.0
 10
-0.7259018769
 20
27.5923315606
 30
0.0
 10
-0.7266185999
 20
27.5824760791
 30
0.0
 10
-0.7268599095
 20
27.5726027383
 30
0.0
 10
-0.7266185999
 20
27.5627293974
 30
0.0
 10
-0.7259018769
 20
27.552873916
 30
0.0
 10
-0.7247249906
 20
27.5430526404
 30
0.0
 10
-0.7231130273
 20
27.5332791444
 30
0.0
 10
-0.721097406
 20
27.5235632946
 30
0.0
 10
-0.7179142038
 20
27.5106826805
 30
0.0
 10
-0.7150306344
 20
27.5011411704
 30
0.0
 10
-0.7129354464
 20
27.4948337939
 30
0.0
  0
LINE
  5
3CE
100
AcDbEntity
  8
0
100
AcDbLine
 62
7
  6
CONTINUOUS
 10
-0.7267778328
 20
27.6509180844
 11
-0.7261723229
 21
27.6508031185
  0
LINE
  5
3CF
100
AcDbEntity
  8
0
100
AcDbLine
 62
7
  6
CONTINUOUS
 10
-0.7261723229
 20
27.6508031185
 11
-0.7129354464
 21
27.6503716826
  0
SPLINE
  5
3D0
100
AcDbEntity
  8
0
100
AcDbSpline
 62
7
  6
CONTINUOUS
 70
0
 71
3
 72
21
 73
17
 74
0
 42
0.0000001
 43
0.0000001
 44
0.0000000001
 40
0.0
 40
0.0
 40
0.0
 40
0.0
 40
0.1257047824
 40
0.1883558794
 40
0.2508750883
 40
0.3132747992
 40
0.3755762614
 40
0.4378065905
 40
0.5
 40
0.5621934095
 40
0.6244237386
 40
0.6867252008
 40
0.7491249117
 40
0.8116441206
 40
0.8742952176
 40
1.0
 40
1.0
 40
1.0
 40
1.0
 10
-0.7129354464
 20
27.4948337939
 30
0.0
 10
-0.715030385
 20
27.4885710175
 30
0.0
 10
-0.7179138581
 20
27.4790964169
 30
0.0
 10
-0.7210972801
 20
27.466304597
 30
0.0
 10
-0.7231129336
 20
27.4566562513
 30
0.0
 10
-0.724724931
 20
27.4469506283
 30
0.0
 10
-0.7259018487
 20
27.4371975227
 30
0.0
 10
-0.7266185937
 20
27.4274104208
 30
0.0
 10
-0.7268599113
 20
27.4176055677
 30
0.0
 10
-0.7266185937
 20
27.4078007147
 30
0.0
 10
-0.7259018487
 20
27.3980136127
 30
0.0
 10
-0.724724931
 20
27.3882605072
 30
0.0
 10
-0.7231129336
 20
27.3785548841
 30
0.0
 10
-0.7210972801
 20
27.3689065385
 30
0.0
 10
-0.7179138581
 20
27.3561147186
 30
0.0
 10
-0.715030385
 20
27.346640118
 30
0.0
 10
-0.7129354464
 20
27.3403773416
 30
0.0
  0
LINE
  5
3D1
100
AcDbEntity
  8
0
100
AcDbLine
 62
7
  6
CONTINUOUS
 10
-0.5850681631
 20
27.4948337939
 11
-0.5670681631
 21
27.4947082077
  0
SPLINE
  5
3D2
100
AcDbEntity
  8
0
100
AcDbSpline
 62
7
  6
CONTINUOUS
 70
0
 71
3
 72
19
 73
15
 74
0
 42
0.0000001
 43
0.0000001
 44
0.0000000001
 40
0.0
 40
0.0
 40
0.0
 40
0.0
 40
0.0674676812
 40
0.1348280455
 40
0.2016704832
 40
0.2678071333
 40
0.3331226224
 40
0.3975429761
 40
0.4610574672
 40
0.523631387
 40
0.6460849877
 40
0.7656767895
 40
0.8834035384
 40
1.0
 40
1.0
 40
1.0
 40
1.0
 10
-0.5850681631
 20
27.6503716826
 30
0.0
 10
-0.5844340036
 20
27.6503716826
 30
0.0
 10
-0.5831657453
 20
27.650439565
 30
0.0
 10
-0.5812903606
 20
27.6507373479
 30
0.0
 10
-0.5794685381
 20
27.6512274892
 30
0.0
 10
-0.5777256486
 20
27.6518972588
 30
0.0
 10
-0.5760808486
 20
27.6527316427
 30
0.0
 10
-0.5745504595
 20
27.6537157474
 30
0.0
 10
-0.5731457941
 20
27.6548313151
 30
0.0
 10
-0.5714669198
 20
27.6564603112
 30
0.0
 10
-0.5697106246
 20
27.6587460442
 30
0.0
 10
-0.5681870542
 20
27.6617873141
 30
0.0
 10
-0.5672724147
 20
27.6650048623
 30
0.0
 10
-0.5670681631
 20
27.6672126176
 30
0.0
 10
-0.5670681631
 20
27.668308561
 30
0.0
  0
SPLINE
  5
3D3
100
AcDbEntity
  8
0
100
AcDbSpline
 62
7
  6
CONTINUOUS
 70
0
 71
3
 72
21
 73
17
 74
0
 42
0.0000001
 43
0.0000001
 44
0.0000000001
 40
0.0
 40
0.0
 40
0.0
 40
0.0
 40
0.1256842564
 40
0.1883310152
 40
0.2508496952
 40
0.3132523178
 40
0.3755595469
 40
0.4377976958
 40
0.5
 40
0.5622023042
 40
0.6244404531
 40
0.6867476822
 40
0.7491503048
 40
0.8116689848
 40
0.8743157436
 40
1.0
 40
1.0
 40
1.0
 40
1.0
 10
9.7787991201
 20
27.3409455855
 30
0.0
 10
9.7808941916
 20
27.3472320302
 30
0.0
 10
9.7837777162
 20
27.356742138
 30
0.0
 10
9.786961021
 20
27.3695810778
 30
0.0
 10
9.7889766573
 20
27.3792652458
 30
0.0
 10
9.7905886365
 20
27.389006887
 30
0.0
 10
9.7917655375
 20
27.3987961682
 30
0.0
 10
9.7924822707
 20
27.4086195569
 30
0.0
 10
9.7927235841
 20
27.4184607542
 30
0.0
 10
9.7924822707
 20
27.4283019515
 30
0.0
 10
9.7917655375
 20
27.4381253402
 30
0.0
 10
9.7905886365
 20
27.4479146214
 30
0.0
 10
9.7889766573
 20
27.4576562625
 30
0.0
 10
9.786961021
 20
27.4673404305
 30
0.0
 10
9.7837777162
 20
27.4801793703
 30
0.0
 10
9.7808941916
 20
27.4896894781
 30
0.0
 10
9.7787991201
 20
27.4959759228
 30
0.0
  0
SPLINE
  5
3D4
100
AcDbEntity
  8
0
100
AcDbSpline
 62
7
  6
CONTINUOUS
 70
0
 71
3
 72
21
 73
17
 74
0
 42
0.0000001
 43
0.0000001
 44
0.0000000001
 40
0.0
 40
0.0
 40
0.0
 40
0.0
 40
0.125686417
 40
0.1883336325
 40
0.2508523681
 40
0.3132546841
 40
0.3755613062
 40
0.437798632
 40
0.5
 40
0.562201368
 40
0.6244386938
 40
0.6867453159
 40
0.7491476319
 40
0.8116663675
 40
0.874313583
 40
1.0
 40
1.0
 40
1.0
 40
1.0
 10
9.7787991201
 20
27.4959759228
 30
0.0
 10
9.7808941776
 20
27.5022598645
 30
0.0
 10
9.7837776968
 20
27.5117662172
 30
0.0
 10
9.7869610139
 20
27.5246001737
 30
0.0
 10
9.788976652
 20
27.5342805532
 30
0.0
 10
9.7905886332
 20
27.5440183852
 30
0.0
 10
9.7917655359
 20
27.5538038405
 30
0.0
 10
9.7924822704
 20
27.5636233917
 30
0.0
 10
9.7927235842
 20
27.5734607453
 30
0.0
 10
9.7924822704
 20
27.5832980989
 30
0.0
 10
9.7917655359
 20
27.59311765
 30
0.0
 10
9.7905886332
 20
27.6029031053
 30
0.0
 10
9.788976652
 20
27.6126409373
 30
0.0
 10
9.7869610139
 20
27.6223213168
 30
0.0
 10
9.7837776968
 20
27.6351552733
 30
0.0
 10
9.7808941776
 20
27.644661626
 30
0.0
 10
9.7787991201
 20
27.6509455677
 30
0.0
  0
LINE
  5
3D5
100
AcDbEntity
  8
0
100
AcDbLine
 62
7
  6
CONTINUOUS
 10
9.6509318369
 20
27.4959759228
 11
9.6329318369
 21
27.495982971
  0
SPLINE
  5
3D6
100
AcDbEntity
  8
0
100
AcDbSpline
 62
7
  6
CONTINUOUS
 70
0
 71
3
 72
10
 73
6
 74
0
 42
0.0000001
 43
0.0000001
 44
0.0000000001
 40
0.0
 40
0.0
 40
0.0
 40
0.0
 40
0.4960783262
 40
0.7472231999
 40
1.0
 40
1.0
 40
1.0
 40
1.0
 10
4.8990723493
 20
29.9181613131
 30
0.0
 10
4.8991095496
 20
29.9282098443
 30
0.0
 10
4.9059147353
 20
29.9439242902
 30
0.0
 10
4.9230967616
 20
29.9554054546
 30
0.0
 10
4.9334759151
 20
29.9572451131
 30
0.0
 10
4.9385961418
 20
29.9572250738
 30
0.0
  0
SPLINE
  5
3D7
100
AcDbEntity
  8
0
100
AcDbSpline
 62
7
  6
CONTINUOUS
 70
0
 71
3
 72
10
 73
6
 74
0
 42
0.0000001
 43
0.0000001
 44
0.0000000001
 40
0.0
 40
0.0
 40
0.0
 40
0.0
 40
0.4960818593
 40
0.7472266758
 40
1.0
 40
1.0
 40
1.0
 40
1.0
 10
4.9778119374
 20
29.9178698161
 30
0.0
 10
4.9777747479
 20
29.907824195
 30
0.0
 10
4.9709736422
 20
29.8921148783
 30
0.0
 10
4.9538008161
 20
29.8806315395
 30
0.0
 10
4.9434256677
 20
29.8787882662
 30
0.0
 10
4.9383070221
 20
29.8788059858
 30
0.0
  0
SPLINE
  5
3D8
100
AcDbEntity
  8
0
100
AcDbSpline
 62
7
  6
CONTINUOUS
 70
0
 71
3
 72
10
 73
6
 74
0
 42
0.0000001
 43
0.0000001
 44
0.0000000001
 40
0.0
 40
0.0
 40
0.0
 40
0.0
 40
0.4960799486
 40
0.7472247922
 40
1.0
 40
1.0
 40
1.0
 40
1.0
 10
4.6410474662
 20
29.9361832789
 30
0.0
 10
4.6456838647
 20
29.9450967993
 30
0.0
 10
4.658929881
 20
29.9559455884
 30
0.0
 10
4.6794593547
 20
29.9582813068
 30
0.0
 10
4.6895269945
 20
29.9551634224
 30
0.0
 10
4.6940688345
 20
29.9528009624
 30
0.0
  0
SPLINE
  5
3D9
100
AcDbEntity
  8
0
100
AcDbSpline
 62
7
  6
CONTINUOUS
 70
0
 71
3
 72
10
 73
6
 74
0
 42
0.0000001
 43
0.0000001
 44
0.0000000001
 40
0.0
 40
0.0
 40
0.0
 40
0.0
 40
0.4960799803
 40
0.7472248233
 40
1.0
 40
1.0
 40
1.0
 40
1.0
 10
4.7109026362
 20
29.8998478443
 30
0.0
 10
4.7062662498
 20
29.890934347
 30
0.0
 10
4.693020287
 20
29.880085582
 30
0.0
 10
4.6724908777
 20
29.8777498085
 30
0.0
 10
4.662423255
 20
29.8808676477
 30
0.0
 10
4.6578814181
 20
29.8832300826
 30
0.0
  0
SPLINE
  5
3DA
100
AcDbEntity
  8
0
100
AcDbSpline
 62
7
  6
CONTINUOUS
 70
0
 71
3
 72
9
 73
5
 74
0
 42
0.0000001
 43
0.0000001
 44
0.0000000001
 40
0.0
 40
0.0
 40
0.0
 40
0.0
 40
0.4997483385
 40
1.0
 40
1.0
 40
1.0
 40
1.0
 10
4.3785803741
 20
29.9361832759
 30
0.0
 10
4.3815978265
 20
29.9419843571
 30
0.0
 10
4.3909304915
 20
29.9520113511
 30
0.0
 10
4.4037846186
 20
29.9566953322
 30
0.0
 10
4.410306387
 20
29.9572523516
 30
0.0
  0
SPLINE
  5
3DB
100
AcDbEntity
  8
0
100
AcDbSpline
 62
7
  6
CONTINUOUS
 70
0
 71
3
 72
9
 73
5
 74
0
 42
0.0000001
 43
0.0000001
 44
0.0000000001
 40
0.0
 40
0.0
 40
0.0
 40
0.0
 40
0.5004708901
 40
1.0
 40
1.0
 40
1.0
 40
1.0
 10
4.448435544
 20
29.8998478412
 30
0.0
 10
4.4450963469
 20
29.8934282028
 30
0.0
 10
4.4344061415
 20
29.8825097891
 30
0.0
 10
4.4196485324
 20
29.8784249032
 30
0.0
 10
4.4124301537
 20
29.8786700978
 30
0.0
  0
SPLINE
  5
3DC
100
AcDbEntity
  8
0
100
AcDbSpline
 62
7
  6
CONTINUOUS
 70
0
 71
3
 72
10
 73
6
 74
0
 42
0.0000001
 43
0.0000001
 44
0.0000000001
 40
0.0
 40
0.0
 40
0.0
 40
0.0
 40
0.4983785133
 40
0.7495240587
 40
1.0
 40
1.0
 40
1.0
 40
1.0
 10
4.4124301537
 20
29.8786700978
 30
0.0
 10
4.4044735077
 20
29.8789403699
 30
0.0
 10
4.3923526862
 20
29.8833777539
 30
0.0
 10
4.3809074179
 20
29.8947705775
 30
0.0
 10
4.377304655
 20
29.9021316025
 30
0.0
 10
4.3761213818
 20
29.9059538056
 30
0.0
  0
SPLINE
  5
3DD
100
AcDbEntity
  8
0
100
AcDbSpline
 62
7
  6
CONTINUOUS
 70
0
 71
3
 72
8
 73
4
 74
0
 42
0.0000001
 43
0.0000001
 44
0.0000000001
 40
0.0
 40
0.0
 40
0.0
 40
0.0
 40
1.0
 40
1.0
 40
1.0
 40
1.0
 10
4.3745792416
 20
29.9229701292
 30
0.0
 10
4.3751179618
 20
29.9275403752
 30
0.0
 10
4.3764567876
 20
29.9321006606
 30
0.0
 10
4.3785803741
 20
29.9361832759
 30
0.0
  0
SPLINE
  5
3DE
100
AcDbEntity
  8
0
100
AcDbSpline
 62
7
  6
CONTINUOUS
 70
0
 71
3
 72
8
 73
4
 74
0
 42
0.0000001
 43
0.0000001
 44
0.0000000001
 40
0.0
 40
0.0
 40
0.0
 40
0.0
 40
1.0
 40
1.0
 40
1.0
 40
1.0
 10
4.410306387
 20
29.9572523516
 30
0.0
 10
4.4148977023
 20
29.9576444925
 30
0.0
 10
4.4196318018
 20
29.9571140211
 30
0.0
 10
4.4240569969
 20
29.9558288756
 30
0.0
  0
SPLINE
  5
3DF
100
AcDbEntity
  8
0
100
AcDbSpline
 62
7
  6
CONTINUOUS
 70
0
 71
3
 72
11
 73
7
 74
0
 42
0.0000001
 43
0.0000001
 44
0.0000000001
 40
0.0
 40
0.0
 40
0.0
 40
0.0
 40
0.2509726072
 40
0.4997372361
 40
0.7503637604
 40
1.0
 40
1.0
 40
1.0
 40
1.0
 10
4.4240569969
 20
29.9558288756
 30
0.0
 10
4.4296233602
 20
29.9542123172
 30
0.0
 10
4.4401864956
 20
29.9486109552
 30
0.0
 10
4.450862235
 20
29.9341795155
 30
0.0
 10
4.453915598
 20
29.9166128809
 30
0.0
 10
4.4510960841
 20
29.9049627549
 30
0.0
 10
4.448435544
 20
29.8998478412
 30
0.0
  0
SPLINE
  5
3E0
100
AcDbEntity
  8
0
100
AcDbSpline
 62
7
  6
CONTINUOUS
 70
0
 71
3
 72
10
 73
6
 74
0
 42
0.0000001
 43
0.0000001
 44
0.0000000001
 40
0.0
 40
0.0
 40
0.0
 40
0.0
 40
0.2527752037
 40
0.5039200661
 40
1.0
 40
1.0
 40
1.0
 40
1.0
 10
4.6578814181
 20
29.8832300826
 30
0.0
 10
4.6533395603
 20
29.8855925285
 30
0.0
 10
4.6450067493
 20
29.8920456874
 30
0.0
 10
4.6351329747
 20
29.9101957578
 30
0.0
 10
4.6364110593
 20
29.9272697424
 30
0.0
 10
4.6410474662
 20
29.9361832789
 30
0.0
  0
SPLINE
  5
3E1
100
AcDbEntity
  8
0
100
AcDbSpline
 62
7
  6
CONTINUOUS
 70
0
 71
3
 72
10
 73
6
 74
0
 42
0.0000001
 43
0.0000001
 44
0.0000000001
 40
0.0
 40
0.0
 40
0.0
 40
0.0
 40
0.2527751725
 40
0.5039200344
 40
1.0
 40
1.0
 40
1.0
 40
1.0
 10
4.6940688345
 20
29.9528009624
 30
0.0
 10
4.69861067
 20
29.9504385048
 30
0.0
 10
4.7069434342
 20
29.9439853338
 30
0.0
 10
4.7168171267
 20
29.9258352845
 30
0.0
 10
4.715539031
 20
29.9087613577
 30
0.0
 10
4.7109026362
 20
29.8998478443
 30
0.0
  0
SPLINE
  5
3E2
100
AcDbEntity
  8
0
100
AcDbSpline
 62
7
  6
CONTINUOUS
 70
0
 71
3
 72
10
 73
6
 74
0
 42
0.0000001
 43
0.0000001
 44
0.0000000001
 40
0.0
 40
0.0
 40
0.0
 40
0.0
 40
0.2527770211
 40
0.5039218974
 40
1.0
 40
1.0
 40
1.0
 40
1.0
 10
4.9383070221
 20
29.8788059858
 30
0.0
 10
4.9331866864
 20
29.8788237112
 30
0.0
 10
4.9228211837
 20
29.8807399398
 30
0.0
 10
4.9057240528
 20
29.8923478717
 30
0.0
 10
4.8990351484
 20
29.9081125983
 30
0.0
 10
4.8990723493
 20
29.9181613131
 30
0.0
  0
SPLINE
  5
3E3
100
AcDbEntity
  8
0
100
AcDbSpline
 62
7
  6
CONTINUOUS
 70
0
 71
3
 72
10
 73
6
 74
0
 42
0.0000001
 43
0.0000001
 44
0.0000000001
 40
0.0
 40
0.0
 40
0.0
 40
0.0
 40
0.2527735455
 40
0.5039183641
 40
1.0
 40
1.0
 40
1.0
 40
1.0
 10
4.9385961418
 20
29.9572250738
 30
0.0
 10
4.9437148792
 20
29.9572050404
 30
0.0
 10
4.9540763503
 20
29.9552852266
 30
0.0
 10
4.9711642651
 20
29.9436751882
 30
0.0
 10
4.9778491276
 20
29.9279156209
 30
0.0
 10
4.9778119374
 20
29.9178698161
 30
0.0
  0
SPLINE
  5
3E4
100
AcDbEntity
  8
0
100
AcDbSpline
 62
7
  6
CONTINUOUS
 70
0
 71
3
 72
15
 73
11
 74
0
 42
0.0000001
 43
0.0000001
 44
0.0000000001
 40
0.0
 40
0.0
 40
0.0
 40
0.0
 40
0.1226944441
 40
0.2464930009
 40
0.3711260852
 40
0.4963583712
 40
0.6219946481
 40
0.7478814632
 40
0.8739085779
 40
1.0
 40
1.0
 40
1.0
 40
1.0
 10
-0.4678138622
 20
29.0914176251
 30
0.0
 10
-0.470602312
 20
29.0905977973
 30
0.0
 10
-0.4760811165
 20
29.0884941136
 30
0.0
 10
-0.4837106166
 20
29.0840543575
 30
0.0
 10
-0.4905860564
 20
29.0784191504
 30
0.0
 10
-0.4965060211
 20
29.0717292916
 30
0.0
 10
-0.5012989128
 20
29.0641552185
 30
0.0
 10
-0.5048253108
 20
29.0558935218
 30
0.0
 10
-0.5069836058
 20
29.0471648843
 30
0.0
 10
-0.5074681631
 20
29.0411813119
 30
0.0
 10
-0.5074681631
 20
29.0381943716
 30
0.0
  0
SPLINE
  5
3E5
100
AcDbEntity
  8
0
100
AcDbSpline
 62
7
  6
CONTINUOUS
 70
0
 71
3
 72
15
 73
11
 74
0
 42
0.0000001
 43
0.0000001
 44
0.0000000001
 40
0.0
 40
0.0
 40
0.0
 40
0.0
 40
0.1226250873
 40
0.2463868319
 40
0.3710092278
 40
0.4962495058
 40
0.621905547
 40
0.7478190982
 40
0.8738767019
 40
1.0
 40
1.0
 40
1.0
 40
1.0
 10
9.5329640892
 20
29.0916220538
 30
0.0
 10
9.5357911174
 20
29.0908330646
 30
0.0
 10
9.5413519985
 20
29.088779316
 30
0.0
 10
9.5491084537
 20
29.0843801912
 30
0.0
 10
9.5561085583
 20
29.0787519305
 30
0.0
 10
9.5621427769
 20
29.0720377254
 30
0.0
 10
9.5670324622
 20
29.0644121697
 30
0.0
 10
9.570632551
 20
29.056077433
 30
0.0
 10
9.5728368668
 20
29.0472607569
 30
0.0
 10
9.5733318369
 20
29.0412131648
 30
0.0
 10
9.5733318369
 20
29.0381943716
 30
0.0
  0
SPLINE
  5
3E6
100
AcDbEntity
  8
0
100
AcDbSpline
 62
3
  6
CONTINUOUS
 70
0
 71
3
 72
15
 73
11
 74
0
 42
0.0000001
 43
0.0000001
 44
0.0000000001
 40
0.0
 40
0.0
 40
0.0
 40
0.0
 40
0.1230857266
 40
0.2464428709
 40
0.3703018363
 40
0.4948370062
 40
0.6201301646
 40
0.7461682186
 40
0.872853216
 40
1.0
 40
1.0
 40
1.0
 40
1.0
 10
-0.5470681631
 20
32.2221863327
 30
0.0
 10
-0.5470681631
 20
32.2272925802
 30
0.0
 10
-0.5461256401
 20
32.2375409795
 30
0.0
 10
-0.5419310161
 20
32.2524041279
 30
0.0
 10
-0.5350889224
 20
32.2663209076
 30
0.0
 10
-0.5258167777
 20
32.2788482284
 30
0.0
 10
-0.5144083126
 20
32.2895967661
 30
0.0
 10
-0.5012210889
 20
32.2982322157
 30
0.0
 10
-0.4866744456
 20
32.3044864053
 30
0.0
 10
-0.4763707508
 20
32.306938926
 30
0.0
 10
-0.4711538441
 20
32.3077177537
 30
0.0
  0
SPLINE
  5
3E7
100
AcDbEntity
  8
0
100
AcDbSpline
 62
3
  6
CONTINUOUS
 70
0
 71
3
 72
15
 73
11
 74
0
 42
0.0000001
 43
0.0000001
 44
0.0000000001
 40
0.0
 40
0.0
 40
0.0
 40
0.0
 40
0.1230857266
 40
0.2464428709
 40
0.3703018363
 40
0.4948370062
 40
0.6201301646
 40
0.7461682186
 40
0.872853216
 40
1.0
 40
1.0
 40
1.0
 40
1.0
 10
9.6129318369
 20
32.2221863327
 30
0.0
 10
9.6129318369
 20
32.2272925802
 30
0.0
 10
9.6119893139
 20
32.2375409795
 30
0.0
 10
9.6077946898
 20
32.2524041279
 30
0.0
 10
9.6009525961
 20
32.2663209076
 30
0.0
 10
9.5916804514
 20
32.2788482284
 30
0.0
 10
9.5802719863
 20
32.2895967661
 30
0.0
 10
9.5670847627
 20
32.2982322157
 30
0.0
 10
9.5525381193
 20
32.3044864053
 30
0.0
 10
9.5422344245
 20
32.306938926
 30
0.0
 10
9.5370175178
 20
32.3077177537
 30
0.0
  0
SPLINE
  5
3E8
100
AcDbEntity
  8
0
100
AcDbSpline
 62
3
  6
CONTINUOUS
 70
0
 71
3
 72
13
 73
9
 74
0
 42
0.0000001
 43
0.0000001
 44
0.0000000001
 40
0.0
 40
0.0
 40
0.0
 40
0.0
 40
0.1103600025
 40
0.2262332733
 40
0.3470876829
 40
0.4722549722
 40
0.7324408312
 40
1.0
 40
1.0
 40
1.0
 40
1.0
 10
9.5471223619
 20
28.9956819956
 30
0.0
 10
9.5449893376
 20
28.9976157222
 30
0.0
 10
9.5405150943
 20
29.0014683911
 30
0.0
 10
9.5334212453
 20
29.0070985629
 30
0.0
 10
9.52584018
 20
29.0127277353
 30
0.0
 10
9.5150415233
 20
29.0203313239
 30
0.0
 10
9.5008340423
 20
29.0297318644
 30
0.0
 10
9.4892199947
 20
29.0371253459
 30
0.0
 10
9.4833318369
 20
29.0408738636
 30
0.0
  0
SPLINE
  5
3E9
100
AcDbEntity
  8
0
100
AcDbSpline
 62
3
  6
CONTINUOUS
 70
0
 71
3
 72
15
 73
11
 74
0
 42
0.0000001
 43
0.0000001
 44
0.0000000001
 40
0.0
 40
0.0
 40
0.0
 40
0.0
 40
0.1520468337
 40
0.2953478734
 40
0.4298946663
 40
0.5560708523
 40
0.6746607236
 40
0.7869467764
 40
0.8946716743
 40
1.0
 40
1.0
 40
1.0
 40
1.0
 10
9.5471223619
 20
28.9956819956
 30
0.0
 10
9.5491070426
 20
28.9938827521
 30
0.0
 10
9.5528801747
 20
28.9902951097
 30
0.0
 10
9.5580528266
 20
28.9847551424
 30
0.0
 10
9.5625252298
 20
28.9792076386
 30
0.0
 10
9.5662565364
 20
28.973651121
 30
0.0
 10
9.5692065843
 20
28.968080023
 30
0.0
 10
9.5713450467
 20
28.9624924769
 30
0.0
 10
9.5726403643
 20
28.9568892329
 30
0.0
 10
9.5729318369
 20
28.9531295992
 30
0.0
 10
9.5729318369
 20
28.9512738636
 30
0.0
  0
SPLINE
  5
3EA
100
AcDbEntity
  8
0
100
AcDbSpline
 62
3
  6
CONTINUOUS
 70
0
 71
3
 72
15
 73
11
 74
0
 42
0.0000001
 43
0.0000001
 44
0.0000000001
 40
0.0
 40
0.0
 40
0.0
 40
0.0
 40
0.1520468337
 40
0.2953478734
 40
0.4298946663
 40
0.5560708523
 40
0.6746607236
 40
0.7869467764
 40
0.8946716743
 40
1.0
 40
1.0
 40
1.0
 40
1.0
 10
-0.4812586881
 20
28.9956819956
 30
0.0
 10
-0.4832433689
 20
28.9938827521
 30
0.0
 10
-0.487016501
 20
28.9902951097
 30
0.0
 10
-0.4921891528
 20
28.9847551424
 30
0.0
 10
-0.496661556
 20
28.9792076386
 30
0.0
 10
-0.5003928627
 20
28.973651121
 30
0.0
 10
-0.5033429105
 20
28.968080023
 30
0.0
 10
-0.505481373
 20
28.9624924769
 30
0.0
 10
-0.5067766905
 20
28.9568892329
 30
0.0
 10
-0.5070681631
 20
28.9531295992
 30
0.0
 10
-0.5070681631
 20
28.9512738636
 30
0.0
  0
SPLINE
  5
3EB
100
AcDbEntity
  8
0
100
AcDbSpline
 62
3
  6
CONTINUOUS
 70
0
 71
3
 72
13
 73
9
 74
0
 42
0.0000001
 43
0.0000001
 44
0.0000000001
 40
0.0
 40
0.0
 40
0.0
 40
0.0
 40
0.2675591688
 40
0.5277450278
 40
0.6529123171
 40
0.7737667267
 40
0.8896399975
 40
1.0
 40
1.0
 40
1.0
 40
1.0
 10
-0.4174681631
 20
29.0408738636
 30
0.0
 10
-0.423356321
 20
29.0371253459
 30
0.0
 10
-0.4349703685
 20
29.0297318644
 30
0.0
 10
-0.4491778495
 20
29.0203313239
 30
0.0
 10
-0.4599765062
 20
29.0127277353
 30
0.0
 10
-0.4675575715
 20
29.0070985629
 30
0.0
 10
-0.4746514206
 20
29.0014683911
 30
0.0
 10
-0.4791256638
 20
28.9976157222
 30
0.0
 10
-0.4812586881
 20
28.9956819956
 30
0.0
  0
SPLINE
  5
3EC
100
AcDbEntity
  8
0
100
AcDbSpline
 62
3
  6
CONTINUOUS
 70
0
 71
3
 72
15
 73
11
 74
0
 42
0.0000001
 43
0.0000001
 44
0.0000000001
 40
0.0
 40
0.0
 40
0.0
 40
0.0
 40
0.1251161813
 40
0.2502686553
 40
0.3753978727
 40
0.5004634984
 40
0.6254472216
 40
0.7503519727
 40
0.8751925081
 40
1.0
 40
1.0
 40
1.0
 40
1.0
 10
9.5735269159
 20
29.1141644901
 30
0.0
 10
9.5765448862
 20
29.1120144337
 30
0.0
 10
9.5823357774
 20
29.107355689
 30
0.0
 10
9.5901371046
 20
29.0993998421
 30
0.0
 10
9.5969485226
 20
29.0905812689
 30
0.0
 10
9.6026642025
 20
29.0810220225
 30
0.0
 10
9.6072020248
 20
29.0708578058
 30
0.0
 10
9.6104922895
 20
29.0602303145
 30
0.0
 10
9.6124858748
 20
29.0492921421
 30
0.0
 10
9.6129318369
 20
29.0418907505
 30
0.0
 10
9.6129318369
 20
29.0381943716
 30
0.0
  0
SPLINE
  5
3ED
100
AcDbEntity
  8
0
100
AcDbSpline
 62
3
  6
CONTINUOUS
 70
0
 71
3
 72
15
 73
11
 74
0
 42
0.0000001
 43
0.0000001
 44
0.0000000001
 40
0.0
 40
0.0
 40
0.0
 40
0.0
 40
0.1251161813
 40
0.2502686553
 40
0.3753978727
 40
0.5004634984
 40
0.6254472216
 40
0.7503519727
 40
0.8751925081
 40
1.0
 40
1.0
 40
1.0
 40
1.0
 10
-0.5076632421
 20
29.1141644901
 30
0.0
 10
-0.5106812124
 20
29.1120144337
 30
0.0
 10
-0.5164721037
 20
29.107355689
 30
0.0
 10
-0.5242734309
 20
29.0993998421
 30
0.0
 10
-0.5310848488
 20
29.0905812689
 30
0.0
 10
-0.5368005288
 20
29.0810220225
 30
0.0
 10
-0.541338351
 20
29.0708578058
 30
0.0
 10
-0.5446286158
 20
29.0602303145
 30
0.0
 10
-0.546622201
 20
29.0492921421
 30
0.0
 10
-0.5470681631
 20
29.0418907505
 30
0.0
 10
-0.5470681631
 20
29.0381943716
 30
0.0
  0
LINE
  5
3EE
100
AcDbEntity
  8
0
100
AcDbLine
 62
7
  6
CONTINUOUS
 10
30.0673172843
 20
27.6508850339
 11
30.0777156606
 21
27.6688815272
  0
LINE
  5
3EF
100
AcDbEntity
  8
0
100
AcDbLine
 62
7
  6
CONTINUOUS
 10
30.1567542845
 20
27.4958548551
 11
30.177538893
 21
27.4958478438
  0
LINE
  5
3F0
100
AcDbEntity
  8
0
100
AcDbLine
 62
7
  6
CONTINUOUS
 10
29.8883387111
 20
27.6509454091
 11
29.8779524788
 21
27.6689489138
  0
LINE
  5
3F1
100
AcDbEntity
  8
0
100
AcDbLine
 62
7
  6
CONTINUOUS
 10
29.798797138
 20
27.4959756056
 11
29.7780125295
 21
27.4959826169
  0
LINE
  5
3F2
100
AcDbEntity
  8
0
100
AcDbLine
 62
7
  6
CONTINUOUS
 10
29.8882341381
 20
27.3409454268
 11
29.8778357619
 21
27.3229489334
  0
LINE
  5
3F3
100
AcDbEntity
  8
0
100
AcDbLine
 62
7
  6
CONTINUOUS
 10
30.0672127114
 20
27.3408850515
 11
30.0775989436
 21
27.3228815469
  0
LINE
  5
3F4
100
AcDbEntity
  8
0
100
AcDbLine
 62
7
  6
CONTINUOUS
 10
19.4423175591
 20
27.6508848752
 11
19.4527159672
 21
27.66888135
  0
LINE
  5
3F5
100
AcDbEntity
  8
0
100
AcDbLine
 62
7
  6
CONTINUOUS
 10
19.5317542844
 20
27.4958545378
 11
19.5525388929
 21
27.4958474896
  0
LINE
  5
3F6
100
AcDbEntity
  8
0
100
AcDbLine
 62
7
  6
CONTINUOUS
 10
19.2633389859
 20
27.6509455677
 11
19.2529527856
 21
27.6689490907
  0
LINE
  5
3F7
100
AcDbEntity
  8
0
100
AcDbLine
 62
7
  6
CONTINUOUS
 10
19.1737971381
 20
27.4959759228
 11
19.1530125296
 21
27.495982971
  0
LINE
  5
3F8
100
AcDbEntity
  8
0
100
AcDbLine
 62
7
  6
CONTINUOUS
 10
19.2632338634
 20
27.3409455855
 11
19.2528354552
 21
27.3229491106
  0
LINE
  5
3F9
100
AcDbEntity
  8
0
100
AcDbLine
 62
7
  6
CONTINUOUS
 10
19.4422124365
 20
27.340884893
 11
19.4525986369
 21
27.3228813699
  0
SPLINE
  5
3FA
100
AcDbEntity
  8
0
100
AcDbSpline
 62
7
  6
CONTINUOUS
 70
0
 71
3
 72
15
 73
11
 74
0
 42
0.0000001
 43
0.0000001
 44
0.0000000001
 40
0.0
 40
0.0
 40
0.0
 40
0.0
 40
0.1072074746
 40
0.2174158417
 40
0.3329638742
 40
0.4551370545
 40
0.5840981609
 40
0.7190276073
 40
0.8583526176
 40
1.0
 40
1.0
 40
1.0
 40
1.0
 10
31.1057312608
 20
28.327064373
 30
0.0
 10
31.1047614541
 20
28.3306837409
 30
0.0
 10
31.1021466785
 20
28.3378655852
 30
0.0
 10
31.0963890914
 20
28.348030445
 30
0.0
 10
31.088922671
 20
28.3576728195
 30
0.0
 10
31.0799469335
 20
28.3668507409
 30
0.0
 10
31.0696990761
 20
28.3756474651
 30
0.0
 10
31.0584549103
 20
28.3841527492
 30
0.0
 10
31.0465248066
 20
28.3924612578
 30
0.0
 10
31.0383605479
 20
28.3979189082
 30
0.0
 10
31.034244783
 20
28.4006703748
 30
0.0
  0
SPLINE
  5
3FB
100
AcDbEntity
  8
0
100
AcDbSpline
 62
7
  6
CONTINUOUS
 70
0
 71
3
 72
15
 73
11
 74
0
 42
0.0000001
 43
0.0000001
 44
0.0000000001
 40
0.0
 40
0.0
 40
0.0
 40
0.0
 40
0.1072074746
 40
0.2174158417
 40
0.3329638742
 40
0.4551370545
 40
0.5840981609
 40
0.7190276073
 40
0.8583526176
 40
1.0
 40
1.0
 40
1.0
 40
1.0
 10
31.1074349695
 20
28.3141234208
 30
0.0
 10
31.1074349695
 20
28.3103763754
 30
0.0
 10
31.1067680883
 20
28.3027624928
 30
0.0
 10
31.1038375455
 20
28.291453819
 30
0.0
 10
31.0991211674
 20
28.2802075486
 30
0.0
 10
31.0928266916
 20
28.2690192655
 30
0.0
 10
31.0852047812
 20
28.2578699417
 30
0.0
 10
31.0765450806
 20
28.2467442639
 30
0.0
 10
31.0671718855
 20
28.2356311228
 30
0.0
 10
31.0606983611
 20
28.2282463717
 30
0.0
 10
31.0574349695
 20
28.2245234208
 30
0.0
  0
SPLINE
  5
3FC
100
AcDbEntity
  8
0
100
AcDbSpline
 62
7
  6
CONTINUOUS
 70
0
 71
3
 72
11
 73
7
 74
0
 42
0.0000001
 43
0.0000001
 44
0.0000000001
 40
0.0
 40
0.0
 40
0.0
 40
0.0
 40
0.2386465925
 40
0.4858286644
 40
0.7402204382
 40
1.0
 40
1.0
 40
1.0
 40
1.0
 10
18.0919885184
 20
28.9956819956
 30
0.0
 10
18.0937334375
 20
28.9928859435
 30
0.0
 10
18.0974713917
 20
28.9873087378
 30
0.0
 10
18.1035782021
 20
28.9791068437
 30
0.0
 10
18.1101674597
 20
28.9709106135
 30
0.0
 10
18.1147551843
 20
28.9654899257
 30
0.0
 10
18.1170926882
 20
28.9627682063
 30
0.0
  0
SPLINE
  5
3FD
100
AcDbEntity
  8
0
100
AcDbSpline
 62
7
  6
CONTINUOUS
 70
0
 71
3
 72
11
 73
7
 74
0
 42
0.0000001
 43
0.0000001
 44
0.0000000001
 40
0.0
 40
0.0
 40
0.0
 40
0.0
 40
0.2353552619
 40
0.4774077246
 40
0.7313490326
 40
1.0
 40
1.0
 40
1.0
 40
1.0
 10
18.0771001368
 20
29.0408738636
 30
0.0
 10
18.0771001368
 20
29.0370937931
 30
0.0
 10
18.0777795079
 20
29.0294108626
 30
0.0
 10
18.0807621843
 20
29.0180021495
 30
0.0
 10
18.0855576233
 20
29.0066586916
 30
0.0
 10
18.0897041203
 20
28.9993425069
 30
0.0
 10
18.0919885184
 20
28.9956819956
 30
0.0
  0
SPLINE
  5
3FE
100
AcDbEntity
  8
0
100
AcDbSpline
 62
3
  6
CONTINUOUS
 70
0
 71
3
 72
9
 73
5
 74
0
 42
0.0000001
 43
0.0000001
 44
0.0000000001
 40
0.0
 40
0.0
 40
0.0
 40
0.0
 40
0.4452501931
 40
1.0
 40
1.0
 40
1.0
 40
1.0
 10
18.117372248
 20
29.1299395843
 30
0.0
 10
18.1169484086
 20
29.1293575356
 30
0.0
 10
18.1161947918
 20
29.1279086412
 30
0.0
 10
18.1156946469
 20
29.1263673199
 30
0.0
 10
18.1154588044
 20
29.1255017901
 30
0.0
  0
SPLINE
  5
3FF
100
AcDbEntity
  8
0
100
AcDbSpline
 62
3
  6
CONTINUOUS
 70
0
 71
3
 72
13
 73
9
 74
0
 42
0.0000001
 43
0.0000001
 44
0.0000000001
 40
0.0
 40
0.0
 40
0.0
 40
0.0
 40
0.0856351071
 40
0.1829767575
 40
0.291942489
 40
0.4123373038
 40
0.685917575
 40
1.0
 40
1.0
 40
1.0
 40
1.0
 10
18.1154588044
 20
29.1255017901
 30
0.0
 10
18.1152486476
 20
29.1247305257
 30
0.0
 10
18.1148726841
 20
29.1230625026
 30
0.0
 10
18.1144370703
 20
29.1203712434
 30
0.0
 10
18.1140909165
 20
29.1173403328
 30
0.0
 10
18.1137306928
 20
29.1126585424
 30
0.0
 10
18.1135194371
 20
29.106049454
 30
0.0
 10
18.1135494616
 20
29.1005630753
 30
0.0
 10
18.1136015491
 20
29.0976316515
 30
0.0
  0
SPLINE
  5
400
100
AcDbEntity
  8
0
100
AcDbSpline
 62
3
  6
CONTINUOUS
 70
0
 71
3
 72
10
 73
6
 74
0
 42
0.0000001
 43
0.0000001
 44
0.0000000001
 40
0.0
 40
0.0
 40
0.0
 40
0.0
 40
0.2347800678
 40
0.4825227055
 40
1.0
 40
1.0
 40
1.0
 40
1.0
 10
18.1140434416
 20
29.0843646733
 30
0.0
 10
18.1142098625
 20
29.0807471867
 30
0.0
 10
18.1146134538
 20
29.0733152964
 30
0.0
 10
18.1156165237
 20
29.0579235156
 30
0.0
 10
18.1165023203
 20
29.0461536652
 30
0.0
 10
18.1171001368
 20
29.0381943716
 30
0.0
  0
SPLINE
  5
401
100
AcDbEntity
  8
0
100
AcDbSpline
 62
3
  6
CONTINUOUS
 70
0
 71
3
 72
15
 73
11
 74
0
 42
0.0000001
 43
0.0000001
 44
0.0000000001
 40
0.0
 40
0.0
 40
0.0
 40
0.0
 40
0.0991643631
 40
0.2018287045
 40
0.3109646389
 40
0.4287152364
 40
0.5563355445
 40
0.6942917953
 40
0.8424094525
 40
1.0
 40
1.0
 40
1.0
 40
1.0
 10
31.1470349695
 20
28.3141234208
 30
0.0
 10
31.1470349695
 20
28.3117924526
 30
0.0
 10
31.1465701993
 20
28.3070367187
 30
0.0
 10
31.1445150084
 20
28.299984879
 30
0.0
 10
31.1411544667
 20
28.2929727878
 30
0.0
 10
31.13655783
 20
28.2859978225
 30
0.0
 10
31.130802245
 20
28.2790469492
 30
0.0
 10
31.1239741021
 20
28.2721101323
 30
0.0
 10
31.116172288
 20
28.2651809231
 30
0.0
 10
31.1105572013
 20
28.2606920723
 30
0.0
 10
31.1076199876
 20
28.2584348809
 30
0.0
  0
SPLINE
  5
402
100
AcDbEntity
  8
0
100
AcDbSpline
 62
3
  6
CONTINUOUS
 70
0
 71
3
 72
11
 73
7
 74
0
 42
0.0000001
 43
0.0000001
 44
0.0000000001
 40
0.0
 40
0.0
 40
0.0
 40
0.0
 40
0.2364100621
 40
0.4842941996
 40
0.7401189083
 40
1.0
 40
1.0
 40
1.0
 40
1.0
 10
31.1076199876
 20
28.2584348809
 30
0.0
 10
31.10383429
 20
28.2555256462
 30
0.0
 10
31.0959317386
 20
28.2497572586
 30
0.0
 10
31.0835740069
 20
28.2413463805
 30
0.0
 10
31.0706481116
 20
28.2329350023
 30
0.0
 10
31.0618623599
 20
28.2273419851
 30
0.0
 10
31.0574349695
 20
28.2245234208
 30
0.0
  0
SPLINE
  5
403
100
AcDbEntity
  8
0
100
AcDbSpline
 62
3
  6
CONTINUOUS
 70
0
 71
3
 72
15
 73
11
 74
0
 42
0.0000001
 43
0.0000001
 44
0.0000000001
 40
0.0
 40
0.0
 40
0.0
 40
0.0
 40
0.152514063
 40
0.2961899337
 40
0.4309797785
 40
0.557240242
 40
0.6757426951
 40
0.7877788066
 40
0.8951238761
 40
1.0
 40
1.0
 40
1.0
 40
1.0
 10
18.0641801167
 20
28.9956819956
 30
0.0
 10
18.0621327009
 20
28.9975127834
 30
0.0
 10
18.0582390288
 20
29.0011626949
 30
0.0
 10
18.0528958614
 20
29.0067994346
 30
0.0
 10
18.0482725632
 20
29.0124439088
 30
0.0
 10
18.0444127451
 20
29.0180976938
 30
0.0
 10
18.0413592359
 20
29.0237668306
 30
0.0
 10
18.0391444604
 20
29.029453484
 30
0.0
 10
18.0378023069
 20
29.0351571102
 30
0.0
 10
18.0375001368
 20
29.0389851817
 30
0.0
 10
18.0375001368
 20
29.0408738636
 30
0.0
  0
SPLINE
  5
404
100
AcDbEntity
  8
0
100
AcDbSpline
 62
3
  6
CONTINUOUS
 70
0
 71
3
 72
11
 73
7
 74
0
 42
0.0000001
 43
0.0000001
 44
0.0000000001
 40
0.0
 40
0.0
 40
0.0
 40
0.0
 40
0.2282242544
 40
0.4736632701
 40
0.7324725708
 40
1.0
 40
1.0
 40
1.0
 40
1.0
 10
18.0641801167
 20
28.9956819956
 30
0.0
 10
18.0678761428
 20
28.9923770297
 30
0.0
 10
18.0758349719
 20
28.985838676
 30
0.0
 10
18.0886754984
 20
28.9764323023
 30
0.0
 10
18.1025583053
 20
28.9670260819
 30
0.0
 10
18.1121610915
 20
28.9608175885
 30
0.0
 10
18.1170549353
 20
28.9576823148
 30
0.0
  0
SPLINE
  5
405
100
AcDbEntity
  8
0
100
AcDbSpline
 62
3
  6
CONTINUOUS
 70
0
 71
3
 72
15
 73
11
 74
0
 42
0.0000001
 43
0.0000001
 44
0.0000000001
 40
0.0
 40
0.0
 40
0.0
 40
0.0
 40
0.0991643631
 40
0.2018287045
 40
0.3109646389
 40
0.4287152364
 40
0.5563355445
 40
0.6942917953
 40
0.8424094525
 40
1.0
 40
1.0
 40
1.0
 40
1.0
 10
31.1439819235
 20
28.3373136072
 30
0.0
 10
31.1433786246
 20
28.3395651496
 30
0.0
 10
31.1416988165
 20
28.3440385444
 30
0.0
 10
31.1378885042
 20
28.3503181759
 30
0.0
 10
31.1328276074
 20
28.3562215637
 30
0.0
 10
31.1265823435
 20
28.3617691658
 30
0.0
 10
31.1192238569
 20
28.3669935388
 30
0.0
 10
31.1108329969
 20
28.3719267359
 30
0.0
 10
31.1015036119
 20
28.37660058
 30
0.0
 10
31.0949180545
 20
28.3794831855
 30
0.0
 10
31.0914967198
 20
28.3809032581
 30
0.0
  0
SPLINE
  5
406
100
AcDbEntity
  8
0
100
AcDbSpline
 62
3
  6
CONTINUOUS
 70
0
 71
3
 72
11
 73
7
 74
0
 42
0.0000001
 43
0.0000001
 44
0.0000000001
 40
0.0
 40
0.0
 40
0.0
 40
0.0
 40
0.2364100621
 40
0.4842941996
 40
0.7401189083
 40
1.0
 40
1.0
 40
1.0
 40
1.0
 10
31.0914967198
 20
28.3809032581
 30
0.0
 10
31.0870870514
 20
28.3827335525
 30
0.0
 10
31.0779608043
 20
28.3862600562
 30
0.0
 10
31.0638472568
 20
28.3911859242
 30
0.0
 10
31.0491847758
 20
28.3959652238
 30
0.0
 10
31.0392508119
 20
28.3990937437
 30
0.0
 10
31.034244783
 20
28.4006703748
 30
0.0
  0
ENDSEC
  0
SECTION
  2
OBJECTS
  0
DICTIONARY
  5
C
100
AcDbDictionary
280
0
281
1
  3
ACAD_GROUP
350
D
  3
ACAD_MLINESTYLE
350
17
  3
ACAD_LAYOUT
350
1A
  3
ACAD_PLOTSETTINGS
350
19
  3
ACAD_PLOTSTYLENAME
350
E
  0
DICTIONARY
  5
D
102
{ACAD_REACTORS
330
C
102
}
100
AcDbDictionary
280
0
281
1
  0
ACDBDICTIONARYWDFLT
  5
E
102
{ACAD_REACTORS
330
C
102
}
100
AcDbDictionary
281
1
  3
Normal
350
F
100
AcDbDictionaryWithDefault
340
F
  0
DICTIONARY
  5
17
102
{ACAD_REACTORS
330
C
102
}
100
AcDbDictionary
280
0
281
1
  3
Standard
350
18
  0
DICTIONARY
  5
19
102
{ACAD_REACTORS
330
C
102
}
100
AcDbDictionary
281
1
  0
DICTIONARY
  5
1A
102
{ACAD_REACTORS
330
C
102
}
100
AcDbDictionary
281
1
  3
Model
350
407
  3
Layout1
350
408
  0
ACDBPLACEHOLDER
  5
F
102
{ACAD_REACTORS
330
E
102
}
  0
MLINESTYLE
  5
18
102
{ACAD_REACTORS
330
17
102
}
100
AcDbMlineStyle
  2
STANDARD
 70
0
  3

 62
256
 51
90.0
 52
90.0
 71
2
 49
0.5
 62
256
  6
BYLAYER
 49
-0.5
 62
256
  6
BYLAYER
  0
LAYOUT
  5
407
102
{ACAD_REACTORS
330
1A
102
}
100
AcDbPlotSettings
  1

  2
none_device
  4

  6

 40
0.0
 41
0.0
 42
0.0
 43
0.0
 44
431.8
 45
279.4
 46
0.0
 47
0.0
 48
0.0
 49
0.0
140
0.0
141
0.0
142
1.0
143
1.0
 70
1024
 72
0
 73
0
 74
0
  7

 75
0
147
1.0
148
0.0
149
0.0
100
AcDbLayout
  1
Model
 70
0
 71
0
 10
0.0
 20
0.0
 11
17.0
 21
11.0
 12
0.0
 22
0.0
 32
0.0
 14
0.0
 24
0.0
 34
0.0
 15
0.0
 25
0.0
 35
0.0
146
0.0
 13
0.0
 23
0.0
 33
0.0
 16
1.0
 26
0.0
 36
0.0
 17
0.0
 27
1.0
 37
0.0
 76
0
330
223
345
0
346
0
  0
LAYOUT
  5
408
102
{ACAD_REACTORS
330
1A
102
}
100
AcDbPlotSettings
  1

  2
none_device
  4

  6

 40
0.0
 41
0.0
 42
0.0
 43
0.0
 44
431.8
 45
279.4
 46
0.0
 47
0.0
 48
0.0
 49
0.0
140
0.0
141
0.0
142
1.0
143
1.0
 70
0
 72
0
 73
0
 74
0
  7

 75
0
147
1.0
148
0.0
149
0.0
100
AcDbLayout
  1
Layout1
 70
0
 71
1
 10
0.0
 20
0.0
 11
17.0
 21
11.0
 12
0.0
 22
0.0
 32
0.0
 14
0.0
 24
0.0
 34
0.0
 15
0.0
 25
0.0
 35
0.0
146
0.0
 13
0.0
 23
0.0
 33
0.0
 16
1.0
 26
0.0
 36
0.0
 17
0.0
 27
1.0
 37
0.0
 76
0
330
224
345
0
346
0
  0
ENDSEC
  0
EOF
